999
DXF file: Y:\3D PRATIKA-KAEDRA_OLGA\TRAVAIL_PHASE_6\CAD3D\PKF16W734_3D-Simplified\PKF16W734_2D-isometric.dxf
999
Pro/ENGINEER 2018260 by Parametric Technology Corporation
  0
SECTION
  2
HEADER
  9
$ACADVER
  1
AC1027
  9
$DWGCODEPAGE
  3
ANSI_1252
  9
$EXTMAX
 10
558.8
 20
431.8
 30
0.0
  9
$EXTMIN
 10
0.0
 20
0.0
 30
0.0
  9
$LIMMIN
 10
0.0
 20
0.0
  9
$LIMMAX
 10
558.8
 20
431.8
  9
$VIEWCTR
 10
279.4
 20
215.9
  9
$VIEWSIZE
 40
431.8
  9
$CLAYER
  8
0
  9
$LTSCALE
 40
30.734
  9
$CELTYPE
  6
BYLAYER
  9
$DIMSCALE
 40
1.0
  9
$DIMASZ
 40
0.1875
  9
$DIMEXO
 40
0.0625
  9
$DIMDLI
 40
21.2344
  9
$DIMEXE
 40
0.125
  9
$DIMCEN
 40
5.0292
  9
$DIMLFAC
 40
1.0
  9
$DIMBLK
  1
_CLOSED
  9
$DIMALT
 70
0
  9
$DIMALTF
 40
0.0393700787
  9
$DIMTXT
 40
0.15625
  9
$DIMTOL
 70
0
  9
$DIMLIM
 70
0
  9
$DIMTFAC
 40
1.0
  9
$DIMGAP
 40
0.625
  9
$DIMDSEP
 70
46
  9
$AUNITS
 70
0
  9
$PDMODE
 70
3
  9
$PDSIZE
 40
0.3125
  9
$HANDSEED
  5
508
  9
$TILEMODE
 70
1
  9
$MEASUREMENT
 70
1
  9
$INSUNITS
 70
4
  0
ENDSEC
  0
SECTION
  2
CLASSES
  0
CLASS
  1
ACDBDICTIONARYWDFLT
  2
AcDbDictionaryWithDefault
  3
AutoCAD 2000
 90
0
 91
1
280
0
281
0
  0
CLASS
  1
ACDBPLACEHOLDER
  2
AcDbPlaceHolder
  3
AutoCAD 2000
 90
0
 91
1
280
0
281
0
  0
CLASS
  1
LAYOUT
  2
AcDbLayout
  3
AutoCAD 2000
 90
0
 91
0
280
0
281
0
  0
ENDSEC
  0
SECTION
  2
TABLES
  0
TABLE
  2
VPORT
  5
8
100
AcDbSymbolTable
 70
2
  0
VPORT
  5
1F4
100
AcDbSymbolTableRecord
100
AcDbViewportTableRecord
  2
*ACTIVE
 70
0
 10
0.0
 20
0.0
 11
1.0
 21
1.0
 12
279.4
 22
215.9
 13
0.0
 23
0.0
 14
1.0
 24
1.0
 15
0.0
 25
0.0
 16
0.0
 26
0.0
 36
1.0
 17
0.0
 27
0.0
 37
0.0
 40
431.8
 41
1.2941176471
 42
50.0
 43
0.0
 44
0.0
 50
0.0
 51
0.0
 71
0
 72
100
 73
1
 74
1
 75
0
 76
0
 77
0
 78
0
  0
ENDTAB
  0
TABLE
  2
LTYPE
  5
5
100
AcDbSymbolTable
 70
6
  0
LTYPE
  5
14
100
AcDbSymbolTableRecord
100
AcDbLinetypeTableRecord
  2
BYBLOCK
 70
0
  3

 72
65
 73
0
 40
0.0
  0
LTYPE
  5
15
100
AcDbSymbolTableRecord
100
AcDbLinetypeTableRecord
  2
BYLAYER
 70
0
  3

 72
65
 73
0
 40
0.0
  0
LTYPE
  5
16
100
AcDbSymbolTableRecord
100
AcDbLinetypeTableRecord
  2
CONTINUOUS
 70
64
  3
Solid line
 72
65
 73
0
 40
0.0
  0
LTYPE
  5
1F5
100
AcDbSymbolTableRecord
100
AcDbLinetypeTableRecord
  2
CENTER
 70
64
  3
____ _ ____ _ ____ _ ____ _ ____ _ ____ _ ____
 72
65
 73
4
 40
0.6
 49
0.375
 74
0
 49
-0.075
 74
0
 49
0.075
 74
0
 49
-0.075
 74
0
  0
LTYPE
  5
1F6
100
AcDbSymbolTableRecord
100
AcDbLinetypeTableRecord
  2
HIDDEN
 70
64
  3
- - - - - - - - - - - - - - - - - - - -
 72
65
 73
2
 40
0.2
 49
0.1
 74
0
 49
-0.1
 74
0
  0
LTYPE
  5
1F7
100
AcDbSymbolTableRecord
100
AcDbLinetypeTableRecord
  2
PHANTOM
 70
64
  3
_____ _ _ _____ _ _ _____ _ _ _____
 72
65
 73
6
 40
0.8
 49
0.45
 74
0
 49
-0.05
 74
0
 49
0.1
 74
0
 49
-0.05
 74
0
 49
0.1
 74
0
 49
-0.05
 74
0
  0
LTYPE
  5
1F8
100
AcDbSymbolTableRecord
100
AcDbLinetypeTableRecord
  2
DOT
 70
64
  3
. . . . . . . . . . . . . . . . . . . .
 72
65
 73
2
 40
0.2
 49
0.1
 74
0
 49
-0.1
 74
0
  0
LTYPE
  5
1F9
100
AcDbSymbolTableRecord
100
AcDbLinetypeTableRecord
  2
DASHED
 70
64
  3
- - - - - - - - - - - - - - - - - - - -
 72
65
 73
2
 40
0.2
 49
0.1
 74
0
 49
-0.1
 74
0
  0
ENDTAB
  0
TABLE
  2
LAYER
  5
2
100
AcDbSymbolTable
 70
36
  0
LAYER
  5
10
100
AcDbSymbolTableRecord
100
AcDbLayerTableRecord
  2
0
 70
0
 62
7
  6
CONTINUOUS
370
-3
390
F
  0
LAYER
  5
1FA
100
AcDbSymbolTableRecord
100
AcDbLayerTableRecord
  2
DEFAULT_1
 70
0
 62
7
  6
CENTER
370
-3
390
F
  0
LAYER
  5
1FB
100
AcDbSymbolTableRecord
100
AcDbLayerTableRecord
  2
DEFAULT_2
 70
0
 62
8
  6
HIDDEN
370
-3
390
F
  0
LAYER
  5
1FC
100
AcDbSymbolTableRecord
100
AcDbLayerTableRecord
  2
DEFAULT_3
 70
0
 62
7
  6
PHANTOM
370
-3
390
F
  0
LAYER
  5
1FD
100
AcDbSymbolTableRecord
100
AcDbLayerTableRecord
  2
01_ALL_DTM_PLN
 70
0
 62
7
  6
CONTINUOUS
370
-3
390
F
  0
LAYER
  5
1FE
100
AcDbSymbolTableRecord
100
AcDbLayerTableRecord
  2
01__ASM_ALL_DTM_PLN
 70
0
 62
7
  6
CONTINUOUS
370
-3
390
F
  0
LAYER
  5
1FF
100
AcDbSymbolTableRecord
100
AcDbLayerTableRecord
  2
01__ASM_DEF_DTM_PLN
 70
0
 62
7
  6
CONTINUOUS
370
-3
390
F
  0
LAYER
  5
200
100
AcDbSymbolTableRecord
100
AcDbLayerTableRecord
  2
01___PRT_ALL_DTM_PLN
 70
0
 62
7
  6
CONTINUOUS
370
-3
390
F
  0
LAYER
  5
201
100
AcDbSymbolTableRecord
100
AcDbLayerTableRecord
  2
01___PRT_DEF_DTM_PLN
 70
0
 62
7
  6
CONTINUOUS
370
-3
390
F
  0
LAYER
  5
202
100
AcDbSymbolTableRecord
100
AcDbLayerTableRecord
  2
02_ALL_AXES
 70
0
 62
7
  6
CONTINUOUS
370
-3
390
F
  0
LAYER
  5
203
100
AcDbSymbolTableRecord
100
AcDbLayerTableRecord
  2
02__ASM_ALL_AXES
 70
0
 62
7
  6
CONTINUOUS
370
-3
390
F
  0
LAYER
  5
204
100
AcDbSymbolTableRecord
100
AcDbLayerTableRecord
  2
02___PRT_ALL_AXES
 70
0
 62
7
  6
CONTINUOUS
370
-3
390
F
  0
LAYER
  5
205
100
AcDbSymbolTableRecord
100
AcDbLayerTableRecord
  2
03_ALL_CURVES
 70
0
 62
7
  6
CONTINUOUS
370
-3
390
F
  0
LAYER
  5
206
100
AcDbSymbolTableRecord
100
AcDbLayerTableRecord
  2
03__ASM_ALL_CURVES
 70
0
 62
7
  6
CONTINUOUS
370
-3
390
F
  0
LAYER
  5
207
100
AcDbSymbolTableRecord
100
AcDbLayerTableRecord
  2
03___PRT_ALL_CURVES
 70
0
 62
7
  6
CONTINUOUS
370
-3
390
F
  0
LAYER
  5
208
100
AcDbSymbolTableRecord
100
AcDbLayerTableRecord
  2
04_ALL_DTM_PNT
 70
0
 62
7
  6
CONTINUOUS
370
-3
390
F
  0
LAYER
  5
209
100
AcDbSymbolTableRecord
100
AcDbLayerTableRecord
  2
04__ASM_ALL_DTM_PNT
 70
0
 62
7
  6
CONTINUOUS
370
-3
390
F
  0
LAYER
  5
20A
100
AcDbSymbolTableRecord
100
AcDbLayerTableRecord
  2
04___PRT_ALL_DTM_PNT
 70
0
 62
7
  6
CONTINUOUS
370
-3
390
F
  0
LAYER
  5
20B
100
AcDbSymbolTableRecord
100
AcDbLayerTableRecord
  2
05_ALL_DTM_CSYS
 70
0
 62
7
  6
CONTINUOUS
370
-3
390
F
  0
LAYER
  5
20C
100
AcDbSymbolTableRecord
100
AcDbLayerTableRecord
  2
05__ASM_ALL_DTM_CSYS
 70
0
 62
7
  6
CONTINUOUS
370
-3
390
F
  0
LAYER
  5
20D
100
AcDbSymbolTableRecord
100
AcDbLayerTableRecord
  2
05__ASM_DEF_DTM_CSYS
 70
0
 62
7
  6
CONTINUOUS
370
-3
390
F
  0
LAYER
  5
20E
100
AcDbSymbolTableRecord
100
AcDbLayerTableRecord
  2
05___PRT_ALL_DTM_CSYS
 70
0
 62
7
  6
CONTINUOUS
370
-3
390
F
  0
LAYER
  5
20F
100
AcDbSymbolTableRecord
100
AcDbLayerTableRecord
  2
05___PRT_DEF_DTM_CSYS
 70
0
 62
7
  6
CONTINUOUS
370
-3
390
F
  0
LAYER
  5
210
100
AcDbSymbolTableRecord
100
AcDbLayerTableRecord
  2
06_ALL_SURFS
 70
0
 62
7
  6
CONTINUOUS
370
-3
390
F
  0
LAYER
  5
211
100
AcDbSymbolTableRecord
100
AcDbLayerTableRecord
  2
06__ASM_ALL_SURFS
 70
0
 62
7
  6
CONTINUOUS
370
-3
390
F
  0
LAYER
  5
212
100
AcDbSymbolTableRecord
100
AcDbLayerTableRecord
  2
06___PRT_ALL_SURFS
 70
0
 62
7
  6
CONTINUOUS
370
-3
390
F
  0
LAYER
  5
213
100
AcDbSymbolTableRecord
100
AcDbLayerTableRecord
  2
07__ASM_ALL_SKELETONS
 70
0
 62
7
  6
CONTINUOUS
370
-3
390
F
  0
ENDTAB
  0
TABLE
  2
STYLE
  5
3
100
AcDbSymbolTable
 70
1
  0
STYLE
  5
11
100
AcDbSymbolTableRecord
100
AcDbTextStyleTableRecord
  2
STANDARD
 70
0
 40
0.0
 41
0.8
 50
0.0
 71
0
 42
0.2
  3
txt
  4

  0
STYLE
  5
214
100
AcDbSymbolTableRecord
100
AcDbTextStyleTableRecord
  2
TEXTSTYLE_1
 70
0
 40
0.0
 41
0.8
 50
0.0
 71
0
 42
0.2
  3
gdt
  4

  0
ENDTAB
  0
TABLE
  2
VIEW
  5
6
100
AcDbSymbolTable
 70
0
  0
ENDTAB
  0
TABLE
  2
UCS
  5
7
100
AcDbSymbolTable
 70
0
  0
ENDTAB
  0
TABLE
  2
APPID
  5
9
100
AcDbSymbolTable
 70
1
  0
APPID
  5
215
100
AcDbSymbolTableRecord
100
AcDbRegAppTableRecord
  2
ACAD
 70
0
  0
ENDTAB
  0
TABLE
  2
BLOCK_RECORD
  5
1
100
AcDbSymbolTable
 70
0
  0
BLOCK_RECORD
  5
216
100
AcDbSymbolTableRecord
100
AcDbBlockTableRecord
  2
*Model_Space
  0
BLOCK_RECORD
  5
217
100
AcDbSymbolTableRecord
100
AcDbBlockTableRecord
  2
*Paper_Space
  0
BLOCK_RECORD
  5
218
100
AcDbSymbolTableRecord
100
AcDbBlockTableRecord
  2
_CLOSED
  0
ENDTAB
  0
TABLE
  2
DIMSTYLE
  5
A
100
AcDbSymbolTable
 70
1
100
AcDbDimStyleTable
 71
0
  0
DIMSTYLE
105
219
100
AcDbSymbolTableRecord
100
AcDbDimStyleTableRecord
  2
STANDARD
 70
0
  3

  4

 40
1.0
 41
0.1875
 42
0.0625
 43
0.38
 44
0.125
 45
0.0
 46
0.0
 47
0.01
 48
0.01
140
0.15625
141
0.09
142
0.0
143
25.4
144
1.0
145
0.0
146
1.0
147
0.625
 71
0.0
 72
0.0
 73
1
 74
1
 75
0
 76
0
 77
0
 78
8
 79
2
170
0
171
1
172
0
173
0
174
0
175
0
176
0
177
0
178
0
270
2
179
2
271
2
272
2
273
2
274
2
275
0
280
0
281
0
282
0
283
1
284
8
285
0
286
0
287
3
288
0
340
11
278
46
341
218
342
218
343
218
344
218
  0
ENDTAB
  0
ENDSEC
  0
SECTION
  2
BLOCKS
  0
BLOCK
  5
20
100
AcDbEntity
  8
0
100
AcDbBlockBegin
  2
*Model_Space
 70
0
 10
0.0
 20
0.0
 30
0.0
  3
*Model_Space
  1

  0
ENDBLK
  5
21
100
AcDbEntity
  8
0
100
AcDbBlockEnd
  0
BLOCK
  5
1C
100
AcDbEntity
  8
0
100
AcDbBlockBegin
  2
*Paper_Space
 70
0
 10
0.0
 20
0.0
 30
0.0
  3
*Paper_Space
  1

  0
ENDBLK
  5
1D
100
AcDbEntity
  8
0
100
AcDbBlockEnd
  0
BLOCK
  5
21A
100
AcDbEntity
  8
0
100
AcDbBlockBegin
  2
_CLOSED
 70
64
 10
0.0
 20
0.0
  3
_CLOSED
  1

  0
LINE
  5
21B
100
AcDbEntity
  8
0
  6
BYBLOCK
 62
0
100
AcDbLine
 10
0.0
 20
0.0
 11
-1.0
 21
0.1666666667
  0
LINE
  5
21C
100
AcDbEntity
  8
0
  6
BYBLOCK
 62
0
100
AcDbLine
 10
-1.0
 20
0.1666666667
 11
-1.0
 21
-0.1666666667
  0
LINE
  5
21D
100
AcDbEntity
  8
0
  6
BYBLOCK
 62
0
100
AcDbLine
 10
-1.0
 20
-0.1666666667
 11
0.0
 21
0.0
  0
LINE
  5
21E
100
AcDbEntity
  8
0
  6
BYBLOCK
 62
0
100
AcDbLine
 10
-1.0
 20
0.0
 11
0.0
 21
0.0
  0
ENDBLK
  5
21F
100
AcDbEntity
  8
0
  6
BYBLOCK
 62
0
100
AcDbBlockEnd
  0
ENDSEC
  0
SECTION
  2
ENTITIES
  0
LINE
  5
220
100
AcDbEntity
  8
0
100
AcDbLine
 62
7
  6
CONTINUOUS
 10
27.0605503023
 20
186.2444702157
 11
76.4005043448
 21
199.4703154119
  0
LINE
  5
221
100
AcDbEntity
  8
0
100
AcDbLine
 62
7
  6
CONTINUOUS
 10
41.3135251009
 20
196.74669836
 11
61.5021242473
 21
202.1583630488
  0
LINE
  5
222
100
AcDbEntity
  8
0
100
AcDbLine
 62
7
  6
CONTINUOUS
 10
36.2023973015
 20
195.7761289797
 11
40.3346288507
 21
196.8837963022
  0
LINE
  5
223
100
AcDbEntity
  8
0
100
AcDbLine
 62
7
  6
CONTINUOUS
 10
34.1579132576
 20
195.6855010985
 11
27.0605503023
 21
193.7830140458
  0
LWPOLYLINE
  5
224
100
AcDbEntity
  8
0
100
AcDbPolyline
 62
7
  6
CONTINUOUS
 90
4
 70
0
 10
47.190146709
 20
282.8895119079
 10
47.1050553335
 20
282.863441861
 10
46.3184575853
 20
282.0790762873
 10
45.8855564359
 20
280.8739867919
  0
LINE
  5
225
100
AcDbEntity
  8
0
100
AcDbLine
 62
7
  6
CONTINUOUS
 10
54.5446877394
 20
204.6642910026
 11
61.308167195
 21
206.4772787527
  0
LINE
  5
226
100
AcDbEntity
  8
0
100
AcDbLine
 62
7
  6
CONTINUOUS
 10
30.1336223811
 20
205.3790612715
 11
35.5055233924
 21
206.81902879
  0
LWPOLYLINE
  5
227
100
AcDbEntity
  8
0
100
AcDbPolyline
 62
7
  6
CONTINUOUS
 90
5
 70
0
 10
44.926074382
 20
271.4658692406
 10
44.2282338866
 20
271.2000893358
 10
43.1647157329
 20
270.2688629854
 10
42.5309692409
 20
268.7104355823
 10
42.4074280847
 20
267.4566598415
  0
LINE
  5
228
100
AcDbEntity
  8
0
100
AcDbLine
 62
7
  6
CONTINUOUS
 10
15.3596704356
 20
212.3882610823
 11
15.6076043284
 21
212.4547211216
  0
LINE
  5
229
100
AcDbEntity
  8
0
100
AcDbLine
 62
7
  6
CONTINUOUS
 10
10.6966578182
 20
215.0815305699
 11
10.9445917111
 21
215.1479906092
  0
LINE
  5
22A
100
AcDbEntity
  8
0
100
AcDbLine
 62
7
  6
CONTINUOUS
 10
6.0336452009
 20
217.7748000576
 11
6.2815790937
 21
217.8412600969
  0
LINE
  5
22B
100
AcDbEntity
  8
0
100
AcDbLine
 62
7
  6
CONTINUOUS
 10
36.7171571532
 20
198.3831655289
 11
36.6985811238
 21
198.3826075829
  0
LINE
  5
22C
100
AcDbEntity
  8
0
100
AcDbLine
 62
7
  6
CONTINUOUS
 10
-10.0158145269
 20
242.9266029039
 11
10.8377445612
 21
252.7712803119
  0
LINE
  5
22D
100
AcDbEntity
  8
0
100
AcDbLine
 62
7
  6
CONTINUOUS
 10
28.4473132229
 20
253.1250847473
 11
28.1699160035
 21
252.9973517732
  0
LINE
  5
22E
100
AcDbEntity
  8
0
100
AcDbLine
 62
7
  6
CONTINUOUS
 10
29.2688375776
 20
251.800263074
 11
29.3903819847
 21
251.856230573
  0
LINE
  5
22F
100
AcDbEntity
  8
0
100
AcDbLine
 62
7
  6
CONTINUOUS
 10
29.7362639986
 20
251.77543745
 11
30.013661218
 21
251.9031704241
  0
LINE
  5
230
100
AcDbEntity
  8
0
100
AcDbLine
 62
7
  6
CONTINUOUS
 10
-0.4103508886
 20
241.2300944735
 11
-1.6624833069
 21
240.7036780199
  0
LINE
  5
231
100
AcDbEntity
  8
0
100
AcDbLine
 62
7
  6
CONTINUOUS
 10
-1.4145494141
 20
240.7701380593
 11
-0.3968549414
 21
241.1979930587
  0
LINE
  5
232
100
AcDbEntity
  8
0
100
AcDbLine
 62
7
  6
CONTINUOUS
 10
3.6005371128
 20
242.8875121613
 11
2.3464482909
 21
242.374147967
  0
LINE
  5
233
100
AcDbEntity
  8
0
100
AcDbLine
 62
7
  6
CONTINUOUS
 10
2.5943821838
 20
242.4406080063
 11
3.612819506
 21
242.8575077078
  0
LINE
  5
234
100
AcDbEntity
  8
0
100
AcDbLine
 62
7
  6
CONTINUOUS
 10
7.6180103802
 20
244.5009958646
 11
6.3618201579
 21
244.0016512851
  0
LINE
  5
235
100
AcDbEntity
  8
0
100
AcDbLine
 62
7
  6
CONTINUOUS
 10
6.6097540508
 20
244.0681113244
 11
7.6290276861
 21
244.4732798696
  0
LINE
  5
236
100
AcDbEntity
  8
0
100
AcDbLine
 62
7
  6
CONTINUOUS
 10
11.6423500361
 20
246.0686700591
 11
10.3840010036
 21
245.5837281075
  0
LINE
  5
237
100
AcDbEntity
  8
0
100
AcDbLine
 62
7
  6
CONTINUOUS
 10
28.43325328
 20
253.2672489714
 11
28.5864342666
 21
253.3230221125
  0
LINE
  5
238
100
AcDbEntity
  8
0
100
AcDbLine
 62
7
  6
CONTINUOUS
 10
28.6059681114
 20
253.3301343782
 11
29.651048492
 21
253.7106477617
  0
LINE
  5
239
100
AcDbEntity
  8
0
100
AcDbLine
 62
7
  6
CONTINUOUS
 10
1.3706325836
 20
220.4680695453
 11
1.6185664764
 21
220.5345295846
  0
LINE
  5
23A
100
AcDbEntity
  8
0
100
AcDbLine
 62
7
  6
CONTINUOUS
 10
-14.9744923835
 20
221.118796077
 11
-10.0158145269
 21
222.4479968633
  0
LINE
  5
23B
100
AcDbEntity
  8
0
100
AcDbLine
 62
7
  6
CONTINUOUS
 10
34.9527875888
 20
202.4530104975
 11
35.7473115067
 21
202.4443184578
  0
LINE
  5
23C
100
AcDbEntity
  8
0
100
AcDbLine
 62
7
  6
CONTINUOUS
 10
36.6201767762
 20
202.359643629
 11
37.6683928702
 21
202.3463207181
  0
LINE
  5
23D
100
AcDbEntity
  8
0
100
AcDbLine
 62
7
  6
CONTINUOUS
 10
37.0617834121
 20
202.5141078365
 11
37.4129382736
 21
202.5012354006
  0
LINE
  5
23E
100
AcDbEntity
  8
0
100
AcDbLine
 62
7
  6
CONTINUOUS
 10
36.0137067113
 20
202.6270882304
 11
36.9498533879
 21
202.5819852769
  0
LINE
  5
23F
100
AcDbEntity
  8
0
100
AcDbLine
 62
7
  6
CONTINUOUS
 10
74.753932091
 20
202.5190192878
 11
71.3143285432
 21
202.6908729087
  0
LINE
  5
240
100
AcDbEntity
  8
0
100
AcDbLine
 62
7
  6
CONTINUOUS
 10
35.6699753577
 20
201.4481348483
 11
34.8831667379
 21
201.4882713521
  0
LINE
  5
241
100
AcDbEntity
  8
0
100
AcDbLine
 62
7
  6
CONTINUOUS
 10
38.3777563665
 20
201.3100061005
 11
37.5910567212
 21
201.3501371087
  0
LINE
  5
242
100
AcDbEntity
  8
0
100
AcDbLine
 62
7
  6
CONTINUOUS
 10
37.6683928702
 20
202.3463207181
 11
38.4552013787
 21
202.3061842299
  0
LINE
  5
243
100
AcDbEntity
  8
0
100
AcDbLine
 62
7
  6
CONTINUOUS
 10
34.960612556
 20
202.4844493688
 11
35.7473115067
 21
202.4443184578
  0
LINE
  5
244
100
AcDbEntity
  8
0
100
AcDbLine
 62
7
  6
CONTINUOUS
 10
36.9296932693
 20
202.7317482789
 11
37.2883523851
 21
202.7125743908
  0
LINE
  5
245
100
AcDbEntity
  8
0
100
AcDbLine
 62
7
  6
CONTINUOUS
 10
35.9065068937
 20
202.7838727382
 11
36.1809958273
 21
202.7690625967
  0
LINE
  5
246
100
AcDbEntity
  8
0
100
AcDbLine
 62
7
  6
CONTINUOUS
 10
35.6762179505
 20
198.4051778142
 11
35.0801012818
 21
198.4503018261
  0
LINE
  5
247
100
AcDbEntity
  8
0
100
AcDbLine
 62
7
  6
CONTINUOUS
 10
32.6134134861
 20
195.901813849
 11
34.3536734865
 21
195.6580841741
  0
LINE
  5
248
100
AcDbEntity
  8
0
100
AcDbLine
 62
7
  6
CONTINUOUS
 10
41.3135251009
 20
196.74669836
 11
40.3346288507
 21
196.8837963022
  0
LINE
  5
249
100
AcDbEntity
  8
0
100
AcDbLine
 62
7
  6
CONTINUOUS
 10
28.1430618519
 20
200.8990203006
 11
29.8833218523
 21
200.6552906256
  0
LINE
  5
24A
100
AcDbEntity
  8
0
100
AcDbLine
 62
7
  6
CONTINUOUS
 10
48.6538212428
 20
265.0214234844
 11
48.2313799784
 21
264.7677537279
  0
LINE
  5
24B
100
AcDbEntity
  8
0
100
AcDbLine
 62
7
  6
CONTINUOUS
 10
104.1163342423
 20
265.7296365535
 11
104.0959637123
 21
265.7223958568
  0
LINE
  5
24C
100
AcDbEntity
  8
0
100
AcDbLine
 62
7
  6
CONTINUOUS
 10
122.8268588686
 20
264.6911725427
 11
122.6668362521
 21
264.6482776718
  0
LINE
  5
24D
100
AcDbEntity
  8
0
100
AcDbLine
 62
7
  6
CONTINUOUS
 10
24.0134183208
 20
246.2103574109
 11
29.385319332
 21
247.6503249293
  0
LINE
  5
24E
100
AcDbEntity
  8
0
100
AcDbLine
 62
7
  6
CONTINUOUS
 10
23.0345220706
 20
246.347455353
 11
28.4064230819
 21
247.7874228715
  0
LINE
  5
24F
100
AcDbEntity
  8
0
100
AcDbLine
 62
7
  6
CONTINUOUS
 10
-1.6624833069
 20
240.7036780199
 11
-1.4145494141
 21
240.7701380593
  0
LINE
  5
250
100
AcDbEntity
  8
0
100
AcDbLine
 62
7
  6
CONTINUOUS
 10
2.3464482909
 20
242.374147967
 11
2.5943821838
 21
242.4406080063
  0
LINE
  5
251
100
AcDbEntity
  8
0
100
AcDbLine
 62
7
  6
CONTINUOUS
 10
6.3618201579
 20
244.0016512851
 11
6.6097540508
 21
244.0681113244
  0
LINE
  5
252
100
AcDbEntity
  8
0
100
AcDbLine
 62
7
  6
CONTINUOUS
 10
10.6319348964
 20
245.6501881468
 11
10.3840010036
 21
245.5837281075
  0
LINE
  5
253
100
AcDbEntity
  8
0
100
AcDbLine
 62
7
  6
CONTINUOUS
 10
78.9728027821
 20
197.3655595978
 11
76.6290525091
 21
197.6925448423
  0
LINE
  5
254
100
AcDbEntity
  8
0
100
AcDbLine
 62
7
  6
CONTINUOUS
 10
40.3663506609
 20
203.0658275242
 11
39.3874544105
 21
203.2029254676
  0
LINE
  5
255
100
AcDbEntity
  8
0
100
AcDbLine
 62
7
  6
CONTINUOUS
 10
30.1336223811
 20
205.3790612715
 11
29.1547261309
 21
205.5161592137
  0
LINE
  5
256
100
AcDbEntity
  8
0
100
AcDbLine
 62
7
  6
CONTINUOUS
 10
56.8787281567
 20
202.8058863075
 11
78.0881469119
 21
199.8354308939
  0
LINE
  5
257
100
AcDbEntity
  8
0
100
AcDbLine
 62
7
  6
CONTINUOUS
 10
71.3143268076
 20
202.6908605088
 11
55.4640933998
 21
204.9107427307
  0
LINE
  5
258
100
AcDbEntity
  8
0
100
AcDbLine
 62
7
  6
CONTINUOUS
 10
52.9791174898
 20
205.2587725485
 11
50.1049080523
 21
205.6613159223
  0
LINE
  5
259
100
AcDbEntity
  8
0
100
AcDbLine
 62
7
  6
CONTINUOUS
 10
75.9225396673
 20
204.8415780794
 11
67.6729564939
 21
205.9969618869
  0
LINE
  5
25A
100
AcDbEntity
  8
0
100
AcDbLine
 62
7
  6
CONTINUOUS
 10
81.6802266673
 20
206.3849576473
 11
62.4553902873
 21
209.0774651582
  0
LINE
  5
25B
100
AcDbEntity
  8
0
100
AcDbLine
 62
7
  6
CONTINUOUS
 10
53.3368101018
 20
204.8335632837
 11
54.5446877394
 21
204.6642910026
  0
LINE
  5
25C
100
AcDbEntity
  8
0
100
AcDbLine
 62
7
  6
CONTINUOUS
 10
36.6737536868
 20
205.5277062513
 11
36.0881763968
 21
205.6480827303
  0
LINE
  5
25D
100
AcDbEntity
  8
0
100
AcDbLine
 62
7
  6
CONTINUOUS
 10
36.8030707994
 20
201.1006969437
 11
37.1573724006
 21
201.0253929697
  0
LINE
  5
25E
100
AcDbEntity
  8
0
100
AcDbLine
 62
7
  6
CONTINUOUS
 10
35.9222320056
 20
201.4487956236
 11
36.8462330808
 21
201.2472297586
  0
LINE
  5
25F
100
AcDbEntity
  8
0
100
AcDbLine
 62
7
  6
CONTINUOUS
 10
36.6737514908
 20
205.5276944239
 11
36.751408252
 21
205.5104619195
  0
LINE
  5
260
100
AcDbEntity
  8
0
100
AcDbLine
 62
7
  6
CONTINUOUS
 10
37.2440619041
 20
205.4090631255
 11
37.2470054253
 21
205.4083900484
  0
LINE
  5
261
100
AcDbEntity
  8
0
100
AcDbLine
 62
7
  6
CONTINUOUS
 10
36.9677774879
 20
201.3031972576
 11
37.3136595018
 21
201.2224041346
  0
LINE
  5
262
100
AcDbEntity
  8
0
100
AcDbLine
 62
7
  6
CONTINUOUS
 10
35.8100522491
 20
201.1408435606
 11
36.0500158428
 21
201.0818811756
  0
LINE
  5
263
100
AcDbEntity
  8
0
100
AcDbLine
 62
7
  6
CONTINUOUS
 10
36.5631394667
 20
201.6234426407
 11
37.5910567212
 21
201.3501371087
  0
LINE
  5
264
100
AcDbEntity
  8
0
100
AcDbLine
 62
7
  6
CONTINUOUS
 10
34.8683047956
 20
201.6694150393
 11
35.6699753577
 21
201.4481348483
  0
LINE
  5
265
100
AcDbEntity
  8
0
100
AcDbLine
 62
7
  6
CONTINUOUS
 10
51.4097664542
 20
286.2084307389
 11
51.4205698053
 21
286.2193514074
  0
LINE
  5
266
100
AcDbEntity
  8
0
100
AcDbLine
 62
7
  6
CONTINUOUS
 10
51.3933180868
 20
286.211053865
 11
51.404522093
 21
286.2219170802
  0
LINE
  5
267
100
AcDbEntity
  8
0
100
AcDbLine
 62
7
  6
CONTINUOUS
 10
30.461228136
 20
253.8805965732
 11
29.7109568819
 21
253.2656077062
  0
LINE
  5
268
100
AcDbEntity
  8
0
100
AcDbLine
 62
7
  6
CONTINUOUS
 10
27.7223490855
 20
251.019925624
 11
28.4726203396
 21
251.634914491
  0
LINE
  5
269
100
AcDbEntity
  8
0
100
AcDbLine
 62
7
  6
CONTINUOUS
 10
62.3627542247
 20
265.8403802604
 11
62.3949333512
 21
265.8601980717
  0
LINE
  5
26A
100
AcDbEntity
  8
0
100
AcDbLine
 62
7
  6
CONTINUOUS
 10
35.974012267
 20
261.0456573256
 11
31.8417807199
 21
259.9379900037
  0
LINE
  5
26B
100
AcDbEntity
  8
0
100
AcDbLine
 62
7
  6
CONTINUOUS
 10
30.8628844696
 20
260.0750879459
 11
26.7306529192
 21
258.9674206231
  0
LINE
  5
26C
100
AcDbEntity
  8
0
100
AcDbLine
 62
7
  6
CONTINUOUS
 10
36.3582942701
 20
262.2583785818
 11
24.9903929189
 21
259.2111502981
  0
LINE
  5
26D
100
AcDbEntity
  8
0
100
AcDbLine
 62
7
  6
CONTINUOUS
 10
36.4458393058
 20
262.5346541419
 11
24.953963136
 21
259.4541937283
  0
LINE
  5
26E
100
AcDbEntity
  8
0
100
AcDbLine
 62
7
  6
CONTINUOUS
 10
37.1964077309
 20
264.7583171897
 11
24.6625248474
 21
261.3985411635
  0
LINE
  5
26F
100
AcDbEntity
  8
0
100
AcDbLine
 62
7
  6
CONTINUOUS
 10
19.5604989937
 20
260.0961903099
 11
10.119155855
 21
257.5653865177
  0
LINE
  5
270
100
AcDbEntity
  8
0
100
AcDbLine
 62
7
  6
CONTINUOUS
 10
37.6849297351
 20
265.777038078
 11
22.4871998469
 21
261.7032032572
  0
LINE
  5
271
100
AcDbEntity
  8
0
100
AcDbLine
 62
7
  6
CONTINUOUS
 10
51.9423944646
 20
269.867568987
 11
51.9921422449
 21
269.8805790243
  0
LINE
  5
272
100
AcDbEntity
  8
0
100
AcDbLine
 62
7
  6
CONTINUOUS
 10
59.4872629264
 20
212.0214584318
 11
72.9122773294
 21
210.1412368581
  0
LINE
  5
273
100
AcDbEntity
  8
0
100
AcDbLine
 62
7
  6
CONTINUOUS
 10
27.0605503023
 20
186.2444702157
 11
-16.2916462335
 21
211.2838938104
  0
LINE
  5
274
100
AcDbEntity
  8
0
100
AcDbLine
 62
7
  6
CONTINUOUS
 10
-16.2916462335
 20
218.3851921581
 11
24.8007944311
 21
194.6509615871
  0
LINE
  5
275
100
AcDbEntity
  8
0
100
AcDbLine
 62
7
  6
CONTINUOUS
 10
-17.1594146864
 20
219.49285948
 11
-17.1594146864
 21
212.3915611323
  0
LWPOLYLINE
  5
276
100
AcDbEntity
  8
0
100
AcDbPolyline
 62
7
  6
CONTINUOUS
 90
3
 70
0
 10
48.2286817647
 20
264.766131548
 10
45.9975927829
 20
262.8838079826
 10
44.6767908442
 20
260.7923286116
  0
LINE
  5
277
100
AcDbEntity
  8
0
100
AcDbLine
 62
7
  6
CONTINUOUS
 10
64.9983390402
 20
251.6178602197
 11
64.9849406732
 21
251.6084390861
  0
LINE
  5
278
100
AcDbEntity
  8
0
100
AcDbLine
 62
7
  6
CONTINUOUS
 10
36.0106487831
 20
202.714215656
 11
36.1638297698
 21
202.769988797
  0
LINE
  5
279
100
AcDbEntity
  8
0
100
AcDbLine
 62
7
  6
CONTINUOUS
 10
36.1833636146
 20
202.7771010628
 11
37.2284439952
 21
203.1576144463
  0
LINE
  5
27A
100
AcDbEntity
  8
0
100
AcDbLine
 62
7
  6
CONTINUOUS
 10
45.8229317915
 20
271.7063616449
 11
44.9036754423
 21
271.4599499405
  0
LINE
  5
27B
100
AcDbEntity
  8
0
100
AcDbLine
 62
7
  6
CONTINUOUS
 10
46.3388033379
 20
271.8137749275
 11
45.8229431703
 21
271.7063646951
  0
LINE
  5
27C
100
AcDbEntity
  8
0
100
AcDbLine
 62
7
  6
CONTINUOUS
 10
90.5917742868
 20
263.4639748284
 11
90.5662845019
 21
263.4603235516
  0
LINE
  5
27D
100
AcDbEntity
  8
0
100
AcDbLine
 62
7
  6
CONTINUOUS
 10
118.4494669681
 20
258.7503686287
 11
118.6390035436
 21
258.765900689
  0
LINE
  5
27E
100
AcDbEntity
  8
0
100
AcDbLine
 62
7
  6
CONTINUOUS
 10
29.13976165
 20
248.9361988443
 11
29.1211856206
 21
248.9356408983
  0
LINE
  5
27F
100
AcDbEntity
  8
0
100
AcDbLine
 62
7
  6
CONTINUOUS
 10
27.3753920856
 20
253.0060438129
 11
28.1699160035
 21
252.9973517732
  0
LINE
  5
280
100
AcDbEntity
  8
0
100
AcDbLine
 62
7
  6
CONTINUOUS
 10
29.042781273
 20
252.9126769445
 11
30.090997367
 21
252.8993540336
  0
LINE
  5
281
100
AcDbEntity
  8
0
100
AcDbLine
 62
7
  6
CONTINUOUS
 10
24.2273810777
 20
198.4765220117
 11
18.4782651054
 21
201.7971046263
  0
LINE
  5
282
100
AcDbEntity
  8
0
100
AcDbLine
 62
7
  6
CONTINUOUS
 10
-10.0158145269
 20
222.4479968633
 11
17.7901690813
 21
206.3877771358
  0
LINE
  5
283
100
AcDbEntity
  8
0
100
AcDbLine
 62
7
  6
CONTINUOUS
 10
16.8168618785
 20
211.5466143674
 11
15.3596704356
 21
212.3882610823
  0
LINE
  5
284
100
AcDbEntity
  8
0
100
AcDbLine
 62
7
  6
CONTINUOUS
 10
12.1538492612
 20
214.239883855
 11
10.6966578182
 21
215.0815305699
  0
LINE
  5
285
100
AcDbEntity
  8
0
100
AcDbLine
 62
7
  6
CONTINUOUS
 10
7.4908366438
 20
216.9331533427
 11
6.0336452009
 21
217.7748000576
  0
LINE
  5
286
100
AcDbEntity
  8
0
100
AcDbLine
 62
7
  6
CONTINUOUS
 10
2.8278240265
 20
219.6264228304
 11
1.3706325836
 21
220.4680695453
  0
LINE
  5
287
100
AcDbEntity
  8
0
100
AcDbLine
 62
7
  6
CONTINUOUS
 10
16.7824570773
 20
211.7761479928
 11
15.6076043284
 21
212.4547211216
  0
LINE
  5
288
100
AcDbEntity
  8
0
100
AcDbLine
 62
7
  6
CONTINUOUS
 10
12.11944446
 20
214.4694174805
 11
10.9445917111
 21
215.1479906092
  0
LINE
  5
289
100
AcDbEntity
  8
0
100
AcDbLine
 62
7
  6
CONTINUOUS
 10
7.4564318426
 20
217.1626869682
 11
6.2815790937
 21
217.8412600969
  0
LINE
  5
28A
100
AcDbEntity
  8
0
100
AcDbLine
 62
7
  6
CONTINUOUS
 10
2.7934192253
 20
219.8559564558
 11
1.6185664764
 21
220.5345295846
  0
LINE
  5
28B
100
AcDbEntity
  8
0
100
AcDbLine
 62
7
  6
CONTINUOUS
 10
35.6699753577
 20
201.4481348483
 11
35.9254299543
 21
201.2932201658
  0
LINE
  5
28C
100
AcDbEntity
  8
0
100
AcDbLine
 62
7
  6
CONTINUOUS
 10
37.0617834121
 20
202.5141078365
 11
36.9498533879
 21
202.5819852769
  0
LINE
  5
28D
100
AcDbEntity
  8
0
100
AcDbLine
 62
7
  6
CONTINUOUS
 10
37.6683928702
 20
202.3463207181
 11
37.4129382736
 21
202.5012354007
  0
LINE
  5
28E
100
AcDbEntity
  8
0
100
AcDbLine
 62
7
  6
CONTINUOUS
 10
-16.2916462335
 20
211.2838938104
 11
-16.2916462335
 21
218.3851921581
  0
LINE
  5
28F
100
AcDbEntity
  8
0
100
AcDbLine
 62
7
  6
CONTINUOUS
 10
-10.0158145269
 20
222.4479968633
 11
-10.0158145269
 21
242.9266029039
  0
LINE
  5
290
100
AcDbEntity
  8
0
100
AcDbLine
 62
7
  6
CONTINUOUS
 10
28.3480344511
 20
251.8462534812
 11
27.7223490855
 21
251.019925624
  0
LINE
  5
291
100
AcDbEntity
  8
0
100
AcDbLine
 62
7
  6
CONTINUOUS
 10
29.6376324743
 20
253.2695276233
 11
29.4843879089
 21
253.0671411519
  0
LINE
  5
292
100
AcDbEntity
  8
0
100
AcDbLine
 62
7
  6
CONTINUOUS
 10
29.8355427705
 20
253.0542687161
 11
30.461228136
 21
253.8805965732
  0
LINE
  5
293
100
AcDbEntity
  8
0
100
AcDbLine
 62
7
  6
CONTINUOUS
 10
65.0034354572
 20
251.6070117762
 11
64.9905627581
 21
251.5964927161
  0
LINE
  5
294
100
AcDbEntity
  8
0
100
AcDbLine
 62
7
  6
CONTINUOUS
 10
36.0247087261
 20
202.5720514318
 11
35.7473115067
 21
202.4443184578
  0
LINE
  5
295
100
AcDbEntity
  8
0
100
AcDbLine
 62
7
  6
CONTINUOUS
 10
36.8462330808
 20
201.2472297586
 11
36.9677774879
 21
201.3031972576
  0
LINE
  5
296
100
AcDbEntity
  8
0
100
AcDbLine
 62
7
  6
CONTINUOUS
 10
37.3136595018
 20
201.2224041346
 11
37.5910567212
 21
201.3501371087
  0
LWPOLYLINE
  5
297
100
AcDbEntity
  8
0
100
AcDbPolyline
 62
7
  6
CONTINUOUS
 90
8
 70
0
 10
44.2558378257
 20
277.5160319259
 10
44.181885009
 20
277.5045333042
 10
44.0406226986
 20
277.4501205916
 10
43.9251835564
 20
277.3634017614
 10
43.8431466508
 20
277.2604384783
 10
43.7934817215
 20
277.1585048307
 10
43.7679680374
 20
277.0680783952
 10
43.7614128502
 20
277.0287445694
  0
LINE
  5
298
100
AcDbEntity
  8
0
100
AcDbLine
 62
7
  6
CONTINUOUS
 10
46.2317591532
 20
275.1573611901
 11
46.2903705678
 21
275.1618921709
  0
LINE
  5
299
100
AcDbEntity
  8
0
100
AcDbLine
 62
7
  6
CONTINUOUS
 10
19.8099692132
 20
260.3195769341
 11
14.553853764
 21
260.0336715086
  0
LINE
  5
29A
100
AcDbEntity
  8
0
100
AcDbLine
 62
7
  6
CONTINUOUS
 10
75.8931964214
 20
263.4072638925
 11
75.8664679744
 21
263.4076996494
  0
LINE
  5
29B
100
AcDbEntity
  8
0
100
AcDbLine
 62
7
  6
CONTINUOUS
 10
29.4843879089
 20
253.0671411519
 11
29.8355427705
 21
253.0542687161
  0
LINE
  5
29C
100
AcDbEntity
  8
0
100
AcDbLine
 62
7
  6
CONTINUOUS
 10
28.4363112081
 20
253.1801215459
 11
29.3724578847
 21
253.1350185923
  0
LINE
  5
29D
100
AcDbEntity
  8
0
100
AcDbLine
 62
7
  6
CONTINUOUS
 10
28.0925798545
 20
252.0011681637
 11
27.3057712347
 21
252.0413046675
  0
LINE
  5
29E
100
AcDbEntity
  8
0
100
AcDbLine
 62
7
  6
CONTINUOUS
 10
30.8003608633
 20
251.8630394159
 11
30.013661218
 21
251.9031704241
  0
LINE
  5
29F
100
AcDbEntity
  8
0
100
AcDbLine
 62
7
  6
CONTINUOUS
 10
30.090997367
 20
252.8993540336
 11
30.8778058755
 21
252.8592175453
  0
LINE
  5
2A0
100
AcDbEntity
  8
0
100
AcDbLine
 62
7
  6
CONTINUOUS
 10
27.3832170528
 20
253.0374826842
 11
28.1699160035
 21
252.9973517732
  0
LINE
  5
2A1
100
AcDbEntity
  8
0
100
AcDbLine
 62
7
  6
CONTINUOUS
 10
29.3522977661
 20
253.2847815943
 11
29.7109568819
 21
253.2656077062
  0
LINE
  5
2A2
100
AcDbEntity
  8
0
100
AcDbLine
 62
7
  6
CONTINUOUS
 10
28.3291113905
 20
253.3369060536
 11
28.6036003241
 21
253.3220959121
  0
LINE
  5
2A3
100
AcDbEntity
  8
0
100
AcDbLine
 62
7
  6
CONTINUOUS
 10
108.8169986009
 20
253.9364499617
 11
109.0072135733
 21
253.9222598667
  0
LINE
  5
2A4
100
AcDbEntity
  8
0
100
AcDbLine
 62
7
  6
CONTINUOUS
 10
28.0988224473
 20
248.9582111296
 11
27.5027057786
 21
249.0033351415
  0
LINE
  5
2A5
100
AcDbEntity
  8
0
100
AcDbLine
 62
7
  6
CONTINUOUS
 10
24.0134183208
 20
246.2103574109
 11
23.0345220706
 21
246.347455353
  0
LINE
  5
2A6
100
AcDbEntity
  8
0
100
AcDbLine
 62
7
  6
CONTINUOUS
 10
46.6285685403
 20
243.7682728035
 11
33.8728943685
 21
245.5547508694
  0
LINE
  5
2A7
100
AcDbEntity
  8
0
100
AcDbLine
 62
7
  6
CONTINUOUS
 10
29.3853193321
 20
247.6503249294
 11
28.4064230819
 21
247.7874228715
  0
LINE
  5
2A8
100
AcDbEntity
  8
0
100
AcDbLine
 62
7
  6
CONTINUOUS
 10
18.5359803612
 20
250.6551765257
 11
16.3606553607
 21
250.9598386194
  0
LINE
  5
2A9
100
AcDbEntity
  8
0
100
AcDbLine
 62
7
  6
CONTINUOUS
 10
22.3059263486
 20
251.2083239449
 11
20.5656663481
 21
251.4520536199
  0
LINE
  5
2AA
100
AcDbEntity
  8
0
100
AcDbLine
 62
7
  6
CONTINUOUS
 10
31.8100589075
 20
253.7559587815
 11
32.7889551578
 21
253.6188608393
  0
LINE
  5
2AB
100
AcDbEntity
  8
0
100
AcDbLine
 62
7
  6
CONTINUOUS
 10
10.119155855
 20
257.5653865177
 11
17.085206914
 21
256.5897660013
  0
LINE
  5
2AC
100
AcDbEntity
  8
0
100
AcDbLine
 62
7
  6
CONTINUOUS
 10
-10.0659044164
 20
233.7328026293
 11
-10.0158145269
 21
233.7038716393
  0
LINE
  5
2AD
100
AcDbEntity
  8
0
100
AcDbLine
 62
7
  6
CONTINUOUS
 10
-8.4096322938
 20
245.4149319762
 11
-10.0659044164
 21
246.3715639944
  0
LINE
  5
2AE
100
AcDbEntity
  8
0
100
AcDbLine
 62
7
  6
CONTINUOUS
 10
35.9056143926
 20
201.3612573381
 11
37.0291101207
 21
200.5899518311
  0
LINE
  5
2AF
100
AcDbEntity
  8
0
100
AcDbLine
 62
7
  6
CONTINUOUS
 10
38.0386236392
 20
203.3275632578
 11
37.2883523851
 21
202.7125743908
  0
LINE
  5
2B0
100
AcDbEntity
  8
0
100
AcDbLine
 62
7
  6
CONTINUOUS
 10
114.4078868955
 20
269.8593090252
 11
114.3957345965
 21
269.8495365754
  0
LINE
  5
2B1
100
AcDbEntity
  8
0
100
AcDbLine
 62
7
  6
CONTINUOUS
 10
45.3026318287
 20
277.6018155918
 11
44.2538378908
 21
277.5158691648
  0
LINE
  5
2B2
100
AcDbEntity
  8
0
100
AcDbLine
 62
7
  6
CONTINUOUS
 10
73.2481502096
 20
250.4845917561
 11
78.460273496
 21
249.7546151353
  0
LINE
  5
2B3
100
AcDbEntity
  8
0
100
AcDbLine
 62
7
  6
CONTINUOUS
 10
24.9903929188
 20
259.2111502981
 11
26.7306529192
 21
258.9674206231
  0
LINE
  5
2B4
100
AcDbEntity
  8
0
100
AcDbLine
 62
7
  6
CONTINUOUS
 10
31.8417807199
 20
259.9379900037
 11
30.8628844696
 21
260.0750879459
  0
LINE
  5
2B5
100
AcDbEntity
  8
0
100
AcDbLine
 62
7
  6
CONTINUOUS
 10
22.4871998469
 20
261.7032032572
 11
24.6625248474
 21
261.3985411635
  0
LINE
  5
2B6
100
AcDbEntity
  8
0
100
AcDbLine
 62
7
  6
CONTINUOUS
 10
36.0647567329
 20
260.4402503615
 11
46.4516359374
 21
258.9855305543
  0
LINE
  5
2B7
100
AcDbEntity
  8
0
100
AcDbLine
 62
7
  6
CONTINUOUS
 10
29.0963581836
 20
256.0807395667
 11
28.5107808936
 21
256.2011160457
  0
LINE
  5
2B8
100
AcDbEntity
  8
0
100
AcDbLine
 62
7
  6
CONTINUOUS
 10
29.2256752963
 20
251.6537302591
 11
29.5799768974
 21
251.5784262851
  0
LINE
  5
2B9
100
AcDbEntity
  8
0
100
AcDbLine
 62
7
  6
CONTINUOUS
 10
28.3448365024
 20
252.001828939
 11
29.2688375776
 21
251.800263074
  0
LINE
  5
2BA
100
AcDbEntity
  8
0
100
AcDbLine
 62
7
  6
CONTINUOUS
 10
29.0963559876
 20
256.0807277394
 11
29.1740127488
 21
256.0634952349
  0
LINE
  5
2BB
100
AcDbEntity
  8
0
100
AcDbLine
 62
7
  6
CONTINUOUS
 10
29.666666401
 20
255.9620964409
 11
29.6696099221
 21
255.9614233638
  0
LINE
  5
2BC
100
AcDbEntity
  8
0
100
AcDbLine
 62
7
  6
CONTINUOUS
 10
29.3903819847
 20
251.856230573
 11
29.7362639986
 21
251.77543745
  0
LINE
  5
2BD
100
AcDbEntity
  8
0
100
AcDbLine
 62
7
  6
CONTINUOUS
 10
28.2326567459
 20
251.693876876
 11
28.4726203396
 21
251.634914491
  0
LINE
  5
2BE
100
AcDbEntity
  8
0
100
AcDbLine
 62
7
  6
CONTINUOUS
 10
28.9857439635
 20
252.1764759562
 11
30.013661218
 21
251.9031704241
  0
LINE
  5
2BF
100
AcDbEntity
  8
0
100
AcDbLine
 62
7
  6
CONTINUOUS
 10
27.2909092925
 20
252.2224483548
 11
28.0925798545
 21
252.0011681637
  0
LINE
  5
2C0
100
AcDbEntity
  8
0
100
AcDbLine
 62
7
  6
CONTINUOUS
 10
-8.7873427608
 20
249.1777253794
 11
-6.5750587648
 21
247.8999512293
  0
LINE
  5
2C1
100
AcDbEntity
  8
0
100
AcDbLine
 62
7
  6
CONTINUOUS
 10
37.1573724006
 20
201.0253929697
 11
37.8066151923
 21
200.3390124294
  0
LINE
  5
2C2
100
AcDbEntity
  8
0
100
AcDbLine
 62
7
  6
CONTINUOUS
 10
36.1809958273
 20
202.7690625967
 11
35.5317530356
 21
203.455443137
  0
LINE
  5
2C3
100
AcDbEntity
  8
0
100
AcDbLine
 62
7
  6
CONTINUOUS
 10
-1.6624833069
 20
240.7036780199
 11
1.3706325836
 21
220.4680695453
  0
LINE
  5
2C4
100
AcDbEntity
  8
0
100
AcDbLine
 62
7
  6
CONTINUOUS
 10
1.6185664764
 20
220.5345295846
 11
-1.4145494141
 21
240.7701380593
  0
LINE
  5
2C5
100
AcDbEntity
  8
0
100
AcDbLine
 62
7
  6
CONTINUOUS
 10
2.8278240265
 20
219.6264228304
 11
-0.4103508886
 21
241.2300944735
  0
LINE
  5
2C6
100
AcDbEntity
  8
0
100
AcDbLine
 62
7
  6
CONTINUOUS
 10
2.3464482909
 20
242.374147967
 11
6.0336452009
 21
217.7748000576
  0
LINE
  5
2C7
100
AcDbEntity
  8
0
100
AcDbLine
 62
7
  6
CONTINUOUS
 10
6.2815790937
 20
217.8412600969
 11
2.5943821838
 21
242.4406080063
  0
LINE
  5
2C8
100
AcDbEntity
  8
0
100
AcDbLine
 62
7
  6
CONTINUOUS
 10
7.4908366438
 20
216.9331533427
 11
3.6005371128
 21
242.8875121613
  0
LINE
  5
2C9
100
AcDbEntity
  8
0
100
AcDbLine
 62
7
  6
CONTINUOUS
 10
28.731862604
 20
253.7575370507
 11
28.6036003241
 21
253.3220959121
  0
LINE
  5
2CA
100
AcDbEntity
  8
0
100
AcDbLine
 62
7
  6
CONTINUOUS
 10
29.2256752963
 20
251.6537302591
 11
29.2688375776
 21
251.800263074
  0
LINE
  5
2CB
100
AcDbEntity
  8
0
100
AcDbLine
 62
7
  6
CONTINUOUS
 10
29.4517146175
 20
251.1429851466
 11
29.5799768974
 21
251.5784262851
  0
LINE
  5
2CC
100
AcDbEntity
  8
0
100
AcDbLine
 62
7
  6
CONTINUOUS
 10
52.5501922132
 20
255.6650719374
 11
52.5141288405
 21
255.5902267884
  0
LINE
  5
2CD
100
AcDbEntity
  8
0
100
AcDbLine
 62
7
  6
CONTINUOUS
 10
79.7921156818
 20
250.2364052222
 11
79.7737339742
 21
250.215483761
  0
LINE
  5
2CE
100
AcDbEntity
  8
0
100
AcDbLine
 62
7
  6
CONTINUOUS
 10
79.7929822579
 20
250.2361444138
 11
79.7737339742
 21
250.215483761
  0
LINE
  5
2CF
100
AcDbEntity
  8
0
100
AcDbLine
 62
7
  6
CONTINUOUS
 10
35.2997445887
 20
200.4668923086
 11
36.0500158428
 21
201.0818811756
  0
LINE
  5
2D0
100
AcDbEntity
  8
0
100
AcDbLine
 62
7
  6
CONTINUOUS
 10
119.6598593729
 20
275.4168678959
 11
119.6010129407
 21
275.4209818924
  0
LINE
  5
2D1
100
AcDbEntity
  8
0
100
AcDbLine
 62
7
  6
CONTINUOUS
 10
62.2344266544
 20
265.572521537
 11
62.2583031777
 21
265.567982269
  0
LINE
  5
2D2
100
AcDbEntity
  8
0
100
AcDbLine
 62
7
  6
CONTINUOUS
 10
95.2358871392
 20
250.9393971488
 11
95.3978220041
 21
250.8976452121
  0
LINE
  5
2D3
100
AcDbEntity
  8
0
100
AcDbLine
 62
7
  6
CONTINUOUS
 10
3.5957618777
 20
256.6655595031
 11
1.0522285693
 21
258.1346571043
  0
LINE
  5
2D4
100
AcDbEntity
  8
0
100
AcDbLine
 62
7
  6
CONTINUOUS
 10
3.6093518806
 20
258.8201080277
 11
5.5876512509
 21
257.6774790519
  0
LINE
  5
2D5
100
AcDbEntity
  8
0
100
AcDbLine
 62
7
  6
CONTINUOUS
 10
28.0925798545
 20
252.0011681637
 11
28.3480344511
 21
251.8462534812
  0
LINE
  5
2D6
100
AcDbEntity
  8
0
100
AcDbLine
 62
7
  6
CONTINUOUS
 10
29.4843879089
 20
253.0671411519
 11
29.3724578847
 21
253.1350185923
  0
LINE
  5
2D7
100
AcDbEntity
  8
0
100
AcDbLine
 62
7
  6
CONTINUOUS
 10
30.090997367
 20
252.8993540336
 11
29.8355427705
 21
253.0542687161
  0
LINE
  5
2D8
100
AcDbEntity
  8
0
100
AcDbLine
 62
7
  6
CONTINUOUS
 10
28.3282188894
 20
251.9142906535
 11
29.4517146175
 21
251.1429851466
  0
LINE
  5
2D9
100
AcDbEntity
  8
0
100
AcDbLine
 62
7
  6
CONTINUOUS
 10
35.9166884124
 20
201.1314914921
 11
35.932045852
 21
201.1108680395
  0
LINE
  5
2DA
100
AcDbEntity
  8
0
100
AcDbLine
 62
7
  6
CONTINUOUS
 10
35.9166884124
 20
201.1314914921
 11
35.9319431457
 21
201.1106276516
  0
LINE
  5
2DB
100
AcDbEntity
  8
0
100
AcDbLine
 62
7
  6
CONTINUOUS
 10
35.5317530356
 20
203.455443137
 11
36.0247087261
 21
202.5720514318
  0
LINE
  5
2DC
100
AcDbEntity
  8
0
100
AcDbLine
 62
7
  6
CONTINUOUS
 10
36.9677774879
 20
201.3031972576
 11
37.1181472965
 21
201.0337299521
  0
LINE
  5
2DD
100
AcDbEntity
  8
0
100
AcDbLine
 62
7
  6
CONTINUOUS
 10
37.8066151923
 20
200.3390124294
 11
37.3136595018
 21
201.2224041346
  0
LINE
  5
2DE
100
AcDbEntity
  8
0
100
AcDbLine
 62
7
  6
CONTINUOUS
 10
6.3618201579
 20
244.0016512851
 11
10.6966578182
 21
215.0815305699
  0
LINE
  5
2DF
100
AcDbEntity
  8
0
100
AcDbLine
 62
7
  6
CONTINUOUS
 10
10.9445917111
 20
215.1479906092
 11
6.6097540508
 21
244.0681113244
  0
LINE
  5
2E0
100
AcDbEntity
  8
0
100
AcDbLine
 62
7
  6
CONTINUOUS
 10
12.1538492612
 20
214.239883855
 11
7.6180103802
 21
244.5009958646
  0
LINE
  5
2E1
100
AcDbEntity
  8
0
100
AcDbLine
 62
7
  6
CONTINUOUS
 10
10.3840010036
 20
245.5837281075
 11
15.3596704356
 21
212.3882610823
  0
LINE
  5
2E2
100
AcDbEntity
  8
0
100
AcDbLine
 62
7
  6
CONTINUOUS
 10
15.6076043284
 20
212.4547211216
 11
10.6319348964
 21
245.6501881468
  0
LINE
  5
2E3
100
AcDbEntity
  8
0
100
AcDbLine
 62
7
  6
CONTINUOUS
 10
16.8168618785
 20
211.5466143674
 11
11.6423500361
 21
246.0686700591
  0
LINE
  5
2E4
100
AcDbEntity
  8
0
100
AcDbLine
 62
7
  6
CONTINUOUS
 10
10.119155855
 20
257.5653865177
 11
18.4782651054
 21
201.7971046263
  0
LINE
  5
2E5
100
AcDbEntity
  8
0
100
AcDbLine
 62
7
  6
CONTINUOUS
 10
24.8007944311
 20
194.6509615871
 11
16.3606553607
 21
250.9598386194
  0
LINE
  5
2E6
100
AcDbEntity
  8
0
100
AcDbLine
 62
7
  6
CONTINUOUS
 10
18.5359803612
 20
250.6551765257
 11
27.0605503023
 21
193.7830140458
  0
LINE
  5
2E7
100
AcDbEntity
  8
0
100
AcDbLine
 62
7
  6
CONTINUOUS
 10
27.0605503023
 20
193.7830140458
 11
27.0605503023
 21
186.2444702157
  0
LINE
  5
2E8
100
AcDbEntity
  8
0
100
AcDbLine
 62
7
  6
CONTINUOUS
 10
28.8814428416
 20
255.6843123427
 11
28.731862604
 21
253.7575370507
  0
LINE
  5
2E9
100
AcDbEntity
  8
0
100
AcDbLine
 62
7
  6
CONTINUOUS
 10
28.5325287295
 20
251.1898744356
 11
28.3829484919
 21
249.2630991436
  0
LINE
  5
2EA
100
AcDbEntity
  8
0
100
AcDbLine
 62
7
  6
CONTINUOUS
 10
29.1740127488
 20
256.0634952349
 11
29.0089438023
 21
253.9372065435
  0
LINE
  5
2EB
100
AcDbEntity
  8
0
100
AcDbLine
 62
7
  6
CONTINUOUS
 10
28.7886243069
 20
251.099223621
 11
28.6235553603
 21
248.9729349296
  0
LINE
  5
2EC
100
AcDbEntity
  8
0
100
AcDbLine
 62
7
  6
CONTINUOUS
 10
29.3021343799
 20
249.2162098545
 11
29.4517146175
 21
251.1429851466
  0
LINE
  5
2ED
100
AcDbEntity
  8
0
100
AcDbLine
 62
7
  6
CONTINUOUS
 10
29.651048492
 20
253.7106477617
 11
29.8006287296
 21
255.6374230537
  0
LINE
  5
2EE
100
AcDbEntity
  8
0
100
AcDbLine
 62
7
  6
CONTINUOUS
 10
45.8865430283
 20
280.8794786842
 11
45.8621090399
 21
280.7225581335
  0
LINE
  5
2EF
100
AcDbEntity
  8
0
100
AcDbLine
 62
7
  6
CONTINUOUS
 10
45.8856016793
 20
280.8742281937
 11
45.874144867
 21
280.8072933533
  0
LINE
  5
2F0
100
AcDbEntity
  8
0
100
AcDbLine
 62
7
  6
CONTINUOUS
 10
45.8865430743
 20
280.8794787216
 11
45.8586013548
 21
280.7232171997
  0
LINE
  5
2F1
100
AcDbEntity
  8
0
100
AcDbLine
 62
7
  6
CONTINUOUS
 10
45.8607615828
 20
280.7227679451
 11
45.8628413921
 21
280.7329021316
  0
LINE
  5
2F2
100
AcDbEntity
  8
0
100
AcDbLine
 62
7
  6
CONTINUOUS
 10
36.3092581072
 20
203.2045037353
 11
36.1809958273
 21
202.7690625967
  0
LINE
  5
2F3
100
AcDbEntity
  8
0
100
AcDbLine
 62
7
  6
CONTINUOUS
 10
36.8030707994
 20
201.1006969437
 11
36.8462330808
 21
201.2472297586
  0
LINE
  5
2F4
100
AcDbEntity
  8
0
100
AcDbLine
 62
7
  6
CONTINUOUS
 10
37.0291101207
 20
200.5899518311
 11
37.1573724006
 21
201.0253929697
  0
LINE
  5
2F5
100
AcDbEntity
  8
0
100
AcDbLine
 62
7
  6
CONTINUOUS
 10
35.9254299543
 20
201.2932201658
 11
35.2997445887
 21
200.4668923086
  0
LINE
  5
2F6
100
AcDbEntity
  8
0
100
AcDbLine
 62
7
  6
CONTINUOUS
 10
37.2150279775
 20
202.7164943079
 11
37.0617834121
 21
202.5141078365
  0
LINE
  5
2F7
100
AcDbEntity
  8
0
100
AcDbLine
 62
7
  6
CONTINUOUS
 10
37.4129382736
 20
202.5012354007
 11
38.0386236392
 21
203.3275632578
  0
LINE
  5
2F8
100
AcDbEntity
  8
0
100
AcDbLine
 62
7
  6
CONTINUOUS
 10
29.5799768974
 20
251.5784262851
 11
30.2292196891
 21
250.8920457449
  0
LINE
  5
2F9
100
AcDbEntity
  8
0
100
AcDbLine
 62
7
  6
CONTINUOUS
 10
28.6036003241
 20
253.3220959121
 11
27.9543575325
 21
254.0084764524
  0
LINE
  5
2FA
100
AcDbEntity
  8
0
100
AcDbLine
 62
7
  6
CONTINUOUS
 10
28.3392929092
 20
251.6845248075
 11
28.3546503488
 21
251.6639013549
  0
LINE
  5
2FB
100
AcDbEntity
  8
0
100
AcDbLine
 62
7
  6
CONTINUOUS
 10
28.3392929092
 20
251.6845248075
 11
28.3545476425
 21
251.663660967
  0
LINE
  5
2FC
100
AcDbEntity
  8
0
100
AcDbLine
 62
7
  6
CONTINUOUS
 10
20.3590547714
 20
251.3966702499
 11
27.9364502745
 21
200.8436369345
  0
LINE
  5
2FD
100
AcDbEntity
  8
0
100
AcDbLine
 62
7
  6
CONTINUOUS
 10
20.5656663481
 20
251.4520536199
 11
28.1430618519
 21
200.8990203006
  0
LINE
  5
2FE
100
AcDbEntity
  8
0
100
AcDbLine
 62
7
  6
CONTINUOUS
 10
22.3059263486
 20
251.2083239449
 11
23.0345220706
 21
246.347455353
  0
LINE
  5
2FF
100
AcDbEntity
  8
0
100
AcDbLine
 62
7
  6
CONTINUOUS
 10
29.1547261309
 20
205.5161592137
 11
29.8833218523
 21
200.6552906256
  0
LINE
  5
300
100
AcDbEntity
  8
0
100
AcDbLine
 62
7
  6
CONTINUOUS
 10
24.0134183208
 20
246.2103574109
 11
30.1336223811
 21
205.3790612715
  0
LINE
  5
301
100
AcDbEntity
  8
0
100
AcDbLine
 62
7
  6
CONTINUOUS
 10
28.4726203396
 20
251.634914491
 11
28.5325287295
 21
251.1898744356
  0
LINE
  5
302
100
AcDbEntity
  8
0
100
AcDbLine
 62
7
  6
CONTINUOUS
 10
36.0500158428
 20
201.0818811756
 11
36.1099242327
 21
200.6368411202
  0
LINE
  5
303
100
AcDbEntity
  8
0
100
AcDbLine
 62
7
  6
CONTINUOUS
 10
29.3724578847
 20
253.1350185923
 11
29.3522977661
 21
253.2847815943
  0
LINE
  5
304
100
AcDbEntity
  8
0
100
AcDbLine
 62
7
  6
CONTINUOUS
 10
29.7109568819
 20
253.2656077062
 11
29.651048492
 21
253.7106477617
  0
LINE
  5
305
100
AcDbEntity
  8
0
100
AcDbLine
 62
7
  6
CONTINUOUS
 10
36.9498533879
 20
202.5819852769
 11
36.9296932693
 21
202.7317482789
  0
LINE
  5
306
100
AcDbEntity
  8
0
100
AcDbLine
 62
7
  6
CONTINUOUS
 10
37.2883523851
 20
202.7125743908
 11
37.2284439952
 21
203.1576144463
  0
LINE
  5
307
100
AcDbEntity
  8
0
100
AcDbLine
 62
7
  6
CONTINUOUS
 10
42.4076951875
 20
267.47287035
 11
42.395318601
 21
266.0501452524
  0
LINE
  5
308
100
AcDbEntity
  8
0
100
AcDbLine
 62
7
  6
CONTINUOUS
 10
42.4073205498
 20
267.4504814191
 11
42.4075886548
 21
267.4667128354
  0
LINE
  5
309
100
AcDbEntity
  8
0
100
AcDbLine
 62
7
  6
CONTINUOUS
 10
36.4588383448
 20
205.1312790273
 11
36.3092581072
 21
203.2045037353
  0
LINE
  5
30A
100
AcDbEntity
  8
0
100
AcDbLine
 62
7
  6
CONTINUOUS
 10
36.1099242327
 20
200.6368411202
 11
35.9603439951
 21
198.7100658282
  0
LINE
  5
30B
100
AcDbEntity
  8
0
100
AcDbLine
 62
7
  6
CONTINUOUS
 10
36.751408252
 20
205.5104619195
 11
36.5863393054
 21
203.3841732281
  0
LINE
  5
30C
100
AcDbEntity
  8
0
100
AcDbLine
 62
7
  6
CONTINUOUS
 10
36.3660198101
 20
200.5461903055
 11
36.2009508635
 21
198.4199016141
  0
LINE
  5
30D
100
AcDbEntity
  8
0
100
AcDbLine
 62
7
  6
CONTINUOUS
 10
36.8795298831
 20
198.6631765391
 11
37.0291101207
 21
200.5899518311
  0
LINE
  5
30E
100
AcDbEntity
  8
0
100
AcDbLine
 62
7
  6
CONTINUOUS
 10
37.2284439952
 20
203.1576144463
 11
37.3780242328
 21
205.0843897383
  0
LINE
  5
30F
100
AcDbEntity
  8
0
100
AcDbLine
 62
7
  6
CONTINUOUS
 10
75.9069266971
 20
263.6887531176
 11
75.9173761898
 21
263.7119075739
  0
LINE
  5
310
100
AcDbEntity
  8
0
100
AcDbLine
 62
7
  6
CONTINUOUS
 10
95.2358877634
 20
250.9393966679
 11
95.2723199743
 21
250.9901776742
  0
LINE
  5
311
100
AcDbEntity
  8
0
100
AcDbLine
 62
7
  6
CONTINUOUS
 10
95.2358877634
 20
250.9393966679
 11
95.2732124148
 21
250.9898427844
  0
LINE
  5
312
100
AcDbEntity
  8
0
100
AcDbLine
 62
7
  6
CONTINUOUS
 10
114.1916207445
 20
270.0875631592
 11
114.1412546326
 21
270.1002234862
  0
LINE
  5
313
100
AcDbEntity
  8
0
100
AcDbLine
 62
7
  6
CONTINUOUS
 10
51.7629379231
 20
269.6176264393
 11
51.7455185553
 21
269.6252549618
  0
LINE
  5
314
100
AcDbEntity
  8
0
100
AcDbLine
 62
7
  6
CONTINUOUS
 10
79.8827353333
 20
250.1525268882
 11
79.7737336921
 21
250.2154843128
  0
LINE
  5
315
100
AcDbEntity
  8
0
100
AcDbLine
 62
7
  6
CONTINUOUS
 10
27.9543575325
 20
254.0084764524
 11
28.4473132229
 21
253.1250847473
  0
LINE
  5
316
100
AcDbEntity
  8
0
100
AcDbLine
 62
7
  6
CONTINUOUS
 10
29.3903819847
 20
251.856230573
 11
29.5407517933
 21
251.5867632676
  0
LINE
  5
317
100
AcDbEntity
  8
0
100
AcDbLine
 62
7
  6
CONTINUOUS
 10
30.2292196891
 20
250.8920457449
 11
29.7362639986
 21
251.77543745
  0
LINE
  5
318
100
AcDbEntity
  8
0
100
AcDbLine
 62
7
  6
CONTINUOUS
 10
40.3346288507
 20
196.8837963022
 11
39.5429978774
 21
202.1652082147
  0
LINE
  5
319
100
AcDbEntity
  8
0
100
AcDbLine
 62
7
  6
CONTINUOUS
 10
31.8100589075
 20
253.7559587815
 11
30.8628844696
 21
260.0750879459
  0
LINE
  5
31A
100
AcDbEntity
  8
0
100
AcDbLine
 62
7
  6
CONTINUOUS
 10
31.8417807199
 20
259.9379900037
 11
32.7889551578
 21
253.6188608393
  0
LINE
  5
31B
100
AcDbEntity
  8
0
100
AcDbLine
 62
7
  6
CONTINUOUS
 10
41.3135251009
 20
196.74669836
 11
40.366350661
 21
203.0658275239
  0
LINE
  5
31C
100
AcDbEntity
  8
0
100
AcDbLine
 62
7
  6
CONTINUOUS
 10
35.974012267
 20
261.0456573256
 11
36.0647567329
 21
260.4402503615
  0
LINE
  5
31D
100
AcDbEntity
  8
0
100
AcDbLine
 62
7
  6
CONTINUOUS
 10
54.1801959
 20
279.8184328879
 11
54.1801959
 21
281.8021559686
  0
LINE
  5
31E
100
AcDbEntity
  8
0
100
AcDbLine
 62
7
  6
CONTINUOUS
 10
51.25567716
 20
276.3063704127
 11
51.2253339834
 21
276.3340348941
  0
LINE
  5
31F
100
AcDbEntity
  8
0
100
AcDbLine
 62
7
  6
CONTINUOUS
 10
46.0048892705
 20
274.9392207757
 11
45.9965822477
 21
274.9488676811
  0
LINE
  5
320
100
AcDbEntity
  8
0
100
AcDbLine
 62
7
  6
CONTINUOUS
 10
108.8492987931
 20
254.0011243454
 11
108.8169994715
 21
253.9364495977
  0
LINE
  5
321
100
AcDbEntity
  8
0
100
AcDbLine
 62
7
  6
CONTINUOUS
 10
103.9566644752
 20
265.987368437
 11
103.9230525232
 21
266.0068004354
  0
LINE
  5
322
100
AcDbEntity
  8
0
100
AcDbLine
 62
7
  6
CONTINUOUS
 10
51.2532109949
 20
276.3059897233
 11
51.2253339834
 21
276.3340348941
  0
LINE
  5
323
100
AcDbEntity
  8
0
100
AcDbLine
 62
7
  6
CONTINUOUS
 10
64.7845109548
 20
251.8749206207
 11
64.8239848616
 21
251.8003424053
  0
LINE
  5
324
100
AcDbEntity
  8
0
100
AcDbLine
 62
7
  6
CONTINUOUS
 10
78.6029310754
 20
199.8331801285
 11
78.9728027821
 21
197.3655595978
  0
LINE
  5
325
100
AcDbEntity
  8
0
100
AcDbLine
 62
7
  6
CONTINUOUS
 10
76.6290525091
 20
197.6925448423
 11
76.3217615121
 21
200.0828195251
  0
LINE
  5
326
100
AcDbEntity
  8
0
100
AcDbLine
 62
7
  6
CONTINUOUS
 10
118.4494679531
 20
258.7503684101
 11
118.4641701733
 21
258.8079538859
  0
LINE
  5
327
100
AcDbEntity
  8
0
100
AcDbLine
 62
7
  6
CONTINUOUS
 10
90.5130022838
 20
263.7403882131
 11
90.5014895509
 21
263.7634506157
  0
LINE
  5
328
100
AcDbEntity
  8
0
100
AcDbLine
 62
7
  6
CONTINUOUS
 10
105.6410480134
 20
265.4617208188
 11
105.655070283
 21
265.3061028225
  0
LINE
  5
329
100
AcDbEntity
  8
0
100
AcDbLine
 62
7
  6
CONTINUOUS
 10
111.8301959
 20
281.0514110559
 11
111.8301809356
 21
281.0629931628
  0
LINE
  5
32A
100
AcDbEntity
  8
0
100
AcDbLine
 62
7
  6
CONTINUOUS
 10
111.5801959
 20
279.9305033914
 11
111.5801959
 21
281.8021559686
  0
LINE
  5
32B
100
AcDbEntity
  8
0
100
AcDbLine
 62
7
  6
CONTINUOUS
 10
119.8996292001
 20
275.2243194409
 11
119.8975505544
 21
275.2134257257
  0
LINE
  5
32C
100
AcDbEntity
  8
0
100
AcDbLine
 62
7
  6
CONTINUOUS
 10
118.4494679531
 20
258.7503684101
 11
118.4630187206
 21
258.8075819189
  0
LINE
  5
32D
100
AcDbEntity
  8
0
100
AcDbLine
 62
7
  6
CONTINUOUS
 10
113.9946750047
 20
286.5397026482
 11
114.0114949796
 21
286.5250538625
  0
LINE
  5
32E
100
AcDbEntity
  8
0
100
AcDbLine
 62
7
  6
CONTINUOUS
 10
114.0121525999
 20
286.542707656
 11
114.028496811
 21
286.5279674932
  0
LWPOLYLINE
  5
32F
100
AcDbEntity
  8
0
100
AcDbPolyline
 62
7
  6
CONTINUOUS
 90
3
 70
0
 10
123.3409688433
 20
267.6700078183
 10
123.2640168042
 20
269.3777165283
 10
122.7066173764
 20
273.6883421734
  0
LINE
  5
330
100
AcDbEntity
  8
0
100
AcDbLine
 62
7
  6
CONTINUOUS
 10
123.3409668708
 20
267.6699756463
 11
123.3650731989
 21
265.6910421424
  0
LINE
  5
331
100
AcDbEntity
  8
0
100
AcDbLine
 62
7
  6
CONTINUOUS
 10
122.6668325577
 20
264.7514398355
 11
122.6668372013
 21
264.6482776045
  0
LINE
  5
332
100
AcDbEntity
  8
0
100
AcDbLine
 62
7
  6
CONTINUOUS
 10
123.329728939
 20
265.0847437192
 11
123.3410182504
 21
267.6678562994
  0
LINE
  5
333
100
AcDbEntity
  8
0
100
AcDbLine
 62
7
  6
CONTINUOUS
 10
122.8268588592
 20
264.6911722872
 11
122.8271665787
 21
264.7506103268
  0
LINE
  5
334
100
AcDbEntity
  8
0
100
AcDbLine
 62
7
  6
CONTINUOUS
 10
122.8268588592
 20
264.6911722872
 11
122.8295995208
 21
264.7513379273
  0
LINE
  5
335
100
AcDbEntity
  8
0
100
AcDbLine
 62
7
  6
CONTINUOUS
 10
123.3297285368
 20
265.0847367371
 11
123.3649410841
 21
265.6910391975
  0
LINE
  5
336
100
AcDbEntity
  8
0
100
AcDbLine
 62
7
  6
CONTINUOUS
 10
119.7130118063
 20
281.0994111358
 11
119.7180871913
 21
281.0932569656
  0
LINE
  5
337
100
AcDbEntity
  8
0
100
AcDbLine
 62
7
  6
CONTINUOUS
 10
119.7180871913
 20
281.0932569656
 11
119.7264203105
 21
281.0826891961
  0
LINE
  5
338
100
AcDbEntity
  8
0
100
AcDbLine
 62
7
  6
CONTINUOUS
 10
120.2272912326
 20
280.5442398089
 11
118.8556191329
 21
282.4665940417
  0
LINE
  5
339
100
AcDbEntity
  8
0
100
AcDbLine
 62
7
  6
CONTINUOUS
 10
121.6769087932
 20
277.4118442741
 11
120.2272912326
 21
280.5442398089
  0
LINE
  5
33A
100
AcDbEntity
  8
0
100
AcDbLine
 62
7
  6
CONTINUOUS
 10
119.6248460897
 20
281.0635571445
 11
119.6200465315
 21
281.0755732946
  0
LINE
  5
33B
100
AcDbEntity
  8
0
100
AcDbLine
 62
7
  6
CONTINUOUS
 10
119.5452807533
 20
281.0287845467
 11
119.5411163872
 21
281.0410502101
  0
LINE
  5
33C
100
AcDbEntity
  8
0
100
AcDbLine
 62
7
  6
CONTINUOUS
 10
122.7066173764
 20
273.6883421734
 11
121.6769087932
 21
277.4118442741
  0
LWPOLYLINE
  5
33D
100
AcDbEntity
  8
0
100
AcDbPolyline
 62
7
  6
CONTINUOUS
 90
4
 70
0
 10
121.7742943583
 20
276.0963212894
 10
121.3185140417
 20
278.0780026155
 10
120.5903134468
 20
279.8192419959
 10
119.7218278915
 20
281.0887247968
  0
LINE
  5
33E
100
AcDbEntity
  8
0
100
AcDbLine
 62
7
  6
CONTINUOUS
 10
120.1568442083
 20
279.2275051808
 11
120.2342318817
 21
278.8018237215
  0
LINE
  5
33F
100
AcDbEntity
  8
0
100
AcDbLine
 62
7
  6
CONTINUOUS
 10
121.774369136
 20
276.0957257955
 11
121.773678306
 21
276.1001095902
  0
ARC
  5
340
100
AcDbEntity
  8
0
100
AcDbCircle
 62
7
  6
CONTINUOUS
 10
-78.94734382
 20
24.2329861065
 40
248.6900194545
100
AcDbArc
 50
69.9928016549
 51
70.6118369936
  0
ARC
  5
341
100
AcDbEntity
  8
0
100
AcDbCircle
 62
7
  6
CONTINUOUS
 10
-293.4386723576
 20
250.3796205307
 40
386.1252669248
100
AcDbArc
 50
1.6108758671
 51
1.988765584
  0
ARC
  5
342
100
AcDbEntity
  8
0
100
AcDbCircle
 62
7
  6
CONTINUOUS
 10
32.4124883574
 20
200.579804663
 40
4.8571457567
100
AcDbArc
 50
272.6642000027
 51
279.3890238679
  0
ARC
  5
343
100
AcDbEntity
  8
0
100
AcDbCircle
 62
7
  6
CONTINUOUS
 10
32.4182646886
 20
200.4910272468
 40
4.7681960849
100
AcDbArc
 50
271.8651907141
 51
272.6444512127
  0
ARC
  5
344
100
AcDbEntity
  8
0
100
AcDbCircle
 62
7
  6
CONTINUOUS
 10
32.4188993934
 20
200.4689091473
 40
4.7460690466
100
AcDbArc
 50
266.8082199293
 51
271.8662232638
  0
ARC
  5
345
100
AcDbEntity
  8
0
100
AcDbCircle
 62
7
  6
CONTINUOUS
 10
-31.9413795708
 20
252.985252246
 40
138.1469748059
100
AcDbArc
 50
5.1816143497
 51
5.5325207501
  0
ARC
  5
346
100
AcDbEntity
  8
0
100
AcDbCircle
 62
7
  6
CONTINUOUS
 10
-30.2135776822
 20
253.1393376793
 40
136.4123149644
100
AcDbArc
 50
4.4747765478
 51
5.1170736885
  0
ARC
  5
347
100
AcDbEntity
  8
0
100
AcDbCircle
 62
7
  6
CONTINUOUS
 10
27.1039391384
 20
257.6858204693
 40
89.0558916884
100
AcDbArc
 50
6.7358629295
 51
8.3446601189
  0
ARC
  5
348
100
AcDbEntity
  8
0
100
AcDbCircle
 62
7
  6
CONTINUOUS
 10
28.8798373409
 20
254.0415405085
 40
30.7356940363
100
AcDbArc
 50
353.6179650609
 51
357.9931451488
  0
ARC
  5
349
100
AcDbEntity
  8
0
100
AcDbCircle
 62
7
  6
CONTINUOUS
 10
24.9156881687
 20
254.5919543172
 40
26.1126586047
100
AcDbArc
 50
353.6278312265
 51
3.9402766261
  0
ARC
  5
34A
100
AcDbEntity
  8
0
100
AcDbCircle
 62
7
  6
CONTINUOUS
 10
10.1132147512
 20
238.8717753823
 40
21.5277420927
100
AcDbArc
 50
151.3975896211
 51
159.6118704669
  0
ARC
  5
34B
100
AcDbEntity
  8
0
100
AcDbCircle
 62
7
  6
CONTINUOUS
 10
30.6781351922
 20
232.5232818691
 40
19.7259277576
100
AcDbArc
 50
94.9217573473
 51
95.6639242283
  0
ARC
  5
34C
100
AcDbEntity
  8
0
100
AcDbCircle
 62
7
  6
CONTINUOUS
 10
0.7356772833
 20
238.7348815825
 40
11.9035692575
100
AcDbArc
 50
204.8482713379
 51
205.4025089085
  0
ARC
  5
34D
100
AcDbEntity
  8
0
100
AcDbCircle
 62
7
  6
CONTINUOUS
 10
-3.0209608286
 20
241.2338964134
 40
9.6792144698
100
AcDbArc
 50
208.1940955738
 51
211.0725716647
  0
ARC
  5
34E
100
AcDbEntity
  8
0
100
AcDbCircle
 62
7
  6
CONTINUOUS
 10
27.9090799993
 20
252.5283333964
 40
7.634365882
100
AcDbArc
 50
188.2134701438
 51
188.5245264392
  0
ARC
  5
34F
100
AcDbEntity
  8
0
100
AcDbCircle
 62
7
  6
CONTINUOUS
 10
26.2589024633
 20
254.5861171226
 40
5.0399440956
100
AcDbArc
 50
105.0059531364
 51
105.6155874134
  0
ARC
  5
350
100
AcDbEntity
  8
0
100
AcDbCircle
 62
7
  6
CONTINUOUS
 10
27.7324666917
 20
251.6429568173
 40
2.653824064
100
AcDbArc
 50
243.5630417396
 51
244.19727667
  0
ARC
  5
351
100
AcDbEntity
  8
0
100
AcDbCircle
 62
7
  6
CONTINUOUS
 10
27.7181780687
 20
251.612545211
 40
2.6202251152
100
AcDbArc
 50
244.1891125413
 51
251.5153458013
  0
ARC
  5
352
100
AcDbEntity
  8
0
100
AcDbCircle
 62
7
  6
CONTINUOUS
 10
27.7009038452
 20
251.5641640571
 40
2.5688634207
100
AcDbArc
 50
251.5386254479
 51
254.3754420311
  0
ARC
  5
353
100
AcDbEntity
  8
0
100
AcDbCircle
 62
7
  6
CONTINUOUS
 10
28.3308864471
 20
252.5567771709
 40
2.5651584616
100
AcDbArc
 50
344.3089076868
 51
355.5693788406
  0
ARC
  5
354
100
AcDbEntity
  8
0
100
AcDbCircle
 62
7
  6
CONTINUOUS
 10
29.8526907739
 20
252.3437450265
 40
2.565158461
100
AcDbArc
 50
164.3089076855
 51
175.5693788419
  0
ARC
  5
355
100
AcDbEntity
  8
0
100
AcDbCircle
 62
7
  6
CONTINUOUS
 10
28.2898543711
 20
251.5077128595
 40
2.5566492729
100
AcDbArc
 50
265.71488475
 51
277.4998032296
  0
ARC
  5
356
100
AcDbEntity
  8
0
100
AcDbCircle
 62
7
  6
CONTINUOUS
 10
27.696748919
 20
251.5493521146
 40
2.5534797635
100
AcDbArc
 50
254.3757124306
 51
259.9753764066
  0
ARC
  5
357
100
AcDbEntity
  8
0
100
AcDbCircle
 62
7
  6
CONTINUOUS
 10
27.6946777858
 20
251.5395214264
 40
2.5434386563
100
AcDbArc
 50
259.9827713485
 51
265.6713557145
  0
ARC
  5
358
100
AcDbEntity
  8
0
100
AcDbCircle
 62
7
  6
CONTINUOUS
 10
29.8236352682
 20
252.344981385
 40
2.5360944755
100
AcDbArc
 50
175.5465172137
 51
186.8772030517
  0
ARC
  5
359
100
AcDbEntity
  8
0
100
AcDbCircle
 62
7
  6
CONTINUOUS
 10
28.3599419534
 20
252.5555408123
 40
2.5360944754
100
AcDbArc
 50
355.5465172137
 51
6.8772030518
  0
ARC
  5
35A
100
AcDbEntity
  8
0
100
AcDbCircle
 62
7
  6
CONTINUOUS
 10
28.5876674521
 20
253.5997557465
 40
2.5325954507
100
AcDbArc
 50
78.4128996418
 51
97.5518137882
  0
ARC
  5
35B
100
AcDbEntity
  8
0
100
AcDbCircle
 62
7
  6
CONTINUOUS
 10
28.2890220821
 20
251.4693314256
 40
2.5183137674
100
AcDbArc
 50
256.5757058821
 51
265.6685194954
  0
ARC
  5
35C
100
AcDbEntity
  8
0
100
AcDbCircle
 62
7
  6
CONTINUOUS
 10
27.8568088627
 20
252.4417611655
 40
0.897885158
100
AcDbArc
 50
300.8865027495
 51
302.5038363097
  0
ARC
  5
35D
100
AcDbEntity
  8
0
100
AcDbCircle
 62
7
  6
CONTINUOUS
 10
98.044656814
 20
215.8857665675
 40
48.1585837964
100
AcDbArc
 50
98.9332551077
 51
103.9064520986
  0
ARC
  5
35E
100
AcDbEntity
  8
0
100
AcDbCircle
 62
7
  6
CONTINUOUS
 10
75.615941896
 20
217.900838229
 40
45.5073989867
100
AcDbArc
 50
89.6845616463
 51
95.0326144217
  0
ARC
  5
35F
100
AcDbEntity
  8
0
100
AcDbCircle
 62
7
  6
CONTINUOUS
 10
58.1202270792
 20
202.3232593992
 40
22.2354995463
100
AcDbArc
 50
182.7090677884
 51
183.0723846014
  0
ARC
  5
360
100
AcDbEntity
  8
0
100
AcDbCircle
 62
7
  6
CONTINUOUS
 10
38.2555306953
 20
181.9702485556
 40
19.7259277556
100
AcDbArc
 50
94.9217573473
 51
95.6639242283
  0
ARC
  5
361
100
AcDbEntity
  8
0
100
AcDbCircle
 62
7
  6
CONTINUOUS
 10
74.093457904
 20
222.5548722633
 40
17.8074796347
100
AcDbArc
 50
262.0366031624
 51
275.8954901379
  0
ARC
  5
362
100
AcDbEntity
  8
0
100
AcDbCircle
 62
7
  6
CONTINUOUS
 10
51.8657437416
 20
202.0286773985
 40
15.9740783263
100
AcDbArc
 50
182.3945974566
 51
182.6012802124
  0
ARC
  5
363
100
AcDbEntity
  8
0
100
AcDbCircle
 62
7
  6
CONTINUOUS
 10
51.4375054229
 20
199.609294475
 40
15.7362130535
100
AcDbArc
 50
168.3848767343
 51
168.6202656821
  0
ARC
  5
364
100
AcDbEntity
  8
0
100
AcDbCircle
 62
7
  6
CONTINUOUS
 10
42.8264245659
 20
200.0927891066
 40
7.036094697
100
AcDbArc
 50
168.8883511129
 51
169.6139203622
  0
ARC
  5
365
100
AcDbEntity
  8
0
100
AcDbCircle
 62
7
  6
CONTINUOUS
 10
42.8263332202
 20
202.9098293435
 40
6.8184909665
100
AcDbArc
 50
181.6439673753
 51
182.3765550835
  0
ARC
  5
366
100
AcDbEntity
  8
0
100
AcDbCircle
 62
7
  6
CONTINUOUS
 10
33.2324364879
 20
200.3220471139
 40
4.713363246
100
AcDbArc
 50
258.423379782
 51
262.2873921209
  0
ARC
  5
367
100
AcDbEntity
  8
0
100
AcDbCircle
 62
7
  6
CONTINUOUS
 10
79.9465271824
 20
205.1038976184
 40
4.0325286189
100
AcDbArc
 50
183.7297745866
 51
188.5136288261
  0
ARC
  5
368
100
AcDbEntity
  8
0
100
AcDbCircle
 62
7
  6
CONTINUOUS
 10
77.7554655872
 20
205.4606431958
 40
4.0325286189
100
AcDbArc
 50
3.7297745867
 51
8.5136288261
  0
ARC
  5
369
100
AcDbEntity
  8
0
100
AcDbCircle
 62
7
  6
CONTINUOUS
 10
77.8680901668
 20
205.4775763346
 40
3.9186382259
100
AcDbArc
 50
8.5125603086
 51
13.3886540013
  0
ARC
  5
36A
100
AcDbEntity
  8
0
100
AcDbCircle
 62
7
  6
CONTINUOUS
 10
35.4425992238
 20
203.5140058929
 40
3.5698282368
100
AcDbArc
 50
66.3909523126
 51
73.9721750733
  0
ARC
  5
36B
100
AcDbEntity
  8
0
100
AcDbCircle
 62
7
  6
CONTINUOUS
 10
35.3098621953
 20
201.0899235027
 40
2.6538240649
100
AcDbArc
 50
243.5630417397
 51
244.1972766699
  0
ARC
  5
36C
100
AcDbEntity
  8
0
100
AcDbCircle
 62
7
  6
CONTINUOUS
 10
35.2955735719
 20
201.0595118956
 40
2.6202251152
100
AcDbArc
 50
244.1891125413
 51
251.5153458013
  0
ARC
  5
36D
100
AcDbEntity
  8
0
100
AcDbCircle
 62
7
  6
CONTINUOUS
 10
35.2782993485
 20
201.0111307417
 40
2.5688634207
100
AcDbArc
 50
251.5386254479
 51
254.375442031
  0
ARC
  5
36E
100
AcDbEntity
  8
0
100
AcDbCircle
 62
7
  6
CONTINUOUS
 10
35.9082819503
 20
202.0037438554
 40
2.5651584616
100
AcDbArc
 50
344.3089076868
 51
355.5693788406
  0
ARC
  5
36F
100
AcDbEntity
  8
0
100
AcDbCircle
 62
7
  6
CONTINUOUS
 10
37.4300862771
 20
201.7907117111
 40
2.565158461
100
AcDbArc
 50
164.3089076855
 51
175.5693788419
  0
ARC
  5
370
100
AcDbEntity
  8
0
100
AcDbCircle
 62
7
  6
CONTINUOUS
 10
35.8672498743
 20
200.9546795441
 40
2.5566492729
100
AcDbArc
 50
265.71488475
 51
277.4998032296
  0
ARC
  5
371
100
AcDbEntity
  8
0
100
AcDbCircle
 62
7
  6
CONTINUOUS
 10
35.2741444222
 20
200.9963187991
 40
2.5534797635
100
AcDbArc
 50
254.3757124306
 51
259.9753764066
  0
ARC
  5
372
100
AcDbEntity
  8
0
100
AcDbCircle
 62
7
  6
CONTINUOUS
 10
35.272073289
 20
200.986488111
 40
2.5434386563
100
AcDbArc
 50
259.9827713485
 51
265.6713557145
  0
ARC
  5
373
100
AcDbEntity
  8
0
100
AcDbCircle
 62
7
  6
CONTINUOUS
 10
37.4010307714
 20
201.7919480696
 40
2.5360944755
100
AcDbArc
 50
175.5465172137
 51
186.8772030517
  0
ARC
  5
374
100
AcDbEntity
  8
0
100
AcDbCircle
 62
7
  6
CONTINUOUS
 10
35.9373374566
 20
202.0025074969
 40
2.5360944754
100
AcDbArc
 50
355.5465172137
 51
6.8772030518
  0
ARC
  5
375
100
AcDbEntity
  8
0
100
AcDbCircle
 62
7
  6
CONTINUOUS
 10
36.1650629553
 20
203.0467224311
 40
2.5325954507
100
AcDbArc
 50
78.4128996418
 51
97.5518137882
  0
ARC
  5
376
100
AcDbEntity
  8
0
100
AcDbCircle
 62
7
  6
CONTINUOUS
 10
35.8664175853
 20
200.9162981101
 40
2.5183137674
100
AcDbArc
 50
256.5757058821
 51
265.6685194954
  0
ARC
  5
377
100
AcDbEntity
  8
0
100
AcDbCircle
 62
7
  6
CONTINUOUS
 10
35.434204366
 20
201.8887278499
 40
0.8978851578
100
AcDbArc
 50
300.8865027493
 51
302.5038363099
  0
ARC
  5
378
100
AcDbEntity
  8
0
100
AcDbCircle
 62
7
  6
CONTINUOUS
 10
49.4188187089
 20
264.6961903552
 40
73.2480339854
100
AcDbArc
 50
0.0432174511
 51
8.957294243
  0
ARC
  5
379
100
AcDbEntity
  8
0
100
AcDbCircle
 62
7
  6
CONTINUOUS
 10
49.5270421862
 20
263.5984458853
 40
71.5129246475
100
AcDbArc
 50
8.0552758344
 51
10.0210886473
  0
ARC
  5
37A
100
AcDbEntity
  8
0
100
AcDbCircle
 62
7
  6
CONTINUOUS
 10
77.8388211463
 20
239.7628613197
 40
54.3327134436
100
AcDbArc
 50
104.8322825761
 51
105.0269279102
  0
ARC
  5
37B
100
AcDbEntity
  8
0
100
AcDbCircle
 62
7
  6
CONTINUOUS
 10
77.4761320079
 20
241.0292265813
 40
53.0156523662
100
AcDbArc
 50
105.0032514335
 51
105.7575135566
  0
ARC
  5
37C
100
AcDbEntity
  8
0
100
AcDbCircle
 62
7
  6
CONTINUOUS
 10
78.5598489721
 20
245.0204216611
 40
47.9743916234
100
AcDbArc
 50
104.4058173194
 51
105.0040187829
  0
ARC
  5
37D
100
AcDbEntity
  8
0
100
AcDbCircle
 62
7
  6
CONTINUOUS
 10
43.3329258214
 20
225.9106589696
 40
24.4889816286
100
AcDbArc
 50
253.4892472288
 51
254.0910857903
  0
ARC
  5
37E
100
AcDbEntity
  8
0
100
AcDbCircle
 62
7
  6
CONTINUOUS
 10
50.5428315751
 20
252.8762927146
 40
22.2354995453
100
AcDbArc
 50
182.7090677883
 51
183.0723846014
  0
ARC
  5
37F
100
AcDbEntity
  8
0
100
AcDbCircle
 62
7
  6
CONTINUOUS
 10
51.9761235024
 20
228.9520086347
 40
21.505165391
100
AcDbArc
 50
296.6374695182
 51
304.8836219199
  0
ARC
  5
380
100
AcDbEntity
  8
0
100
AcDbCircle
 62
7
  6
CONTINUOUS
 10
54.34823396
 20
227.7916287349
 40
16.9991965384
100
AcDbArc
 50
288.5450496528
 51
290.3753463987
  0
ARC
  5
381
100
AcDbEntity
  8
0
100
AcDbCircle
 62
7
  6
CONTINUOUS
 10
64.9640913762
 20
245.2157801789
 40
16.2058850534
100
AcDbArc
 50
139.9255298196
 51
140.1958477715
  0
ARC
  5
382
100
AcDbEntity
  8
0
100
AcDbCircle
 62
7
  6
CONTINUOUS
 10
44.2883482401
 20
252.581710714
 40
15.974078328
100
AcDbArc
 50
182.3945974566
 51
182.6012802124
  0
ARC
  5
383
100
AcDbEntity
  8
0
100
AcDbCircle
 62
7
  6
CONTINUOUS
 10
43.8601099245
 20
250.1623277895
 40
15.7362130583
100
AcDbArc
 50
168.3848767344
 51
168.620265682
  0
ARC
  5
384
100
AcDbEntity
  8
0
100
AcDbCircle
 62
7
  6
CONTINUOUS
 10
52.8280620311
 20
256.5351836232
 40
9.0053485393
100
AcDbArc
 50
152.5590601599
 51
153.8369185714
  0
ARC
  5
385
100
AcDbEntity
  8
0
100
AcDbCircle
 62
7
  6
CONTINUOUS
 10
35.2490290626
 20
250.645822422
 40
7.0360946968
100
AcDbArc
 50
168.8883511129
 51
169.6139203622
  0
ARC
  5
386
100
AcDbEntity
  8
0
100
AcDbCircle
 62
7
  6
CONTINUOUS
 10
35.2489377176
 20
253.4628626589
 40
6.8184909671
100
AcDbArc
 50
181.6439673753
 51
182.3765550834
  0
ARC
  5
387
100
AcDbEntity
  8
0
100
AcDbCircle
 62
7
  6
CONTINUOUS
 10
45.9910368504
 20
266.1768799118
 40
5.4129835196
100
AcDbArc
 50
89.8774754144
 51
91.7778075188
  0
ARC
  5
388
100
AcDbEntity
  8
0
100
AcDbCircle
 62
7
  6
CONTINUOUS
 10
65.0797740999
 20
301.7736809162
 40
34.8042979314
100
AcDbArc
 50
247.5042740538
 51
249.9350354442
  0
ARC
  5
389
100
AcDbEntity
  8
0
100
AcDbCircle
 62
7
  6
CONTINUOUS
 10
65.0268163339
 20
298.4005814252
 40
31.3900769056
100
AcDbArc
 50
245.3651038584
 51
246.0693857333
  0
ARC
  5
38A
100
AcDbEntity
  8
0
100
AcDbCircle
 62
7
  6
CONTINUOUS
 10
65.3096208645
 20
292.9413190691
 40
26.6299261771
100
AcDbArc
 50
239.9937502105
 51
240.7409792722
  0
ARC
  5
38B
100
AcDbEntity
  8
0
100
AcDbCircle
 62
7
  6
CONTINUOUS
 10
35.7555303191
 20
276.463692288
 40
24.4889816316
100
AcDbArc
 50
253.4892472288
 51
254.0910857903
  0
ARC
  5
38C
100
AcDbEntity
  8
0
100
AcDbCircle
 62
7
  6
CONTINUOUS
 10
66.9583776749
 20
273.109870904
 40
17.4590760804
100
AcDbArc
 50
123.2277296512
 51
123.54080276
  0
ARC
  5
38D
100
AcDbEntity
  8
0
100
AcDbCircle
 62
7
  6
CONTINUOUS
 10
60.3314716683
 20
277.0004553516
 40
12.834554341
100
AcDbArc
 50
132.4290838983
 51
134.0702865345
  0
ARC
  5
38E
100
AcDbEntity
  8
0
100
AcDbCircle
 62
7
  6
CONTINUOUS
 10
60.2735113101
 20
285.3138577951
 40
12.7478431499
100
AcDbArc
 50
224.960488778
 51
227.6971984231
  0
ARC
  5
38F
100
AcDbEntity
  8
0
100
AcDbCircle
 62
7
  6
CONTINUOUS
 10
58.6508003047
 20
278.6332138251
 40
10.4905449513
100
AcDbArc
 50
138.4044929526
 51
138.9057687697
  0
ARC
  5
390
100
AcDbEntity
  8
0
100
AcDbCircle
 62
7
  6
CONTINUOUS
 10
55.3991890008
 20
277.3674418579
 40
9.9736631962
100
AcDbArc
 50
159.6960687788
 51
160.0817888342
  0
ARC
  5
391
100
AcDbEntity
  8
0
100
AcDbCircle
 62
7
  6
CONTINUOUS
 10
55.3614380815
 20
277.3811101434
 40
9.9335140513
100
AcDbArc
 50
160.0817295657
 51
160.5690582486
  0
ARC
  5
392
100
AcDbEntity
  8
0
100
AcDbCircle
 62
7
  6
CONTINUOUS
 10
53.8333458894
 20
281.483650304
 40
9.8896948525
100
AcDbArc
 50
219.768332749
 51
221.2865335112
  0
ARC
  5
393
100
AcDbEntity
  8
0
100
AcDbCircle
 62
7
  6
CONTINUOUS
 10
55.1238243522
 20
277.4615227872
 40
9.6826836761
100
AcDbArc
 50
160.5500370868
 51
169.4913838881
  0
ARC
  5
394
100
AcDbEntity
  8
0
100
AcDbCircle
 62
7
  6
CONTINUOUS
 10
53.3758218111
 20
278.9134872161
 40
8.0173614552
100
AcDbArc
 50
207.9002635241
 51
209.5605153645
  0
ARC
  5
395
100
AcDbEntity
  8
0
100
AcDbCircle
 62
7
  6
CONTINUOUS
 10
54.8945747493
 20
281.0277616139
 40
6.0091715798
100
AcDbArc
 50
160.5712902077
 51
162.3839569837
  0
ARC
  5
396
100
AcDbEntity
  8
0
100
AcDbCircle
 62
7
  6
CONTINUOUS
 10
59.4991561526
 20
282.0333361032
 40
5.3524159372
100
AcDbArc
 50
200.1312779124
 51
203.5390179328
  0
ARC
  5
397
100
AcDbEntity
  8
0
100
AcDbCircle
 62
7
  6
CONTINUOUS
 10
58.8596620587
 20
280.1130635765
 40
4.9381655482
100
AcDbArc
 50
162.7240287672
 51
165.6059170595
  0
ARC
  5
398
100
AcDbEntity
  8
0
100
AcDbCircle
 62
7
  6
CONTINUOUS
 10
50.5716427329
 20
280.0343808845
 40
4.7606208568
100
AcDbArc
 50
171.6858867403
 51
180.7655069424
  0
ARC
  5
399
100
AcDbEntity
  8
0
100
AcDbCircle
 62
7
  6
CONTINUOUS
 10
58.6871967248
 20
280.1571635554
 40
4.7601512965
100
AcDbArc
 50
165.6040212605
 51
169.4644805804
  0
ARC
  5
39A
100
AcDbEntity
  8
0
100
AcDbCircle
 62
7
  6
CONTINUOUS
 10
58.5463564715
 20
280.1837233748
 40
4.6168290469
100
AcDbArc
 50
169.4689498092
 51
173.3765967449
  0
ARC
  5
39B
100
AcDbEntity
  8
0
100
AcDbCircle
 62
7
  6
CONTINUOUS
 10
58.4788856334
 20
281.0478734488
 40
4.5486909401
100
AcDbArc
 50
170.1755854146
 51
179.9554399321
  0
ARC
  5
39C
100
AcDbEntity
  8
0
100
AcDbCircle
 62
7
  6
CONTINUOUS
 10
46.0748530863
 20
280.6928432168
 40
0.2159115759
100
AcDbArc
 50
141.1202093434
 51
149.8812490139
  0
ARC
  5
39D
100
AcDbEntity
  8
0
100
AcDbCircle
 62
7
  6
CONTINUOUS
 10
46.072370383
 20
280.6831768914
 40
0.215382982
100
AcDbArc
 50
141.1453757931
 51
147.2004339957
  0
ARC
  5
39E
100
AcDbEntity
  8
0
100
AcDbCircle
 62
7
  6
CONTINUOUS
 10
90.4117694203
 20
306.1145114374
 40
42.3515261384
100
AcDbArc
 50
288.6520819136
 51
289.2278807953
  0
ARC
  5
39F
100
AcDbEntity
  8
0
100
AcDbCircle
 62
7
  6
CONTINUOUS
 10
91.6770341605
 20
308.7307610603
 40
40.03432998
100
AcDbArc
 50
296.262218056
 51
296.4675788235
  0
ARC
  5
3A0
100
AcDbEntity
  8
0
100
AcDbCircle
 62
7
  6
CONTINUOUS
 10
90.3595913907
 20
302.4643389177
 40
39.2259453271
100
AcDbArc
 50
290.5301288591
 51
292.8028461206
  0
ARC
  5
3A1
100
AcDbEntity
  8
0
100
AcDbCircle
 62
7
  6
CONTINUOUS
 10
90.844167006
 20
300.7882111803
 40
32.343700517
100
AcDbArc
 50
279.8011223575
 51
280.1830164074
  0
ARC
  5
3A2
100
AcDbEntity
  8
0
100
AcDbCircle
 62
7
  6
CONTINUOUS
 10
101.6230206599
 20
290.9503745422
 40
24.3194362774
100
AcDbArc
 50
300.980207907
 51
301.7750552917
  0
ARC
  5
3A3
100
AcDbEntity
  8
0
100
AcDbCircle
 62
7
  6
CONTINUOUS
 10
69.7679671354
 20
295.0003489404
 40
22.9617194785
100
AcDbArc
 50
240.52501034
 51
243.8117916151
  0
ARC
  5
3A4
100
AcDbEntity
  8
0
100
AcDbCircle
 62
7
  6
CONTINUOUS
 10
96.9274641306
 20
270.0527907139
 40
21.0457125111
100
AcDbArc
 50
59.9912603778
 51
60.5008675772
  0
ARC
  5
3A5
100
AcDbEntity
  8
0
100
AcDbCircle
 62
7
  6
CONTINUOUS
 10
82.8755584035
 20
357.6970273977
 40
94.2425859051
100
AcDbArc
 50
266.0844273292
 51
274.6413580887
  0
ARC
  5
3A6
100
AcDbEntity
  8
0
100
AcDbCircle
 62
7
  6
CONTINUOUS
 10
82.6976703902
 20
354.5924444968
 40
91.1331135254
100
AcDbArc
 50
265.7332574367
 51
266.062715277
  0
ARC
  5
3A7
100
AcDbEntity
  8
0
100
AcDbCircle
 62
7
  6
CONTINUOUS
 10
83.1759658586
 20
353.1500911089
 40
89.686313315
100
AcDbArc
 50
274.6851038751
 51
275.017025199
  0
ARC
  5
3A8
100
AcDbEntity
  8
0
100
AcDbCircle
 62
7
  6
CONTINUOUS
 10
76.3171781012
 20
347.7486957814
 40
84.3423834474
100
AcDbArc
 50
269.7119769859
 51
271.0674562555
  0
ARC
  5
3A9
100
AcDbEntity
  8
0
100
AcDbCircle
 62
7
  6
CONTINUOUS
 10
78.4099149195
 20
346.880790786
 40
83.2296823174
100
AcDbArc
 50
268.2766691072
 51
268.6438140448
  0
ARC
  5
3AA
100
AcDbEntity
  8
0
100
AcDbCircle
 62
7
  6
CONTINUOUS
 10
81.1654226093
 20
336.3085124911
 40
73.1676833897
100
AcDbArc
 50
277.3399148679
 51
277.7397570342
  0
ARC
  5
3AB
100
AcDbEntity
  8
0
100
AcDbCircle
 62
7
  6
CONTINUOUS
 10
79.7056165826
 20
333.3781399028
 40
70.7564965796
100
AcDbArc
 50
278.8502348093
 51
280.3798227277
  0
ARC
  5
3AC
100
AcDbEntity
  8
0
100
AcDbCircle
 62
7
  6
CONTINUOUS
 10
73.6133512136
 20
332.1846762534
 40
67.5772541197
100
AcDbArc
 50
260.3267670831
 51
261.8924493058
  0
ARC
  5
3AD
100
AcDbEntity
  8
0
100
AcDbCircle
 62
7
  6
CONTINUOUS
 10
74.8041248536
 20
328.243596801
 40
63.6313783431
100
AcDbArc
 50
258.7247238034
 51
259.164676086
  0
ARC
  5
3AE
100
AcDbEntity
  8
0
100
AcDbCircle
 62
7
  6
CONTINUOUS
 10
77.845891372
 20
325.7871750239
 40
61.8867891427
100
AcDbArc
 50
255.5423173708
 51
255.9695728822
  0
ARC
  5
3AF
100
AcDbEntity
  8
0
100
AcDbCircle
 62
7
  6
CONTINUOUS
 10
88.6986036339
 20
322.8059399456
 40
58.8041332993
100
AcDbArc
 50
285.004861344
 51
285.44531481
  0
ARC
  5
3B0
100
AcDbEntity
  8
0
100
AcDbCircle
 62
7
  6
CONTINUOUS
 10
89.4127637494
 20
320.2358956076
 40
56.136706213
100
AcDbArc
 50
285.4413247924
 51
286.965110107
  0
ARC
  5
3B1
100
AcDbEntity
  8
0
100
AcDbCircle
 62
7
  6
CONTINUOUS
 10
87.9335786253
 20
322.6497518231
 40
54.3622730742
100
AcDbArc
 50
284.8108713753
 51
285.0055169826
  0
ARC
  5
3B2
100
AcDbEntity
  8
0
100
AcDbCircle
 62
7
  6
CONTINUOUS
 10
90.5655304096
 20
316.420174569
 40
52.1506714913
100
AcDbArc
 50
286.976959531
 51
288.1904195252
  0
ARC
  5
3B3
100
AcDbEntity
  8
0
100
AcDbCircle
 62
7
  6
CONTINUOUS
 10
87.322927304
 20
317.8992777879
 40
47.4973723709
100
AcDbArc
 50
284.7632169876
 51
285.0054067771
  0
ARC
  5
3B4
100
AcDbEntity
  8
0
100
AcDbCircle
 62
7
  6
CONTINUOUS
 10
158.3321161022
 20
-135.7337541107
 40
408.9853969766
100
AcDbArc
 50
111.0169344537
 51
111.1701028938
  0
ARC
  5
3B5
100
AcDbEntity
  8
0
100
AcDbCircle
 62
7
  6
CONTINUOUS
 10
500.4761070677
 20
250.0176517721
 40
422.8001702793
100
AcDbArc
 50
178.1833533196
 51
178.5285092344
  0
ARC
  5
3B6
100
AcDbEntity
  8
0
100
AcDbCircle
 62
7
  6
CONTINUOUS
 10
213.142303263
 20
164.4966208151
 40
146.231566431
100
AcDbArc
 50
137.2374414375
 51
139.9628578499
  0
ARC
  5
3B7
100
AcDbEntity
  8
0
100
AcDbCircle
 62
7
  6
CONTINUOUS
 10
204.7088217338
 20
252.0297860345
 40
141.2491277329
100
AcDbArc
 50
174.6161811454
 51
175.6434742037
  0
ARC
  5
3B8
100
AcDbEntity
  8
0
100
AcDbCircle
 62
7
  6
CONTINUOUS
 10
142.5320556063
 20
256.1393266006
 40
90.3251884302
100
AcDbArc
 50
171.7618726797
 51
173.3491938852
  0
ARC
  5
3B9
100
AcDbEntity
  8
0
100
AcDbCircle
 62
7
  6
CONTINUOUS
 10
118.1961029486
 20
267.0259343017
 40
75.103765246
100
AcDbArc
 50
172.3462349539
 51
177.5100099643
  0
ARC
  5
3BA
100
AcDbEntity
  8
0
100
AcDbCircle
 62
7
  6
CONTINUOUS
 10
117.7155133704
 20
265.8979523087
 40
73.3335706795
100
AcDbArc
 50
169.5273563278
 51
170.8792644442
  0
ARC
  5
3BB
100
AcDbEntity
  8
0
100
AcDbCircle
 62
7
  6
CONTINUOUS
 10
117.4222142066
 20
268.0076309179
 40
72.6845019168
100
AcDbArc
 50
169.9247057881
 51
171.0011654176
  0
ARC
  5
3BC
100
AcDbEntity
  8
0
100
AcDbCircle
 62
7
  6
CONTINUOUS
 10
117.6205066367
 20
261.7715485128
 40
71.9855914893
100
AcDbArc
 50
170.026019088
 51
171.9808925763
  0
ARC
  5
3BD
100
AcDbEntity
  8
0
100
AcDbCircle
 62
7
  6
CONTINUOUS
 10
129.4878498543
 20
205.3206666546
 40
67.0216597571
100
AcDbArc
 50
123.4611564832
 51
129.763126055
  0
ARC
  5
3BE
100
AcDbEntity
  8
0
100
AcDbCircle
 62
7
  6
CONTINUOUS
 10
118.0335924291
 20
217.0521146028
 40
50.9810750998
100
AcDbArc
 50
112.3577010929
 51
112.8319149446
  0
ARC
  5
3BF
100
AcDbEntity
  8
0
100
AcDbCircle
 62
7
  6
CONTINUOUS
 10
113.5136465828
 20
230.1987263642
 40
37.0701677413
100
AcDbArc
 50
104.9938141708
 51
105.3082295943
  0
ARC
  5
3C0
100
AcDbEntity
  8
0
100
AcDbCircle
 62
7
  6
CONTINUOUS
 10
104.8100369712
 20
282.1715373036
 40
15.2982523527
100
AcDbArc
 50
307.8245384364
 51
308.9602505639
  0
ARC
  5
3C1
100
AcDbEntity
  8
0
100
AcDbCircle
 62
7
  6
CONTINUOUS
 10
104.1426706856
 20
275.5550732726
 40
14.7693866697
100
AcDbArc
 50
48.0686959027
 51
51.5703131864
  0
ARC
  5
3C2
100
AcDbEntity
  8
0
100
AcDbCircle
 62
7
  6
CONTINUOUS
 10
104.9925606342
 20
285.8588572073
 40
13.4835965339
100
AcDbArc
 50
311.7722126671
 51
312.2084690095
  0
ARC
  5
3C3
100
AcDbEntity
  8
0
100
AcDbCircle
 62
7
  6
CONTINUOUS
 10
105.3265484804
 20
276.8913363009
 40
12.9841659526
100
AcDbArc
 50
46.1508096944
 51
47.9177332132
  0
ARC
  5
3C4
100
AcDbEntity
  8
0
100
AcDbCircle
 62
7
  6
CONTINUOUS
 10
105.7273221179
 20
285.0632875991
 40
12.4006828773
100
AcDbArc
 50
312.1634012864
 51
315.0981705885
  0
ARC
  5
3C5
100
AcDbEntity
  8
0
100
AcDbCircle
 62
7
  6
CONTINUOUS
 10
109.5727338435
 20
277.0216757482
 40
10.8351672329
100
AcDbArc
 50
26.4215082026
 51
26.7198029466
  0
ARC
  5
3C6
100
AcDbEntity
  8
0
100
AcDbCircle
 62
7
  6
CONTINUOUS
 10
109.9148614356
 20
277.1869070397
 40
10.4552543244
100
AcDbArc
 50
21.8349516078
 51
26.44488063
  0
ARC
  5
3C7
100
AcDbEntity
  8
0
100
AcDbCircle
 62
7
  6
CONTINUOUS
 10
112.9575486151
 20
278.6231886165
 40
7.3749404167
100
AcDbArc
 50
334.2655349395
 51
336.0298294858
  0
ARC
  5
3C8
100
AcDbEntity
  8
0
100
AcDbCircle
 62
7
  6
CONTINUOUS
 10
105.6294495631
 20
282.7290180126
 40
7.2241810838
100
AcDbArc
 50
325.9270881489
 51
326.6694272835
  0
ARC
  5
3C9
100
AcDbEntity
  8
0
100
AcDbCircle
 62
7
  6
CONTINUOUS
 10
114.3081973996
 20
278.1451288712
 40
5.9479652318
100
AcDbArc
 50
6.3269960989
 51
10.4846219826
  0
ARC
  5
3CA
100
AcDbEntity
  8
0
100
AcDbCircle
 62
7
  6
CONTINUOUS
 10
114.3232276639
 20
275.9730083892
 40
5.6261463166
100
AcDbArc
 50
352.3527582699
 51
0.7076570787
  0
ARC
  5
3CB
100
AcDbEntity
  8
0
100
AcDbCircle
 62
7
  6
CONTINUOUS
 10
114.4602756986
 20
276.4275894824
 40
5.296963722
100
AcDbArc
 50
348.9998349217
 51
351.3073652564
  0
ARC
  5
3CC
100
AcDbEntity
  8
0
100
AcDbCircle
 62
7
  6
CONTINUOUS
 10
106.7688544896
 20
280.0738012879
 40
5.0757331083
100
AcDbArc
 50
15.9137204356
 51
19.6542732512
  0
ARC
  5
3CD
100
AcDbEntity
  8
0
100
AcDbCircle
 62
7
  6
CONTINUOUS
 10
107.0272551777
 20
280.1468811449
 40
4.8071977548
100
AcDbArc
 50
10.569315638
 51
15.9205336523
  0
ARC
  5
3CE
100
AcDbEntity
  8
0
100
AcDbCircle
 62
7
  6
CONTINUOUS
 10
107.2283481068
 20
280.1856184196
 40
4.6024113977
100
AcDbArc
 50
5.8216819972
 51
10.5544440566
  0
ARC
  5
3CF
100
AcDbEntity
  8
0
100
AcDbCircle
 62
7
  6
CONTINUOUS
 10
107.2832057506
 20
281.048191522
 40
4.5469868595
100
AcDbArc
 50
0.1865131346
 51
9.9517758671
  0
SPLINE
  5
3D0
100
AcDbEntity
  8
0
100
AcDbSpline
 62
7
  6
CONTINUOUS
 70
0
 71
3
 72
23
 73
19
 74
0
 42
0.0000001
 43
0.0000001
 44
0.0000000001
 40
0.0
 40
0.0
 40
0.0
 40
0.0
 40
0.0583868746
 40
0.1179407339
 40
0.1789676551
 40
0.2415802983
 40
0.3056948444
 40
0.3710439078
 40
0.4372147883
 40
0.5036998445
 40
0.5699559399
 40
0.6354659497
 40
0.6997980444
 40
0.7626593745
 40
0.8239347131
 40
0.8837075617
 40
0.9422508984
 40
1.0
 40
1.0
 40
1.0
 40
1.0
 10
36.7171572012
 20
198.3831538959
 30
0.0
 10
36.8988605049
 20
198.4073475978
 30
0.0
 10
37.261789614
 20
198.4946308256
 30
0.0
 10
37.7745474151
 20
198.7323154206
 30
0.0
 10
38.2449820874
 20
199.0687189897
 30
0.0
 10
38.6591256982
 20
199.4921669848
 30
0.0
 10
39.0054904195
 20
199.9889940062
 30
0.0
 10
39.2745025296
 20
200.5438592617
 30
0.0
 10
39.4587139368
 20
201.1400234345
 30
0.0
 10
39.5529389854
 20
201.7596846
 30
0.0
 10
39.5544065015
 20
202.3844200884
 30
0.0
 10
39.4628119511
 20
202.9956693705
 30
0.0
 10
39.2803254699
 20
203.5751955597
 30
0.0
 10
39.0115424361
 20
204.1054849518
 30
0.0
 10
38.6634766868
 20
204.5700355901
 30
0.0
 10
38.2455366904
 20
204.9536496353
 30
0.0
 10
37.7702908704
 20
205.2428234225
 30
0.0
 10
37.4232888912
 20
205.3660254426
 30
0.0
 10
37.247007167
 20
205.4084060617
 30
0.0
  0
LINE
  5
3D1
100
AcDbEntity
  8
0
100
AcDbLine
 62
7
  6
CONTINUOUS
 10
37.2440619041
 20
205.4090631255
 11
36.751408252
 21
205.5104619195
  0
LINE
  5
3D2
100
AcDbEntity
  8
0
100
AcDbLine
 62
7
  6
CONTINUOUS
 10
35.8322223641
 20
205.5573512085
 11
36.3248760162
 21
205.4559524145
  0
LINE
  5
3D3
100
AcDbEntity
  8
0
100
AcDbLine
 62
7
  6
CONTINUOUS
 10
35.7793952358
 20
198.429496872
 11
35.2817649755
 21
198.4667909032
  0
LINE
  5
3D4
100
AcDbEntity
  8
0
100
AcDbLine
 62
7
  6
CONTINUOUS
 10
36.2009508635
 20
198.4199016141
 11
36.6985811238
 21
198.3826075829
  0
SPLINE
  5
3D5
100
AcDbEntity
  8
0
100
AcDbSpline
 62
7
  6
CONTINUOUS
 70
0
 71
3
 72
14
 73
10
 74
0
 42
0.0000001
 43
0.0000001
 44
0.0000000001
 40
0.0
 40
0.0
 40
0.0
 40
0.0
 40
0.3044147114
 40
0.4489463308
 40
0.5838574547
 40
0.7064989343
 40
0.8158223307
 40
0.9125775521
 40
1.0
 40
1.0
 40
1.0
 40
1.0
 10
36.4588383448
 20
205.1312790273
 30
0.0
 10
36.4617926263
 20
205.1693337645
 30
0.0
 10
36.4605723508
 20
205.2261716774
 30
0.0
 10
36.446877032
 20
205.2982075469
 30
0.0
 10
36.4314349262
 20
205.3463689819
 30
0.0
 10
36.410918504
 20
205.3877672866
 30
0.0
 10
36.3860658939
 20
205.4210124164
 30
0.0
 10
36.3574736998
 20
205.4448381626
 30
0.0
 10
36.3356124689
 20
205.4537425438
 30
0.0
 10
36.3248760162
 20
205.4559524145
 30
0.0
  0
SPLINE
  5
3D6
100
AcDbEntity
  8
0
100
AcDbSpline
 62
7
  6
CONTINUOUS
 70
0
 71
3
 72
18
 73
14
 74
0
 42
0.0000001
 43
0.0000001
 44
0.0000000001
 40
0.0
 40
0.0
 40
0.0
 40
0.0
 40
0.0579174412
 40
0.1159417572
 40
0.1742686152
 40
0.233092481
 40
0.2925775888
 40
0.3528598178
 40
0.4759870865
 40
0.6029503531
 40
0.7333401637
 40
0.8661557482
 40
1.0
 40
1.0
 40
1.0
 40
1.0
 10
36.0881763887
 20
205.648082732
 30
0.0
 10
35.9799964116
 20
205.6703211709
 30
0.0
 10
35.7603801256
 20
205.7012288059
 30
0.0
 10
35.4272688041
 20
205.7058226832
 30
0.0
 10
35.0944255075
 20
205.6686991226
 30
0.0
 10
34.7659648169
 20
205.5904958687
 30
0.0
 10
34.4457001917
 20
205.4723285761
 30
0.0
 10
34.0318485593
 20
205.2624106396
 30
0.0
 10
33.5526091997
 20
204.9064761788
 30
0.0
 10
33.069140289
 20
204.359183186
 30
0.0
 10
32.6910790582
 20
203.7131589707
 30
0.0
 10
32.4334212337
 20
202.9970344753
 30
0.0
 10
32.348594719
 20
202.4924335874
 30
0.0
 10
32.3288403411
 20
202.2379731861
 30
0.0
  0
SPLINE
  5
3D7
100
AcDbEntity
  8
0
100
AcDbSpline
 62
7
  6
CONTINUOUS
 70
0
 71
3
 72
14
 73
10
 74
0
 42
0.0000001
 43
0.0000001
 44
0.0000000001
 40
0.0
 40
0.0
 40
0.0
 40
0.0
 40
0.0880727346
 40
0.1829514764
 40
0.2894802393
 40
0.4097537614
 40
0.5434202002
 40
0.6884654828
 40
1.0
 40
1.0
 40
1.0
 40
1.0
 10
35.7793952358
 20
198.429496872
 30
0.0
 10
35.7900205098
 20
198.4287006533
 30
0.0
 10
35.8125659111
 20
198.4311982215
 30
0.0
 10
35.8445756002
 20
198.4466331376
 30
0.0
 10
35.8741664851
 20
198.4724617215
 30
0.0
 10
35.9005953352
 20
198.5074456999
 30
0.0
 10
35.9231528369
 20
198.5503227393
 30
0.0
 10
35.947718802
 20
198.6175240898
 30
0.0
 10
35.9574268423
 20
198.6724893545
 30
0.0
 10
35.9603439951
 20
198.7100658282
 30
0.0
  0
SPLINE
  5
3D8
100
AcDbEntity
  8
0
100
AcDbSpline
 62
7
  6
CONTINUOUS
 70
0
 71
3
 72
19
 73
15
 74
0
 42
0.0000001
 43
0.0000001
 44
0.0000000001
 40
0.0
 40
0.0
 40
0.0
 40
0.0
 40
0.1342650524
 40
0.2667674223
 40
0.3320932077
 40
0.3966295666
 40
0.4603133558
 40
0.5231120364
 40
0.6459353797
 40
0.765647162
 40
0.824689575
 40
0.883317671
 40
0.941700902
 40
1.0
 40
1.0
 40
1.0
 40
1.0
 10
32.3288403411
 20
202.2379731861
 30
0.0
 10
32.3108508932
 20
202.0062472296
 30
0.0
 10
32.3125299957
 20
201.5420739166
 30
0.0
 10
32.4101508162
 20
200.9726074275
 30
0.0
 10
32.5444974721
 20
200.5382240135
 30
0.0
 10
32.6716662034
 20
200.2277555757
 30
0.0
 10
32.8246752508
 20
199.9340529549
 30
0.0
 10
33.0595394201
 20
199.5713637325
 30
0.0
 10
33.4105160238
 20
199.171133617
 30
0.0
 10
33.8322834548
 20
198.8561070137
 30
0.0
 10
34.1983622094
 20
198.6678167596
 30
0.0
 10
34.4839552683
 20
198.5594868958
 30
0.0
 10
34.7787438304
 20
198.4847861887
 30
0.0
 10
34.9794689246
 20
198.4579193545
 30
0.0
 10
35.0801012734
 20
198.4503018267
 30
0.0
  0
SPLINE
  5
3D9
100
AcDbEntity
  8
0
100
AcDbSpline
 62
7
  6
CONTINUOUS
 70
0
 71
3
 72
18
 73
14
 74
0
 42
0.0000001
 43
0.0000001
 44
0.0000000001
 40
0.0
 40
0.0
 40
0.0
 40
0.0
 40
0.0567838174
 40
0.1137046948
 40
0.1710292492
 40
0.2290006126
 40
0.2878254411
 40
0.3476642984
 40
0.4705829882
 40
0.5981695327
 40
0.7298280117
 40
0.8643196715
 40
1.0
 40
1.0
 40
1.0
 40
1.0
 10
36.0881758191
 20
205.6480796017
 30
0.0
 10
35.9828585654
 20
205.6697305252
 30
0.0
 10
35.7689663575
 20
205.699722458
 30
0.0
 10
35.4443241149
 20
205.7036867687
 30
0.0
 10
35.1194809568
 20
205.666623958
 30
0.0
 10
34.798222047
 20
205.5889917769
 30
0.0
 10
34.4841443177
 20
205.4717030124
 30
0.0
 10
34.076304139
 20
205.2626358797
 30
0.0
 10
33.6021606741
 20
204.9069786734
 30
0.0
 10
33.122284551
 20
204.3591414902
 30
0.0
 10
32.7455161544
 20
203.7106429755
 30
0.0
 10
32.4880010597
 20
202.9905387115
 30
0.0
 10
32.4029845682
 20
202.482875003
 30
0.0
 10
32.3830998824
 20
202.226736079
 30
0.0
  0
SPLINE
  5
3DA
100
AcDbEntity
  8
0
100
AcDbSpline
 62
7
  6
CONTINUOUS
 70
0
 71
3
 72
15
 73
11
 74
0
 42
0.0000001
 43
0.0000001
 44
0.0000000001
 40
0.0
 40
0.0
 40
0.0
 40
0.0
 40
0.1141392883
 40
0.2304606379
 40
0.3500170504
 40
0.4733816949
 40
0.600633881
 40
0.7313861462
 40
0.8648559676
 40
1.0
 40
1.0
 40
1.0
 40
1.0
 10
37.3780242328
 20
205.0843897383
 30
0.0
 10
37.5347887491
 20
205.0438600724
 30
0.0
 10
37.8435099943
 20
204.9279658962
 30
0.0
 10
38.2654855998
 20
204.6602586627
 30
0.0
 10
38.6367502023
 20
204.3066091468
 30
0.0
 10
38.9458131102
 20
203.8786291567
 30
0.0
 10
39.1836444034
 20
203.3898852799
 30
0.0
 10
39.3432884836
 20
202.8555252289
 30
0.0
 10
39.4201782386
 20
202.2921201664
 30
0.0
 10
39.4147689804
 20
201.909445735
 30
0.0
 10
39.3979955893
 20
201.7184643688
 30
0.0
  0
SPLINE
  5
3DB
100
AcDbEntity
  8
0
100
AcDbSpline
 62
7
  6
CONTINUOUS
 70
0
 71
3
 72
13
 73
9
 74
0
 42
0.0000001
 43
0.0000001
 44
0.0000000001
 40
0.0
 40
0.0
 40
0.0
 40
0.0
 40
0.2655770187
 40
0.5236463557
 40
0.6481262938
 40
0.7688196905
 40
0.8858938766
 40
1.0
 40
1.0
 40
1.0
 40
1.0
 10
39.3979955893
 20
201.7184643688
 30
0.0
 10
39.3650978626
 20
201.3438917658
 30
0.0
 10
39.1930586195
 20
200.6105554657
 30
0.0
 10
38.7252406015
 20
199.8031727971
 30
0.0
 10
38.2275454914
 20
199.2891391924
 30
0.0
 10
37.8107322506
 20
198.9855036701
 30
0.0
 10
37.3588108421
 20
198.7692436373
 30
0.0
 10
37.0392970198
 20
198.687151459
 30
0.0
 10
36.8795298831
 20
198.6631765391
 30
0.0
  0
SPLINE
  5
3DC
100
AcDbEntity
  8
0
100
AcDbSpline
 62
7
  6
CONTINUOUS
 70
0
 71
3
 72
14
 73
10
 74
0
 42
0.0000001
 43
0.0000001
 44
0.0000000001
 40
0.0
 40
0.0
 40
0.0
 40
0.0
 40
0.3051062556
 40
0.4485164405
 40
0.5822134738
 40
0.7040825884
 40
0.8134025263
 40
0.9110600163
 40
1.0
 40
1.0
 40
1.0
 40
1.0
 10
36.8795298831
 20
198.6631765391
 30
0.0
 10
36.8768179176
 20
198.6282431269
 30
0.0
 10
36.8681138076
 20
198.5770088926
 30
0.0
 10
36.8464583096
 20
198.5136396601
 30
0.0
 10
36.8265755165
 20
198.472212469
 30
0.0
 10
36.8031287285
 20
198.4372726978
 30
0.0
 10
36.7767437742
 20
198.4099177456
 30
0.0
 10
36.7481343646
 20
198.3909718574
 30
0.0
 10
36.7272815451
 20
198.3845092372
 30
0.0
 10
36.7171571798
 20
198.3831597799
 30
0.0
  0
SPLINE
  5
3DD
100
AcDbEntity
  8
0
100
AcDbSpline
 62
7
  6
CONTINUOUS
 70
0
 71
3
 72
13
 73
9
 74
0
 42
0.0000001
 43
0.0000001
 44
0.0000000001
 40
0.0
 40
0.0
 40
0.0
 40
0.0
 40
0.0877654774
 40
0.1850668252
 40
0.2948912048
 40
0.4178661689
 40
0.6964624901
 40
1.0
 40
1.0
 40
1.0
 40
1.0
 10
37.247007089
 20
205.4084055188
 30
0.0
 10
37.2576153585
 20
205.405851361
 30
0.0
 10
37.2790975355
 20
205.3963475194
 30
0.0
 10
37.3071009458
 20
205.3720900446
 30
0.0
 10
37.3314073443
 20
205.3386733062
 30
0.0
 10
37.3591683135
 20
205.2811911
 30
0.0
 10
37.3794236135
 20
205.1948839578
 30
0.0
 10
37.3809450766
 20
205.1220137568
 30
0.0
 10
37.3780242328
 20
205.0843897383
 30
0.0
  0
SPLINE
  5
3DE
100
AcDbEntity
  8
0
100
AcDbSpline
 62
7
  6
CONTINUOUS
 70
0
 71
3
 72
13
 73
9
 74
0
 42
0.0000001
 43
0.0000001
 44
0.0000000001
 40
0.0
 40
0.0
 40
0.0
 40
0.0
 40
0.2655410157
 40
0.5225013099
 40
0.6466562123
 40
0.7674497402
 40
0.8850631672
 40
1.0
 40
1.0
 40
1.0
 40
1.0
 10
32.3830998824
 20
202.226736079
 30
0.0
 10
32.354679648
 20
201.8606489109
 30
0.0
 10
32.3899325401
 20
201.129816092
 30
0.0
 10
32.6694207119
 20
200.2675541313
 30
0.0
 10
33.0231638851
 20
199.6677382559
 30
0.0
 10
33.3422159432
 20
199.27821457
 30
0.0
 10
33.710421731
 20
198.9537956118
 30
0.0
 10
33.9860319373
 20
198.7843828012
 30
0.0
 10
34.1283455947
 20
198.7136237131
 30
0.0
  0
SPLINE
  5
3DF
100
AcDbEntity
  8
0
100
AcDbSpline
 62
7
  6
CONTINUOUS
 70
0
 71
3
 72
9
 73
5
 74
0
 42
0.0000001
 43
0.0000001
 44
0.0000000001
 40
0.0
 40
0.0
 40
0.0
 40
0.0
 40
0.2477978952
 40
1.0
 40
1.0
 40
1.0
 40
1.0
 10
36.0979595681
 20
200.4758607101
 30
0.0
 10
36.1206784436
 20
200.4789123198
 30
0.0
 10
36.211962525
 20
200.4940762592
 30
0.0
 10
36.3013060416
 20
200.5206168981
 30
0.0
 10
36.3660198101
 20
200.5461903055
 30
0.0
  0
SPLINE
  5
3E0
100
AcDbEntity
  8
0
100
AcDbSpline
 62
7
  6
CONTINUOUS
 70
0
 71
3
 72
15
 73
11
 74
0
 42
0.0000001
 43
0.0000001
 44
0.0000000001
 40
0.0
 40
0.0
 40
0.0
 40
0.0
 40
0.114208298
 40
0.230507713
 40
0.3499855207
 40
0.4732582426
 40
0.6004418844
 40
0.7311787738
 40
0.8647102154
 40
1.0
 40
1.0
 40
1.0
 40
1.0
 10
35.7793952358
 20
198.429496872
 30
0.0
 10
35.6074367636
 20
198.4708358374
 30
0.0
 10
35.2682649523
 20
198.5916872565
 30
0.0
 10
34.8030612573
 20
198.8765583152
 30
0.0
 10
34.3923523503
 20
199.2564363461
 30
0.0
 10
34.0489138598
 20
199.7187641082
 30
0.0
 10
33.7828126169
 20
200.2488032872
 30
0.0
 10
33.6018682394
 20
200.8300659301
 30
0.0
 10
33.5112867175
 20
201.4444552526
 30
0.0
 10
33.5129081337
 20
201.8625529512
 30
0.0
 10
33.5291236044
 20
202.0714279246
 30
0.0
  0
SPLINE
  5
3E1
100
AcDbEntity
  8
0
100
AcDbSpline
 62
7
  6
CONTINUOUS
 70
0
 71
3
 72
13
 73
9
 74
0
 42
0.0000001
 43
0.0000001
 44
0.0000000001
 40
0.0
 40
0.0
 40
0.0
 40
0.0
 40
0.2657417671
 40
0.5239694325
 40
0.6484505566
 40
0.769069655
 40
0.8860199219
 40
1.0
 40
1.0
 40
1.0
 40
1.0
 10
33.5291236044
 20
202.0714279246
 30
0.0
 10
33.5615027082
 20
202.4885101429
 30
0.0
 10
33.7470031693
 20
203.3062485416
 30
0.0
 10
34.2658268922
 20
204.2060571062
 30
0.0
 10
34.8208401403
 20
204.7763772106
 30
0.0
 10
35.2861834434
 20
205.1110460312
 30
0.0
 10
35.7907293585
 20
205.3462470848
 30
0.0
 10
36.1470117455
 20
205.4322985854
 30
0.0
 10
36.3248760162
 20
205.4559524145
 30
0.0
  0
SPLINE
  5
3E2
100
AcDbEntity
  8
0
100
AcDbSpline
 62
7
  6
CONTINUOUS
 70
0
 71
3
 72
15
 73
11
 74
0
 42
0.0000001
 43
0.0000001
 44
0.0000000001
 40
0.0
 40
0.0
 40
0.0
 40
0.0
 40
0.1141392883
 40
0.2304606379
 40
0.3500170504
 40
0.4733816949
 40
0.600633881
 40
0.7313861462
 40
0.8648559676
 40
1.0
 40
1.0
 40
1.0
 40
1.0
 10
35.9603439951
 20
198.7100658282
 30
0.0
 10
35.8035794788
 20
198.750595494
 30
0.0
 10
35.4948582336
 20
198.8664896703
 30
0.0
 10
35.0728826281
 20
199.1341969037
 30
0.0
 10
34.7016180256
 20
199.4878464197
 30
0.0
 10
34.3925551177
 20
199.9158264097
 30
0.0
 10
34.1547238245
 20
200.4045702866
 30
0.0
 10
33.9950797442
 20
200.9389303376
 30
0.0
 10
33.9181899893
 20
201.5023354
 30
0.0
 10
33.9235992475
 20
201.8850098314
 30
0.0
 10
33.9403726386
 20
202.0759911977
 30
0.0
  0
SPLINE
  5
3E3
100
AcDbEntity
  8
0
100
AcDbSpline
 62
7
  6
CONTINUOUS
 70
0
 71
3
 72
13
 73
9
 74
0
 42
0.0000001
 43
0.0000001
 44
0.0000000001
 40
0.0
 40
0.0
 40
0.0
 40
0.0
 40
0.2655770187
 40
0.5236463557
 40
0.6481262938
 40
0.7688196905
 40
0.8858938766
 40
1.0
 40
1.0
 40
1.0
 40
1.0
 10
33.9403726386
 20
202.0759911977
 30
0.0
 10
33.9732703653
 20
202.4505638007
 30
0.0
 10
34.1453096084
 20
203.1839001007
 30
0.0
 10
34.6131276264
 20
203.9912827694
 30
0.0
 10
35.1108227365
 20
204.5053163741
 30
0.0
 10
35.5276359773
 20
204.8089518963
 30
0.0
 10
35.9795573858
 20
205.0252119291
 30
0.0
 10
36.2990712081
 20
205.1073041075
 30
0.0
 10
36.4588383448
 20
205.1312790273
 30
0.0
  0
SPLINE
  5
3E4
100
AcDbEntity
  8
0
100
AcDbSpline
 62
7
  6
CONTINUOUS
 70
0
 71
3
 72
9
 73
5
 74
0
 42
0.0000001
 43
0.0000001
 44
0.0000000001
 40
0.0
 40
0.0
 40
0.0
 40
0.0
 40
0.2511810962
 40
1.0
 40
1.0
 40
1.0
 40
1.0
 10
36.0710942069
 20
200.9245760955
 30
0.0
 10
36.0954182169
 20
200.8926100522
 30
0.0
 10
36.1927331645
 20
200.7657095426
 30
0.0
 10
36.2915509458
 20
200.6399679272
 30
0.0
 10
36.3660198101
 20
200.5461903055
 30
0.0
  0
SPLINE
  5
3E5
100
AcDbEntity
  8
0
100
AcDbSpline
 62
7
  6
CONTINUOUS
 70
0
 71
3
 72
9
 73
5
 74
0
 42
0.0000001
 43
0.0000001
 44
0.0000000001
 40
0.0
 40
0.0
 40
0.0
 40
0.0
 40
0.5019445265
 40
1.0
 40
1.0
 40
1.0
 40
1.0
 10
36.4125780416
 20
202.0120075533
 30
0.0
 10
36.4070539921
 20
201.9408510803
 30
0.0
 10
36.3840275955
 20
201.79977097
 30
0.0
 10
36.3375220559
 20
201.6645666282
 30
0.0
 10
36.3087157164
 20
201.599872527
 30
0.0
  0
SPLINE
  5
3E6
100
AcDbEntity
  8
0
100
AcDbSpline
 62
7
  6
CONTINUOUS
 70
0
 71
3
 72
9
 73
5
 74
0
 42
0.0000001
 43
0.0000001
 44
0.0000000001
 40
0.0
 40
0.0
 40
0.0
 40
0.0
 40
0.4959208638
 40
1.0
 40
1.0
 40
1.0
 40
1.0
 10
36.3732727667
 20
202.4314458107
 30
0.0
 10
36.3919182207
 20
202.3640765281
 30
0.0
 10
36.4171642632
 20
202.2245583033
 30
0.0
 10
36.4180774198
 20
202.0828462303
 30
0.0
 10
36.4125780416
 20
202.0120075533
 30
0.0
  0
SPLINE
  5
3E7
100
AcDbEntity
  8
0
100
AcDbSpline
 62
7
  6
CONTINUOUS
 70
0
 71
3
 72
9
 73
5
 74
0
 42
0.0000001
 43
0.0000001
 44
0.0000000001
 40
0.0
 40
0.0
 40
0.0
 40
0.0
 40
0.2491533009
 40
1.0
 40
1.0
 40
1.0
 40
1.0
 10
36.5863393054
 20
203.3841732281
 30
0.0
 10
36.5615096534
 20
203.3639371169
 30
0.0
 10
36.4619931772
 20
203.282547045
 30
0.0
 10
36.3631026423
 20
203.2003864794
 30
0.0
 10
36.289435436
 20
203.1380076409
 30
0.0
  0
SPLINE
  5
3E8
100
AcDbEntity
  8
0
100
AcDbSpline
 62
7
  6
CONTINUOUS
 70
0
 71
3
 72
9
 73
5
 74
0
 42
0.0000001
 43
0.0000001
 44
0.0000000001
 40
0.0
 40
0.0
 40
0.0
 40
0.0
 40
0.2532709335
 40
1.0
 40
1.0
 40
1.0
 40
1.0
 10
36.3732727667
 20
202.4314458107
 30
0.0
 10
36.3427281261
 20
202.4476119866
 30
0.0
 10
36.2222631725
 20
202.5116947851
 30
0.0
 10
36.1024308864
 20
202.5769892676
 30
0.0
 10
36.0137067113
 20
202.6270882304
 30
0.0
  0
SPLINE
  5
3E9
100
AcDbEntity
  8
0
100
AcDbSpline
 62
7
  6
CONTINUOUS
 70
0
 71
3
 72
9
 73
5
 74
0
 42
0.0000001
 43
0.0000001
 44
0.0000000001
 40
0.0
 40
0.0
 40
0.0
 40
0.0
 40
0.2518219697
 40
1.0
 40
1.0
 40
1.0
 40
1.0
 10
36.5863393054
 20
203.3841732281
 30
0.0
 10
36.5660718781
 20
203.3949204711
 30
0.0
 10
36.4843056603
 20
203.4351284134
 30
0.0
 10
36.3975190138
 20
203.4651688145
 30
0.0
 10
36.3312704558
 20
203.4811885587
 30
0.0
  0
LINE
  5
3EA
100
AcDbEntity
  8
0
100
AcDbLine
 62
7
  6
CONTINUOUS
 10
38.4552013787
 20
202.3061842299
 11
36.6201767762
 21
202.359643629
  0
SPLINE
  5
3EB
100
AcDbEntity
  8
0
100
AcDbSpline
 62
7
  6
CONTINUOUS
 70
0
 71
3
 72
9
 73
5
 74
0
 42
0.0000001
 43
0.0000001
 44
0.0000000001
 40
0.0
 40
0.0
 40
0.0
 40
0.0
 40
0.2502822993
 40
1.0
 40
1.0
 40
1.0
 40
1.0
 10
36.5631705758
 20
201.6234354275
 30
0.0
 10
36.7145680941
 20
201.5973522233
 30
0.0
 10
37.3194540413
 20
201.493014816
 30
0.0
 10
37.92429841
 20
201.3884366005
 30
0.0
 10
38.3777563665
 20
201.3100061005
 30
0.0
  0
SPLINE
  5
3EC
100
AcDbEntity
  8
0
100
AcDbSpline
 62
7
  6
CONTINUOUS
 70
0
 71
3
 72
9
 73
5
 74
0
 42
0.0000001
 43
0.0000001
 44
0.0000000001
 40
0.0
 40
0.0
 40
0.0
 40
0.0
 40
0.2465631896
 40
1.0
 40
1.0
 40
1.0
 40
1.0
 10
35.9222329827
 20
201.4487954105
 30
0.0
 10
35.9537450147
 20
201.4618414715
 30
0.0
 10
36.0818917044
 20
201.5139291406
 30
0.0
 10
36.2111042104
 20
201.5633538772
 30
0.0
 10
36.3087157164
 20
201.599872527
 30
0.0
  0
SPLINE
  5
3ED
100
AcDbEntity
  8
0
100
AcDbSpline
 62
7
  6
CONTINUOUS
 70
0
 71
3
 72
23
 73
19
 74
0
 42
0.0000001
 43
0.0000001
 44
0.0000000001
 40
0.0
 40
0.0
 40
0.0
 40
0.0
 40
0.0583868746
 40
0.1179407339
 40
0.1789676551
 40
0.2415802983
 40
0.3056948444
 40
0.3710439078
 40
0.4372147883
 40
0.5036998445
 40
0.5699559399
 40
0.6354659497
 40
0.6997980444
 40
0.7626593745
 40
0.8239347131
 40
0.8837075617
 40
0.9422508984
 40
1.0
 40
1.0
 40
1.0
 40
1.0
 10
29.139761698
 20
248.9361872113
 30
0.0
 10
29.3214650017
 20
248.9603809132
 30
0.0
 10
29.6843941108
 20
249.047664141
 30
0.0
 10
30.1971519119
 20
249.285348736
 30
0.0
 10
30.6675865842
 20
249.6217523051
 30
0.0
 10
31.081730195
 20
250.0452003002
 30
0.0
 10
31.4280949163
 20
250.5420273216
 30
0.0
 10
31.6971070265
 20
251.0968925771
 30
0.0
 10
31.8813184336
 20
251.69305675
 30
0.0
 10
31.9755434822
 20
252.3127179155
 30
0.0
 10
31.9770109984
 20
252.9374534038
 30
0.0
 10
31.8854164479
 20
253.5487026859
 30
0.0
 10
31.7029299667
 20
254.1282288751
 30
0.0
 10
31.4341469329
 20
254.6585182673
 30
0.0
 10
31.0860811836
 20
255.1230689055
 30
0.0
 10
30.6681411872
 20
255.5066829507
 30
0.0
 10
30.1928953672
 20
255.7958567379
 30
0.0
 10
29.845893388
 20
255.9190587581
 30
0.0
 10
29.6696116638
 20
255.9614393771
 30
0.0
  0
LINE
  5
3EE
100
AcDbEntity
  8
0
100
AcDbLine
 62
7
  6
CONTINUOUS
 10
29.666666401
 20
255.9620964409
 11
29.1740127488
 21
256.0634952349
  0
LINE
  5
3EF
100
AcDbEntity
  8
0
100
AcDbLine
 62
7
  6
CONTINUOUS
 10
28.2548268609
 20
256.1103845239
 11
28.747480513
 21
256.0089857299
  0
LINE
  5
3F0
100
AcDbEntity
  8
0
100
AcDbLine
 62
7
  6
CONTINUOUS
 10
28.2019997326
 20
248.9825301874
 11
27.7043694724
 21
249.0198242186
  0
LINE
  5
3F1
100
AcDbEntity
  8
0
100
AcDbLine
 62
7
  6
CONTINUOUS
 10
28.6235553603
 20
248.9729349296
 11
29.1211856206
 21
248.9356408983
  0
SPLINE
  5
3F2
100
AcDbEntity
  8
0
100
AcDbSpline
 62
7
  6
CONTINUOUS
 70
0
 71
3
 72
14
 73
10
 74
0
 42
0.0000001
 43
0.0000001
 44
0.0000000001
 40
0.0
 40
0.0
 40
0.0
 40
0.0
 40
0.3044147114
 40
0.4489463308
 40
0.5838574547
 40
0.7064989343
 40
0.8158223307
 40
0.9125775521
 40
1.0
 40
1.0
 40
1.0
 40
1.0
 10
28.8814428416
 20
255.6843123427
 30
0.0
 10
28.8843971232
 20
255.7223670799
 30
0.0
 10
28.8831768476
 20
255.7792049928
 30
0.0
 10
28.8694815288
 20
255.8512408623
 30
0.0
 10
28.854039423
 20
255.8994022973
 30
0.0
 10
28.8335230008
 20
255.940800602
 30
0.0
 10
28.8086703907
 20
255.9740457318
 30
0.0
 10
28.7800781966
 20
255.997871478
 30
0.0
 10
28.7582169657
 20
256.0067758592
 30
0.0
 10
28.747480513
 20
256.0089857299
 30
0.0
  0
SPLINE
  5
3F3
100
AcDbEntity
  8
0
100
AcDbSpline
 62
7
  6
CONTINUOUS
 70
0
 71
3
 72
18
 73
14
 74
0
 42
0.0000001
 43
0.0000001
 44
0.0000000001
 40
0.0
 40
0.0
 40
0.0
 40
0.0
 40
0.0579174412
 40
0.1159417572
 40
0.1742686152
 40
0.233092481
 40
0.2925775888
 40
0.3528598178
 40
0.4759870865
 40
0.6029503531
 40
0.7333401637
 40
0.8661557482
 40
1.0
 40
1.0
 40
1.0
 40
1.0
 10
28.5107808855
 20
256.2011160474
 30
0.0
 10
28.4026009084
 20
256.2233544863
 30
0.0
 10
28.1829846225
 20
256.2542621213
 30
0.0
 10
27.8498733009
 20
256.2588559986
 30
0.0
 10
27.5170300043
 20
256.221732438
 30
0.0
 10
27.1885693137
 20
256.1435291841
 30
0.0
 10
26.8683046885
 20
256.0253618915
 30
0.0
 10
26.4544530561
 20
255.815443955
 30
0.0
 10
25.9752136965
 20
255.4595094942
 30
0.0
 10
25.4917447858
 20
254.9122165014
 30
0.0
 10
25.113683555
 20
254.2661922861
 30
0.0
 10
24.8560257305
 20
253.5500677907
 30
0.0
 10
24.7711992158
 20
253.0454669029
 30
0.0
 10
24.7514448379
 20
252.7910065016
 30
0.0
  0
SPLINE
  5
3F4
100
AcDbEntity
  8
0
100
AcDbSpline
 62
7
  6
CONTINUOUS
 70
0
 71
3
 72
14
 73
10
 74
0
 42
0.0000001
 43
0.0000001
 44
0.0000000001
 40
0.0
 40
0.0
 40
0.0
 40
0.0
 40
0.0880727346
 40
0.1829514764
 40
0.2894802393
 40
0.4097537614
 40
0.5434202002
 40
0.6884654828
 40
1.0
 40
1.0
 40
1.0
 40
1.0
 10
28.2019997326
 20
248.9825301874
 30
0.0
 10
28.2126250066
 20
248.9817339687
 30
0.0
 10
28.235170408
 20
248.9842315369
 30
0.0
 10
28.267180097
 20
248.999666453
 30
0.0
 10
28.2967709819
 20
249.0254950369
 30
0.0
 10
28.323199832
 20
249.0604790153
 30
0.0
 10
28.3457573337
 20
249.1033560547
 30
0.0
 10
28.3703232988
 20
249.1705574052
 30
0.0
 10
28.3800313391
 20
249.2255226699
 30
0.0
 10
28.3829484919
 20
249.2630991436
 30
0.0
  0
SPLINE
  5
3F5
100
AcDbEntity
  8
0
100
AcDbSpline
 62
7
  6
CONTINUOUS
 70
0
 71
3
 72
19
 73
15
 74
0
 42
0.0000001
 43
0.0000001
 44
0.0000000001
 40
0.0
 40
0.0
 40
0.0
 40
0.0
 40
0.1342650524
 40
0.2667674223
 40
0.3320932077
 40
0.3966295666
 40
0.4603133558
 40
0.5231120364
 40
0.6459353797
 40
0.765647162
 40
0.824689575
 40
0.883317671
 40
0.941700902
 40
1.0
 40
1.0
 40
1.0
 40
1.0
 10
24.7514448379
 20
252.7910065016
 30
0.0
 10
24.73345539
 20
252.559280545
 30
0.0
 10
24.7351344925
 20
252.0951072321
 30
0.0
 10
24.832755313
 20
251.525640743
 30
0.0
 10
24.9671019689
 20
251.0912573289
 30
0.0
 10
25.0942707002
 20
250.7807888911
 30
0.0
 10
25.2472797476
 20
250.4870862703
 30
0.0
 10
25.4821439169
 20
250.1243970479
 30
0.0
 10
25.8331205207
 20
249.7241669324
 30
0.0
 10
26.2548879516
 20
249.4091403291
 30
0.0
 10
26.6209667062
 20
249.220850075
 30
0.0
 10
26.9065597651
 20
249.1125202112
 30
0.0
 10
27.2013483272
 20
249.0378195042
 30
0.0
 10
27.4020734214
 20
249.0109526699
 30
0.0
 10
27.5027057702
 20
249.0033351422
 30
0.0
  0
SPLINE
  5
3F6
100
AcDbEntity
  8
0
100
AcDbSpline
 62
7
  6
CONTINUOUS
 70
0
 71
3
 72
18
 73
14
 74
0
 42
0.0000001
 43
0.0000001
 44
0.0000000001
 40
0.0
 40
0.0
 40
0.0
 40
0.0
 40
0.0567838174
 40
0.1137046948
 40
0.1710292492
 40
0.2290006126
 40
0.2878254411
 40
0.3476642984
 40
0.4705829882
 40
0.5981695327
 40
0.7298280117
 40
0.8643196715
 40
1.0
 40
1.0
 40
1.0
 40
1.0
 10
28.5107803159
 20
256.2011129171
 30
0.0
 10
28.4054630622
 20
256.2227638406
 30
0.0
 10
28.1915708543
 20
256.2527557735
 30
0.0
 10
27.8669286117
 20
256.2567200841
 30
0.0
 10
27.5420854537
 20
256.2196572734
 30
0.0
 10
27.2208265438
 20
256.1420250923
 30
0.0
 10
26.9067488145
 20
256.0247363278
 30
0.0
 10
26.4989086359
 20
255.8156691951
 30
0.0
 10
26.0247651709
 20
255.4600119888
 30
0.0
 10
25.5448890478
 20
254.9121748057
 30
0.0
 10
25.1681206512
 20
254.263676291
 30
0.0
 10
24.9106055566
 20
253.5435720269
 30
0.0
 10
24.825589065
 20
253.0359083185
 30
0.0
 10
24.8057043793
 20
252.7797693944
 30
0.0
  0
SPLINE
  5
3F7
100
AcDbEntity
  8
0
100
AcDbSpline
 62
7
  6
CONTINUOUS
 70
0
 71
3
 72
15
 73
11
 74
0
 42
0.0000001
 43
0.0000001
 44
0.0000000001
 40
0.0
 40
0.0
 40
0.0
 40
0.0
 40
0.1141392883
 40
0.2304606379
 40
0.3500170504
 40
0.4733816949
 40
0.600633881
 40
0.7313861462
 40
0.8648559676
 40
1.0
 40
1.0
 40
1.0
 40
1.0
 10
29.8006287296
 20
255.6374230537
 30
0.0
 10
29.9573932459
 20
255.5968933879
 30
0.0
 10
30.2661144911
 20
255.4809992116
 30
0.0
 10
30.6880900966
 20
255.2132919781
 30
0.0
 10
31.0593546991
 20
254.8596424622
 30
0.0
 10
31.368417607
 20
254.4316624722
 30
0.0
 10
31.6062489002
 20
253.9429185953
 30
0.0
 10
31.7658929805
 20
253.4085585443
 30
0.0
 10
31.8427827354
 20
252.8451534818
 30
0.0
 10
31.8373734772
 20
252.4624790504
 30
0.0
 10
31.8206000861
 20
252.2714976842
 30
0.0
  0
SPLINE
  5
3F8
100
AcDbEntity
  8
0
100
AcDbSpline
 62
7
  6
CONTINUOUS
 70
0
 71
3
 72
13
 73
9
 74
0
 42
0.0000001
 43
0.0000001
 44
0.0000000001
 40
0.0
 40
0.0
 40
0.0
 40
0.0
 40
0.2655770187
 40
0.5236463557
 40
0.6481262938
 40
0.7688196905
 40
0.8858938766
 40
1.0
 40
1.0
 40
1.0
 40
1.0
 10
31.8206000861
 20
252.2714976842
 30
0.0
 10
31.7877023594
 20
251.8969250812
 30
0.0
 10
31.6156631163
 20
251.1635887811
 30
0.0
 10
31.1478450983
 20
250.3562061125
 30
0.0
 10
30.6501499882
 20
249.8421725078
 30
0.0
 10
30.2333367474
 20
249.5385369855
 30
0.0
 10
29.7814153389
 20
249.3222769527
 30
0.0
 10
29.4619015166
 20
249.2401847744
 30
0.0
 10
29.3021343799
 20
249.2162098545
 30
0.0
  0
SPLINE
  5
3F9
100
AcDbEntity
  8
0
100
AcDbSpline
 62
7
  6
CONTINUOUS
 70
0
 71
3
 72
14
 73
10
 74
0
 42
0.0000001
 43
0.0000001
 44
0.0000000001
 40
0.0
 40
0.0
 40
0.0
 40
0.0
 40
0.3051062556
 40
0.4485164405
 40
0.5822134738
 40
0.7040825884
 40
0.8134025263
 40
0.9110600163
 40
1.0
 40
1.0
 40
1.0
 40
1.0
 10
29.3021343799
 20
249.2162098545
 30
0.0
 10
29.2994224144
 20
249.1812764424
 30
0.0
 10
29.2907183044
 20
249.130042208
 30
0.0
 10
29.2690628064
 20
249.0666729755
 30
0.0
 10
29.2491800133
 20
249.0252457844
 30
0.0
 10
29.2257332253
 20
248.9903060133
 30
0.0
 10
29.199348271
 20
248.962951061
 30
0.0
 10
29.1707388614
 20
248.9440051728
 30
0.0
 10
29.1498860419
 20
248.9375425526
 30
0.0
 10
29.1397616766
 20
248.9361930953
 30
0.0
  0
SPLINE
  5
3FA
100
AcDbEntity
  8
0
100
AcDbSpline
 62
7
  6
CONTINUOUS
 70
0
 71
3
 72
13
 73
9
 74
0
 42
0.0000001
 43
0.0000001
 44
0.0000000001
 40
0.0
 40
0.0
 40
0.0
 40
0.0
 40
0.0877654774
 40
0.1850668252
 40
0.2948912048
 40
0.4178661689
 40
0.6964624901
 40
1.0
 40
1.0
 40
1.0
 40
1.0
 10
29.6696115858
 20
255.9614388342
 30
0.0
 10
29.6802198553
 20
255.9588846764
 30
0.0
 10
29.7017020323
 20
255.9493808348
 30
0.0
 10
29.7297054426
 20
255.92512336
 30
0.0
 10
29.7540118411
 20
255.8917066216
 30
0.0
 10
29.7817728103
 20
255.8342244154
 30
0.0
 10
29.8020281103
 20
255.7479172732
 30
0.0
 10
29.8035495734
 20
255.6750470723
 30
0.0
 10
29.8006287296
 20
255.6374230537
 30
0.0
  0
SPLINE
  5
3FB
100
AcDbEntity
  8
0
100
AcDbSpline
 62
7
  6
CONTINUOUS
 70
0
 71
3
 72
13
 73
9
 74
0
 42
0.0000001
 43
0.0000001
 44
0.0000000001
 40
0.0
 40
0.0
 40
0.0
 40
0.0
 40
0.2655410157
 40
0.5225013099
 40
0.6466562123
 40
0.7674497402
 40
0.8850631672
 40
1.0
 40
1.0
 40
1.0
 40
1.0
 10
24.8057043793
 20
252.7797693944
 30
0.0
 10
24.7772841448
 20
252.4136822263
 30
0.0
 10
24.812537037
 20
251.6828494074
 30
0.0
 10
25.0920252087
 20
250.8205874467
 30
0.0
 10
25.4457683819
 20
250.2207715713
 30
0.0
 10
25.76482044
 20
249.8312478855
 30
0.0
 10
26.1330262278
 20
249.5068289272
 30
0.0
 10
26.4086364341
 20
249.3374161166
 30
0.0
 10
26.5509500915
 20
249.2666570286
 30
0.0
  0
SPLINE
  5
3FC
100
AcDbEntity
  8
0
100
AcDbSpline
 62
7
  6
CONTINUOUS
 70
0
 71
3
 72
9
 73
5
 74
0
 42
0.0000001
 43
0.0000001
 44
0.0000000001
 40
0.0
 40
0.0
 40
0.0
 40
0.0
 40
0.2477978952
 40
1.0
 40
1.0
 40
1.0
 40
1.0
 10
28.5205640649
 20
251.0288940255
 30
0.0
 10
28.5432829404
 20
251.0319456352
 30
0.0
 10
28.6345670218
 20
251.0471095746
 30
0.0
 10
28.7239105385
 20
251.0736502135
 30
0.0
 10
28.7886243069
 20
251.099223621
 30
0.0
  0
SPLINE
  5
3FD
100
AcDbEntity
  8
0
100
AcDbSpline
 62
7
  6
CONTINUOUS
 70
0
 71
3
 72
15
 73
11
 74
0
 42
0.0000001
 43
0.0000001
 44
0.0000000001
 40
0.0
 40
0.0
 40
0.0
 40
0.0
 40
0.114208298
 40
0.230507713
 40
0.3499855207
 40
0.4732582426
 40
0.6004418844
 40
0.7311787738
 40
0.8647102154
 40
1.0
 40
1.0
 40
1.0
 40
1.0
 10
28.2019997326
 20
248.9825301874
 30
0.0
 10
28.0300412604
 20
249.0238691528
 30
0.0
 10
27.6908694491
 20
249.144720572
 30
0.0
 10
27.2256657541
 20
249.4295916306
 30
0.0
 10
26.8149568471
 20
249.8094696615
 30
0.0
 10
26.4715183566
 20
250.2717974236
 30
0.0
 10
26.2054171137
 20
250.8018366026
 30
0.0
 10
26.0244727362
 20
251.3830992455
 30
0.0
 10
25.9338912143
 20
251.997488568
 30
0.0
 10
25.9355126305
 20
252.4155862667
 30
0.0
 10
25.9517281012
 20
252.62446124
 30
0.0
  0
SPLINE
  5
3FE
100
AcDbEntity
  8
0
100
AcDbSpline
 62
7
  6
CONTINUOUS
 70
0
 71
3
 72
13
 73
9
 74
0
 42
0.0000001
 43
0.0000001
 44
0.0000000001
 40
0.0
 40
0.0
 40
0.0
 40
0.0
 40
0.2657417671
 40
0.5239694325
 40
0.6484505566
 40
0.769069655
 40
0.8860199219
 40
1.0
 40
1.0
 40
1.0
 40
1.0
 10
25.9517281012
 20
252.62446124
 30
0.0
 10
25.9841072051
 20
253.0415434583
 30
0.0
 10
26.1696076662
 20
253.859281857
 30
0.0
 10
26.688431389
 20
254.7590904216
 30
0.0
 10
27.2434446371
 20
255.329410526
 30
0.0
 10
27.7087879402
 20
255.6640793466
 30
0.0
 10
28.2133338553
 20
255.8992804002
 30
0.0
 10
28.5696162423
 20
255.9853319008
 30
0.0
 10
28.747480513
 20
256.0089857299
 30
0.0
  0
SPLINE
  5
3FF
100
AcDbEntity
  8
0
100
AcDbSpline
 62
7
  6
CONTINUOUS
 70
0
 71
3
 72
15
 73
11
 74
0
 42
0.0000001
 43
0.0000001
 44
0.0000000001
 40
0.0
 40
0.0
 40
0.0
 40
0.0
 40
0.1141392883
 40
0.2304606379
 40
0.3500170504
 40
0.4733816949
 40
0.600633881
 40
0.7313861462
 40
0.8648559676
 40
1.0
 40
1.0
 40
1.0
 40
1.0
 10
28.3829484919
 20
249.2630991436
 30
0.0
 10
28.2261839757
 20
249.3036288094
 30
0.0
 10
27.9174627305
 20
249.4195229857
 30
0.0
 10
27.4954871249
 20
249.6872302192
 30
0.0
 10
27.1242225224
 20
250.0408797351
 30
0.0
 10
26.8151596145
 20
250.4688597251
 30
0.0
 10
26.5773283213
 20
250.957603602
 30
0.0
 10
26.4176842411
 20
251.491963653
 30
0.0
 10
26.3407944861
 20
252.0553687155
 30
0.0
 10
26.3462037443
 20
252.4380431469
 30
0.0
 10
26.3629771355
 20
252.6290245131
 30
0.0
  0
SPLINE
  5
400
100
AcDbEntity
  8
0
100
AcDbSpline
 62
7
  6
CONTINUOUS
 70
0
 71
3
 72
13
 73
9
 74
0
 42
0.0000001
 43
0.0000001
 44
0.0000000001
 40
0.0
 40
0.0
 40
0.0
 40
0.0
 40
0.2655770187
 40
0.5236463557
 40
0.6481262938
 40
0.7688196905
 40
0.8858938766
 40
1.0
 40
1.0
 40
1.0
 40
1.0
 10
26.3629771355
 20
252.6290245131
 30
0.0
 10
26.3958748621
 20
253.0035971161
 30
0.0
 10
26.5679141052
 20
253.7369334161
 30
0.0
 10
27.0357321232
 20
254.5443160848
 30
0.0
 10
27.5334272333
 20
255.0583496895
 30
0.0
 10
27.9502404741
 20
255.3619852118
 30
0.0
 10
28.4021618826
 20
255.5782452445
 30
0.0
 10
28.7216757049
 20
255.6603374229
 30
0.0
 10
28.8814428416
 20
255.6843123427
 30
0.0
  0
SPLINE
  5
401
100
AcDbEntity
  8
0
100
AcDbSpline
 62
7
  6
CONTINUOUS
 70
0
 71
3
 72
9
 73
5
 74
0
 42
0.0000001
 43
0.0000001
 44
0.0000000001
 40
0.0
 40
0.0
 40
0.0
 40
0.0
 40
0.2511810962
 40
1.0
 40
1.0
 40
1.0
 40
1.0
 10
28.4936987037
 20
251.4776094109
 30
0.0
 10
28.5180227137
 20
251.4456433676
 30
0.0
 10
28.6153376613
 20
251.3187428581
 30
0.0
 10
28.7141554426
 20
251.1930012426
 30
0.0
 10
28.7886243069
 20
251.099223621
 30
0.0
  0
SPLINE
  5
402
100
AcDbEntity
  8
0
100
AcDbSpline
 62
7
  6
CONTINUOUS
 70
0
 71
3
 72
9
 73
5
 74
0
 42
0.0000001
 43
0.0000001
 44
0.0000000001
 40
0.0
 40
0.0
 40
0.0
 40
0.0
 40
0.5019445265
 40
1.0
 40
1.0
 40
1.0
 40
1.0
 10
28.8351825384
 20
252.5650408687
 30
0.0
 10
28.8296584889
 20
252.4938843957
 30
0.0
 10
28.8066320923
 20
252.3528042854
 30
0.0
 10
28.7601265527
 20
252.2175999436
 30
0.0
 10
28.7313202132
 20
252.1529058424
 30
0.0
  0
SPLINE
  5
403
100
AcDbEntity
  8
0
100
AcDbSpline
 62
7
  6
CONTINUOUS
 70
0
 71
3
 72
9
 73
5
 74
0
 42
0.0000001
 43
0.0000001
 44
0.0000000001
 40
0.0
 40
0.0
 40
0.0
 40
0.0
 40
0.4959208638
 40
1.0
 40
1.0
 40
1.0
 40
1.0
 10
28.7958772635
 20
252.9844791262
 30
0.0
 10
28.8145227175
 20
252.9171098435
 30
0.0
 10
28.83976876
 20
252.7775916187
 30
0.0
 10
28.8406819167
 20
252.6358795457
 30
0.0
 10
28.8351825384
 20
252.5650408687
 30
0.0
  0
SPLINE
  5
404
100
AcDbEntity
  8
0
100
AcDbSpline
 62
7
  6
CONTINUOUS
 70
0
 71
3
 72
9
 73
5
 74
0
 42
0.0000001
 43
0.0000001
 44
0.0000000001
 40
0.0
 40
0.0
 40
0.0
 40
0.0
 40
0.2491533009
 40
1.0
 40
1.0
 40
1.0
 40
1.0
 10
29.0089438023
 20
253.9372065435
 30
0.0
 10
28.9841141502
 20
253.9169704324
 30
0.0
 10
28.884597674
 20
253.8355803604
 30
0.0
 10
28.7857071391
 20
253.7534197948
 30
0.0
 10
28.7120399328
 20
253.6910409563
 30
0.0
  0
SPLINE
  5
405
100
AcDbEntity
  8
0
100
AcDbSpline
 62
7
  6
CONTINUOUS
 70
0
 71
3
 72
9
 73
5
 74
0
 42
0.0000001
 43
0.0000001
 44
0.0000000001
 40
0.0
 40
0.0
 40
0.0
 40
0.0
 40
0.2532709335
 40
1.0
 40
1.0
 40
1.0
 40
1.0
 10
28.7958772635
 20
252.9844791262
 30
0.0
 10
28.7653326229
 20
253.000645302
 30
0.0
 10
28.6448676693
 20
253.0647281005
 30
0.0
 10
28.5250353832
 20
253.130022583
 30
0.0
 10
28.4363112081
 20
253.1801215459
 30
0.0
  0
SPLINE
  5
406
100
AcDbEntity
  8
0
100
AcDbSpline
 62
7
  6
CONTINUOUS
 70
0
 71
3
 72
9
 73
5
 74
0
 42
0.0000001
 43
0.0000001
 44
0.0000000001
 40
0.0
 40
0.0
 40
0.0
 40
0.0
 40
0.2518219697
 40
1.0
 40
1.0
 40
1.0
 40
1.0
 10
29.0089438023
 20
253.9372065435
 30
0.0
 10
28.9886763749
 20
253.9479537865
 30
0.0
 10
28.9069101571
 20
253.9881617288
 30
0.0
 10
28.8201235106
 20
254.0182021299
 30
0.0
 10
28.7538749526
 20
254.0342218741
 30
0.0
  0
LINE
  5
407
100
AcDbEntity
  8
0
100
AcDbLine
 62
7
  6
CONTINUOUS
 10
30.8778058755
 20
252.8592175453
 11
29.042781273
 21
252.9126769445
  0
SPLINE
  5
408
100
AcDbEntity
  8
0
100
AcDbSpline
 62
7
  6
CONTINUOUS
 70
0
 71
3
 72
9
 73
5
 74
0
 42
0.0000001
 43
0.0000001
 44
0.0000000001
 40
0.0
 40
0.0
 40
0.0
 40
0.0
 40
0.2502822993
 40
1.0
 40
1.0
 40
1.0
 40
1.0
 10
28.9857750726
 20
252.1764687429
 30
0.0
 10
29.1371725909
 20
252.1503855387
 30
0.0
 10
29.7420585381
 20
252.0460481314
 30
0.0
 10
30.3469029068
 20
251.941469916
 30
0.0
 10
30.8003608633
 20
251.8630394159
 30
0.0
  0
SPLINE
  5
409
100
AcDbEntity
  8
0
100
AcDbSpline
 62
7
  6
CONTINUOUS
 70
0
 71
3
 72
9
 73
5
 74
0
 42
0.0000001
 43
0.0000001
 44
0.0000000001
 40
0.0
 40
0.0
 40
0.0
 40
0.0
 40
0.2465631896
 40
1.0
 40
1.0
 40
1.0
 40
1.0
 10
28.3448374795
 20
252.0018287259
 30
0.0
 10
28.3763495115
 20
252.0148747869
 30
0.0
 10
28.5044962012
 20
252.066962456
 30
0.0
 10
28.6337087072
 20
252.1163871926
 30
0.0
 10
28.7313202132
 20
252.1529058424
 30
0.0
  0
SPLINE
  5
40A
100
AcDbEntity
  8
0
100
AcDbSpline
 62
7
  6
CONTINUOUS
 70
0
 71
3
 72
19
 73
15
 74
0
 42
0.0000001
 43
0.0000001
 44
0.0000000001
 40
0.0
 40
0.0
 40
0.0
 40
0.0
 40
0.0588114534
 40
0.1187979711
 40
0.1801543013
 40
0.2429366205
 40
0.3719719593
 40
0.503787363
 40
0.634738687
 40
0.7615555152
 40
0.8230266355
 40
0.8831186204
 40
0.9420156157
 40
1.0
 40
1.0
 40
1.0
 40
1.0
 10
-11.6757304187
 20
236.6086040218
 30
0.0
 10
-12.0001703726
 20
237.146742485
 30
0.0
 10
-12.558526614
 20
238.2950523793
 30
0.0
 10
-13.1027045223
 20
240.1495078082
 30
0.0
 10
-13.3598154143
 20
242.1076138239
 30
0.0
 10
-13.3237694822
 20
244.8200758295
 30
0.0
 10
-12.573432776
 20
248.238185666
 30
0.0
 10
-10.6982597179
 20
252.0243002476
 30
0.0
 10
-7.9990575261
 20
255.2451217905
 30
0.0
 10
-5.1874593613
 20
257.2555372029
 30
0.0
 10
-2.7402022388
 20
258.3042658433
 30
0.0
 10
-0.8641936713
 20
258.7852025045
 30
0.0
 10
1.0286000791
 20
258.9465689944
 30
0.0
 10
2.2803062615
 20
258.829830089
 30
0.0
 10
2.8890120864
 20
258.7144876506
 30
0.0
  0
SPLINE
  5
40B
100
AcDbEntity
  8
0
100
AcDbSpline
 62
7
  6
CONTINUOUS
 70
0
 71
3
 72
9
 73
5
 74
0
 42
0.0000001
 43
0.0000001
 44
0.0000000001
 40
0.0
 40
0.0
 40
0.0
 40
0.0
 40
0.2488776109
 40
1.0
 40
1.0
 40
1.0
 40
1.0
 10
-10.1430395155
 20
234.6537611189
 30
0.0
 10
-10.289730729
 20
234.798926648
 30
0.0
 10
-10.8604809839
 20
235.4008538358
 30
0.0
 10
-11.3541412253
 20
236.0751940264
 30
0.0
 10
-11.6757304187
 20
236.6086040218
 30
0.0
  0
SPLINE
  5
40C
100
AcDbEntity
  8
0
100
AcDbSpline
 62
7
  6
CONTINUOUS
 70
0
 71
3
 72
11
 73
7
 74
0
 42
0.0000001
 43
0.0000001
 44
0.0000000001
 40
0.0
 40
0.0
 40
0.0
 40
0.0
 40
0.2411424283
 40
0.4884495292
 40
0.7417736335
 40
1.0
 40
1.0
 40
1.0
 40
1.0
 10
-10.0659044164
 20
246.3715639944
 30
0.0
 10
-10.1470790221
 20
245.3578890424
 30
0.0
 10
-10.275697685
 20
243.3014921763
 30
0.0
 10
-10.3418133758
 20
240.1731146772
 30
0.0
 10
-10.2726252205
 20
236.9728097853
 30
0.0
 10
-10.1455108669
 20
234.8188535213
 30
0.0
 10
-10.0659044164
 20
233.7328026293
 30
0.0
  0
SPLINE
  5
40D
100
AcDbEntity
  8
0
100
AcDbSpline
 62
7
  6
CONTINUOUS
 70
0
 71
3
 72
9
 73
5
 74
0
 42
0.0000001
 43
0.0000001
 44
0.0000000001
 40
0.0
 40
0.0
 40
0.0
 40
0.0
 40
0.2452798743
 40
1.0
 40
1.0
 40
1.0
 40
1.0
 10
3.6093518806
 20
258.8201080277
 30
0.0
 10
3.3955371469
 20
258.7851932529
 30
0.0
 10
2.5275746527
 20
258.6203754732
 30
0.0
 10
1.6768482855
 20
258.3675256051
 30
0.0
 10
1.0522285693
 20
258.1346571043
 30
0.0
  0
SPLINE
  5
40E
100
AcDbEntity
  8
0
100
AcDbSpline
 62
7
  6
CONTINUOUS
 70
0
 71
3
 72
11
 73
7
 74
0
 42
0.0000001
 43
0.0000001
 44
0.0000000001
 40
0.0
 40
0.0
 40
0.0
 40
0.0
 40
0.2546272404
 40
0.5066601154
 40
0.7552231618
 40
1.0
 40
1.0
 40
1.0
 40
1.0
 10
1.0522285693
 20
258.1346571043
 30
0.0
 10
0.1595316781
 20
257.4409314407
 30
0.0
 10
-1.5955950379
 20
256.0328593034
 30
0.0
 10
-4.1262228012
 20
253.8312714337
 30
0.0
 10
-6.5242917595
 20
251.5489180304
 30
0.0
 10
-8.0461893346
 20
249.9726307485
 30
0.0
 10
-8.7873427608
 20
249.1777253794
 30
0.0
  0
SPLINE
  5
40F
100
AcDbEntity
  8
0
100
AcDbSpline
 62
7
  6
CONTINUOUS
 70
0
 71
3
 72
9
 73
5
 74
0
 42
0.0000001
 43
0.0000001
 44
0.0000000001
 40
0.0
 40
0.0
 40
0.0
 40
0.0
 40
0.2534198194
 40
1.0
 40
1.0
 40
1.0
 40
1.0
 10
-11.3113460341
 20
236.2382276997
 30
0.0
 10
-11.2268872977
 20
236.0981386198
 30
0.0
 10
-10.8794169013
 20
235.5540666827
 30
0.0
 10
-10.4744886377
 20
235.0463753838
 30
0.0
 10
-10.1432278942
 20
234.6963723952
 30
0.0
  0
SPLINE
  5
410
100
AcDbEntity
  8
0
100
AcDbSpline
 62
7
  6
CONTINUOUS
 70
0
 71
3
 72
19
 73
15
 74
0
 42
0.0000001
 43
0.0000001
 44
0.0000000001
 40
0.0
 40
0.0
 40
0.0
 40
0.0
 40
0.0542671543
 40
0.1106173464
 40
0.169344838
 40
0.2305104267
 40
0.3591115351
 40
0.4935996687
 40
0.6292561215
 40
0.7610701932
 40
0.8243416848
 40
0.8853073347
 40
0.9438280986
 40
1.0
 40
1.0
 40
1.0
 40
1.0
 10
2.7476584936
 20
258.6782590265
 30
0.0
 10
2.1917546683
 20
258.7531011265
 30
0.0
 10
1.0419394572
 20
258.798612841
 30
0.0
 10
-0.7002881587
 20
258.563885571
 30
0.0
 10
-2.4511861847
 20
258.0348396792
 30
0.0
 10
-4.7817956059
 20
256.9372863121
 30
0.0
 10
-7.4910145678
 20
254.8968806907
 30
0.0
 10
-10.1290899676
 20
251.6848927227
 30
0.0
 10
-12.0014153382
 20
247.9375783667
 30
0.0
 10
-12.8016343797
 20
244.576118387
 30
0.0
 10
-12.9116210655
 20
241.925054233
 30
0.0
 10
-12.7318673996
 20
240.0379587334
 30
0.0
 10
-12.2942467315
 20
238.268923183
 30
0.0
 10
-11.8261087022
 20
237.1725544411
 30
0.0
 10
-11.551757259
 20
236.660855301
 30
0.0
  0
SPLINE
  5
411
100
AcDbEntity
  8
0
100
AcDbSpline
 62
7
  6
CONTINUOUS
 70
0
 71
3
 72
11
 73
7
 74
0
 42
0.0000001
 43
0.0000001
 44
0.0000000001
 40
0.0
 40
0.0
 40
0.0
 40
0.0
 40
0.2135983657
 40
0.4439043285
 40
0.7035575636
 40
1.0
 40
1.0
 40
1.0
 40
1.0
 10
54.1802075952
 20
281.8021559685
 30
0.0
 10
54.1802355506
 20
282.2738297137
 30
0.0
 10
54.342342424
 20
283.2596734481
 30
0.0
 10
55.0417040743
 20
284.6667574206
 30
0.0
 10
56.1646939033
 20
286.0071863981
 30
0.0
 10
57.1139970591
 20
286.7952417853
 30
0.0
 10
57.6435830186
 20
287.1800221856
 30
0.0
  0
SPLINE
  5
412
100
AcDbEntity
  8
0
100
AcDbSpline
 62
7
  6
CONTINUOUS
 70
0
 71
3
 72
11
 73
7
 74
0
 42
0.0000001
 43
0.0000001
 44
0.0000000001
 40
0.0
 40
0.0
 40
0.0
 40
0.0
 40
0.2144484456
 40
0.4534857463
 40
0.7160353141
 40
1.0
 40
1.0
 40
1.0
 40
1.0
 10
57.6435830186
 20
287.1800221856
 30
0.0
 10
58.2190568993
 20
287.5981432974
 30
0.0
 10
59.4990713264
 20
288.396529538
 30
0.0
 10
61.638458045
 20
289.4354059849
 30
0.0
 10
64.0745551669
 20
290.3678396769
 30
0.0
 10
65.8118477372
 20
290.8911545729
 30
0.0
 10
66.7216499184
 20
291.1350320357
 30
0.0
  0
SPLINE
  5
413
100
AcDbEntity
  8
0
100
AcDbSpline
 62
7
  6
CONTINUOUS
 70
0
 71
3
 72
19
 73
15
 74
0
 42
0.0000001
 43
0.0000001
 44
0.0000000001
 40
0.0
 40
0.0
 40
0.0
 40
0.0
 40
0.1437927501
 40
0.2990289408
 40
0.4562714565
 40
0.6058605483
 40
0.6750130013
 40
0.7390970209
 40
0.7973619681
 40
0.8493061298
 40
0.8947794449
 40
0.9341460629
 40
0.9685228895
 40
1.0
 40
1.0
 40
1.0
 40
1.0
 10
66.7216499184
 20
291.1350320357
 30
0.0
 10
68.9993479597
 20
291.7455814836
 30
0.0
 10
73.8337343164
 20
292.659331848
 30
0.0
 10
81.3088676943
 20
293.2118363762
 30
0.0
 10
88.8963512668
 20
292.9800753246
 30
0.0
 10
95.0193466397
 20
292.1290141374
 30
0.0
 10
99.531759395
 20
291.0419127667
 30
0.0
 10
102.525356879
 20
290.081489218
 30
0.0
 10
105.1645146316
 20
288.9725842941
 30
0.0
 10
107.4040287853
 20
287.7339173442
 30
0.0
 10
109.2071260834
 20
286.3843662881
 30
0.0
 10
110.5440416231
 20
284.9380139665
 30
0.0
 10
111.3832300287
 20
283.4052232143
 30
0.0
 10
111.5802147994
 20
282.318360462
 30
0.0
 10
111.5801842047
 20
281.8021559687
 30
0.0
  0
SPLINE
  5
414
100
AcDbEntity
  8
0
100
AcDbSpline
 62
7
  6
CONTINUOUS
 70
0
 71
3
 72
17
 73
13
 74
0
 42
0.0000001
 43
0.0000001
 44
0.0000000001
 40
0.0
 40
0.0
 40
0.0
 40
0.0
 40
0.1375487168
 40
0.2858548993
 40
0.4372853709
 40
0.5839098183
 40
0.7182519753
 40
0.7788468941
 40
0.8342118876
 40
0.8839609528
 40
0.9279776803
 40
1.0
 40
1.0
 40
1.0
 40
1.0
 10
99.0387418815
 20
272.4692799015
 30
0.0
 10
96.9473338033
 20
271.9086664996
 30
0.0
 10
92.5181833915
 20
271.0445710789
 30
0.0
 10
85.6502947656
 20
270.4475444046
 30
0.0
 10
78.612646163
 20
270.5195074552
 30
0.0
 10
71.8351879674
 20
271.2565461638
 30
0.0
 10
66.5698479057
 20
272.4201328203
 30
0.0
 10
62.8325970318
 20
273.6806136391
 30
0.0
 10
60.4359935328
 20
274.7171912324
 30
0.0
 10
58.3794417218
 20
275.8660369501
 30
0.0
 10
56.2812647557
 20
277.4107968519
 30
0.0
 10
55.0446242519
 20
278.8561889535
 30
0.0
 10
54.5921237532
 20
279.8957230895
 30
0.0
  0
SPLINE
  5
415
100
AcDbEntity
  8
0
100
AcDbSpline
 62
7
  6
CONTINUOUS
 70
0
 71
3
 72
9
 73
5
 74
0
 42
0.0000001
 43
0.0000001
 44
0.0000000001
 40
0.0
 40
0.0
 40
0.0
 40
0.0
 40
0.2563331203
 40
1.0
 40
1.0
 40
1.0
 40
1.0
 10
54.4737379984
 20
280.191182814
 30
0.0
 10
54.4254824525
 20
280.3229432834
 30
0.0
 10
54.2578658066
 20
280.8441978741
 30
0.0
 10
54.1801834676
 20
281.3950662202
 30
0.0
 10
54.1802075952
 20
281.8021559685
 30
0.0
  0
SPLINE
  5
416
100
AcDbEntity
  8
0
100
AcDbSpline
 62
7
  6
CONTINUOUS
 70
0
 71
3
 72
9
 73
5
 74
0
 42
0.0000001
 43
0.0000001
 44
0.0000000001
 40
0.0
 40
0.0
 40
0.0
 40
0.0
 40
0.2462551859
 40
1.0
 40
1.0
 40
1.0
 40
1.0
 10
111.5801842047
 20
281.8021559687
 30
0.0
 10
111.5801762036
 20
281.6671579772
 30
0.0
 10
111.5553457486
 20
281.1190689611
 30
0.0
 10
111.4281832846
 20
280.5769772986
 30
0.0
 10
111.2858721768
 20
280.1890514491
 30
0.0
  0
SPLINE
  5
417
100
AcDbEntity
  8
0
100
AcDbSpline
 62
7
  6
CONTINUOUS
 70
0
 71
3
 72
13
 73
9
 74
0
 42
0.0000001
 43
0.0000001
 44
0.0000000001
 40
0.0
 40
0.0
 40
0.0
 40
0.0
 40
0.1804079305
 40
0.2867291519
 40
0.4052419908
 40
0.5362681419
 40
0.6795649963
 40
1.0
 40
1.0
 40
1.0
 40
1.0
 10
111.2858721768
 20
280.1890514491
 30
0.0
 10
110.9768235878
 20
279.3466158986
 30
0.0
 10
110.1356132396
 20
278.135342608
 30
0.0
 10
108.6435726119
 20
276.7810634796
 30
0.0
 10
107.1899146841
 20
275.7615676483
 30
0.0
 10
105.4809137219
 20
274.8094830592
 30
0.0
 10
102.7811188186
 20
273.5934247553
 30
0.0
 10
100.5782103164
 20
272.8819428559
 30
0.0
 10
99.0387418815
 20
272.4692799015
 30
0.0
  0
SPLINE
  5
418
100
AcDbEntity
  8
0
100
AcDbSpline
 62
7
  6
CONTINUOUS
 70
0
 71
3
 72
9
 73
5
 74
0
 42
0.0000001
 43
0.0000001
 44
0.0000000001
 40
0.0
 40
0.0
 40
0.0
 40
0.0
 40
0.5030188229
 40
1.0
 40
1.0
 40
1.0
 40
1.0
 10
78.6006582985
 20
210.5044516446
 30
0.0
 10
77.6728338599
 20
210.2557432169
 30
0.0
 10
75.7754594845
 20
209.9384767674
 30
0.0
 10
73.8521507241
 20
210.0095754885
 30
0.0
 10
72.9122804467
 20
210.1412588919
 30
0.0
  0
SPLINE
  5
419
100
AcDbEntity
  8
0
100
AcDbSpline
 62
7
  6
CONTINUOUS
 70
0
 71
3
 72
13
 73
9
 74
0
 42
0.0000001
 43
0.0000001
 44
0.0000000001
 40
0.0
 40
0.0
 40
0.0
 40
0.0
 40
0.268078205
 40
0.5231815227
 40
0.6459686488
 40
0.7658129307
 40
0.883485376
 40
1.0
 40
1.0
 40
1.0
 40
1.0
 10
61.8666081892
 20
226.2434884286
 30
0.0
 10
61.9538858708
 20
225.6612103172
 30
0.0
 10
62.273219999
 20
224.5404078856
 30
0.0
 10
63.0462271411
 20
223.3226794354
 30
0.0
 10
63.8407751589
 20
222.5652587047
 30
0.0
 10
64.5009049349
 20
222.1214394161
 30
0.0
 10
65.2162819022
 20
221.8066413776
 30
0.0
 10
65.7202664528
 20
221.6878960878
 30
0.0
 10
65.97369264
 20
221.6523839364
 30
0.0
  0
SPLINE
  5
41A
100
AcDbEntity
  8
0
100
AcDbSpline
 62
7
  6
CONTINUOUS
 70
0
 71
3
 72
13
 73
9
 74
0
 42
0.0000001
 43
0.0000001
 44
0.0000000001
 40
0.0
 40
0.0
 40
0.0
 40
0.0
 40
0.268078205
 40
0.5231815227
 40
0.6459686488
 40
0.7658129307
 40
0.883485376
 40
1.0
 40
1.0
 40
1.0
 40
1.0
 10
79.6352038419
 20
231.0064579128
 30
0.0
 10
79.7224815234
 20
230.4241798014
 30
0.0
 10
80.0418156517
 20
229.3033773698
 30
0.0
 10
80.8148227938
 20
228.0856489196
 30
0.0
 10
81.6093708116
 20
227.3282281889
 30
0.0
 10
82.2695005876
 20
226.8844089003
 30
0.0
 10
82.9848775549
 20
226.5696108619
 30
0.0
 10
83.4888621055
 20
226.450865572
 30
0.0
 10
83.7422882927
 20
226.4153534206
 30
0.0
  0
SPLINE
  5
41B
100
AcDbEntity
  8
0
100
AcDbSpline
 62
7
  6
CONTINUOUS
 70
0
 71
3
 72
13
 73
9
 74
0
 42
0.0000001
 43
0.0000001
 44
0.0000000001
 40
0.0
 40
0.0
 40
0.0
 40
0.0
 40
0.268078205
 40
0.5231815227
 40
0.6459686488
 40
0.7658129307
 40
0.883485376
 40
1.0
 40
1.0
 40
1.0
 40
1.0
 10
69.1844252144
 20
239.075840635
 30
0.0
 10
69.271702896
 20
238.4935625235
 30
0.0
 10
69.5910370242
 20
237.3727600919
 30
0.0
 10
70.3640441663
 20
236.1550316418
 30
0.0
 10
71.1585921841
 20
235.3976109111
 30
0.0
 10
71.8187219601
 20
234.9537916224
 30
0.0
 10
72.5340989274
 20
234.638993584
 30
0.0
 10
73.038083478
 20
234.5202482941
 30
0.0
 10
73.2915096652
 20
234.4847361428
 30
0.0
  0
SPLINE
  5
41C
100
AcDbEntity
  8
0
100
AcDbSpline
 62
7
  6
CONTINUOUS
 70
0
 71
3
 72
13
 73
9
 74
0
 42
0.0000001
 43
0.0000001
 44
0.0000000001
 40
0.0
 40
0.0
 40
0.0
 40
0.0
 40
0.1126084257
 40
0.227816271
 40
0.3475015298
 40
0.4724025418
 40
0.7336674034
 40
1.0
 40
1.0
 40
1.0
 40
1.0
 10
76.7268246331
 20
223.6602177645
 30
0.0
 10
76.459691816
 20
223.6976277943
 30
0.0
 10
75.9052005715
 20
223.6948638861
 30
0.0
 10
75.0973816608
 20
223.4564658246
 30
0.0
 10
74.3543721872
 20
223.0015138002
 30
0.0
 10
73.4945030211
 20
222.1339112004
 30
0.0
 10
72.7948736574
 20
220.6831540176
 30
0.0
 10
72.7234177196
 20
219.383097883
 30
0.0
 10
72.8179861604
 20
218.7521790485
 30
0.0
  0
SPLINE
  5
41D
100
AcDbEntity
  8
0
100
AcDbSpline
 62
7
  6
CONTINUOUS
 70
0
 71
3
 72
11
 73
7
 74
0
 42
0.0000001
 43
0.0000001
 44
0.0000000001
 40
0.0
 40
0.0
 40
0.0
 40
0.0
 40
0.2412232545
 40
0.4864011782
 40
0.7387086998
 40
1.0
 40
1.0
 40
1.0
 40
1.0
 10
71.83754099
 20
243.8991595684
 30
0.0
 10
71.6641269065
 20
243.9234288988
 30
0.0
 10
71.3071585266
 20
243.9303002413
 30
0.0
 10
70.7790568597
 20
243.8136344924
 30
0.0
 10
70.277319784
 20
243.5762967647
 30
0.0
 10
69.9786031376
 20
243.3482734728
 30
0.0
 10
69.8395282348
 20
243.2193027384
 30
0.0
  0
SPLINE
  5
41E
100
AcDbEntity
  8
0
100
AcDbSpline
 62
7
  6
CONTINUOUS
 70
0
 71
3
 72
15
 73
11
 74
0
 42
0.0000001
 43
0.0000001
 44
0.0000000001
 40
0.0
 40
0.0
 40
0.0
 40
0.0
 40
0.1122970535
 40
0.2271853593
 40
0.3465385672
 40
0.4710937249
 40
0.6004020144
 40
0.7330567319
 40
0.8670060449
 40
1.0
 40
1.0
 40
1.0
 40
1.0
 10
74.9480795578
 20
246.312850779
 30
0.0
 10
74.5541930284
 20
246.3680453831
 30
0.0
 10
73.7365919035
 20
246.3639424822
 30
0.0
 10
72.5454265881
 20
246.0123796879
 30
0.0
 10
71.4500032028
 20
245.3417380176
 30
0.0
 10
70.5113982813
 20
244.3944724582
 30
0.0
 10
69.7785928091
 20
243.2258858268
 30
0.0
 10
69.290175597
 20
241.9010911304
 30
0.0
 10
69.0716175052
 20
240.493830298
 30
0.0
 10
69.11460112
 20
239.5416761283
 30
0.0
 10
69.1844252144
 20
239.075840635
 30
0.0
  0
SPLINE
  5
41F
100
AcDbEntity
  8
0
100
AcDbSpline
 62
7
  6
CONTINUOUS
 70
0
 71
3
 72
11
 73
7
 74
0
 42
0.0000001
 43
0.0000001
 44
0.0000000001
 40
0.0
 40
0.0
 40
0.0
 40
0.0
 40
0.2412232545
 40
0.4864011782
 40
0.7387086998
 40
1.0
 40
1.0
 40
1.0
 40
1.0
 10
82.2883196175
 20
235.8297768462
 30
0.0
 10
82.1149055339
 20
235.8540461767
 30
0.0
 10
81.7579371541
 20
235.8609175191
 30
0.0
 10
81.2298354872
 20
235.7442517703
 30
0.0
 10
80.7280984114
 20
235.5069140426
 30
0.0
 10
80.4293817651
 20
235.2788907507
 30
0.0
 10
80.2903068623
 20
235.1499200162
 30
0.0
  0
SPLINE
  5
420
100
AcDbEntity
  8
0
100
AcDbSpline
 62
7
  6
CONTINUOUS
 70
0
 71
3
 72
15
 73
11
 74
0
 42
0.0000001
 43
0.0000001
 44
0.0000000001
 40
0.0
 40
0.0
 40
0.0
 40
0.0
 40
0.1122970535
 40
0.2271853593
 40
0.3465385672
 40
0.4710937249
 40
0.6004020144
 40
0.7330567319
 40
0.8670060449
 40
1.0
 40
1.0
 40
1.0
 40
1.0
 10
85.3988581853
 20
238.2434680569
 30
0.0
 10
85.0049716559
 20
238.2986626609
 30
0.0
 10
84.187370531
 20
238.2945597601
 30
0.0
 10
82.9962052156
 20
237.9429969658
 30
0.0
 10
81.9007818302
 20
237.2723552954
 30
0.0
 10
80.9621769088
 20
236.3250897361
 30
0.0
 10
80.2293714366
 20
235.1565031046
 30
0.0
 10
79.7409542245
 20
233.8317084083
 30
0.0
 10
79.5223961327
 20
232.4244475759
 30
0.0
 10
79.5653797474
 20
231.4722934061
 30
0.0
 10
79.6352038419
 20
231.0064579128
 30
0.0
  0
SPLINE
  5
421
100
AcDbEntity
  8
0
100
AcDbSpline
 62
7
  6
CONTINUOUS
 70
0
 71
3
 72
11
 73
7
 74
0
 42
0.0000001
 43
0.0000001
 44
0.0000000001
 40
0.0
 40
0.0
 40
0.0
 40
0.0
 40
0.2412232545
 40
0.4864011782
 40
0.7387086998
 40
1.0
 40
1.0
 40
1.0
 40
1.0
 10
64.5197239648
 20
231.066807362
 30
0.0
 10
64.3463098813
 20
231.0910766925
 30
0.0
 10
63.9893415014
 20
231.0979480349
 30
0.0
 10
63.4612398345
 20
230.9812822861
 30
0.0
 10
62.9595027588
 20
230.7439445584
 30
0.0
 10
62.6607861124
 20
230.5159212664
 30
0.0
 10
62.5217112096
 20
230.386950532
 30
0.0
  0
SPLINE
  5
422
100
AcDbEntity
  8
0
100
AcDbSpline
 62
7
  6
CONTINUOUS
 70
0
 71
3
 72
15
 73
11
 74
0
 42
0.0000001
 43
0.0000001
 44
0.0000000001
 40
0.0
 40
0.0
 40
0.0
 40
0.0
 40
0.1122970535
 40
0.2271853593
 40
0.3465385672
 40
0.4710937249
 40
0.6004020144
 40
0.7330567319
 40
0.8670060449
 40
1.0
 40
1.0
 40
1.0
 40
1.0
 10
67.6302625327
 20
233.4804985727
 30
0.0
 10
67.2363760032
 20
233.5356931767
 30
0.0
 10
66.4187748783
 20
233.5315902759
 30
0.0
 10
65.2276095629
 20
233.1800274816
 30
0.0
 10
64.1321861776
 20
232.5093858112
 30
0.0
 10
63.1935812561
 20
231.5621202519
 30
0.0
 10
62.4607757839
 20
230.3935336204
 30
0.0
 10
61.9723585718
 20
229.0687389241
 30
0.0
 10
61.75380048
 20
227.6614780917
 30
0.0
 10
61.7967840948
 20
226.7093239219
 30
0.0
 10
61.8666081892
 20
226.2434884286
 30
0.0
  0
SPLINE
  5
423
100
AcDbEntity
  8
0
100
AcDbSpline
 62
7
  6
CONTINUOUS
 70
0
 71
3
 72
11
 73
7
 74
0
 42
0.0000001
 43
0.0000001
 44
0.0000000001
 40
0.0
 40
0.0
 40
0.0
 40
0.0
 40
0.2614402511
 40
0.5138072007
 40
0.7589138264
 40
1.0
 40
1.0
 40
1.0
 40
1.0
 10
61.8996091386
 20
226.0501296462
 30
0.0
 10
61.9977236306
 20
225.8853427977
 30
0.0
 10
62.2226615191
 20
225.5791137934
 30
0.0
 10
62.6423654
 20
225.206746332
 30
0.0
 10
63.1222059993
 20
224.945147956
 30
0.0
 10
63.4707725488
 20
224.8522421159
 30
0.0
 10
63.6459187066
 20
224.8277303814
 30
0.0
  0
SPLINE
  5
424
100
AcDbEntity
  8
0
100
AcDbSpline
 62
7
  6
CONTINUOUS
 70
0
 71
3
 72
11
 73
7
 74
0
 42
0.0000001
 43
0.0000001
 44
0.0000000001
 40
0.0
 40
0.0
 40
0.0
 40
0.0
 40
0.2614402511
 40
0.5138072007
 40
0.7589138264
 40
1.0
 40
1.0
 40
1.0
 40
1.0
 10
79.6682047913
 20
230.8130991304
 30
0.0
 10
79.7663192833
 20
230.6483122819
 30
0.0
 10
79.9912571717
 20
230.3420832776
 30
0.0
 10
80.4109610527
 20
229.9697158162
 30
0.0
 10
80.8908016519
 20
229.7081174402
 30
0.0
 10
81.2393682015
 20
229.6152116001
 30
0.0
 10
81.4145143593
 20
229.5906998656
 30
0.0
  0
SPLINE
  5
425
100
AcDbEntity
  8
0
100
AcDbSpline
 62
7
  6
CONTINUOUS
 70
0
 71
3
 72
11
 73
7
 74
0
 42
0.0000001
 43
0.0000001
 44
0.0000000001
 40
0.0
 40
0.0
 40
0.0
 40
0.0
 40
0.2614402511
 40
0.5138072007
 40
0.7589138264
 40
1.0
 40
1.0
 40
1.0
 40
1.0
 10
69.2174261638
 20
238.8824818525
 30
0.0
 10
69.3155406558
 20
238.717695004
 30
0.0
 10
69.5404785443
 20
238.4114659998
 30
0.0
 10
69.9601824252
 20
238.0390985383
 30
0.0
 10
70.4400230245
 20
237.7775001624
 30
0.0
 10
70.788589574
 20
237.6845943223
 30
0.0
 10
70.9637357318
 20
237.6600825877
 30
0.0
  0
SPLINE
  5
426
100
AcDbEntity
  8
0
100
AcDbSpline
 62
7
  6
CONTINUOUS
 70
0
 71
3
 72
11
 73
7
 74
0
 42
0.0000001
 43
0.0000001
 44
0.0000000001
 40
0.0
 40
0.0
 40
0.0
 40
0.0
 40
0.2685754896
 40
0.5241420781
 40
0.7663548172
 40
1.0
 40
1.0
 40
1.0
 40
1.0
 10
72.8179861604
 20
218.7521790485
 30
0.0
 10
72.8771775442
 20
218.3572803002
 30
0.0
 10
73.0940898041
 20
217.5968708878
 30
0.0
 10
73.7134129188
 20
216.6201837158
 30
0.0
 10
74.5712255707
 20
215.9191121039
 30
0.0
 10
75.2593430247
 20
215.6867388887
 30
0.0
 10
75.603362794
 20
215.6385613941
 30
0.0
  0
SPLINE
  5
427
100
AcDbEntity
  8
0
100
AcDbSpline
 62
7
  6
CONTINUOUS
 70
0
 71
3
 72
23
 73
19
 74
0
 42
0.0000001
 43
0.0000001
 44
0.0000000001
 40
0.0
 40
0.0
 40
0.0
 40
0.0
 40
0.0563095757
 40
0.1133378223
 40
0.1716946285
 40
0.2317917055
 40
0.2938066127
 40
0.3576786173
 40
0.4231358692
 40
0.4897393635
 40
0.5569359528
 40
0.6241155491
 40
0.690669729
 40
0.7560505737
 40
0.8198252893
 40
0.8817344936
 40
0.9417275794
 40
1.0
 40
1.0
 40
1.0
 40
1.0
 10
78.4602703787
 20
249.7545931015
 30
0.0
 10
79.4265742191
 20
249.6192061428
 30
0.0
 10
81.3486839065
 20
249.1400753528
 30
0.0
 10
84.0423425223
 20
247.8309423373
 30
0.0
 10
86.474549103
 20
245.9735811639
 30
0.0
 10
88.5702055765
 20
243.6289685517
 30
0.0
 10
90.2683982627
 20
240.8712359381
 30
0.0
 10
91.52013371
 20
237.7853022516
 30
0.0
 10
92.2897600232
 20
234.4647232174
 30
0.0
 10
92.5554877016
 20
231.0094089678
 30
0.0
 10
92.31009427
 20
227.5230116703
 30
0.0
 10
91.5611637171
 20
224.110039443
 30
0.0
 10
90.3309235518
 20
220.8728553274
 30
0.0
 10
88.6554860645
 20
217.9088105982
 30
0.0
 10
86.584081997
 20
215.3074740126
 30
0.0
 10
84.1768068028
 20
213.1483970271
 30
0.0
 10
81.5061660961
 20
211.4992945705
 30
0.0
 10
79.5759804879
 20
210.7658921048
 30
0.0
 10
78.6006582985
 20
210.5044516446
 30
0.0
  0
SPLINE
  5
428
100
AcDbEntity
  8
0
100
AcDbSpline
 62
7
  6
CONTINUOUS
 70
0
 71
3
 72
13
 73
9
 74
0
 42
0.0000001
 43
0.0000001
 44
0.0000000001
 40
0.0
 40
0.0
 40
0.0
 40
0.0
 40
0.268078205
 40
0.5231815227
 40
0.6459686488
 40
0.7658129307
 40
0.883485376
 40
1.0
 40
1.0
 40
1.0
 40
1.0
 10
71.7373469835
 20
228.8893940805
 30
0.0
 10
71.6500693019
 20
229.471672192
 30
0.0
 10
71.3307351737
 20
230.5924746236
 30
0.0
 10
70.5577280316
 20
231.8102030737
 30
0.0
 10
69.7631800138
 20
232.5676238044
 30
0.0
 10
69.1030502378
 20
233.011443093
 30
0.0
 10
68.3876732705
 20
233.3262411315
 30
0.0
 10
67.8836887198
 20
233.4449864214
 30
0.0
 10
67.6302625327
 20
233.4804985727
 30
0.0
  0
SPLINE
  5
429
100
AcDbEntity
  8
0
100
AcDbSpline
 62
7
  6
CONTINUOUS
 70
0
 71
3
 72
13
 73
9
 74
0
 42
0.0000001
 43
0.0000001
 44
0.0000000001
 40
0.0
 40
0.0
 40
0.0
 40
0.0
 40
0.268078205
 40
0.5231815227
 40
0.6459686488
 40
0.7658129307
 40
0.883485376
 40
1.0
 40
1.0
 40
1.0
 40
1.0
 10
79.0551640087
 20
241.7217462869
 30
0.0
 10
78.9678863271
 20
242.3040243983
 30
0.0
 10
78.6485521989
 20
243.4248268299
 30
0.0
 10
77.8755450568
 20
244.6425552801
 30
0.0
 10
77.0809970389
 20
245.3999760108
 30
0.0
 10
76.420867263
 20
245.8437952994
 30
0.0
 10
75.7054902957
 20
246.1585933378
 30
0.0
 10
75.201505745
 20
246.2773386277
 30
0.0
 10
74.9480795578
 20
246.312850779
 30
0.0
  0
SPLINE
  5
42A
100
AcDbEntity
  8
0
100
AcDbSpline
 62
7
  6
CONTINUOUS
 70
0
 71
3
 72
21
 73
17
 74
0
 42
0.0000001
 43
0.0000001
 44
0.0000000001
 40
0.0
 40
0.0
 40
0.0
 40
0.0
 40
0.1299431516
 40
0.192113524
 40
0.2521494208
 40
0.3103975809
 40
0.3675215972
 40
0.4243965268
 40
0.4819476066
 40
0.5409687462
 40
0.6019833274
 40
0.6651781155
 40
0.7304046999
 40
0.7972335311
 40
0.8650259292
 40
1.0
 40
1.0
 40
1.0
 40
1.0
 10
72.2527560418
 20
218.1567810729
 30
0.0
 10
72.3647019618
 20
217.4099273791
 30
0.0
 10
72.7179841153
 20
216.3173429594
 30
0.0
 10
73.5492606581
 20
215.1015355172
 30
0.0
 10
74.3091643086
 20
214.3669903465
 30
0.0
 10
75.1855080302
 20
213.8296717034
 30
0.0
 10
76.1444875081
 20
213.5119360372
 30
0.0
 10
77.1472893421
 20
213.4279176559
 30
0.0
 10
78.1527326555
 20
213.5806695078
 30
0.0
 10
79.1204404075
 20
213.9625266241
 30
0.0
 10
80.0131388036
 20
214.5565550017
 30
0.0
 10
80.7976168909
 20
215.33844291
 30
0.0
 10
81.4452661924
 20
216.2773740976
 30
0.0
 10
81.9324650727
 20
217.3383366897
 30
0.0
 10
82.3437588286
 20
218.8550168085
 30
0.0
 10
82.3690364365
 20
220.061566879
 30
0.0
 10
82.2527563859
 20
220.8373359919
 30
0.0
  0
SPLINE
  5
42B
100
AcDbEntity
  8
0
100
AcDbSpline
 62
7
  6
CONTINUOUS
 70
0
 71
3
 72
13
 73
9
 74
0
 42
0.0000001
 43
0.0000001
 44
0.0000000001
 40
0.0
 40
0.0
 40
0.0
 40
0.0
 40
0.1126065498
 40
0.2278110341
 40
0.3474933551
 40
0.4723917792
 40
0.7336568344
 40
1.0
 40
1.0
 40
1.0
 40
1.0
 10
70.9637357318
 20
237.6600825877
 30
0.0
 10
71.1715050473
 20
237.6310052367
 30
0.0
 10
71.60276236
 20
237.6331270852
 30
0.0
 10
72.2310543561
 20
237.8185502061
 30
0.0
 10
72.8089394613
 20
238.1723845255
 30
0.0
 10
73.4777329155
 20
238.847167283
 30
0.0
 10
74.0219232568
 20
239.9755374697
 30
0.0
 10
74.0775004447
 20
240.9867169782
 30
0.0
 10
74.0039442356
 20
241.4774514908
 30
0.0
  0
SPLINE
  5
42C
100
AcDbEntity
  8
0
100
AcDbSpline
 62
7
  6
CONTINUOUS
 70
0
 71
3
 72
21
 73
17
 74
0
 42
0.0000001
 43
0.0000001
 44
0.0000000001
 40
0.0
 40
0.0
 40
0.0
 40
0.0
 40
0.1299431516
 40
0.192113524
 40
0.2521494208
 40
0.3103975809
 40
0.3675215972
 40
0.4243965268
 40
0.4819476066
 40
0.5409687462
 40
0.6019833274
 40
0.6651781155
 40
0.7304046999
 40
0.7972335311
 40
0.8650259292
 40
1.0
 40
1.0
 40
1.0
 40
1.0
 10
82.2527563859
 20
220.8373359919
 30
0.0
 10
82.140810468
 20
221.584189686
 30
0.0
 10
81.7875283118
 20
222.6767741053
 30
0.0
 10
80.9562517697
 20
223.8925815477
 30
0.0
 10
80.196348119
 20
224.6271267184
 30
0.0
 10
79.3200043975
 20
225.1644453615
 30
0.0
 10
78.3610249195
 20
225.4821810277
 30
0.0
 10
77.3582230856
 20
225.566199409
 30
0.0
 10
76.3527797721
 20
225.4134475571
 30
0.0
 10
75.3850720202
 20
225.0315904408
 30
0.0
 10
74.4923736241
 20
224.4375620631
 30
0.0
 10
73.7078955367
 20
223.6556741549
 30
0.0
 10
73.0602462353
 20
222.7167429672
 30
0.0
 10
72.5730473549
 20
221.6557803752
 30
0.0
 10
72.1617535996
 20
220.1391002564
 30
0.0
 10
72.1364759889
 20
218.9325501855
 30
0.0
 10
72.2527560418
 20
218.1567810729
 30
0.0
  0
SPLINE
  5
42D
100
AcDbEntity
  8
0
100
AcDbSpline
 62
7
  6
CONTINUOUS
 70
0
 71
3
 72
11
 73
7
 74
0
 42
0.0000001
 43
0.0000001
 44
0.0000000001
 40
0.0
 40
0.0
 40
0.0
 40
0.0
 40
0.2352694108
 40
0.4800189371
 40
0.7353287929
 40
1.0
 40
1.0
 40
1.0
 40
1.0
 10
73.5498498291
 20
246.2784753736
 30
0.0
 10
73.9140574577
 20
246.0947072329
 30
0.0
 10
74.6071358463
 20
245.6126806091
 30
0.0
 10
75.4402329861
 20
244.6310934699
 30
0.0
 10
76.0432296872
 20
243.4376831162
 30
0.0
 10
76.2679794972
 20
242.5564283893
 30
0.0
 10
76.336007758
 20
242.102573904
 30
0.0
  0
SPLINE
  5
42E
100
AcDbEntity
  8
0
100
AcDbSpline
 62
7
  6
CONTINUOUS
 70
0
 71
3
 72
15
 73
11
 74
0
 42
0.0000001
 43
0.0000001
 44
0.0000000001
 40
0.0
 40
0.0
 40
0.0
 40
0.0
 40
0.1122970535
 40
0.2271853593
 40
0.3465385672
 40
0.4710937249
 40
0.6004020144
 40
0.7330567319
 40
0.8670060449
 40
1.0
 40
1.0
 40
1.0
 40
1.0
 10
73.2915096652
 20
234.4847361428
 30
0.0
 10
73.6853961947
 20
234.4295415388
 30
0.0
 10
74.5029973196
 20
234.4336444396
 30
0.0
 10
75.694162635
 20
234.7852072339
 30
0.0
 10
76.7895860203
 20
235.4558489043
 30
0.0
 10
77.7281909418
 20
236.4031144636
 30
0.0
 10
78.460996414
 20
237.571701095
 30
0.0
 10
78.9494136261
 20
238.8964957914
 30
0.0
 10
79.1679717179
 20
240.3037566238
 30
0.0
 10
79.1249881031
 20
241.2559107936
 30
0.0
 10
79.0551640087
 20
241.7217462869
 30
0.0
  0
SPLINE
  5
42F
100
AcDbEntity
  8
0
100
AcDbSpline
 62
7
  6
CONTINUOUS
 70
0
 71
3
 72
13
 73
9
 74
0
 42
0.0000001
 43
0.0000001
 44
0.0000000001
 40
0.0
 40
0.0
 40
0.0
 40
0.0
 40
0.261769918
 40
0.5214409378
 40
0.64734833
 40
0.7690712151
 40
0.8864351344
 40
1.0
 40
1.0
 40
1.0
 40
1.0
 10
69.0181907328
 20
229.2702216976
 30
0.0
 10
69.1371542753
 20
228.4765495285
 30
0.0
 10
69.0945372645
 20
226.8429036411
 30
0.0
 10
68.3766912872
 20
224.9477868183
 30
0.0
 10
67.4518316242
 20
223.6873669405
 30
0.0
 10
66.6239320897
 20
222.9231215597
 30
0.0
 10
65.6890538301
 20
222.3645549487
 30
0.0
 10
65.0088596686
 20
222.1428296621
 30
0.0
 10
64.6673385802
 20
222.0751172078
 30
0.0
  0
SPLINE
  5
430
100
AcDbEntity
  8
0
100
AcDbSpline
 62
7
  6
CONTINUOUS
 70
0
 71
3
 72
11
 73
7
 74
0
 42
0.0000001
 43
0.0000001
 44
0.0000000001
 40
0.0
 40
0.0
 40
0.0
 40
0.0
 40
0.2685836085
 40
0.5241463295
 40
0.7663568803
 40
1.0
 40
1.0
 40
1.0
 40
1.0
 10
66.6861272104
 20
228.6450992845
 30
0.0
 10
66.6400882212
 20
228.9522510693
 30
0.0
 10
66.4713891357
 20
229.5436904044
 30
0.0
 10
65.9896431161
 20
230.3033065403
 30
0.0
 10
65.3224838389
 20
230.8485752201
 30
0.0
 10
64.7872950915
 20
231.0293607373
 30
0.0
 10
64.5197239648
 20
231.066807362
 30
0.0
  0
SPLINE
  5
431
100
AcDbEntity
  8
0
100
AcDbSpline
 62
7
  6
CONTINUOUS
 70
0
 71
3
 72
13
 73
9
 74
0
 42
0.0000001
 43
0.0000001
 44
0.0000000001
 40
0.0
 40
0.0
 40
0.0
 40
0.0
 40
0.1126065498
 40
0.2278110341
 40
0.3474933551
 40
0.4723917792
 40
0.7336568344
 40
1.0
 40
1.0
 40
1.0
 40
1.0
 10
81.4145143593
 20
229.5906998656
 30
0.0
 10
81.6222836748
 20
229.5616225145
 30
0.0
 10
82.0535409875
 20
229.5637443631
 30
0.0
 10
82.6818329836
 20
229.749167484
 30
0.0
 10
83.2597180887
 20
230.1030018034
 30
0.0
 10
83.9285115429
 20
230.7777845609
 30
0.0
 10
84.4727018843
 20
231.9061547476
 30
0.0
 10
84.5282790722
 20
232.917334256
 30
0.0
 10
84.4547228631
 20
233.4080687687
 30
0.0
  0
SPLINE
  5
432
100
AcDbEntity
  8
0
100
AcDbSpline
 62
7
  6
CONTINUOUS
 70
0
 71
3
 72
13
 73
9
 74
0
 42
0.0000001
 43
0.0000001
 44
0.0000000001
 40
0.0
 40
0.0
 40
0.0
 40
0.0
 40
0.261769918
 40
0.5214409378
 40
0.64734833
 40
0.7690712151
 40
0.8864351344
 40
1.0
 40
1.0
 40
1.0
 40
1.0
 10
86.7867863855
 20
234.0331911818
 30
0.0
 10
86.905749928
 20
233.2395190127
 30
0.0
 10
86.8631329172
 20
231.6058731253
 30
0.0
 10
86.1452869399
 20
229.7107563025
 30
0.0
 10
85.2204272768
 20
228.4503364247
 30
0.0
 10
84.3925277424
 20
227.6860910439
 30
0.0
 10
83.4576494828
 20
227.1275244329
 30
0.0
 10
82.7774553213
 20
226.9057991463
 30
0.0
 10
82.4359342328
 20
226.838086692
 30
0.0
  0
SPLINE
  5
433
100
AcDbEntity
  8
0
100
AcDbSpline
 62
7
  6
CONTINUOUS
 70
0
 71
3
 72
11
 73
7
 74
0
 42
0.0000001
 43
0.0000001
 44
0.0000000001
 40
0.0
 40
0.0
 40
0.0
 40
0.0
 40
0.2352694108
 40
0.4800189371
 40
0.7353287929
 40
1.0
 40
1.0
 40
1.0
 40
1.0
 10
84.0006284566
 20
238.2090926514
 30
0.0
 10
84.3648360852
 20
238.0253245107
 30
0.0
 10
85.0579144737
 20
237.5432978869
 30
0.0
 10
85.8910116136
 20
236.5617107477
 30
0.0
 10
86.4940083146
 20
235.3683003941
 30
0.0
 10
86.7187581247
 20
234.4870456672
 30
0.0
 10
86.7867863855
 20
234.0331911818
 30
0.0
  0
SPLINE
  5
434
100
AcDbEntity
  8
0
100
AcDbSpline
 62
7
  6
CONTINUOUS
 70
0
 71
3
 72
11
 73
7
 74
0
 42
0.0000001
 43
0.0000001
 44
0.0000000001
 40
0.0
 40
0.0
 40
0.0
 40
0.0
 40
0.2685836085
 40
0.5241463295
 40
0.7663568803
 40
1.0
 40
1.0
 40
1.0
 40
1.0
 10
84.4547228631
 20
233.4080687687
 30
0.0
 10
84.4086838739
 20
233.7152205535
 30
0.0
 10
84.2399847884
 20
234.3066598886
 30
0.0
 10
83.7582387687
 20
235.0662760246
 30
0.0
 10
83.0910794916
 20
235.6115447043
 30
0.0
 10
82.5558907442
 20
235.7923302215
 30
0.0
 10
82.2883196175
 20
235.8297768462
 30
0.0
  0
SPLINE
  5
435
100
AcDbEntity
  8
0
100
AcDbSpline
 62
7
  6
CONTINUOUS
 70
0
 71
3
 72
15
 73
11
 74
0
 42
0.0000001
 43
0.0000001
 44
0.0000000001
 40
0.0
 40
0.0
 40
0.0
 40
0.0
 40
0.1122970535
 40
0.2271853593
 40
0.3465385672
 40
0.4710937249
 40
0.6004020144
 40
0.7330567319
 40
0.8670060449
 40
1.0
 40
1.0
 40
1.0
 40
1.0
 10
83.7422882927
 20
226.4153534206
 30
0.0
 10
84.1361748222
 20
226.3601588166
 30
0.0
 10
84.9537759471
 20
226.3642617175
 30
0.0
 10
86.1449412625
 20
226.7158245117
 30
0.0
 10
87.2403646478
 20
227.3864661821
 30
0.0
 10
88.1789695693
 20
228.3337317415
 30
0.0
 10
88.9117750415
 20
229.5023183729
 30
0.0
 10
89.4001922536
 20
230.8271130692
 30
0.0
 10
89.6187503454
 20
232.2343739017
 30
0.0
 10
89.5757667306
 20
233.1865280714
 30
0.0
 10
89.5059426362
 20
233.6523635647
 30
0.0
  0
SPLINE
  5
436
100
AcDbEntity
  8
0
100
AcDbSpline
 62
7
  6
CONTINUOUS
 70
0
 71
3
 72
13
 73
9
 74
0
 42
0.0000001
 43
0.0000001
 44
0.0000000001
 40
0.0
 40
0.0
 40
0.0
 40
0.0
 40
0.261769918
 40
0.5214409378
 40
0.64734833
 40
0.7690712151
 40
0.8864351344
 40
1.0
 40
1.0
 40
1.0
 40
1.0
 10
76.336007758
 20
242.102573904
 30
0.0
 10
76.4549713005
 20
241.3089017348
 30
0.0
 10
76.4123542897
 20
239.6752558475
 30
0.0
 10
75.6945083124
 20
237.7801390246
 30
0.0
 10
74.7696486494
 20
236.5197191469
 30
0.0
 10
73.9417491149
 20
235.755473766
 30
0.0
 10
73.0068708553
 20
235.196907155
 30
0.0
 10
72.3266766938
 20
234.9751818684
 30
0.0
 10
71.9851556054
 20
234.9074694141
 30
0.0
  0
SPLINE
  5
437
100
AcDbEntity
  8
0
100
AcDbSpline
 62
7
  6
CONTINUOUS
 70
0
 71
3
 72
11
 73
7
 74
0
 42
0.0000001
 43
0.0000001
 44
0.0000000001
 40
0.0
 40
0.0
 40
0.0
 40
0.0
 40
0.2685836085
 40
0.5241463295
 40
0.7663568803
 40
1.0
 40
1.0
 40
1.0
 40
1.0
 10
74.0039442356
 20
241.4774514908
 30
0.0
 10
73.9579052464
 20
241.7846032756
 30
0.0
 10
73.7892061609
 20
242.3760426107
 30
0.0
 10
73.3074601413
 20
243.1356587467
 30
0.0
 10
72.6403008641
 20
243.6809274265
 30
0.0
 10
72.1051121167
 20
243.8617129437
 30
0.0
 10
71.83754099
 20
243.8991595684
 30
0.0
  0
SPLINE
  5
438
100
AcDbEntity
  8
0
100
AcDbSpline
 62
7
  6
CONTINUOUS
 70
0
 71
3
 72
9
 73
5
 74
0
 42
0.0000001
 43
0.0000001
 44
0.0000000001
 40
0.0
 40
0.0
 40
0.0
 40
0.0
 40
0.5030188229
 40
1.0
 40
1.0
 40
1.0
 40
1.0
 10
72.7718925268
 20
249.3914003488
 30
0.0
 10
73.6997169655
 20
249.6401087765
 30
0.0
 10
75.5970913409
 20
249.9573752259
 30
0.0
 10
77.5204001012
 20
249.8862765049
 30
0.0
 10
78.4602703787
 20
249.7545931015
 30
0.0
  0
SPLINE
  5
439
100
AcDbEntity
  8
0
100
AcDbSpline
 62
7
  6
CONTINUOUS
 70
0
 71
3
 72
11
 73
7
 74
0
 42
0.0000001
 43
0.0000001
 44
0.0000000001
 40
0.0
 40
0.0
 40
0.0
 40
0.0
 40
0.2685754896
 40
0.5241420781
 40
0.7663548172
 40
1.0
 40
1.0
 40
1.0
 40
1.0
 10
79.5122012681
 20
220.5466001007
 30
0.0
 10
79.4530098848
 20
220.9414988501
 30
0.0
 10
79.2360976261
 20
221.7019082645
 30
0.0
 10
78.6167745113
 20
222.6785954396
 30
0.0
 10
77.7589618584
 20
223.3796670538
 30
0.0
 10
77.0708444031
 20
223.6120402698
 30
0.0
 10
76.7268246331
 20
223.6602177645
 30
0.0
  0
SPLINE
  5
43A
100
AcDbEntity
  8
0
100
AcDbSpline
 62
7
  6
CONTINUOUS
 70
0
 71
3
 72
13
 73
9
 74
0
 42
0.0000001
 43
0.0000001
 44
0.0000000001
 40
0.0
 40
0.0
 40
0.0
 40
0.0
 40
0.1126084257
 40
0.227816271
 40
0.3475015298
 40
0.4724025418
 40
0.7336674034
 40
1.0
 40
1.0
 40
1.0
 40
1.0
 10
75.603362794
 20
215.6385613941
 30
0.0
 10
75.8704956108
 20
215.6011513642
 30
0.0
 10
76.4249868546
 20
215.6039152724
 30
0.0
 10
77.2328057643
 20
215.8423133331
 30
0.0
 10
77.9758152373
 20
216.2972653563
 30
0.0
 10
78.835684403
 20
217.1648679541
 30
0.0
 10
79.5353137675
 20
218.615625134
 30
0.0
 10
79.6067697079
 20
219.9156812668
 30
0.0
 10
79.5122012681
 20
220.5466001007
 30
0.0
  0
SPLINE
  5
43B
100
AcDbEntity
  8
0
100
AcDbSpline
 62
7
  6
CONTINUOUS
 70
0
 71
3
 72
23
 73
19
 74
0
 42
0.0000001
 43
0.0000001
 44
0.0000000001
 40
0.0
 40
0.0
 40
0.0
 40
0.0
 40
0.0563095757
 40
0.1133378223
 40
0.1716946285
 40
0.2317917055
 40
0.2938066127
 40
0.3576786173
 40
0.4231358692
 40
0.4897393635
 40
0.5569359528
 40
0.6241155491
 40
0.690669729
 40
0.7560505737
 40
0.8198252893
 40
0.8817344936
 40
0.9417275794
 40
1.0
 40
1.0
 40
1.0
 40
1.0
 10
72.9122804467
 20
210.1412588919
 30
0.0
 10
71.9459766063
 20
210.2766458506
 30
0.0
 10
70.0238669189
 20
210.7557766405
 30
0.0
 10
67.3302083031
 20
212.064909656
 30
0.0
 10
64.8980017224
 20
213.9222708295
 30
0.0
 10
62.8023452489
 20
216.2668834416
 30
0.0
 10
61.1041525627
 20
219.0246160553
 30
0.0
 10
59.8524171154
 20
222.1105497418
 30
0.0
 10
59.0827908021
 20
225.431128776
 30
0.0
 10
58.8170631238
 20
228.8864430255
 30
0.0
 10
59.0624565554
 20
232.3728403231
 30
0.0
 10
59.8113871082
 20
235.7858125504
 30
0.0
 10
61.0416272736
 20
239.022996666
 30
0.0
 10
62.7170647608
 20
241.9870413952
 30
0.0
 10
64.7884688284
 20
244.5883779808
 30
0.0
 10
67.1957440226
 20
246.7474549663
 30
0.0
 10
69.8663847293
 20
248.3965574229
 30
0.0
 10
71.7965703374
 20
249.1299598885
 30
0.0
 10
72.7718925268
 20
249.3914003488
 30
0.0
  0
SPLINE
  5
43C
100
AcDbEntity
  8
0
100
AcDbSpline
 62
7
  6
CONTINUOUS
 70
0
 71
3
 72
13
 73
9
 74
0
 42
0.0000001
 43
0.0000001
 44
0.0000000001
 40
0.0
 40
0.0
 40
0.0
 40
0.0
 40
0.1126065498
 40
0.2278110341
 40
0.3474933551
 40
0.4723917792
 40
0.7336568344
 40
1.0
 40
1.0
 40
1.0
 40
1.0
 10
63.6459187066
 20
224.8277303814
 30
0.0
 10
63.8536880221
 20
224.7986530303
 30
0.0
 10
64.2849453348
 20
224.8007748789
 30
0.0
 10
64.9132373309
 20
224.9861979998
 30
0.0
 10
65.4911224361
 20
225.3400323191
 30
0.0
 10
66.1599158903
 20
226.0148150766
 30
0.0
 10
66.7041062316
 20
227.1431852634
 30
0.0
 10
66.7596834195
 20
228.1543647718
 30
0.0
 10
66.6861272104
 20
228.6450992845
 30
0.0
  0
SPLINE
  5
43D
100
AcDbEntity
  8
0
100
AcDbSpline
 62
7
  6
CONTINUOUS
 70
0
 71
3
 72
11
 73
7
 74
0
 42
0.0000001
 43
0.0000001
 44
0.0000000001
 40
0.0
 40
0.0
 40
0.0
 40
0.0
 40
0.2352694108
 40
0.4800189371
 40
0.7353287929
 40
1.0
 40
1.0
 40
1.0
 40
1.0
 10
66.2320328039
 20
233.4461231672
 30
0.0
 10
66.5962404325
 20
233.2623550265
 30
0.0
 10
67.2893188211
 20
232.7803284027
 30
0.0
 10
68.1224159609
 20
231.7987412635
 30
0.0
 10
68.725412662
 20
230.6053309099
 30
0.0
 10
68.950162472
 20
229.724076183
 30
0.0
 10
69.0181907328
 20
229.2702216976
 30
0.0
  0
SPLINE
  5
43E
100
AcDbEntity
  8
0
100
AcDbSpline
 62
7
  6
CONTINUOUS
 70
0
 71
3
 72
15
 73
11
 74
0
 42
0.0000001
 43
0.0000001
 44
0.0000000001
 40
0.0
 40
0.0
 40
0.0
 40
0.0
 40
0.1122970535
 40
0.2271853593
 40
0.3465385672
 40
0.4710937249
 40
0.6004020144
 40
0.7330567319
 40
0.8670060449
 40
1.0
 40
1.0
 40
1.0
 40
1.0
 10
65.97369264
 20
221.6523839364
 30
0.0
 10
66.3675791695
 20
221.5971893324
 30
0.0
 10
67.1851802944
 20
221.6012922332
 30
0.0
 10
68.3763456098
 20
221.9528550275
 30
0.0
 10
69.4717689951
 20
222.6234966979
 30
0.0
 10
70.4103739166
 20
223.5707622573
 30
0.0
 10
71.1431793888
 20
224.7393488887
 30
0.0
 10
71.6315966009
 20
226.064143585
 30
0.0
 10
71.8501546927
 20
227.4714044175
 30
0.0
 10
71.8071710779
 20
228.4235585872
 30
0.0
 10
71.7373469835
 20
228.8893940805
 30
0.0
  0
SPLINE
  5
43F
100
AcDbEntity
  8
0
100
AcDbSpline
 62
7
  6
CONTINUOUS
 70
0
 71
3
 72
13
 73
9
 74
0
 42
0.0000001
 43
0.0000001
 44
0.0000000001
 40
0.0
 40
0.0
 40
0.0
 40
0.0
 40
0.268078205
 40
0.5231815227
 40
0.6459686488
 40
0.7658129307
 40
0.883485376
 40
1.0
 40
1.0
 40
1.0
 40
1.0
 10
89.5059426362
 20
233.6523635647
 30
0.0
 10
89.4186649546
 20
234.2346416762
 30
0.0
 10
89.0993308264
 20
235.3554441078
 30
0.0
 10
88.3263236842
 20
236.5731725579
 30
0.0
 10
87.5317756664
 20
237.3305932886
 30
0.0
 10
86.8716458905
 20
237.7744125773
 30
0.0
 10
86.1562689231
 20
238.0892106157
 30
0.0
 10
85.6522843725
 20
238.2079559056
 30
0.0
 10
85.3988581853
 20
238.2434680569
 30
0.0
  0
SPLINE
  5
440
100
AcDbEntity
  8
0
100
AcDbSpline
 62
7
  6
CONTINUOUS
 70
0
 71
3
 72
11
 73
7
 74
0
 42
0.0000001
 43
0.0000001
 44
0.0000000001
 40
0.0
 40
0.0
 40
0.0
 40
0.0
 40
0.2113006107
 40
0.4481758938
 40
0.7112767437
 40
1.0
 40
1.0
 40
1.0
 40
1.0
 10
44.7453759918
 20
260.5058917379
 30
0.0
 10
45.1862715432
 20
260.0259178827
 30
0.0
 10
46.2130006151
 20
259.0908107017
 30
0.0
 10
48.020483606
 20
257.8393761219
 30
0.0
 10
50.1598450445
 20
256.6733832327
 30
0.0
 10
51.7218425214
 20
255.9920323708
 30
0.0
 10
52.5501922132
 20
255.6650719374
 30
0.0
  0
SPLINE
  5
441
100
AcDbEntity
  8
0
100
AcDbSpline
 62
7
  6
CONTINUOUS
 70
0
 71
3
 72
11
 73
7
 74
0
 42
0.0000001
 43
0.0000001
 44
0.0000000001
 40
0.0
 40
0.0
 40
0.0
 40
0.0
 40
0.1902426192
 40
0.4039718113
 40
0.673405387
 40
1.0
 40
1.0
 40
1.0
 40
1.0
 10
52.5141288405
 20
255.5902267884
 30
0.0
 10
52.4976215803
 20
255.5559678365
 30
0.0
 10
52.4909497724
 20
255.4671793987
 30
0.0
 10
52.570309281
 20
255.3515517072
 30
0.0
 10
52.698896757
 20
255.2521189712
 30
0.0
 10
52.8058209083
 20
255.1978859679
 30
0.0
 10
52.8657666811
 20
255.1720292021
 30
0.0
  0
SPLINE
  5
442
100
AcDbEntity
  8
0
100
AcDbSpline
 62
7
  6
CONTINUOUS
 70
0
 71
3
 72
9
 73
5
 74
0
 42
0.0000001
 43
0.0000001
 44
0.0000000001
 40
0.0
 40
0.0
 40
0.0
 40
0.0
 40
0.4698375697
 40
1.0
 40
1.0
 40
1.0
 40
1.0
 10
52.8657666811
 20
255.1720292021
 30
0.0
 10
54.6473174535
 20
254.4035817666
 30
0.0
 10
58.576516076
 20
253.0844016137
 30
0.0
 10
62.6239418465
 20
252.2286208355
 30
0.0
 10
64.7845109548
 20
251.8749206207
 30
0.0
  0
SPLINE
  5
443
100
AcDbEntity
  8
0
100
AcDbSpline
 62
7
  6
CONTINUOUS
 70
0
 71
3
 72
10
 73
6
 74
0
 42
0.0000001
 43
0.0000001
 44
0.0000000001
 40
0.0
 40
0.0
 40
0.0
 40
0.0
 40
0.1785210049
 40
0.4115769014
 40
1.0
 40
1.0
 40
1.0
 40
1.0
 10
64.8239848616
 20
251.8003424053
 30
0.0
 10
64.8468277219
 20
251.757185455
 30
0.0
 10
64.9335101083
 20
251.6781818333
 30
0.0
 10
65.176245845
 20
251.5526241855
 30
0.0
 10
65.3973080886
 20
251.4961367268
 30
0.0
 10
65.5555821364
 20
251.4669267832
 30
0.0
  0
SPLINE
  5
444
100
AcDbEntity
  8
0
100
AcDbSpline
 62
7
  6
CONTINUOUS
 70
0
 71
3
 72
9
 73
5
 74
0
 42
0.0000001
 43
0.0000001
 44
0.0000000001
 40
0.0
 40
0.0
 40
0.0
 40
0.0
 40
0.4897319535
 40
1.0
 40
1.0
 40
1.0
 40
1.0
 10
65.5555821364
 20
251.4669267832
 30
0.0
 10
67.8492056392
 20
251.043631372
 30
0.0
 10
72.579042488
 20
250.4213997265
 30
0.0
 10
77.343573965
 20
250.2169842896
 30
0.0
 10
79.7737336921
 20
250.2154843128
 30
0.0
  0
SPLINE
  5
445
100
AcDbEntity
  8
0
100
AcDbSpline
 62
7
  6
CONTINUOUS
 70
0
 71
3
 72
10
 73
6
 74
0
 42
0.0000001
 43
0.0000001
 44
0.0000000001
 40
0.0
 40
0.0
 40
0.0
 40
0.0
 40
0.2078023653
 40
0.4532676931
 40
1.0
 40
1.0
 40
1.0
 40
1.0
 10
79.8827353333
 20
250.1525268882
 30
0.0
 10
79.9443415648
 20
250.1169442728
 30
0.0
 10
80.0902821762
 20
250.0600680181
 30
0.0
 10
80.4236257533
 20
249.9810832732
 30
0.0
 10
80.6957625206
 20
249.9580328168
 30
0.0
 10
80.8829129891
 20
249.9546527363
 30
0.0
  0
SPLINE
  5
446
100
AcDbEntity
  8
0
100
AcDbSpline
 62
7
  6
CONTINUOUS
 70
0
 71
3
 72
9
 73
5
 74
0
 42
0.0000001
 43
0.0000001
 44
0.0000000001
 40
0.0
 40
0.0
 40
0.0
 40
0.0
 40
0.5080286258
 40
1.0
 40
1.0
 40
1.0
 40
1.0
 10
80.8829129891
 20
249.9546527363
 30
0.0
 10
83.3211891642
 20
249.9106152469
 30
0.0
 10
88.1264411055
 20
250.0282097185
 30
0.0
 10
92.9047803772
 20
250.5611501404
 30
0.0
 10
95.2358871392
 20
250.9393971488
 30
0.0
  0
SPLINE
  5
447
100
AcDbEntity
  8
0
100
AcDbSpline
 62
7
  6
CONTINUOUS
 70
0
 71
3
 72
9
 73
5
 74
0
 42
0.0000001
 43
0.0000001
 44
0.0000000001
 40
0.0
 40
0.0
 40
0.0
 40
0.0
 40
0.4918048592
 40
1.0
 40
1.0
 40
1.0
 40
1.0
 10
95.3978220041
 20
250.8976452121
 30
0.0
 10
95.5758590201
 20
250.8517417052
 30
0.0
 10
95.9520235484
 20
250.8169285951
 30
0.0
 10
96.3262178127
 20
250.8386865661
 30
0.0
 10
96.5143120597
 20
250.8654370763
 30
0.0
  0
SPLINE
  5
448
100
AcDbEntity
  8
0
100
AcDbSpline
 62
7
  6
CONTINUOUS
 70
0
 71
3
 72
9
 73
5
 74
0
 42
0.0000001
 43
0.0000001
 44
0.0000000001
 40
0.0
 40
0.0
 40
0.0
 40
0.0
 40
0.527591002
 40
1.0
 40
1.0
 40
1.0
 40
1.0
 10
96.5143120597
 20
250.8654370763
 30
0.0
 10
98.7256731083
 20
251.1799334963
 30
0.0
 10
102.8930396937
 20
251.9653789098
 30
0.0
 10
106.9551131863
 20
253.2061363767
 30
0.0
 10
108.8169986009
 20
253.9364499617
 30
0.0
  0
SPLINE
  5
449
100
AcDbEntity
  8
0
100
AcDbSpline
 62
7
  6
CONTINUOUS
 70
0
 71
3
 72
9
 73
5
 74
0
 42
0.0000001
 43
0.0000001
 44
0.0000000001
 40
0.0
 40
0.0
 40
0.0
 40
0.0
 40
0.5300901591
 40
1.0
 40
1.0
 40
1.0
 40
1.0
 10
109.0072135733
 20
253.9222598667
 30
0.0
 10
109.1969885974
 20
253.9081026495
 30
0.0
 10
109.558370319
 20
253.9248849508
 30
0.0
 10
109.9112615178
 20
254.0036289469
 30
0.0
 10
110.0700405385
 20
254.0606211437
 30
0.0
  0
SPLINE
  5
44A
100
AcDbEntity
  8
0
100
AcDbSpline
 62
7
  6
CONTINUOUS
 70
0
 71
3
 72
11
 73
7
 74
0
 42
0.0000001
 43
0.0000001
 44
0.0000000001
 40
0.0
 40
0.0
 40
0.0
 40
0.0
 40
0.286724272
 40
0.5494536579
 40
0.7871939266
 40
1.0
 40
1.0
 40
1.0
 40
1.0
 10
110.0700405385
 20
254.0606211437
 30
0.0
 10
110.9392720579
 20
254.3726231733
 30
0.0
 10
112.5859647039
 20
255.026189665
 30
0.0
 10
114.862099765
 20
256.1509611072
 30
0.0
 10
116.8162051556
 20
257.3666596911
 30
0.0
 10
117.9514631233
 20
258.2793875615
 30
0.0
 10
118.4494669681
 20
258.7503686287
 30
0.0
  0
SPLINE
  5
44B
100
AcDbEntity
  8
0
100
AcDbSpline
 62
7
  6
CONTINUOUS
 70
0
 71
3
 72
9
 73
5
 74
0
 42
0.0000001
 43
0.0000001
 44
0.0000000001
 40
0.0
 40
0.0
 40
0.0
 40
0.0
 40
0.5724117237
 40
1.0
 40
1.0
 40
1.0
 40
1.0
 10
118.6390035436
 20
258.765900689
 30
0.0
 10
118.8109139372
 20
258.7799883791
 30
0.0
 10
119.1086404953
 20
258.8386006502
 30
0.0
 10
119.3876503968
 20
258.9709569807
 30
0.0
 10
119.4863616476
 20
259.0537671287
 30
0.0
  0
SPLINE
  5
44C
100
AcDbEntity
  8
0
100
AcDbSpline
 62
7
  6
CONTINUOUS
 70
0
 71
3
 72
11
 73
7
 74
0
 42
0.0000001
 43
0.0000001
 44
0.0000000001
 40
0.0
 40
0.0
 40
0.0
 40
0.0
 40
0.2893381316
 40
0.5471114806
 40
0.7804037153
 40
1.0
 40
1.0
 40
1.0
 40
1.0
 10
119.4863616476
 20
259.0537671287
 30
0.0
 10
119.9763781164
 20
259.4648478983
 30
0.0
 10
120.8546433733
 20
260.3044234247
 30
0.0
 10
121.8811657768
 20
261.7045860692
 30
0.0
 10
122.5165719881
 20
263.1575631893
 30
0.0
 10
122.6649009699
 20
264.162841111
 30
0.0
 10
122.6668362521
 20
264.6482776718
 30
0.0
  0
SPLINE
  5
44D
100
AcDbEntity
  8
0
100
AcDbSpline
 62
7
  6
CONTINUOUS
 70
0
 71
3
 72
9
 73
5
 74
0
 42
0.0000001
 43
0.0000001
 44
0.0000000001
 40
0.0
 40
0.0
 40
0.0
 40
0.0
 40
0.3439766499
 40
1.0
 40
1.0
 40
1.0
 40
1.0
 10
122.8268588686
 20
264.6911725427
 30
0.0
 10
122.8994274387
 20
264.7106249455
 30
0.0
 10
123.0992787791
 20
264.7780851367
 30
0.0
 10
123.3131270085
 20
264.9424147719
 30
0.0
 10
123.3297285368
 20
265.0847367371
 30
0.0
  0
SPLINE
  5
44E
100
AcDbEntity
  8
0
100
AcDbSpline
 62
7
  6
CONTINUOUS
 70
0
 71
3
 72
12
 73
8
 74
0
 42
0.0000001
 43
0.0000001
 44
0.0000000001
 40
0.0
 40
0.0
 40
0.0
 40
0.0
 40
0.3199932773
 40
0.5956737254
 40
0.7152920578
 40
0.8223305066
 40
1.0
 40
1.0
 40
1.0
 40
1.0
 10
99.3923662614
 20
272.0857371439
 30
0.0
 10
100.8425520193
 20
272.4744673872
 30
0.0
 10
103.5104464632
 20
273.3271879205
 30
0.0
 10
106.565562307
 20
274.7493526966
 30
0.0
 10
108.5490888208
 20
276.032240619
 30
0.0
 10
110.0206244693
 20
277.2285511494
 30
0.0
 10
110.9045042498
 20
278.2721185731
 30
0.0
 10
111.2935419249
 20
279.0093816873
 30
0.0
  0
SPLINE
  5
44F
100
AcDbEntity
  8
0
100
AcDbSpline
 62
7
  6
CONTINUOUS
 70
0
 71
3
 72
9
 73
5
 74
0
 42
0.0000001
 43
0.0000001
 44
0.0000000001
 40
0.0
 40
0.0
 40
0.0
 40
0.0
 40
0.2608169595
 40
1.0
 40
1.0
 40
1.0
 40
1.0
 10
111.2935419249
 20
279.0093816873
 30
0.0
 10
111.3401242921
 20
279.09765967
 30
0.0
 10
111.5095431152
 20
279.440824779
 30
0.0
 10
111.6400266509
 20
279.8037327066
 30
0.0
 10
111.7085565094
 20
280.0781911112
 30
0.0
  0
SPLINE
  5
450
100
AcDbEntity
  8
0
100
AcDbSpline
 62
7
  6
CONTINUOUS
 70
0
 71
3
 72
9
 73
5
 74
0
 42
0.0000001
 43
0.0000001
 44
0.0000000001
 40
0.0
 40
0.0
 40
0.0
 40
0.0
 40
0.254393496
 40
1.0
 40
1.0
 40
1.0
 40
1.0
 10
111.7085565094
 20
280.0781911112
 30
0.0
 10
111.7289475802
 20
280.1598562551
 30
0.0
 10
111.7995747621
 20
280.4831643752
 30
0.0
 10
111.830965668
 20
280.8151623907
 30
0.0
 10
111.8306208166
 20
281.0618645364
 30
0.0
  0
SPLINE
  5
451
100
AcDbEntity
  8
0
100
AcDbSpline
 62
7
  6
CONTINUOUS
 70
0
 71
3
 72
9
 73
5
 74
0
 42
0.0000001
 43
0.0000001
 44
0.0000000001
 40
0.0
 40
0.0
 40
0.0
 40
0.0
 40
0.4812442217
 40
1.0
 40
1.0
 40
1.0
 40
1.0
 10
53.9299916015
 20
281.0413415712
 30
0.0
 10
53.9304318066
 20
280.704757683
 30
0.0
 10
54.0246834091
 20
280.0027464007
 30
0.0
 10
54.290107328
 20
279.3483029908
 30
0.0
 10
54.4582719525
 20
279.0268081268
 30
0.0
  0
SPLINE
  5
452
100
AcDbEntity
  8
0
100
AcDbSpline
 62
7
  6
CONTINUOUS
 70
0
 71
3
 72
18
 73
14
 74
0
 42
0.0000001
 43
0.0000001
 44
0.0000000001
 40
0.0
 40
0.0
 40
0.0
 40
0.0
 40
0.0322850245
 40
0.0702258269
 40
0.11427475
 40
0.1644008066
 40
0.2202880718
 40
0.2814209641
 40
0.4166146798
 40
0.5636231501
 40
0.7150031515
 40
0.8629638944
 40
1.0
 40
1.0
 40
1.0
 40
1.0
 10
54.4582719525
 20
279.0268081268
 30
0.0
 10
54.6949288758
 20
278.5743706084
 30
0.0
 10
55.3454095045
 20
277.6598375736
 30
0.0
 10
56.6705667105
 20
276.4192458979
 30
0.0
 10
58.3974674524
 20
275.2318551057
 30
0.0
 10
60.5014964774
 20
274.1247519205
 30
0.0
 10
62.949733493
 20
273.1190631816
 30
0.0
 10
66.7505176702
 20
271.8981289589
 30
0.0
 10
72.07814864
 20
270.7750295114
 30
0.0
 10
78.9101331117
 20
270.0774028136
 30
0.0
 10
85.9802895546
 20
270.0363439364
 30
0.0
 10
92.8639214847
 20
270.6541245612
 30
0.0
 10
97.2990164437
 20
271.5246032481
 30
0.0
 10
99.3923662614
 20
272.0857371439
 30
0.0
  0
SPLINE
  5
453
100
AcDbEntity
  8
0
100
AcDbSpline
 62
7
  6
CONTINUOUS
 70
0
 71
3
 72
9
 73
5
 74
0
 42
0.0000001
 43
0.0000001
 44
0.0000000001
 40
0.0
 40
0.0
 40
0.0
 40
0.0
 40
0.4710271878
 40
1.0
 40
1.0
 40
1.0
 40
1.0
 10
44.6766934714
 20
260.7923355611
 30
0.0
 10
44.6563482345
 20
260.7482869073
 30
0.0
 10
44.6474665065
 20
260.6358366685
 30
0.0
 10
44.7085145379
 20
260.5460203203
 30
0.0
 10
44.7453759918
 20
260.5058917379
 30
0.0
  0
SPLINE
  5
454
100
AcDbEntity
  8
0
100
AcDbSpline
 62
7
  6
CONTINUOUS
 70
0
 71
3
 72
11
 73
7
 74
0
 42
0.0000001
 43
0.0000001
 44
0.0000000001
 40
0.0
 40
0.0
 40
0.0
 40
0.0
 40
0.2251939975
 40
0.4612368874
 40
0.7173222974
 40
1.0
 40
1.0
 40
1.0
 40
1.0
 10
42.3953440743
 20
266.0501423008
 30
0.0
 10
42.3953572153
 20
265.623538251
 30
0.0
 10
42.505271388
 20
264.7464185802
 30
0.0
 10
42.9898606495
 20
263.4655076618
 30
0.0
 10
43.7816365029
 20
262.2196655697
 30
0.0
 10
44.4691186733
 20
261.4592259126
 30
0.0
 10
44.8532032728
 20
261.0860776986
 30
0.0
  0
SPLINE
  5
455
100
AcDbEntity
  8
0
100
AcDbSpline
 62
7
  6
CONTINUOUS
 70
0
 71
3
 72
14
 73
10
 74
0
 42
0.0000001
 43
0.0000001
 44
0.0000000001
 40
0.0
 40
0.0
 40
0.0
 40
0.0
 40
0.2931288753
 40
0.4272413333
 40
0.5531540821
 40
0.6716933733
 40
0.7843209736
 40
0.8932599428
 40
1.0
 40
1.0
 40
1.0
 40
1.0
 10
63.022160653
 20
292.28124254
 30
0.0
 10
61.0217504667
 20
291.7450216219
 30
0.0
 10
58.1401873951
 20
290.807562073
 30
0.0
 10
54.5813233042
 20
289.1839080625
 30
0.0
 10
52.2509502679
 20
287.8627315604
 30
0.0
 10
50.1943654694
 20
286.3920066031
 30
0.0
 10
48.430169059
 20
284.7479967017
 30
0.0
 10
47.000745894
 20
282.9073241649
 30
0.0
 10
46.306925439
 20
281.5355911324
 30
0.0
 10
46.0452380888
 20
280.8283030059
 30
0.0
  0
SPLINE
  5
456
100
AcDbEntity
  8
0
100
AcDbSpline
 62
7
  6
CONTINUOUS
 70
0
 71
3
 72
9
 73
5
 74
0
 42
0.0000001
 43
0.0000001
 44
0.0000000001
 40
0.0
 40
0.0
 40
0.0
 40
0.0
 40
0.2524455538
 40
1.0
 40
1.0
 40
1.0
 40
1.0
 10
120.1568485579
 20
279.2274816584
 30
0.0
 10
120.1275832468
 20
279.3858063411
 30
0.0
 10
119.9958819199
 20
280.0099811787
 30
0.0
 10
119.801416309
 20
280.6206765173
 30
0.0
 10
119.6248460897
 20
281.0635571445
 30
0.0
  0
SPLINE
  5
457
100
AcDbEntity
  8
0
100
AcDbSpline
 62
7
  6
CONTINUOUS
 70
0
 71
3
 72
18
 73
14
 74
0
 42
0.0000001
 43
0.0000001
 44
0.0000000001
 40
0.0
 40
0.0
 40
0.0
 40
0.0
 40
0.0442886142
 40
0.0901329687
 40
0.1386274174
 40
0.1906644017
 40
0.2466661737
 40
0.3066737445
 40
0.4374110261
 40
0.5786008841
 40
0.7239721335
 40
0.8665990296
 40
1.0
 40
1.0
 40
1.0
 40
1.0
 10
119.2508789943
 20
281.8934675546
 30
0.0
 10
118.8517215163
 20
282.6864252054
 30
0.0
 10
117.838317787
 20
284.2034298625
 30
0.0
 10
115.861221786
 20
286.1744226855
 30
0.0
 10
113.4777019391
 20
287.901698631
 30
0.0
 10
110.7274595288
 20
289.4244047751
 30
0.0
 10
107.6296340093
 20
290.7589341541
 30
0.0
 10
102.9379535563
 20
292.3380798749
 30
0.0
 10
96.4229817825
 20
293.7815071346
 30
0.0
 10
88.0942677235
 20
294.6886643768
 30
0.0
 10
79.4775446974
 20
294.7760613109
 30
0.0
 10
71.0501258801
 20
294.0400540678
 30
0.0
 10
65.6049687957
 20
292.9735784233
 30
0.0
 10
63.022160653
 20
292.28124254
 30
0.0
  0
LINE
  5
458
100
AcDbEntity
  8
0
100
AcDbLine
 62
7
  6
CONTINUOUS
 10
46.2234052647
 20
275.167168708
 11
46.2317140429
 21
275.157683979
  0
SPLINE
  5
459
100
AcDbEntity
  8
0
100
AcDbSpline
 62
7
  6
CONTINUOUS
 70
0
 71
3
 72
9
 73
5
 74
0
 42
0.0000001
 43
0.0000001
 44
0.0000000001
 40
0.0
 40
0.0
 40
0.0
 40
0.0
 40
0.5018993052
 40
1.0
 40
1.0
 40
1.0
 40
1.0
 10
46.2317122666
 20
275.1576837516
 30
0.0
 10
46.176776836
 20
275.1506135032
 30
0.0
 10
46.0702971944
 20
275.0980921144
 30
0.0
 10
46.0134414271
 20
274.9935207557
 30
0.0
 10
46.0048892705
 20
274.9392207757
 30
0.0
  0
SPLINE
  5
45A
100
AcDbEntity
  8
0
100
AcDbSpline
 62
7
  6
CONTINUOUS
 70
0
 71
3
 72
9
 73
5
 74
0
 42
0.0000001
 43
0.0000001
 44
0.0000000001
 40
0.0
 40
0.0
 40
0.0
 40
0.0
 40
0.2437548836
 40
1.0
 40
1.0
 40
1.0
 40
1.0
 10
46.0051599633
 20
274.9392641698
 30
0.0
 10
46.0607718681
 20
274.8797437517
 30
0.0
 10
46.2918880037
 20
274.6383449564
 30
0.0
 10
46.5344038172
 20
274.4079320074
 30
0.0
 10
46.722873337
 20
274.2395656385
 30
0.0
  0
SPLINE
  5
45B
100
AcDbEntity
  8
0
100
AcDbSpline
 62
7
  6
CONTINUOUS
 70
0
 71
3
 72
9
 73
5
 74
0
 42
0.0000001
 43
0.0000001
 44
0.0000000001
 40
0.0
 40
0.0
 40
0.0
 40
0.0
 40
0.212299995
 40
1.0
 40
1.0
 40
1.0
 40
1.0
 10
44.7986931608
 20
276.2043344798
 30
0.0
 10
44.8849717882
 20
276.1169625789
 30
0.0
 10
45.2887608571
 20
275.7028358562
 30
0.0
 10
45.6852245332
 20
275.2816441437
 30
0.0
 10
45.996308172
 20
274.9487848121
 30
0.0
  0
SPLINE
  5
45C
100
AcDbEntity
  8
0
100
AcDbSpline
 62
7
  6
CONTINUOUS
 70
0
 71
3
 72
14
 73
10
 74
0
 42
0.0000001
 43
0.0000001
 44
0.0000000001
 40
0.0
 40
0.0
 40
0.0
 40
0.0
 40
0.2142639827
 40
0.4402651852
 40
0.5593958841
 40
0.6848256864
 40
0.8215119313
 40
0.8994633809
 40
1.0
 40
1.0
 40
1.0
 40
1.0
 10
46.4020374385
 20
274.9581804089
 30
0.0
 10
46.4299663858
 20
274.9089269858
 30
0.0
 10
46.4869555684
 20
274.8074917316
 30
0.0
 10
46.5573243735
 20
274.6774884834
 30
0.0
 10
46.6138192625
 20
274.5666683093
 30
0.0
 10
46.6570093263
 20
274.4757425089
 30
0.0
 10
46.6921621664
 20
274.3925930646
 30
0.0
 10
46.7171491812
 20
274.3138218015
 30
0.0
 10
46.7274688817
 20
274.2656847047
 30
0.0
 10
46.7228699023
 20
274.2395182153
 30
0.0
  0
SPLINE
  5
45D
100
AcDbEntity
  8
0
100
AcDbSpline
 62
7
  6
CONTINUOUS
 70
0
 71
3
 72
10
 73
6
 74
0
 42
0.0000001
 43
0.0000001
 44
0.0000000001
 40
0.0
 40
0.0
 40
0.0
 40
0.0
 40
0.4497622725
 40
0.711705252
 40
1.0
 40
1.0
 40
1.0
 40
1.0
 10
46.4020374385
 20
274.9581804089
 30
0.0
 10
46.9656544518
 20
273.9642299576
 30
0.0
 10
48.183813614
 20
272.5750287933
 30
0.0
 10
50.174637417
 20
270.9979339849
 30
0.0
 10
51.3579186518
 20
270.2468454376
 30
0.0
 10
51.9921557813
 20
269.8805402447
 30
0.0
  0
SPLINE
  5
45E
100
AcDbEntity
  8
0
100
AcDbSpline
 62
7
  6
CONTINUOUS
 70
0
 71
3
 72
11
 73
7
 74
0
 42
0.0000001
 43
0.0000001
 44
0.0000000001
 40
0.0
 40
0.0
 40
0.0
 40
0.0
 40
0.3063829383
 40
0.5751829591
 40
0.8059488824
 40
1.0
 40
1.0
 40
1.0
 40
1.0
 10
51.924883368
 20
269.8756103667
 30
0.0
 10
51.348564977
 20
270.1390105873
 30
0.0
 10
50.2547100021
 20
270.608428392
 30
0.0
 10
48.6788235138
 20
271.1576480358
 30
0.0
 10
47.2824517195
 20
271.4970482235
 30
0.0
 10
46.4039461138
 20
271.5890945134
 30
0.0
 10
46.0026122764
 20
271.5898510546
 30
0.0
  0
SPLINE
  5
45F
100
AcDbEntity
  8
0
100
AcDbSpline
 62
7
  6
CONTINUOUS
 70
0
 71
3
 72
9
 73
5
 74
0
 42
0.0000001
 43
0.0000001
 44
0.0000000001
 40
0.0
 40
0.0
 40
0.0
 40
0.0
 40
0.2658455233
 40
1.0
 40
1.0
 40
1.0
 40
1.0
 10
45.8231065283
 20
271.5872579014
 30
0.0
 10
45.7428343852
 20
271.5847458264
 30
0.0
 10
45.4412286367
 20
271.5682868207
 30
0.0
 10
45.1406279338
 20
271.5217932818
 30
0.0
 10
44.926009506
 20
271.4658623019
 30
0.0
  0
SPLINE
  5
460
100
AcDbEntity
  8
0
100
AcDbSpline
 62
7
  6
CONTINUOUS
 70
0
 71
3
 72
11
 73
7
 74
0
 42
0.0000001
 43
0.0000001
 44
0.0000000001
 40
0.0
 40
0.0
 40
0.0
 40
0.0
 40
0.1754310399
 40
0.3978238324
 40
0.6725056655
 40
1.0
 40
1.0
 40
1.0
 40
1.0
 10
46.3388033379
 20
271.8137749275
 30
0.0
 10
46.6904629717
 20
271.8530396458
 30
0.0
 10
47.502523686
 20
271.7987706924
 30
0.0
 10
48.8138242604
 20
271.4361196652
 30
0.0
 10
50.3486845095
 20
270.7861554211
 30
0.0
 10
51.4199599445
 20
270.2110715116
 30
0.0
 10
51.991961391
 20
269.8806930996
 30
0.0
  0
LINE
  5
461
100
AcDbEntity
  8
0
100
AcDbLine
 62
7
  6
CONTINUOUS
 10
51.9248773823
 20
269.875346989
 11
51.9422967408
 21
269.8678809387
  0
SPLINE
  5
462
100
AcDbEntity
  8
0
100
AcDbSpline
 62
7
  6
CONTINUOUS
 70
0
 71
3
 72
9
 73
5
 74
0
 42
0.0000001
 43
0.0000001
 44
0.0000000001
 40
0.0
 40
0.0
 40
0.0
 40
0.0
 40
0.2290880995
 40
1.0
 40
1.0
 40
1.0
 40
1.0
 10
51.9422952368
 20
269.8678804325
 30
0.0
 10
51.9193728231
 20
269.8601465222
 30
0.0
 10
51.8266197154
 20
269.8061059808
 30
0.0
 10
51.7721578597
 20
269.6985117803
 30
0.0
 10
51.7629379231
 20
269.6176264393
 30
0.0
  0
SPLINE
  5
463
100
AcDbEntity
  8
0
100
AcDbSpline
 62
7
  6
CONTINUOUS
 70
0
 71
3
 72
13
 73
9
 74
0
 42
0.0000001
 43
0.0000001
 44
0.0000000001
 40
0.0
 40
0.0
 40
0.0
 40
0.0
 40
0.045920523
 40
0.1129721116
 40
0.2025816911
 40
0.3153842887
 40
0.6112551089
 40
1.0
 40
1.0
 40
1.0
 40
1.0
 10
45.3091207158
 20
277.5224395485
 30
0.0
 10
45.3028554216
 20
277.4835737541
 30
0.0
 10
45.3097110972
 20
277.3853100557
 30
0.0
 10
45.3486974721
 20
277.2162684456
 30
0.0
 10
45.4209891757
 20
276.9964219712
 30
0.0
 10
45.5774714243
 20
276.5989047479
 30
0.0
 10
45.8661114831
 20
275.9786013738
 30
0.0
 10
46.1344031433
 20
275.4565737394
 30
0.0
 10
46.2903174385
 20
275.1620238526
 30
0.0
  0
SPLINE
  5
464
100
AcDbEntity
  8
0
100
AcDbSpline
 62
7
  6
CONTINUOUS
 70
0
 71
3
 72
9
 73
5
 74
0
 42
0.0000001
 43
0.0000001
 44
0.0000000001
 40
0.0
 40
0.0
 40
0.0
 40
0.0
 40
0.2328225298
 40
1.0
 40
1.0
 40
1.0
 40
1.0
 10
49.0713675384
 20
270.5776673033
 30
0.0
 10
49.2830786931
 20
270.5165436791
 30
0.0
 10
50.1877638175
 20
270.2379527078
 30
0.0
 10
51.0743632994
 20
269.9027237198
 30
0.0
 10
51.745313382
 20
269.6251346428
 30
0.0
  0
SPLINE
  5
465
100
AcDbEntity
  8
0
100
AcDbSpline
 62
7
  6
CONTINUOUS
 70
0
 71
3
 72
14
 73
10
 74
0
 42
0.0000001
 43
0.0000001
 44
0.0000000001
 40
0.0
 40
0.0
 40
0.0
 40
0.0
 40
0.0779249165
 40
0.1470797465
 40
0.277259575
 40
0.4027478756
 40
0.5255352528
 40
0.7655780761
 40
1.0
 40
1.0
 40
1.0
 40
1.0
 10
53.138947865
 20
269.0817875264
 30
0.0
 10
53.1429211388
 20
269.1092196985
 30
0.0
 10
53.107032208
 20
269.1584433281
 30
0.0
 10
53.0407018208
 20
269.2267834308
 30
0.0
 10
52.949120022
 20
269.3002402434
 30
0.0
 10
52.8398480809
 20
269.3780211992
 30
0.0
 10
52.6946066604
 20
269.4736364562
 30
0.0
 10
52.5132134108
 20
269.5841700122
 30
0.0
 10
52.3667535833
 20
269.6680981258
 30
0.0
 10
52.2940113452
 20
269.7088621285
 30
0.0
  0
SPLINE
  5
466
100
AcDbEntity
  8
0
100
AcDbSpline
 62
7
  6
CONTINUOUS
 70
0
 71
3
 72
9
 73
5
 74
0
 42
0.0000001
 43
0.0000001
 44
0.0000000001
 40
0.0
 40
0.0
 40
0.0
 40
0.0
 40
0.4662238521
 40
1.0
 40
1.0
 40
1.0
 40
1.0
 10
52.2940113452
 20
269.7088621285
 30
0.0
 10
53.7624433125
 20
268.886115062
 30
0.0
 10
57.0717640986
 20
267.4052529722
 30
0.0
 10
60.528840524
 20
266.3413301121
 30
0.0
 10
62.3949046821
 20
265.860175941
 30
0.0
  0
SPLINE
  5
467
100
AcDbEntity
  8
0
100
AcDbSpline
 62
7
  6
CONTINUOUS
 70
0
 71
3
 72
11
 73
7
 74
0
 42
0.0000001
 43
0.0000001
 44
0.0000000001
 40
0.0
 40
0.0
 40
0.0
 40
0.0
 40
0.3022199619
 40
0.5699312634
 40
0.8007313403
 40
1.0
 40
1.0
 40
1.0
 40
1.0
 10
62.3390243526
 20
265.8451159895
 30
0.0
 10
60.913073166
 20
266.127869115
 30
0.0
 10
58.1949737886
 20
266.5354117216
 30
0.0
 10
54.3289049927
 20
266.590160779
 30
0.0
 10
50.9944352969
 20
266.0585710975
 30
0.0
 10
49.0549441107
 20
265.2622714246
 30
0.0
 10
48.2331941915
 20
264.7688532141
 30
0.0
  0
SPLINE
  5
468
100
AcDbEntity
  8
0
100
AcDbSpline
 62
7
  6
CONTINUOUS
 70
0
 71
3
 72
9
 73
5
 74
0
 42
0.0000001
 43
0.0000001
 44
0.0000000001
 40
0.0
 40
0.0
 40
0.0
 40
0.0
 40
0.4546146327
 40
1.0
 40
1.0
 40
1.0
 40
1.0
 10
52.814706904
 20
266.6006270978
 30
0.0
 10
54.2580078985
 20
266.8449005514
 30
0.0
 10
57.5151621683
 20
266.8913598816
 30
0.0
 10
60.6947202394
 20
266.2985467007
 30
0.0
 10
62.3952121229
 20
265.860118082
 30
0.0
  0
LINE
  5
469
100
AcDbEntity
  8
0
100
AcDbLine
 62
7
  6
CONTINUOUS
 10
62.3390161615
 20
265.8448515022
 11
62.3628987867
 21
265.8406181081
  0
SPLINE
  5
46A
100
AcDbEntity
  8
0
100
AcDbSpline
 62
7
  6
CONTINUOUS
 70
0
 71
3
 72
9
 73
5
 74
0
 42
0.0000001
 43
0.0000001
 44
0.0000000001
 40
0.0
 40
0.0
 40
0.0
 40
0.0
 40
0.4358387148
 40
1.0
 40
1.0
 40
1.0
 40
1.0
 10
62.362897821
 20
265.8406173605
 30
0.0
 10
62.3288238735
 20
265.8141763255
 30
0.0
 10
62.2815540737
 20
265.7203979463
 30
0.0
 10
62.2613904354
 20
265.6237249468
 30
0.0
 10
62.2583031777
 20
265.567982269
 30
0.0
  0
SPLINE
  5
46B
100
AcDbEntity
  8
0
100
AcDbSpline
 62
7
  6
CONTINUOUS
 70
0
 71
3
 72
9
 73
5
 74
0
 42
0.0000001
 43
0.0000001
 44
0.0000000001
 40
0.0
 40
0.0
 40
0.0
 40
0.0
 40
0.4864638265
 40
1.0
 40
1.0
 40
1.0
 40
1.0
 10
44.8359383086
 20
260.685154794
 30
0.0
 10
45.2215948472
 20
261.4278101724
 30
0.0
 10
46.2428166223
 20
262.8488640153
 30
0.0
 10
47.6478148504
 20
263.8887411615
 30
0.0
 10
48.418714205
 20
264.3201256694
 30
0.0
  0
SPLINE
  5
46C
100
AcDbEntity
  8
0
100
AcDbSpline
 62
7
  6
CONTINUOUS
 70
0
 71
3
 72
10
 73
6
 74
0
 42
0.0000001
 43
0.0000001
 44
0.0000000001
 40
0.0
 40
0.0
 40
0.0
 40
0.0
 40
0.4460083278
 40
0.7092595021
 40
1.0
 40
1.0
 40
1.0
 40
1.0
 10
48.418714205
 20
264.3201256694
 30
0.0
 10
49.7585781093
 20
265.0698947897
 30
0.0
 10
52.1533036476
 20
265.7967414781
 30
0.0
 10
55.5797749742
 20
266.125677466
 30
0.0
 10
57.4924538987
 20
266.0889459842
 30
0.0
 10
58.4911281835
 20
266.0226676452
 30
0.0
  0
SPLINE
  5
46D
100
AcDbEntity
  8
0
100
AcDbSpline
 62
7
  6
CONTINUOUS
 70
0
 71
3
 72
9
 73
5
 74
0
 42
0.0000001
 43
0.0000001
 44
0.0000000001
 40
0.0
 40
0.0
 40
0.0
 40
0.0
 40
0.2421859545
 40
1.0
 40
1.0
 40
1.0
 40
1.0
 10
58.4911280367
 20
266.0226704744
 30
0.0
 10
58.7948969785
 20
266.0025103786
 30
0.0
 10
60.0479562616
 20
265.9012406051
 30
0.0
 10
61.2951789448
 20
265.731964014
 30
0.0
 10
62.2343203471
 20
265.5723908206
 30
0.0
  0
SPLINE
  5
46E
100
AcDbEntity
  8
0
100
AcDbSpline
 62
7
  6
CONTINUOUS
 70
0
 71
3
 72
9
 73
5
 74
0
 42
0.0000001
 43
0.0000001
 44
0.0000000001
 40
0.0
 40
0.0
 40
0.0
 40
0.0
 40
0.4357883241
 40
1.0
 40
1.0
 40
1.0
 40
1.0
 10
62.3390161615
 20
265.8448515022
 30
0.0
 10
62.3049761885
 20
265.8184447828
 30
0.0
 10
62.2577213563
 20
265.7247809569
 30
0.0
 10
62.2375447435
 20
265.6282118747
 30
0.0
 10
62.2344266544
 20
265.572521537
 30
0.0
  0
SPLINE
  5
46F
100
AcDbEntity
  8
0
100
AcDbSpline
 62
7
  6
CONTINUOUS
 70
0
 71
3
 72
17
 73
13
 74
0
 42
0.0000001
 43
0.0000001
 44
0.0000000001
 40
0.0
 40
0.0
 40
0.0
 40
0.0
 40
0.0336181702
 40
0.0669095661
 40
0.1317499455
 40
0.1955854298
 40
0.2588618044
 40
0.384341711
 40
0.5088257868
 40
0.632542625
 40
0.7556055872
 40
1.0
 40
1.0
 40
1.0
 40
1.0
 10
64.0828422473
 20
265.282796612
 30
0.0
 10
64.0842668102
 20
265.2977871557
 30
0.0
 10
64.0638813028
 20
265.3259274766
 30
0.0
 10
64.0181383827
 20
265.3606360687
 30
0.0
 10
63.9538230648
 20
265.3964423156
 30
0.0
 10
63.8757839104
 20
265.4319386062
 30
0.0
 10
63.7707813327
 20
265.4743718562
 30
0.0
 10
63.6385550402
 20
265.5213147549
 30
0.0
 10
63.4791231753
 20
265.5723573305
 30
0.0
 10
63.3196803821
 20
265.6196254215
 30
0.0
 10
63.1077749773
 20
265.6787942826
 30
0.0
 10
62.9484363283
 20
265.7201010127
 30
0.0
 10
62.8422361612
 20
265.7466480816
 30
0.0
  0
SPLINE
  5
470
100
AcDbEntity
  8
0
100
AcDbSpline
 62
7
  6
CONTINUOUS
 70
0
 71
3
 72
9
 73
5
 74
0
 42
0.0000001
 43
0.0000001
 44
0.0000000001
 40
0.0
 40
0.0
 40
0.0
 40
0.0
 40
0.4845407626
 40
1.0
 40
1.0
 40
1.0
 40
1.0
 10
62.8422361612
 20
265.7466480816
 30
0.0
 10
64.9175390278
 20
265.2280159318
 30
0.0
 10
69.2559388024
 20
264.3739012175
 30
0.0
 10
73.6480295173
 20
263.8812306795
 30
0.0
 10
75.9173457583
 20
263.7119182819
 30
0.0
  0
SPLINE
  5
471
100
AcDbEntity
  8
0
100
AcDbSpline
 62
7
  6
CONTINUOUS
 70
0
 71
3
 72
14
 73
10
 74
0
 42
0.0000001
 43
0.0000001
 44
0.0000000001
 40
0.0
 40
0.0
 40
0.0
 40
0.0
 40
0.2905727262
 40
0.427801228
 40
0.5573484891
 40
0.6788635532
 40
0.792334882
 40
0.8988507807
 40
1.0
 40
1.0
 40
1.0
 40
1.0
 10
75.8803730444
 20
263.6895547226
 30
0.0
 10
73.4158067533
 20
263.7613357321
 30
0.0
 10
69.7662153005
 20
263.6006192329
 30
0.0
 10
65.1108665696
 20
262.735973488
 30
0.0
 10
61.9398382281
 20
261.8187928852
 30
0.0
 10
59.0753978635
 20
260.6336213809
 30
0.0
 10
56.5424482126
 20
259.210020303
 30
0.0
 10
54.3591683103
 20
257.5654627636
 30
0.0
 10
53.1157624116
 20
256.3056178011
 30
0.0
 10
52.5632130864
 20
255.6488491428
 30
0.0
  0
SPLINE
  5
472
100
AcDbEntity
  8
0
100
AcDbSpline
 62
7
  6
CONTINUOUS
 70
0
 71
3
 72
9
 73
5
 74
0
 42
0.0000001
 43
0.0000001
 44
0.0000000001
 40
0.0
 40
0.0
 40
0.0
 40
0.0
 40
0.4826442808
 40
1.0
 40
1.0
 40
1.0
 40
1.0
 10
52.5501917419
 20
255.6650714163
 30
0.0
 10
53.2881243205
 20
256.5647280794
 30
0.0
 10
55.0097831219
 20
258.2761122235
 30
0.0
 10
57.008641298
 20
259.6467378981
 30
0.0
 10
58.0884536214
 20
260.2709829482
 30
0.0
  0
SPLINE
  5
473
100
AcDbEntity
  8
0
100
AcDbSpline
 62
7
  6
CONTINUOUS
 70
0
 71
3
 72
9
 73
5
 74
0
 42
0.0000001
 43
0.0000001
 44
0.0000000001
 40
0.0
 40
0.0
 40
0.0
 40
0.0
 40
0.2390996468
 40
1.0
 40
1.0
 40
1.0
 40
1.0
 10
58.0884536214
 20
260.2709829482
 30
0.0
 10
58.52313993
 20
260.5222773358
 30
0.0
 10
60.3737824348
 20
261.5165149114
 30
0.0
 10
62.341510416
 20
262.28663329
 30
0.0
 10
63.8678093413
 20
262.7594316506
 30
0.0
  0
SPLINE
  5
474
100
AcDbEntity
  8
0
100
AcDbSpline
 62
7
  6
CONTINUOUS
 70
0
 71
3
 72
9
 73
5
 74
0
 42
0.0000001
 43
0.0000001
 44
0.0000000001
 40
0.0
 40
0.0
 40
0.0
 40
0.0
 40
0.4801337897
 40
1.0
 40
1.0
 40
1.0
 40
1.0
 10
63.8678093413
 20
262.7594316506
 30
0.0
 10
65.7467079212
 20
263.2462601992
 30
0.0
 10
69.7625346711
 20
263.8818938845
 30
0.0
 10
73.8219749979
 20
263.8682040123
 30
0.0
 10
75.9177146896
 20
263.7118761861
 30
0.0
  0
LINE
  5
475
100
AcDbEntity
  8
0
100
AcDbLine
 62
7
  6
CONTINUOUS
 10
75.8803638914
 20
263.6892887285
 11
75.907088804
 21
263.6890150984
  0
SPLINE
  5
476
100
AcDbEntity
  8
0
100
AcDbSpline
 62
7
  6
CONTINUOUS
 70
0
 71
3
 72
9
 73
5
 74
0
 42
0.0000001
 43
0.0000001
 44
0.0000000001
 40
0.0
 40
0.0
 40
0.0
 40
0.0
 40
0.4091613007
 40
1.0
 40
1.0
 40
1.0
 40
1.0
 10
75.9070886152
 20
263.689014137
 30
0.0
 10
75.8997192324
 20
263.6512261809
 30
0.0
 10
75.8951045987
 20
263.5567650501
 30
0.0
 10
75.892665201
 20
263.4628560391
 30
0.0
 10
75.8931964214
 20
263.4072638925
 30
0.0
  0
SPLINE
  5
477
100
AcDbEntity
  8
0
100
AcDbSpline
 62
7
  6
CONTINUOUS
 70
0
 71
3
 72
11
 73
7
 74
0
 42
0.0000001
 43
0.0000001
 44
0.0000000001
 40
0.0
 40
0.0
 40
0.0
 40
0.0
 40
0.2121447321
 40
0.4482132487
 40
0.7120345109
 40
1.0
 40
1.0
 40
1.0
 40
1.0
 10
52.8657717639
 20
255.1720284308
 30
0.0
 10
53.8368696359
 20
256.2833202331
 30
0.0
 10
56.2085455847
 20
258.3614597886
 30
0.0
 10
60.5850776775
 20
260.7467076706
 30
0.0
 10
65.820514453
 20
262.4545395955
 30
0.0
 10
69.628450116
 20
263.0561562924
 30
0.0
 10
71.6239063006
 20
263.2327992543
 30
0.0
  0
SPLINE
  5
478
100
AcDbEntity
  8
0
100
AcDbSpline
 62
7
  6
CONTINUOUS
 70
0
 71
3
 72
17
 73
13
 74
0
 42
0.0000001
 43
0.0000001
 44
0.0000000001
 40
0.0
 40
0.0
 40
0.0
 40
0.0
 40
0.2493262219
 40
0.3742073932
 40
0.4992394283
 40
0.6244336189
 40
0.7498121421
 40
0.8125908287
 40
0.875441901
 40
0.9383635975
 40
0.9698443927
 40
1.0
 40
1.0
 40
1.0
 40
1.0
 10
76.4400664784
 20
263.6744267011
 30
0.0
 10
76.5636698578
 20
263.6659191279
 30
0.0
 10
76.7490892331
 20
263.6516488763
 30
0.0
 10
76.996080493
 20
263.6283210531
 30
0.0
 10
77.1813791082
 20
263.6080440915
 30
0.0
 10
77.3665001958
 20
263.5839875319
 30
0.0
 10
77.5202520087
 20
263.559436156
 30
0.0
 10
77.6426626669
 20
263.5347206449
 30
0.0
 10
77.7333540752
 20
263.512650502
 30
0.0
 10
77.8088531383
 20
263.4875626016
 30
0.0
 10
77.8625390486
 20
263.461648748
 30
0.0
 10
77.8889338964
 20
263.4358806391
 30
0.0
 10
77.8884634284
 20
263.4209030253
 30
0.0
  0
SPLINE
  5
479
100
AcDbEntity
  8
0
100
AcDbSpline
 62
7
  6
CONTINUOUS
 70
0
 71
3
 72
13
 73
9
 74
0
 42
0.0000001
 43
0.0000001
 44
0.0000000001
 40
0.0
 40
0.0
 40
0.0
 40
0.0
 40
0.2606486277
 40
0.3926920902
 40
0.5228456541
 40
0.6495369179
 40
0.771568882
 40
1.0
 40
1.0
 40
1.0
 40
1.0
 10
90.4873808831
 20
263.7370913594
 30
0.0
 10
88.0080599289
 20
263.4151929883
 30
0.0
 10
84.302410633
 20
262.6373621772
 30
0.0
 10
79.541971745
 20
261.0494858837
 30
0.0
 10
76.0982621102
 20
259.6057123368
 30
0.0
 10
72.8664904606
 20
257.9337277804
 30
0.0
 10
68.9816120656
 20
255.5096274189
 30
0.0
 10
66.3599920597
 20
253.3629061873
 30
0.0
 10
64.8239846841
 20
251.8003422597
 30
0.0
  0
SPLINE
  5
47A
100
AcDbEntity
  8
0
100
AcDbSpline
 62
7
  6
CONTINUOUS
 70
0
 71
3
 72
9
 73
5
 74
0
 42
0.0000001
 43
0.0000001
 44
0.0000000001
 40
0.0
 40
0.0
 40
0.0
 40
0.0
 40
0.2400409053
 40
1.0
 40
1.0
 40
1.0
 40
1.0
 10
64.7845108526
 20
251.8749200547
 30
0.0
 10
65.2609881986
 20
252.3849223179
 30
0.0
 10
67.3180535901
 20
254.441852995
 30
0.0
 10
69.6371805108
 20
256.2299820307
 30
0.0
 10
71.4868452091
 20
257.4388704948
 30
0.0
  0
SPLINE
  5
47B
100
AcDbEntity
  8
0
100
AcDbSpline
 62
7
  6
CONTINUOUS
 70
0
 71
3
 72
9
 73
5
 74
0
 42
0.0000001
 43
0.0000001
 44
0.0000000001
 40
0.0
 40
0.0
 40
0.0
 40
0.0
 40
0.2450068077
 40
1.0
 40
1.0
 40
1.0
 40
1.0
 10
71.4868452091
 20
257.4388704948
 30
0.0
 10
71.9794342461
 20
257.7608127393
 30
0.0
 10
74.0175230767
 20
259.0322913121
 30
0.0
 10
76.1592039565
 20
260.1364616661
 30
0.0
 10
77.8153732308
 20
260.8749720924
 30
0.0
  0
SPLINE
  5
47C
100
AcDbEntity
  8
0
100
AcDbSpline
 62
7
  6
CONTINUOUS
 70
0
 71
3
 72
9
 73
5
 74
0
 42
0.0000001
 43
0.0000001
 44
0.0000000001
 40
0.0
 40
0.0
 40
0.0
 40
0.0
 40
0.4988777295
 40
1.0
 40
1.0
 40
1.0
 40
1.0
 10
77.8153732308
 20
260.8749720924
 30
0.0
 10
79.8425859231
 20
261.6458387852
 30
0.0
 10
84.0186965752
 20
262.9079594594
 30
0.0
 10
88.3298417396
 20
263.5855122742
 30
0.0
 10
90.5011533034
 20
263.7634302377
 30
0.0
  0
LINE
  5
47D
100
AcDbEntity
  8
0
100
AcDbLine
 62
7
  6
CONTINUOUS
 10
90.4873721647
 20
263.7368239665
 11
90.5128573273
 21
263.7406363633
  0
SPLINE
  5
47E
100
AcDbEntity
  8
0
100
AcDbSpline
 62
7
  6
CONTINUOUS
 70
0
 71
3
 72
9
 73
5
 74
0
 42
0.0000001
 43
0.0000001
 44
0.0000000001
 40
0.0
 40
0.0
 40
0.0
 40
0.0
 40
0.4230901966
 40
1.0
 40
1.0
 40
1.0
 40
1.0
 10
90.5128579069
 20
263.7406356654
 30
0.0
 10
90.538991543
 20
263.709196922
 30
0.0
 10
90.5703963607
 20
263.6138846496
 30
0.0
 10
90.5876813356
 20
263.5195699128
 30
0.0
 10
90.5917742868
 20
263.4639748284
 30
0.0
  0
SPLINE
  5
47F
100
AcDbEntity
  8
0
100
AcDbSpline
 62
7
  6
CONTINUOUS
 70
0
 71
3
 72
9
 73
5
 74
0
 42
0.0000001
 43
0.0000001
 44
0.0000000001
 40
0.0
 40
0.0
 40
0.0
 40
0.0
 40
0.5061746476
 40
1.0
 40
1.0
 40
1.0
 40
1.0
 10
86.6197828133
 20
256.839902914
 30
0.0
 10
85.3867146489
 20
255.8142956254
 30
0.0
 10
83.0223417192
 20
253.7002218933
 30
0.0
 10
80.8251964028
 20
251.4116018279
 30
0.0
 10
79.7921156818
 20
250.2364052222
 30
0.0
  0
SPLINE
  5
480
100
AcDbEntity
  8
0
100
AcDbSpline
 62
7
  6
CONTINUOUS
 70
0
 71
3
 72
11
 73
7
 74
0
 42
0.0000001
 43
0.0000001
 44
0.0000000001
 40
0.0
 40
0.0
 40
0.0
 40
0.0
 40
0.2292049133
 40
0.4759711458
 40
0.7360237678
 40
1.0
 40
1.0
 40
1.0
 40
1.0
 10
65.555590043
 20
251.4669270285
 30
0.0
 10
66.857610673
 20
252.7538214364
 30
0.0
 10
69.7953305703
 20
255.1944501233
 30
0.0
 10
74.8074005353
 20
258.296016423
 30
0.0
 10
80.4208355245
 20
260.8606557292
 30
0.0
 10
84.4236736894
 20
262.12640769
 30
0.0
 10
86.4703509275
 20
262.6327910593
 30
0.0
  0
SPLINE
  5
481
100
AcDbEntity
  8
0
100
AcDbSpline
 62
7
  6
CONTINUOUS
 70
0
 71
3
 72
16
 73
12
 74
0
 42
0.0000001
 43
0.0000001
 44
0.0000000001
 40
0.0
 40
0.0
 40
0.0
 40
0.0
 40
0.2529055483
 40
0.3790364506
 40
0.5049137009
 40
0.6304877427
 40
0.755664362
 40
0.8180500385
 40
0.880223653
 40
0.9420043508
 40
1.0
 40
1.0
 40
1.0
 40
1.0
 10
91.01919954
 20
263.8073944432
 30
0.0
 10
91.141338549
 20
263.8181172654
 30
0.0
 10
91.3245364302
 20
263.8327044447
 30
0.0
 10
91.5688453961
 20
263.8478341439
 30
0.0
 10
91.7517426987
 20
263.8563683692
 30
0.0
 10
91.9341567629
 20
263.8611404633
 30
0.0
 10
92.0864060687
 20
263.8603923917
 30
0.0
 10
92.2065797382
 20
263.8549745734
 30
0.0
 10
92.2989962722
 20
263.8463021552
 30
0.0
 10
92.3773400403
 20
263.8334406644
 30
0.0
 10
92.4530409628
 20
263.8076332277
 30
0.0
 10
92.4540276685
 20
263.7795342136
 30
0.0
  0
SPLINE
  5
482
100
AcDbEntity
  8
0
100
AcDbSpline
 62
7
  6
CONTINUOUS
 70
0
 71
3
 72
9
 73
5
 74
0
 42
0.0000001
 43
0.0000001
 44
0.0000000001
 40
0.0
 40
0.0
 40
0.0
 40
0.0
 40
0.5164367204
 40
1.0
 40
1.0
 40
1.0
 40
1.0
 10
91.01919954
 20
263.8073944432
 30
0.0
 10
93.2312007595
 20
264.0015914915
 30
0.0
 10
97.5021868404
 20
264.5366347671
 30
0.0
 10
101.7166173872
 20
265.4224771735
 30
0.0
 10
103.7266997058
 20
265.9539781523
 30
0.0
  0
SPLINE
  5
483
100
AcDbEntity
  8
0
100
AcDbSpline
 62
7
  6
CONTINUOUS
 70
0
 71
3
 72
9
 73
5
 74
0
 42
0.0000001
 43
0.0000001
 44
0.0000000001
 40
0.0
 40
0.0
 40
0.0
 40
0.0
 40
0.2363096771
 40
1.0
 40
1.0
 40
1.0
 40
1.0
 10
103.9362637654
 20
265.9804887909
 30
0.0
 10
103.5231230388
 20
265.8404743982
 30
0.0
 10
101.7843051203
 20
265.2201553995
 30
0.0
 10
100.0843815949
 20
264.4923887946
 30
0.0
 10
98.8109808221
 20
263.8875306958
 30
0.0
  0
SPLINE
  5
484
100
AcDbEntity
  8
0
100
AcDbSpline
 62
7
  6
CONTINUOUS
 70
0
 71
3
 72
12
 73
8
 74
0
 42
0.0000001
 43
0.0000001
 44
0.0000000001
 40
0.0
 40
0.0
 40
0.0
 40
0.0
 40
0.2450565717
 40
0.3720069178
 40
0.499912867
 40
0.7538622722
 40
1.0
 40
1.0
 40
1.0
 40
1.0
 10
98.8109808221
 20
263.8875306958
 30
0.0
 10
97.0765959808
 20
263.0637077956
 30
0.0
 10
94.5082046064
 20
261.6736532483
 30
0.0
 10
91.1891272452
 20
259.5922300805
 30
0.0
 10
87.9114534521
 20
257.3206446054
 30
0.0
 10
84.0455510658
 20
254.2665652558
 30
0.0
 10
81.2045563406
 20
251.556865174
 30
0.0
 10
79.8827351374
 20
250.1525267135
 30
0.0
  0
SPLINE
  5
485
100
AcDbEntity
  8
0
100
AcDbSpline
 62
7
  6
CONTINUOUS
 70
0
 71
3
 72
9
 73
5
 74
0
 42
0.0000001
 43
0.0000001
 44
0.0000000001
 40
0.0
 40
0.0
 40
0.0
 40
0.0
 40
0.2538835991
 40
1.0
 40
1.0
 40
1.0
 40
1.0
 10
92.5340149112
 20
261.234144096
 30
0.0
 10
93.0044501065
 20
261.4973983154
 30
0.0
 10
94.8708778507
 20
262.5099129578
 30
0.0
 10
96.7913121434
 20
263.4239520539
 30
0.0
 10
98.2514556504
 20
264.0386773926
 30
0.0
  0
SPLINE
  5
486
100
AcDbEntity
  8
0
100
AcDbSpline
 62
7
  6
CONTINUOUS
 70
0
 71
3
 72
9
 73
5
 74
0
 42
0.0000001
 43
0.0000001
 44
0.0000000001
 40
0.0
 40
0.0
 40
0.0
 40
0.0
 40
0.258597569
 40
1.0
 40
1.0
 40
1.0
 40
1.0
 10
98.6410174246
 20
264.2007948921
 30
0.0
 10
99.0699975347
 20
264.3772315689
 30
0.0
 10
100.7380960816
 20
265.036577517
 30
0.0
 10
102.4440937001
 20
265.6022677804
 30
0.0
 10
103.7266926552
 20
265.9536262968
 30
0.0
  0
LINE
  5
487
100
AcDbEntity
  8
0
100
AcDbLine
 62
7
  6
CONTINUOUS
 10
103.9362568089
 20
265.9802201712
 11
103.9566223057
 21
265.9876212296
  0
SPLINE
  5
488
100
AcDbEntity
  8
0
100
AcDbSpline
 62
7
  6
CONTINUOUS
 70
0
 71
3
 72
9
 73
5
 74
0
 42
0.0000001
 43
0.0000001
 44
0.0000000001
 40
0.0
 40
0.0
 40
0.0
 40
0.0
 40
0.4615620153
 40
1.0
 40
1.0
 40
1.0
 40
1.0
 10
103.9566235898
 20
265.9876206405
 30
0.0
 10
104.0002005306
 20
265.9676237908
 30
0.0
 10
104.074041508
 20
265.8851277204
 30
0.0
 10
104.1092096469
 20
265.7851126897
 30
0.0
 10
104.1163342423
 20
265.7296365535
 30
0.0
  0
SPLINE
  5
489
100
AcDbEntity
  8
0
100
AcDbSpline
 62
7
  6
CONTINUOUS
 70
0
 71
3
 72
11
 73
7
 74
0
 42
0.0000001
 43
0.0000001
 44
0.0000000001
 40
0.0
 40
0.0
 40
0.0
 40
0.0
 40
0.2490137456
 40
0.5055098635
 40
0.7601954395
 40
1.0
 40
1.0
 40
1.0
 40
1.0
 10
80.8829225158
 20
249.954654346
 30
0.0
 10
82.2974113992
 20
251.4327772988
 30
0.0
 10
85.3330182777
 20
254.2785102886
 30
0.0
 10
90.2485908382
 20
258.1424640387
 30
0.0
 10
95.403705624
 20
261.5452660036
 30
0.0
 10
98.9864188389
 20
263.4774551339
 30
0.0
 10
100.7702269926
 20
264.3139887452
 30
0.0
  0
SPLINE
  5
48A
100
AcDbEntity
  8
0
100
AcDbSpline
 62
7
  6
CONTINUOUS
 70
0
 71
3
 72
9
 73
5
 74
0
 42
0.0000001
 43
0.0000001
 44
0.0000000001
 40
0.0
 40
0.0
 40
0.0
 40
0.0
 40
0.2597362016
 40
1.0
 40
1.0
 40
1.0
 40
1.0
 10
100.7702261777
 20
264.3139920649
 30
0.0
 10
101.0533877722
 20
264.4467832689
 30
0.0
 10
102.1482239084
 20
264.9480096777
 30
0.0
 10
103.2616748359
 20
265.409037719
 30
0.0
 10
104.0961842962
 20
265.7222814778
 30
0.0
  0
SPLINE
  5
48B
100
AcDbEntity
  8
0
100
AcDbSpline
 62
7
  6
CONTINUOUS
 70
0
 71
3
 72
14
 73
10
 74
0
 42
0.0000001
 43
0.0000001
 44
0.0000000001
 40
0.0
 40
0.0
 40
0.0
 40
0.0
 40
0.2563650381
 40
0.5098318044
 40
0.6352336589
 40
0.7594543417
 40
0.8819222529
 40
0.9421013437
 40
1.0
 40
1.0
 40
1.0
 40
1.0
 10
104.3592406912
 20
266.1255212652
 30
0.0
 10
104.461298429
 20
266.1537210477
 30
0.0
 10
104.6648237005
 20
266.2079775275
 30
0.0
 10
104.9197782178
 20
266.2692544345
 30
0.0
 10
105.1238639128
 20
266.3105607079
 30
0.0
 10
105.2741460712
 20
266.3362484408
 30
0.0
 10
105.4045475148
 20
266.3478019357
 30
0.0
 10
105.4960734424
 20
266.3484574983
 30
0.0
 10
105.5597467002
 20
266.3279026063
 30
0.0
 10
105.562061339
 20
266.3041020031
 30
0.0
  0
SPLINE
  5
48C
100
AcDbEntity
  8
0
100
AcDbSpline
 62
7
  6
CONTINUOUS
 70
0
 71
3
 72
9
 73
5
 74
0
 42
0.0000001
 43
0.0000001
 44
0.0000000001
 40
0.0
 40
0.0
 40
0.0
 40
0.0
 40
0.5292259328
 40
1.0
 40
1.0
 40
1.0
 40
1.0
 10
106.8457220071
 20
266.875771267
 30
0.0
 10
108.1844386108
 20
267.3159356751
 30
0.0
 10
110.6811829643
 20
268.2533423943
 30
0.0
 10
113.0665136951
 20
269.4549392262
 30
0.0
 10
114.1412308682
 20
270.1002586101
 30
0.0
  0
SPLINE
  5
48D
100
AcDbEntity
  8
0
100
AcDbSpline
 62
7
  6
CONTINUOUS
 70
0
 71
3
 72
13
 73
9
 74
0
 42
0.0000001
 43
0.0000001
 44
0.0000000001
 40
0.0
 40
0.0
 40
0.0
 40
0.0
 40
0.1955946649
 40
0.3142051958
 40
0.4427406998
 40
0.5780691672
 40
0.717520622
 40
1.0
 40
1.0
 40
1.0
 40
1.0
 10
114.1795511927
 20
270.0782100968
 30
0.0
 10
112.7960836144
 20
269.0004540432
 30
0.0
 10
110.6488394824
 20
267.1719785753
 30
0.0
 10
107.7431642655
 20
264.4672483223
 30
0.0
 10
105.2899456233
 20
262.0703135015
 30
0.0
 10
102.7785336204
 20
259.4678131367
 30
0.0
 10
99.3961204911
 20
255.790106052
 30
0.0
 10
96.9573096302
 20
252.8933318162
 30
0.0
 10
95.3978218196
 20
250.8976450075
 30
0.0
  0
SPLINE
  5
48E
100
AcDbEntity
  8
0
100
AcDbSpline
 62
7
  6
CONTINUOUS
 70
0
 71
3
 72
9
 73
5
 74
0
 42
0.0000001
 43
0.0000001
 44
0.0000000001
 40
0.0
 40
0.0
 40
0.0
 40
0.0
 40
0.251034763
 40
1.0
 40
1.0
 40
1.0
 40
1.0
 10
95.2723199743
 20
250.9901776742
 30
0.0
 10
95.7412611574
 20
251.6434018437
 30
0.0
 10
97.6391340964
 20
254.224064599
 30
0.0
 10
99.6403348244
 20
256.7280255464
 30
0.0
 10
101.1833809896
 20
258.5650573082
 30
0.0
  0
SPLINE
  5
48F
100
AcDbEntity
  8
0
100
AcDbSpline
 62
7
  6
CONTINUOUS
 70
0
 71
3
 72
10
 73
6
 74
0
 42
0.0000001
 43
0.0000001
 44
0.0000000001
 40
0.0
 40
0.0
 40
0.0
 40
0.0
 40
0.5444813604
 40
0.7853956533
 40
1.0
 40
1.0
 40
1.0
 40
1.0
 10
105.7829321087
 20
263.7822514281
 30
0.0
 10
107.2137811049
 20
265.0379201608
 30
0.0
 10
109.3315052299
 20
266.7912918845
 30
0.0
 10
112.1618362361
 20
268.8455150459
 30
0.0
 10
113.4981911244
 20
269.7140640413
 30
0.0
 10
114.1414547868
 20
270.1003346946
 30
0.0
  0
LINE
  5
490
100
AcDbEntity
  8
0
100
AcDbLine
 62
7
  6
CONTINUOUS
 10
114.1795470572
 20
270.0779406089
 11
114.1916918841
 21
270.0878863259
  0
SPLINE
  5
491
100
AcDbEntity
  8
0
100
AcDbSpline
 62
7
  6
CONTINUOUS
 70
0
 71
3
 72
9
 73
5
 74
0
 42
0.0000001
 43
0.0000001
 44
0.0000000001
 40
0.0
 40
0.0
 40
0.0
 40
0.0
 40
0.4950128366
 40
1.0
 40
1.0
 40
1.0
 40
1.0
 10
114.1916940702
 20
270.08788589
 30
0.0
 10
114.2448290021
 20
270.0772843986
 30
0.0
 10
114.3452454533
 20
270.0170911283
 30
0.0
 10
114.3988225812
 20
269.9138347054
 30
0.0
 10
114.4078868955
 20
269.8593090252
 30
0.0
  0
SPLINE
  5
492
100
AcDbEntity
  8
0
100
AcDbSpline
 62
7
  6
CONTINUOUS
 70
0
 71
3
 72
9
 73
5
 74
0
 42
0.0000001
 43
0.0000001
 44
0.0000000001
 40
0.0
 40
0.0
 40
0.0
 40
0.0
 40
0.2558499698
 40
1.0
 40
1.0
 40
1.0
 40
1.0
 10
114.4076132734
 20
269.859362624
 30
0.0
 10
114.4790923426
 20
269.920677433
 30
0.0
 10
114.7562122097
 20
270.1629418112
 30
0.0
 10
115.0240790666
 20
270.4158526593
 30
0.0
 10
115.2169907082
 20
270.6103041007
 30
0.0
  0
SPLINE
  5
493
100
AcDbEntity
  8
0
100
AcDbSpline
 62
7
  6
CONTINUOUS
 70
0
 71
3
 72
9
 73
5
 74
0
 42
0.0000001
 43
0.0000001
 44
0.0000000001
 40
0.0
 40
0.0
 40
0.0
 40
0.0
 40
0.2342433246
 40
1.0
 40
1.0
 40
1.0
 40
1.0
 10
115.5451251561
 20
268.1313827037
 30
0.0
 10
115.3575717551
 20
267.6739687825
 30
0.0
 10
114.5371173379
 20
265.7293367797
 30
0.0
 10
113.6534999154
 20
263.8119616495
 30
0.0
 10
112.9604470035
 20
262.351972394
 30
0.0
  0
SPLINE
  5
494
100
AcDbEntity
  8
0
100
AcDbSpline
 62
7
  6
CONTINUOUS
 70
0
 71
3
 72
9
 73
5
 74
0
 42
0.0000001
 43
0.0000001
 44
0.0000000001
 40
0.0
 40
0.0
 40
0.0
 40
0.0
 40
0.2416420572
 40
1.0
 40
1.0
 40
1.0
 40
1.0
 10
112.9604470035
 20
262.351972394
 30
0.0
 10
112.6389453855
 20
261.674695234
 30
0.0
 10
111.292758716
 20
258.8793183778
 30
0.0
 10
109.9013330907
 20
256.1061056545
 30
0.0
 10
108.8494850989
 20
254.0014527228
 30
0.0
  0
SPLINE
  5
495
100
AcDbEntity
  8
0
100
AcDbSpline
 62
7
  6
CONTINUOUS
 70
0
 71
3
 72
11
 73
7
 74
0
 42
0.0000001
 43
0.0000001
 44
0.0000000001
 40
0.0
 40
0.0
 40
0.0
 40
0.0
 40
0.2712370013
 40
0.5375469497
 40
0.7858063782
 40
1.0
 40
1.0
 40
1.0
 40
1.0
 10
96.5143217562
 20
250.8654401906
 30
0.0
 10
97.820238957
 20
252.5257640907
 30
0.0
 10
100.5013400184
 20
255.7433922152
 30
0.0
 10
104.5980057882
 20
260.2911321064
 30
0.0
 10
108.5341821324
 20
264.3812119734
 30
0.0
 10
111.120445705
 20
266.8893430596
 30
0.0
 10
112.3465080011
 20
268.0204452072
 30
0.0
  0
SPLINE
  5
496
100
AcDbEntity
  8
0
100
AcDbSpline
 62
7
  6
CONTINUOUS
 70
0
 71
3
 72
9
 73
5
 74
0
 42
0.0000001
 43
0.0000001
 44
0.0000000001
 40
0.0
 40
0.0
 40
0.0
 40
0.0
 40
0.2696015869
 40
1.0
 40
1.0
 40
1.0
 40
1.0
 10
112.3465071962
 20
268.0204484001
 30
0.0
 10
112.5279548643
 20
268.1878426107
 30
0.0
 10
113.2034160402
 20
268.8060772393
 30
0.0
 10
113.8885117135
 20
269.4138629594
 30
0.0
 10
114.396016889
 20
269.8494614945
 30
0.0
  0
SPLINE
  5
497
100
AcDbEntity
  8
0
100
AcDbSpline
 62
7
  6
CONTINUOUS
 70
0
 71
3
 72
17
 73
13
 74
0
 42
0.0000001
 43
0.0000001
 44
0.0000000001
 40
0.0
 40
0.0
 40
0.0
 40
0.0
 40
0.2629031755
 40
0.5186500938
 40
0.6430991008
 40
0.7644025046
 40
0.8234742596
 40
0.8810748042
 40
0.9091991334
 40
0.9368470955
 40
0.9645959142
 40
1.0
 40
1.0
 40
1.0
 40
1.0
 10
114.429291738
 20
270.2758925297
 30
0.0
 10
114.4957042966
 20
270.3170344262
 30
0.0
 10
114.6274826699
 20
270.3969680143
 30
0.0
 10
114.7936968976
 20
270.4914133136
 30
0.0
 10
114.9263271416
 20
270.5594039367
 30
0.0
 10
115.0087834918
 20
270.5970801143
 30
0.0
 10
115.074965747
 20
270.6220962251
 30
0.0
 10
115.1162625472
 20
270.6343718906
 30
0.0
 10
115.1494918636
 20
270.6405538626
 30
0.0
 10
115.1741971558
 20
270.6418804048
 30
0.0
 10
115.2018744515
 20
270.6385279771
 30
0.0
 10
115.215457394
 20
270.6206832259
 30
0.0
 10
115.2169889778
 20
270.6102747354
 30
0.0
  0
SPLINE
  5
498
100
AcDbEntity
  8
0
100
AcDbSpline
 62
7
  6
CONTINUOUS
 70
0
 71
3
 72
10
 73
6
 74
0
 42
0.0000001
 43
0.0000001
 44
0.0000000001
 40
0.0
 40
0.0
 40
0.0
 40
0.0
 40
0.2886668334
 40
0.5503888384
 40
1.0
 40
1.0
 40
1.0
 40
1.0
 10
114.429291738
 20
270.2758925297
 30
0.0
 10
115.03232587
 20
270.6494658646
 30
0.0
 10
116.1525750435
 20
271.4143877613
 30
0.0
 10
118.0152497098
 20
273.0163771235
 30
0.0
 10
119.121351091
 20
274.4256707174
 30
0.0
 10
119.6010012507
 20
275.4210033988
 30
0.0
  0
SPLINE
  5
499
100
AcDbEntity
  8
0
100
AcDbSpline
 62
7
  6
CONTINUOUS
 70
0
 71
3
 72
16
 73
12
 74
0
 42
0.0000001
 43
0.0000001
 44
0.0000000001
 40
0.0
 40
0.0
 40
0.0
 40
0.0
 40
0.0342806439
 40
0.073715273
 40
0.1673082234
 40
0.278719075
 40
0.4051602833
 40
0.5433773186
 40
0.6903616179
 40
0.8433673208
 40
1.0
 40
1.0
 40
1.0
 40
1.0
 10
119.6577954733
 20
275.4064142017
 30
0.0
 10
119.6057526822
 20
275.1367199787
 30
0.0
 10
119.4641577888
 20
274.5624996104
 30
0.0
 10
119.0591267274
 20
273.2840775009
 30
0.0
 10
118.3367467062
 20
271.4615011121
 30
0.0
 10
117.2333891212
 20
269.0452548817
 30
0.0
 10
115.8729933362
 20
266.3560204633
 30
0.0
 10
114.3288968084
 20
263.441435046
 30
0.0
 10
112.6289491212
 20
260.3691646964
 30
0.0
 10
110.8355570799
 20
257.1802448147
 30
0.0
 10
109.6199520938
 20
255.0175126156
 30
0.0
 10
109.0072134283
 20
253.9222596364
 30
0.0
  0
SPLINE
  5
49A
100
AcDbEntity
  8
0
100
AcDbSpline
 62
7
  6
CONTINUOUS
 70
0
 71
3
 72
10
 73
6
 74
0
 42
0.0000001
 43
0.0000001
 44
0.0000000001
 40
0.0
 40
0.0
 40
0.0
 40
0.0
 40
0.5749940617
 40
0.8086067377
 40
1.0
 40
1.0
 40
1.0
 40
1.0
 10
115.5451251561
 20
268.1313827037
 30
0.0
 10
116.3611083622
 20
269.5068094358
 30
0.0
 10
117.4961148958
 20
271.4489075003
 30
0.0
 10
118.8307076396
 20
273.8892994609
 30
0.0
 10
119.3700043006
 20
274.9415562072
 30
0.0
 10
119.6010902743
 20
275.4211140975
 30
0.0
  0
LINE
  5
49B
100
AcDbEntity
  8
0
100
AcDbLine
 62
7
  6
CONTINUOUS
 10
119.6577947886
 20
275.4061444877
 11
119.6598697347
 21
275.4171969731
  0
SPLINE
  5
49C
100
AcDbEntity
  8
0
100
AcDbSpline
 62
7
  6
CONTINUOUS
 70
0
 71
3
 72
9
 73
5
 74
0
 42
0.0000001
 43
0.0000001
 44
0.0000000001
 40
0.0
 40
0.0
 40
0.0
 40
0.0
 40
0.5132488275
 40
1.0
 40
1.0
 40
1.0
 40
1.0
 10
119.6598718614
 20
275.4171969092
 30
0.0
 10
119.7156166516
 20
275.4155136645
 30
0.0
 10
119.8265253998
 20
275.3773620245
 30
0.0
 10
119.8902243571
 20
275.2763674924
 30
0.0
 10
119.8996292001
 20
275.2243194409
 30
0.0
  0
SPLINE
  5
49D
100
AcDbEntity
  8
0
100
AcDbSpline
 62
7
  6
CONTINUOUS
 70
0
 71
3
 72
13
 73
9
 74
0
 42
0.0000001
 43
0.0000001
 44
0.0000000001
 40
0.0
 40
0.0
 40
0.0
 40
0.0
 40
0.2910913141
 40
0.5647746402
 40
0.6906011263
 40
0.8063805426
 40
0.9100969346
 40
1.0
 40
1.0
 40
1.0
 40
1.0
 10
110.0700489288
 20
254.0606256734
 30
0.0
 10
111.0767683314
 20
255.8690362296
 30
0.0
 10
113.0363624604
 20
259.3740709419
 30
0.0
 10
115.3454482639
 20
263.7088579349
 30
0.0
 10
116.9584673322
 20
266.9989483883
 30
0.0
 10
117.9744453695
 20
269.2348076416
 30
0.0
 10
118.8043049714
 20
271.2728310105
 30
0.0
 10
119.2544886502
 20
272.5752017377
 30
0.0
 10
119.4368101037
 20
273.1878860578
 30
0.0
  0
SPLINE
  5
49E
100
AcDbEntity
  8
0
100
AcDbSpline
 62
7
  6
CONTINUOUS
 70
0
 71
3
 72
9
 73
5
 74
0
 42
0.0000001
 43
0.0000001
 44
0.0000000001
 40
0.0
 40
0.0
 40
0.0
 40
0.0
 40
0.5365292566
 40
1.0
 40
1.0
 40
1.0
 40
1.0
 10
119.4368094312
 20
273.1878891353
 30
0.0
 10
119.5428476517
 20
273.5442262827
 30
0.0
 10
119.7234445429
 20
274.2136489356
 30
0.0
 10
119.8547526437
 20
274.8951464041
 30
0.0
 10
119.8978515219
 20
275.2133964067
 30
0.0
  0
SPLINE
  5
49F
100
AcDbEntity
  8
0
100
AcDbSpline
 62
7
  6
CONTINUOUS
 70
0
 71
3
 72
18
 73
14
 74
0
 42
0.0000001
 43
0.0000001
 44
0.0000000001
 40
0.0
 40
0.0
 40
0.0
 40
0.0
 40
0.0468820247
 40
0.0645150655
 40
0.1012253509
 40
0.1473521859
 40
0.1994722911
 40
0.255719837
 40
0.3150565664
 40
0.4406532995
 40
0.5732423257
 40
0.7112388117
 40
1.0
 40
1.0
 40
1.0
 40
1.0
 10
119.9489462832
 20
276.0424475666
 30
0.0
 10
119.9474823386
 20
276.0507285235
 30
0.0
 10
119.9458009454
 20
276.0648353285
 30
0.0
 10
119.9264029949
 20
276.0708295389
 30
0.0
 10
119.9116364924
 20
276.0564378543
 30
0.0
 10
119.8969511538
 20
276.0384330303
 30
0.0
 10
119.8817939881
 20
276.0147934612
 30
0.0
 10
119.8667641228
 20
275.9888512164
 30
0.0
 10
119.846276391
 20
275.9506994374
 30
0.0
 10
119.8208876035
 20
275.8997281305
 30
0.0
 10
119.7905043928
 20
275.8354770625
 30
0.0
 10
119.7486950098
 20
275.7442726874
 30
0.0
 10
119.7174944176
 20
275.6743688041
 30
0.0
 10
119.6964527539
 20
275.6270394722
 30
0.0
  0
SPLINE
  5
4A0
100
AcDbEntity
  8
0
100
AcDbSpline
 62
7
  6
CONTINUOUS
 70
0
 71
3
 72
9
 73
5
 74
0
 42
0.0000001
 43
0.0000001
 44
0.0000000001
 40
0.0
 40
0.0
 40
0.0
 40
0.0
 40
0.5091725365
 40
1.0
 40
1.0
 40
1.0
 40
1.0
 10
119.6964527539
 20
275.6270394722
 30
0.0
 10
119.9201929078
 20
276.1303950744
 30
0.0
 10
120.2478242527
 20
277.1754872758
 30
0.0
 10
120.2783610632
 20
278.2728391789
 30
0.0
 10
120.2199344169
 20
278.8006102489
 30
0.0
  0
SPLINE
  5
4A1
100
AcDbEntity
  8
0
100
AcDbSpline
 62
7
  6
CONTINUOUS
 70
0
 71
3
 72
9
 73
5
 74
0
 42
0.0000001
 43
0.0000001
 44
0.0000000001
 40
0.0
 40
0.0
 40
0.0
 40
0.0
 40
0.2411012462
 40
1.0
 40
1.0
 40
1.0
 40
1.0
 10
119.6281373886
 20
281.0414554821
 30
0.0
 10
119.7164281079
 20
280.9297184549
 30
0.0
 10
120.065859546
 20
280.4530641747
 30
0.0
 10
120.3479875598
 20
279.9287487476
 30
0.0
 10
120.5281377723
 20
279.5182901317
 30
0.0
  0
SPLINE
  5
4A2
100
AcDbEntity
  8
0
100
AcDbSpline
 62
7
  6
CONTINUOUS
 70
0
 71
3
 72
15
 73
11
 74
0
 42
0.0000001
 43
0.0000001
 44
0.0000000001
 40
0.0
 40
0.0
 40
0.0
 40
0.0
 40
0.0904513003
 40
0.1921496535
 40
0.3051711216
 40
0.4287579994
 40
0.561540491
 40
0.7019965301
 40
0.8486496838
 40
1.0
 40
1.0
 40
1.0
 40
1.0
 10
120.5281377723
 20
279.5182901317
 30
0.0
 10
120.7849252859
 20
278.9332192293
 30
0.0
 10
121.1897618725
 20
277.6276985706
 30
0.0
 10
121.4952670713
 20
275.4874878983
 30
0.0
 10
121.5312057443
 20
273.0930520812
 30
0.0
 10
121.3347771824
 20
270.4885610491
 30
0.0
 10
120.9219280383
 20
267.7138741
 30
0.0
 10
120.3128569059
 20
264.8096953417
 30
0.0
 10
119.5452006585
 20
261.8083451455
 30
0.0
 10
118.9538369568
 20
259.7876236998
 30
0.0
 10
118.6390034602
 20
258.7659004408
 30
0.0
  0
SPLINE
  5
4A3
100
AcDbEntity
  8
0
100
AcDbSpline
 62
7
  6
CONTINUOUS
 70
0
 71
3
 72
9
 73
5
 74
0
 42
0.0000001
 43
0.0000001
 44
0.0000000001
 40
0.0
 40
0.0
 40
0.0
 40
0.0
 40
0.5136481693
 40
1.0
 40
1.0
 40
1.0
 40
1.0
 10
118.4641701733
 20
258.8079538859
 30
0.0
 10
118.8441636895
 20
260.2981905729
 30
0.0
 10
119.5167023893
 20
263.2172988007
 30
0.0
 10
119.994637194
 20
266.1768765568
 30
0.0
 10
120.1581607176
 20
267.6238584603
 30
0.0
  0
SPLINE
  5
4A4
100
AcDbEntity
  8
0
100
AcDbSpline
 62
7
  6
CONTINUOUS
 70
0
 71
3
 72
9
 73
5
 74
0
 42
0.0000001
 43
0.0000001
 44
0.0000000001
 40
0.0
 40
0.0
 40
0.0
 40
0.0
 40
0.5202056287
 40
1.0
 40
1.0
 40
1.0
 40
1.0
 10
120.1581607176
 20
267.6238584603
 30
0.0
 10
120.2750840788
 20
268.6584862871
 30
0.0
 10
120.4321872614
 20
270.6559572218
 30
0.0
 10
120.4067667228
 20
272.6618163555
 30
0.0
 10
120.334383835
 20
273.6194133908
 30
0.0
  0
SPLINE
  5
4A5
100
AcDbEntity
  8
0
100
AcDbSpline
 62
7
  6
CONTINUOUS
 70
0
 71
3
 72
9
 73
5
 74
0
 42
0.0000001
 43
0.0000001
 44
0.0000000001
 40
0.0
 40
0.0
 40
0.0
 40
0.0
 40
0.5366797604
 40
1.0
 40
1.0
 40
1.0
 40
1.0
 10
120.334383835
 20
273.6194133908
 30
0.0
 10
120.4209036133
 20
274.5446670382
 30
0.0
 10
120.508481718
 20
276.2769147404
 30
0.0
 10
120.3754424671
 20
278.012067081
 30
0.0
 10
120.2342349053
 20
278.8018063114
 30
0.0
  0
SPLINE
  5
4A6
100
AcDbEntity
  8
0
100
AcDbSpline
 62
7
  6
CONTINUOUS
 70
0
 71
3
 72
9
 73
5
 74
0
 42
0.0000001
 43
0.0000001
 44
0.0000000001
 40
0.0
 40
0.0
 40
0.0
 40
0.0
 40
0.5146025156
 40
1.0
 40
1.0
 40
1.0
 40
1.0
 10
119.5286795333
 20
281.164232198
 30
0.0
 10
119.5629726059
 20
281.1686456065
 30
0.0
 10
119.632710481
 20
281.1632126412
 30
0.0
 10
119.6917566511
 20
281.1241470303
 30
0.0
 10
119.7130148495
 20
281.0994136956
 30
0.0
  0
SPLINE
  5
4A7
100
AcDbEntity
  8
0
100
AcDbSpline
 62
7
  6
CONTINUOUS
 70
0
 71
3
 72
11
 73
7
 74
0
 42
0.0000001
 43
0.0000001
 44
0.0000000001
 40
0.0
 40
0.0
 40
0.0
 40
0.0
 40
0.2802797198
 40
0.5446112423
 40
0.7864829681
 40
1.0
 40
1.0
 40
1.0
 40
1.0
 10
119.4863674543
 20
259.0537727694
 30
0.0
 10
119.9504461635
 20
260.603644428
 30
0.0
 10
120.7847231582
 20
263.6364460839
 30
0.0
 10
121.6773012403
 20
268.0936216638
 30
0.0
 10
122.0823058438
 20
272.235801423
 30
0.0
 10
121.9661155129
 20
274.8787357692
 30
0.0
 10
121.7740876281
 20
276.0961698362
 30
0.0
  0
SPLINE
  5
4A8
100
AcDbEntity
  8
0
100
AcDbSpline
 62
7
  6
CONTINUOUS
 70
0
 71
3
 72
10
 73
6
 74
0
 42
0.0000001
 43
0.0000001
 44
0.0000000001
 40
0.0
 40
0.0
 40
0.0
 40
0.0
 40
0.2446841069
 40
0.489052845
 40
1.0
 40
1.0
 40
1.0
 40
1.0
 10
45.6035831904
 20
279.2274888723
 30
0.0
 10
45.5414002443
 20
278.8912632847
 30
0.0
 10
45.4747337938
 20
278.2067463433
 30
0.0
 10
45.5879405758
 20
276.8081041343
 30
0.0
 10
45.9563275967
 20
275.7929349803
 30
0.0
 10
46.2903784399
 20
275.1618882304
 30
0.0
  0
SPLINE
  5
4A9
100
AcDbEntity
  8
0
100
AcDbSpline
 62
7
  6
CONTINUOUS
 70
0
 71
3
 72
9
 73
5
 74
0
 42
0.0000001
 43
0.0000001
 44
0.0000000001
 40
0.0
 40
0.0
 40
0.0
 40
0.0
 40
0.5153249376
 40
1.0
 40
1.0
 40
1.0
 40
1.0
 10
122.8295995208
 20
264.7513379273
 30
0.0
 10
122.9141303798
 20
266.6321666151
 30
0.0
 10
122.8725597475
 20
270.2940343676
 30
0.0
 10
122.3226427866
 20
273.92758007
 30
0.0
 10
121.873925119
 20
275.6405317361
 30
0.0
  0
SPLINE
  5
4AA
100
AcDbEntity
  8
0
100
AcDbSpline
 62
7
  6
CONTINUOUS
 70
0
 71
3
 72
9
 73
5
 74
0
 42
0.0000001
 43
0.0000001
 44
0.0000000001
 40
0.0
 40
0.0
 40
0.0
 40
0.0
 40
0.5146350643
 40
1.0
 40
1.0
 40
1.0
 40
1.0
 10
119.5369865353
 20
281.1536610659
 30
0.0
 10
119.5713578856
 20
281.1580882647
 30
0.0
 10
119.6412640937
 20
281.1526180917
 30
0.0
 10
119.7003911458
 20
281.1133521468
 30
0.0
 10
119.7216337305
 20
281.0885123884
 30
0.0
  0
SPLINE
  5
4AB
100
AcDbEntity
  8
0
100
AcDbSpline
 62
7
  6
CONTINUOUS
 70
0
 71
3
 72
9
 73
5
 74
0
 42
0.0000001
 43
0.0000001
 44
0.0000000001
 40
0.0
 40
0.0
 40
0.0
 40
0.0
 40
0.5132434444
 40
1.0
 40
1.0
 40
1.0
 40
1.0
 10
119.6577947886
 20
275.4061444877
 30
0.0
 10
119.7135177267
 20
275.4044676317
 30
0.0
 10
119.8243846028
 20
275.3663573112
 30
0.0
 10
119.8881085477
 20
275.2654469677
 30
0.0
 10
119.8975505544
 20
275.2134257257
 30
0.0
  0
SPLINE
  5
4AC
100
AcDbEntity
  8
0
100
AcDbSpline
 62
7
  6
CONTINUOUS
 70
0
 71
3
 72
9
 73
5
 74
0
 42
0.0000001
 43
0.0000001
 44
0.0000000001
 40
0.0
 40
0.0
 40
0.0
 40
0.0
 40
0.4949960459
 40
1.0
 40
1.0
 40
1.0
 40
1.0
 10
114.1795470572
 20
270.0779406089
 30
0.0
 10
114.2326574468
 20
270.0673500819
 30
0.0
 10
114.3330387551
 20
270.0072109427
 30
0.0
 10
114.3866347842
 20
269.9040329938
 30
0.0
 10
114.3957345965
 20
269.8495365754
 30
0.0
  0
SPLINE
  5
4AD
100
AcDbEntity
  8
0
100
AcDbSpline
 62
7
  6
CONTINUOUS
 70
0
 71
3
 72
9
 73
5
 74
0
 42
0.0000001
 43
0.0000001
 44
0.0000000001
 40
0.0
 40
0.0
 40
0.0
 40
0.0
 40
0.4615380187
 40
1.0
 40
1.0
 40
1.0
 40
1.0
 10
103.9362568089
 20
265.9802201712
 30
0.0
 10
103.9798136708
 20
265.9602393706
 30
0.0
 10
104.0536378823
 20
265.8778012271
 30
0.0
 10
104.0888162295
 20
265.7778451541
 30
0.0
 10
104.0959637123
 20
265.7223958568
 30
0.0
  0
SPLINE
  5
4AE
100
AcDbEntity
  8
0
100
AcDbSpline
 62
7
  6
CONTINUOUS
 70
0
 71
3
 72
9
 73
5
 74
0
 42
0.0000001
 43
0.0000001
 44
0.0000000001
 40
0.0
 40
0.0
 40
0.0
 40
0.0
 40
0.4230508222
 40
1.0
 40
1.0
 40
1.0
 40
1.0
 10
90.4873721647
 20
263.7368239665
 30
0.0
 10
90.5134933777
 20
263.7054086247
 30
0.0
 10
90.544894821
 20
263.610152497
 30
0.0
 10
90.5621815335
 20
263.5158914467
 30
0.0
 10
90.5662845019
 20
263.4603235516
 30
0.0
  0
SPLINE
  5
4AF
100
AcDbEntity
  8
0
100
AcDbSpline
 62
7
  6
CONTINUOUS
 70
0
 71
3
 72
9
 73
5
 74
0
 42
0.0000001
 43
0.0000001
 44
0.0000000001
 40
0.0
 40
0.0
 40
0.0
 40
0.0
 40
0.4091149356
 40
1.0
 40
1.0
 40
1.0
 40
1.0
 10
75.8803638914
 20
263.6892887285
 30
0.0
 10
75.8729974514
 20
263.6515269998
 30
0.0
 10
75.8683817532
 20
263.5571197868
 30
0.0
 10
75.8659403981
 20
263.4632644999
 30
0.0
 10
75.8664679744
 20
263.4076996494
 30
0.0
  0
SPLINE
  5
4B0
100
AcDbEntity
  8
0
100
AcDbSpline
 62
7
  6
CONTINUOUS
 70
0
 71
3
 72
9
 73
5
 74
0
 42
0.0000001
 43
0.0000001
 44
0.0000000001
 40
0.0
 40
0.0
 40
0.0
 40
0.0
 40
0.2290835774
 40
1.0
 40
1.0
 40
1.0
 40
1.0
 10
51.9248773823
 20
269.875346989
 30
0.0
 10
51.9019646292
 20
269.8676195042
 30
0.0
 10
51.8092439325
 20
269.8136185431
 30
0.0
 10
51.7547794069
 20
269.7060997642
 30
0.0
 10
51.7455185553
 20
269.6252549618
 30
0.0
  0
SPLINE
  5
4B1
100
AcDbEntity
  8
0
100
AcDbSpline
 62
7
  6
CONTINUOUS
 70
0
 71
3
 72
9
 73
5
 74
0
 42
0.0000001
 43
0.0000001
 44
0.0000000001
 40
0.0
 40
0.0
 40
0.0
 40
0.0
 40
0.5018894292
 40
1.0
 40
1.0
 40
1.0
 40
1.0
 10
46.2234052647
 20
275.167168708
 30
0.0
 10
46.1684921916
 20
275.1601073932
 30
0.0
 10
46.0620487198
 20
275.1076344433
 30
0.0
 10
46.0051699837
 20
275.0031408171
 30
0.0
 10
45.9965822477
 20
274.9488676811
 30
0.0
  0
SPLINE
  5
4B2
100
AcDbEntity
  8
0
100
AcDbSpline
 62
7
  6
CONTINUOUS
 70
0
 71
3
 72
9
 73
5
 74
0
 42
0.0000001
 43
0.0000001
 44
0.0000000001
 40
0.0
 40
0.0
 40
0.0
 40
0.0
 40
0.5083538778
 40
1.0
 40
1.0
 40
1.0
 40
1.0
 10
46.1025969809
 20
280.9146852869
 30
0.0
 10
46.0653751835
 20
280.9158129877
 30
0.0
 10
45.9906544536
 20
280.9021489117
 30
0.0
 10
45.9293868919
 20
280.8563990527
 30
0.0
 10
45.9067735688
 20
280.8283684337
 30
0.0
  0
SPLINE
  5
4B3
100
AcDbEntity
  8
0
100
AcDbSpline
 62
7
  6
CONTINUOUS
 70
0
 71
3
 72
8
 73
4
 74
0
 42
0.0000001
 43
0.0000001
 44
0.0000000001
 40
0.0
 40
0.0
 40
0.0
 40
0.0
 40
1.0
 40
1.0
 40
1.0
 40
1.0
 10
45.8880923267
 20
280.8011863167
 30
0.0
 10
45.8759142462
 20
280.780195343
 30
0.0
 10
45.8671418073
 20
280.756785872
 30
0.0
 10
45.8628413921
 20
280.7329021316
 30
0.0
  0
SPLINE
  5
4B4
100
AcDbEntity
  8
0
100
AcDbSpline
 62
7
  6
CONTINUOUS
 70
0
 71
3
 72
10
 73
6
 74
0
 42
0.0000001
 43
0.0000001
 44
0.0000000001
 40
0.0
 40
0.0
 40
0.0
 40
0.0
 40
0.5408305225
 40
0.7812750656
 40
1.0
 40
1.0
 40
1.0
 40
1.0
 10
66.1399123621
 20
291.3592545356
 30
0.0
 10
64.4838773775
 20
290.9153452784
 30
0.0
 10
62.1187445541
 20
290.1467848751
 30
0.0
 10
59.2360132858
 20
288.8212776253
 30
0.0
 10
57.9713736762
 20
288.0943310558
 30
0.0
 10
57.3913603812
 20
287.7143742398
 30
0.0
  0
SPLINE
  5
4B5
100
AcDbEntity
  8
0
100
AcDbSpline
 62
7
  6
CONTINUOUS
 70
0
 71
3
 72
15
 73
11
 74
0
 42
0.0000001
 43
0.0000001
 44
0.0000000001
 40
0.0
 40
0.0
 40
0.0
 40
0.0
 40
0.159764901
 40
0.3037568358
 40
0.4334472257
 40
0.5514797682
 40
0.6618572739
 40
0.7697518738
 40
0.8807777635
 40
1.0
 40
1.0
 40
1.0
 40
1.0
 10
57.3117023067
 20
287.6618807969
 30
0.0
 10
56.8380387315
 20
287.3478796931
 30
0.0
 10
55.9653435941
 20
286.7063418326
 30
0.0
 10
54.843282037
 20
285.6419896954
 30
0.0
 10
53.9880603302
 20
284.5333159673
 30
0.0
 10
53.4115255615
 20
283.3870347408
 30
0.0
 10
53.1268803261
 20
282.213052106
 30
0.0
 10
53.1447338095
 20
281.0290273947
 30
0.0
 10
53.4641681046
 20
279.8578242336
 30
0.0
 10
53.8531144413
 20
279.129501962
 30
0.0
 10
54.0852384712
 20
278.7745922358
 30
0.0
  0
SPLINE
  5
4B6
100
AcDbEntity
  8
0
100
AcDbSpline
 62
7
  6
CONTINUOUS
 70
0
 71
3
 72
9
 73
5
 74
0
 42
0.0000001
 43
0.0000001
 44
0.0000000001
 40
0.0
 40
0.0
 40
0.0
 40
0.0
 40
0.4532826295
 40
1.0
 40
1.0
 40
1.0
 40
1.0
 10
54.0852384712
 20
278.7745922358
 30
0.0
 10
54.5664017757
 20
278.0389099513
 30
0.0
 10
55.9223483187
 20
276.6098999856
 30
0.0
 10
57.546999833
 20
275.5326539126
 30
0.0
 10
58.4698002089
 20
275.0105519051
 30
0.0
  0
SPLINE
  5
4B7
100
AcDbEntity
  8
0
100
AcDbSpline
 62
7
  6
CONTINUOUS
 70
0
 71
3
 72
15
 73
11
 74
0
 42
0.0000001
 43
0.0000001
 44
0.0000000001
 40
0.0
 40
0.0
 40
0.0
 40
0.0
 40
0.1020379046
 40
0.2172603191
 40
0.3429282639
 40
0.4756433975
 40
0.6116221486
 40
0.7469123183
 40
0.8775914374
 40
1.0
 40
1.0
 40
1.0
 40
1.0
 10
59.6344738759
 20
274.3956680215
 30
0.0
 10
60.871063355
 20
273.7855877159
 30
0.0
 10
63.6078150113
 20
272.6950200556
 30
0.0
 10
68.0830212373
 20
271.4666002029
 30
0.0
 10
73.0592761757
 20
270.5775119567
 30
0.0
 10
78.368342332
 20
270.0594608954
 30
0.0
 10
83.8308727697
 20
269.9306519946
 30
0.0
 10
89.2611446523
 20
270.1958046862
 30
0.0
 10
94.4740973573
 20
270.8452659688
 30
0.0
 10
97.8268820659
 20
271.5483946738
 30
0.0
 10
99.4264461465
 20
271.9699275447
 30
0.0
  0
SPLINE
  5
4B8
100
AcDbEntity
  8
0
100
AcDbSpline
 62
7
  6
CONTINUOUS
 70
0
 71
3
 72
13
 73
9
 74
0
 42
0.0000001
 43
0.0000001
 44
0.0000000001
 40
0.0
 40
0.0
 40
0.0
 40
0.0
 40
0.2423966914
 40
0.4902195321
 40
0.6158082696
 40
0.7428839787
 40
0.8713174522
 40
1.0
 40
1.0
 40
1.0
 40
1.0
 10
101.8301629827
 20
270.093670567
 30
0.0
 10
101.409023154
 20
269.9823138389
 30
0.0
 10
100.5547805008
 20
269.7664526366
 30
0.0
 10
99.4749649892
 20
269.5237595213
 30
0.0
 10
98.5955068884
 20
269.335226
 30
0.0
 10
97.9235607622
 20
269.2025450486
 30
0.0
 10
97.2439144372
 20
269.0809093884
 30
0.0
 10
96.789928358
 20
268.9948286661
 30
0.0
 10
96.562306776
 20
268.9539868188
 30
0.0
  0
SPLINE
  5
4B9
100
AcDbEntity
  8
0
100
AcDbSpline
 62
7
  6
CONTINUOUS
 70
0
 71
3
 72
18
 73
14
 74
0
 42
0.0000001
 43
0.0000001
 44
0.0000000001
 40
0.0
 40
0.0
 40
0.0
 40
0.0
 40
0.0308197933
 40
0.0619107413
 40
0.0933602991
 40
0.1250780544
 40
0.2541782839
 40
0.3853026372
 40
0.5163781152
 40
0.6453339456
 40
0.7701547104
 40
0.8889459669
 40
1.0
 40
1.0
 40
1.0
 40
1.0
 10
96.3499964013
 20
268.9165810714
 30
0.0
 10
95.9914786071
 20
268.8547163473
 30
0.0
 10
95.2690973183
 20
268.7435571948
 30
0.0
 10
94.1795739052
 20
268.5774766711
 30
0.0
 10
93.0758947341
 20
268.4355667467
 30
0.0
 10
90.8217803332
 20
268.1704032637
 30
0.0
 10
87.3841335756
 20
267.8978357751
 30
0.0
 10
82.7644543725
 20
267.7800452829
 30
0.0
 10
78.1465288006
 20
267.9094933474
 30
0.0
 10
73.6166771268
 20
268.2844809731
 30
0.0
 10
69.2588774745
 20
268.8972480244
 30
0.0
 10
65.1543323097
 20
269.7362545051
 30
0.0
 10
62.5371768473
 20
270.4635238386
 30
0.0
 10
61.2899886186
 20
270.8673998825
 30
0.0
  0
SPLINE
  5
4BA
100
AcDbEntity
  8
0
100
AcDbSpline
 62
7
  6
CONTINUOUS
 70
0
 71
3
 72
11
 73
7
 74
0
 42
0.0000001
 43
0.0000001
 44
0.0000000001
 40
0.0
 40
0.0
 40
0.0
 40
0.0
 40
0.2881911801
 40
0.5517004659
 40
0.7890604177
 40
1.0
 40
1.0
 40
1.0
 40
1.0
 10
61.2899886186
 20
270.8673998825
 30
0.0
 10
60.2937387434
 20
271.1900147445
 30
0.0
 10
58.4063975923
 20
271.8722592803
 30
0.0
 10
55.7958030953
 20
273.0672738794
 30
0.0
 10
53.5588761659
 20
274.3749486922
 30
0.0
 10
52.2603678371
 20
275.3695762704
 30
0.0
 10
51.6935923274
 20
275.8855761263
 30
0.0
  0
SPLINE
  5
4BB
100
AcDbEntity
  8
0
100
AcDbSpline
 62
7
  6
CONTINUOUS
 70
0
 71
3
 72
11
 73
7
 74
0
 42
0.0000001
 43
0.0000001
 44
0.0000000001
 40
0.0
 40
0.0
 40
0.0
 40
0.0
 40
0.2830232293
 40
0.5341068008
 40
0.7670322827
 40
1.0
 40
1.0
 40
1.0
 40
1.0
 10
51.2253339834
 20
276.3340348941
 30
0.0
 10
50.748259856
 20
276.8155839888
 30
0.0
 10
49.9206462871
 20
277.8046019214
 30
0.0
 10
49.0957252612
 20
279.4703151996
 30
0.0
 10
48.8129083326
 20
281.1923898947
 30
0.0
 10
48.9983734875
 20
282.3145405772
 30
0.0
 10
49.167197467
 20
282.8463579247
 30
0.0
  0
SPLINE
  5
4BC
100
AcDbEntity
  8
0
100
AcDbSpline
 62
7
  6
CONTINUOUS
 70
0
 71
3
 72
9
 73
5
 74
0
 42
0.0000001
 43
0.0000001
 44
0.0000000001
 40
0.0
 40
0.0
 40
0.0
 40
0.0
 40
0.2343672499
 40
1.0
 40
1.0
 40
1.0
 40
1.0
 10
49.2275888343
 20
283.0266147139
 30
0.0
 10
49.3038792339
 20
283.2429555574
 30
0.0
 10
49.6815751269
 20
284.1477368157
 30
0.0
 10
50.2522422384
 20
284.9638660443
 30
0.0
 10
50.7448153645
 20
285.5286424196
 30
0.0
  0
SPLINE
  5
4BD
100
AcDbEntity
  8
0
100
AcDbSpline
 62
7
  6
CONTINUOUS
 70
0
 71
3
 72
9
 73
5
 74
0
 42
0.0000001
 43
0.0000001
 44
0.0000000001
 40
0.0
 40
0.0
 40
0.0
 40
0.0
 40
0.2451149177
 40
1.0
 40
1.0
 40
1.0
 40
1.0
 10
50.8054446769
 20
285.5975464169
 30
0.0
 10
50.8515387544
 20
285.6494729454
 30
0.0
 10
51.0416722091
 20
285.8594645293
 30
0.0
 10
51.2398900535
 20
286.0621052199
 30
0.0
 10
51.3933180868
 20
286.211053865
 30
0.0
  0
SPLINE
  5
4BE
100
AcDbEntity
  8
0
100
AcDbSpline
 62
7
  6
CONTINUOUS
 70
0
 71
3
 72
11
 73
7
 74
0
 42
0.0000001
 43
0.0000001
 44
0.0000000001
 40
0.0
 40
0.0
 40
0.0
 40
0.0
 40
0.2069029691
 40
0.4432562318
 40
0.7083804616
 40
1.0
 40
1.0
 40
1.0
 40
1.0
 10
51.6722911516
 20
286.4738062852
 30
0.0
 10
52.3236277046
 20
287.0693494386
 30
0.0
 10
53.8447574269
 20
288.2089224575
 30
0.0
 10
56.4942019955
 20
289.6748245668
 30
0.0
 10
59.6177008115
 20
290.9881290452
 30
0.0
 10
61.8816859762
 20
291.7146720432
 30
0.0
 10
63.0788483485
 20
292.0525312474
 30
0.0
  0
SPLINE
  5
4BF
100
AcDbEntity
  8
0
100
AcDbSpline
 62
7
  6
CONTINUOUS
 70
0
 71
3
 72
9
 73
5
 74
0
 42
0.0000001
 43
0.0000001
 44
0.0000000001
 40
0.0
 40
0.0
 40
0.0
 40
0.0
 40
0.2556752932
 40
1.0
 40
1.0
 40
1.0
 40
1.0
 10
54.3125688977
 20
282.89668314
 30
0.0
 10
54.2758301501
 20
282.8086344201
 30
0.0
 10
54.1411390405
 20
282.4606035648
 30
0.0
 10
54.0441892233
 20
282.0977055334
 30
0.0
 10
53.9968999713
 20
281.8240137668
 30
0.0
  0
SPLINE
  5
4C0
100
AcDbEntity
  8
0
100
AcDbSpline
 62
7
  6
CONTINUOUS
 70
0
 71
3
 72
9
 73
5
 74
0
 42
0.0000001
 43
0.0000001
 44
0.0000000001
 40
0.0
 40
0.0
 40
0.0
 40
0.0
 40
0.2344732125
 40
1.0
 40
1.0
 40
1.0
 40
1.0
 10
107.2905914477
 20
288.3702033944
 30
0.0
 10
106.9984453814
 20
288.5354937995
 30
0.0
 10
105.7357823304
 20
289.2108769382
 30
0.0
 10
104.4159460045
 20
289.7761703237
 30
0.0
 10
103.3897769302
 20
290.1608500812
 30
0.0
  0
SPLINE
  5
4C1
100
AcDbEntity
  8
0
100
AcDbSpline
 62
7
  6
CONTINUOUS
 70
0
 71
3
 72
15
 73
11
 74
0
 42
0.0000001
 43
0.0000001
 44
0.0000000001
 40
0.0
 40
0.0
 40
0.0
 40
0.0
 40
0.1090604081
 40
0.2283151234
 40
0.3552426466
 40
0.4869703181
 40
0.6204174106
 40
0.7524335852
 40
0.8799197478
 40
1.0
 40
1.0
 40
1.0
 40
1.0
 10
103.3897769302
 20
290.1608500812
 30
0.0
 10
102.1212407971
 20
290.6363859205
 30
0.0
 10
99.4077920505
 20
291.4802856215
 30
0.0
 10
95.0910571482
 20
292.4166187811
 30
0.0
 10
90.4369324603
 20
293.061299954
 30
0.0
 10
85.574154313
 20
293.3957557207
 30
0.0
 10
80.63680805
 20
293.4104700664
 30
0.0
 10
75.761479707
 20
293.1049417199
 30
0.0
 10
71.083157297
 20
292.4881244576
 30
0.0
 10
68.0691012598
 20
291.8575389779
 30
0.0
 10
66.6243851164
 20
291.4863979684
 30
0.0
  0
SPLINE
  5
4C2
100
AcDbEntity
  8
0
100
AcDbSpline
 62
7
  6
CONTINUOUS
 70
0
 71
3
 72
17
 73
13
 74
0
 42
0.0000001
 43
0.0000001
 44
0.0000000001
 40
0.0
 40
0.0
 40
0.0
 40
0.0
 40
0.1279854695
 40
0.2652531578
 40
0.4067124587
 40
0.5469854289
 40
0.680773371
 40
0.8032322775
 40
0.8589582718
 40
0.9104729742
 40
0.9575210116
 40
1.0
 40
1.0
 40
1.0
 40
1.0
 10
63.9301647483
 20
292.2851711256
 30
0.0
 10
66.0310199959
 20
292.8406739657
 30
0.0
 10
70.4542509471
 20
293.7372810831
 30
0.0
 10
77.327985784
 20
294.4780837306
 30
0.0
 10
84.4485686792
 20
294.6423339598
 30
0.0
 10
91.4996633775
 20
294.2224053842
 30
0.0
 10
98.1685174028
 20
293.2375770922
 30
0.0
 10
103.3189119473
 20
291.9475428014
 30
0.0
 10
106.9965869167
 20
290.6413324708
 30
0.0
 10
109.3976423681
 20
289.586654611
 30
0.0
 10
111.5025973337
 20
288.4382379808
 30
0.0
 10
112.7578045867
 20
287.5735002362
 30
0.0
 10
113.3226384151
 20
287.1249900867
 30
0.0
  0
SPLINE
  5
4C3
100
AcDbEntity
  8
0
100
AcDbSpline
 62
7
  6
CONTINUOUS
 70
0
 71
3
 72
15
 73
11
 74
0
 42
0.0000001
 43
0.0000001
 44
0.0000000001
 40
0.0
 40
0.0
 40
0.0
 40
0.0
 40
0.142233194
 40
0.2711440569
 40
0.3898921615
 40
0.5028913272
 40
0.6154567657
 40
0.7329717152
 40
0.8600393437
 40
1.0
 40
1.0
 40
1.0
 40
1.0
 10
114.321492701
 20
286.2550718778
 30
0.0
 10
114.7098944132
 20
285.8818290217
 30
0.0
 10
115.4064929042
 20
285.1213554889
 30
0.0
 10
116.2150786219
 20
283.876335746
 30
0.0
 10
116.7199146694
 20
282.5955157145
 30
0.0
 10
116.9072615716
 20
281.2921239193
 30
0.0
 10
116.7706602029
 20
279.9869872598
 30
0.0
 10
116.3150542982
 20
278.7014918084
 30
0.0
 10
115.5530344095
 20
277.4506423943
 30
0.0
 10
114.8850066181
 20
276.6852736485
 30
0.0
 10
114.5109403244
 20
276.3097176402
 30
0.0
  0
SPLINE
  5
4C4
100
AcDbEntity
  8
0
100
AcDbSpline
 62
7
  6
CONTINUOUS
 70
0
 71
3
 72
9
 73
5
 74
0
 42
0.0000001
 43
0.0000001
 44
0.0000000001
 40
0.0
 40
0.0
 40
0.0
 40
0.0
 40
0.4687598125
 40
1.0
 40
1.0
 40
1.0
 40
1.0
 10
113.9749396063
 20
275.8028021412
 30
0.0
 10
113.3534782816
 20
275.2476796774
 30
0.0
 10
111.9210628078
 20
274.1816012461
 30
0.0
 10
110.3653886717
 20
273.3134104823
 30
0.0
 10
109.5199882343
 20
272.8925612329
 30
0.0
  0
SPLINE
  5
4C5
100
AcDbEntity
  8
0
100
AcDbSpline
 62
7
  6
CONTINUOUS
 70
0
 71
3
 72
15
 73
11
 74
0
 42
0.0000001
 43
0.0000001
 44
0.0000000001
 40
0.0
 40
0.0
 40
0.0
 40
0.0
 40
0.1133687398
 40
0.2305016121
 40
0.3507209445
 40
0.4749487736
 40
0.6012320897
 40
0.66593824
 40
0.7312614194
 40
1.0
 40
1.0
 40
1.0
 40
1.0
 10
109.3914218503
 20
272.8288384694
 30
0.0
 10
109.1247579319
 20
272.6972808818
 30
0.0
 10
108.5786385036
 20
272.4375598147
 30
0.0
 10
107.7339913846
 20
272.0730379353
 30
0.0
 10
106.8577078096
 20
271.7098051585
 30
0.0
 10
105.9430363555
 20
271.3794477121
 30
0.0
 10
105.1669223278
 20
271.094203368
 30
0.0
 10
104.5275494518
 20
270.8862830004
 30
0.0
 10
103.531930349
 20
270.5659180889
 30
0.0
 10
102.6894535743
 20
270.3236827993
 30
0.0
 10
102.0086263211
 20
270.1411833214
 30
0.0
  0
SPLINE
  5
4C6
100
AcDbEntity
  8
0
100
AcDbSpline
 62
7
  6
CONTINUOUS
 70
0
 71
3
 72
9
 73
5
 74
0
 42
0.0000001
 43
0.0000001
 44
0.0000000001
 40
0.0
 40
0.0
 40
0.0
 40
0.0
 40
0.523177298
 40
1.0
 40
1.0
 40
1.0
 40
1.0
 10
99.6204794379
 20
272.021500784
 30
0.0
 10
100.6973027412
 20
272.3101491743
 30
0.0
 10
102.7371791399
 20
272.934091468
 30
0.0
 10
104.7177629789
 20
273.7305469348
 30
0.0
 10
105.6380377351
 20
274.1612167887
 30
0.0
  0
SPLINE
  5
4C7
100
AcDbEntity
  8
0
100
AcDbSpline
 62
7
  6
CONTINUOUS
 70
0
 71
3
 72
11
 73
7
 74
0
 42
0.0000001
 43
0.0000001
 44
0.0000000001
 40
0.0
 40
0.0
 40
0.0
 40
0.0
 40
0.2920356482
 40
0.5555069823
 40
0.790776752
 40
1.0
 40
1.0
 40
1.0
 40
1.0
 10
105.6380377351
 20
274.1612167887
 30
0.0
 10
106.3057253294
 20
274.4736809921
 30
0.0
 10
107.5528591748
 20
275.119758176
 30
0.0
 10
109.2256791981
 20
276.2168582873
 30
0.0
 10
110.5880302264
 20
277.3817710423
 30
0.0
 10
111.3175411538
 20
278.2442098644
 30
0.0
 10
111.6134215231
 20
278.6816890274
 30
0.0
  0
SPLINE
  5
4C8
100
AcDbEntity
  8
0
100
AcDbSpline
 62
7
  6
CONTINUOUS
 70
0
 71
3
 72
15
 73
11
 74
0
 42
0.0000001
 43
0.0000001
 44
0.0000000001
 40
0.0
 40
0.0
 40
0.0
 40
0.0
 40
0.1157018717
 40
0.2231213869
 40
0.3281145764
 40
0.4370373078
 40
0.5554570203
 40
0.6873633587
 40
0.8352031709
 40
1.0
 40
1.0
 40
1.0
 40
1.0
 10
111.6653560691
 20
278.7595564644
 30
0.0
 10
111.9166006418
 20
279.1416134275
 30
0.0
 10
112.3328247976
 20
279.9286038729
 30
0.0
 10
112.6459793149
 20
281.2019295593
 30
0.0
 10
112.6028613745
 20
282.4874868423
 30
0.0
 10
112.2055464457
 20
283.7542828733
 30
0.0
 10
111.4713689224
 20
284.9818905962
 30
0.0
 10
110.417860392
 20
286.1608318845
 30
0.0
 10
109.0595133373
 20
287.2830881965
 30
0.0
 10
108.0170803879
 20
287.9515628103
 30
0.0
 10
107.4531003885
 20
288.2773070714
 30
0.0
  0
SPLINE
  5
4C9
100
AcDbEntity
  8
0
100
AcDbSpline
 62
7
  6
CONTINUOUS
 70
0
 71
3
 72
9
 73
5
 74
0
 42
0.0000001
 43
0.0000001
 44
0.0000000001
 40
0.0
 40
0.0
 40
0.0
 40
0.0
 40
0.5391307646
 40
1.0
 40
1.0
 40
1.0
 40
1.0
 10
46.102596296
 20
280.9149479491
 30
0.0
 10
46.1666411283
 20
281.2454704069
 30
0.0
 10
46.3465998743
 20
281.8508314062
 30
0.0
 10
46.7013462733
 20
282.3817320619
 30
0.0
 10
46.9052443623
 20
282.5848415425
 30
0.0
  0
SPLINE
  5
4CA
100
AcDbEntity
  8
0
100
AcDbSpline
 62
7
  6
CONTINUOUS
 70
0
 71
3
 72
9
 73
5
 74
0
 42
0.0000001
 43
0.0000001
 44
0.0000000001
 40
0.0
 40
0.0
 40
0.0
 40
0.0
 40
0.5083442687
 40
1.0
 40
1.0
 40
1.0
 40
1.0
 10
46.1005188917
 20
280.9047128201
 30
0.0
 10
46.0632812986
 20
280.9058371169
 30
0.0
 10
45.9885273844
 20
280.8921530341
 30
0.0
 10
45.9272508702
 20
280.8463529318
 30
0.0
 10
45.9046429913
 20
280.8182966569
 30
0.0
  0
SPLINE
  5
4CB
100
AcDbEntity
  8
0
100
AcDbSpline
 62
7
  6
CONTINUOUS
 70
0
 71
3
 72
8
 73
4
 74
0
 42
0.0000001
 43
0.0000001
 44
0.0000000001
 40
0.0
 40
0.0
 40
0.0
 40
0.0
 40
1.0
 40
1.0
 40
1.0
 40
1.0
 10
45.8913257576
 20
280.7998502498
 30
0.0
 10
45.8763516962
 20
280.7766174955
 30
0.0
 10
45.8656382629
 20
280.7499745872
 30
0.0
 10
45.8607615828
 20
280.7227679451
 30
0.0
  0
SPLINE
  5
4CC
100
AcDbEntity
  8
0
100
AcDbSpline
 62
7
  6
CONTINUOUS
 70
0
 71
3
 72
9
 73
5
 74
0
 42
0.0000001
 43
0.0000001
 44
0.0000000001
 40
0.0
 40
0.0
 40
0.0
 40
0.0
 40
0.2341200147
 40
1.0
 40
1.0
 40
1.0
 40
1.0
 10
48.6538506399
 20
265.0214386755
 30
0.0
 10
48.9523966461
 20
265.2007045279
 30
0.0
 10
50.2642804271
 20
265.9053050919
 30
0.0
 10
51.7007321102
 20
266.3623269308
 30
0.0
 10
52.814706904
 20
266.6006270978
 30
0.0
  0
SPLINE
  5
4CD
100
AcDbEntity
  8
0
100
AcDbSpline
 62
7
  6
CONTINUOUS
 70
0
 71
3
 72
9
 73
5
 74
0
 42
0.0000001
 43
0.0000001
 44
0.0000000001
 40
0.0
 40
0.0
 40
0.0
 40
0.0
 40
0.2630225721
 40
1.0
 40
1.0
 40
1.0
 40
1.0
 10
42.4077814497
 20
267.4729929324
 30
0.0
 10
42.4093814756
 20
267.5644804009
 30
0.0
 10
42.421451717
 20
267.9121172809
 30
0.0
 10
42.4591783512
 20
268.2593481924
 30
0.0
 10
42.5067522615
 20
268.5112786461
 30
0.0
  0
SPLINE
  5
4CE
100
AcDbEntity
  8
0
100
AcDbSpline
 62
7
  6
CONTINUOUS
 70
0
 71
3
 72
15
 73
11
 74
0
 42
0.0000001
 43
0.0000001
 44
0.0000000001
 40
0.0
 40
0.0
 40
0.0
 40
0.0
 40
0.1074296842
 40
0.2059005053
 40
0.3023027798
 40
0.4050510724
 40
0.5216774624
 40
0.6577976112
 40
0.8167698385
 40
1.0
 40
1.0
 40
1.0
 40
1.0
 10
42.5067522615
 20
268.5112786461
 30
0.0
 10
42.5593395379
 20
268.7897576759
 30
0.0
 10
42.7071917262
 20
269.3174212358
 30
0.0
 10
43.1099834456
 20
270.017371814
 30
0.0
 10
43.6954404999
 20
270.5592872502
 30
0.0
 10
44.4580851673
 20
270.9207585752
 30
0.0
 10
45.3857856411
 20
271.1016375355
 30
0.0
 10
46.4767012303
 20
271.1037888782
 30
0.0
 10
47.7293387158
 20
270.9292822618
 30
0.0
 10
48.6069715118
 20
270.7117403462
 30
0.0
 10
49.0713674022
 20
270.5776637164
 30
0.0
  0
SPLINE
  5
4CF
100
AcDbEntity
  8
0
100
AcDbSpline
 62
7
  6
CONTINUOUS
 70
0
 71
3
 72
18
 73
14
 74
0
 42
0.0000001
 43
0.0000001
 44
0.0000000001
 40
0.0
 40
0.0
 40
0.0
 40
0.0
 40
0.2308630071
 40
0.432267404
 40
0.6034873549
 40
0.7441336287
 40
0.8540966185
 40
0.8975475706
 40
0.9333135325
 40
0.9614022595
 40
0.9818262737
 40
0.9946170871
 40
1.0
 40
1.0
 40
1.0
 40
1.0
 10
46.2234081346
 20
275.1674315411
 30
0.0
 10
46.0722362116
 20
275.3485000762
 30
0.0
 10
45.7902682876
 20
275.6884419058
 30
0.0
 10
45.3989381471
 20
276.1649397314
 30
0.0
 10
45.0668037644
 20
276.5707948036
 30
0.0
 10
44.7932826436
 20
276.9038290798
 30
0.0
 10
44.6013683841
 20
277.1351059737
 30
0.0
 10
44.4761773801
 20
277.2822239535
 30
0.0
 10
44.4043015167
 20
277.3653448105
 30
0.0
 10
44.346996899
 20
277.4287636294
 30
0.0
 10
44.3041183148
 20
277.4764361082
 30
0.0
 10
44.276234084
 20
277.5005773003
 30
0.0
 10
44.2614648698
 20
277.51650119
 30
0.0
 10
44.2559828985
 20
277.516057945
 30
0.0
  0
SPLINE
  5
4D0
100
AcDbEntity
  8
0
100
AcDbSpline
 62
7
  6
CONTINUOUS
 70
0
 71
3
 72
17
 73
13
 74
0
 42
0.0000001
 43
0.0000001
 44
0.0000000001
 40
0.0
 40
0.0
 40
0.0
 40
0.0
 40
0.0160584608
 40
0.0294730445
 40
0.0454484942
 40
0.067545432
 40
0.1351851215
 40
0.2370214705
 40
0.3740900089
 40
0.5468099854
 40
0.755401186
 40
1.0
 40
1.0
 40
1.0
 40
1.0
 10
43.7616091932
 20
277.0285181461
 30
0.0
 10
43.7625829544
 20
277.0358588275
 30
0.0
 10
43.7660303528
 20
277.0497428291
 30
0.0
 10
43.783612161
 20
277.0637890635
 30
0.0
 10
43.808424956
 20
277.0641553182
 30
0.0
 10
43.8552074257
 20
277.0500910936
 30
0.0
 10
43.9316753097
 20
277.0038486131
 30
0.0
 10
44.044350283
 20
276.9189303239
 30
0.0
 10
44.1885990006
 20
276.7951917027
 30
0.0
 10
44.3643356805
 20
276.6332059429
 30
0.0
 10
44.5717522784
 20
276.4324395074
 30
0.0
 10
44.7194410514
 20
276.2845867449
 30
0.0
 10
44.7986927231
 20
276.2043309381
 30
0.0
  0
SPLINE
  5
4D1
100
AcDbEntity
  8
0
100
AcDbSpline
 62
7
  6
CONTINUOUS
 70
0
 71
3
 72
13
 73
9
 74
0
 42
0.0000001
 43
0.0000001
 44
0.0000000001
 40
0.0
 40
0.0
 40
0.0
 40
0.0
 40
0.2574659017
 40
0.5148191764
 40
0.6410525499
 40
0.764269836
 40
0.8839554171
 40
1.0
 40
1.0
 40
1.0
 40
1.0
 10
97.9523623027
 20
236.138415137
 30
0.0
 10
98.4183758881
 20
233.0293784902
 30
0.0
 10
98.4178890837
 20
226.6417011825
 30
0.0
 10
96.182110238
 20
219.020449305
 30
0.0
 10
93.1599824027
 20
213.5963660064
 30
0.0
 10
90.3712526894
 20
210.029969127
 30
0.0
 10
87.1297887071
 20
207.0508899447
 30
0.0
 10
84.6884477828
 20
205.4912926034
 30
0.0
 10
83.4279175425
 20
204.8441286447
 30
0.0
  0
SPLINE
  5
4D2
100
AcDbEntity
  8
0
100
AcDbSpline
 62
7
  6
CONTINUOUS
 70
0
 71
3
 72
14
 73
10
 74
0
 42
0.0000001
 43
0.0000001
 44
0.0000000001
 40
0.0
 40
0.0
 40
0.0
 40
0.0
 40
0.2690977252
 40
0.4006674
 40
0.5283760407
 40
0.6516630935
 40
0.7706751709
 40
0.8862834444
 40
1.0
 40
1.0
 40
1.0
 40
1.0
 10
83.4279175425
 20
204.8441286447
 30
0.0
 10
83.3489172349
 20
204.119607392
 30
0.0
 10
83.0483041468
 20
203.0481392881
 30
0.0
 10
82.3158563267
 20
201.8123538264
 30
0.0
 10
81.6303354329
 20
201.0266895477
 30
0.0
 10
80.8314911346
 20
200.4104092638
 30
0.0
 10
79.9498668989
 20
199.9888718532
 30
0.0
 10
79.0212281061
 20
199.7812700214
 30
0.0
 10
78.3931601244
 20
199.792740661
 30
0.0
 10
78.0881492617
 20
199.8354476826
 30
0.0
  0
SPLINE
  5
4D3
100
AcDbEntity
  8
0
100
AcDbSpline
 62
7
  6
CONTINUOUS
 70
0
 71
3
 72
15
 73
11
 74
0
 42
0.0000001
 43
0.0000001
 44
0.0000000001
 40
0.0
 40
0.0
 40
0.0
 40
0.0
 40
0.135559199
 40
0.2683334977
 40
0.3978337546
 40
0.5238390963
 40
0.6464592831
 40
0.7661408694
 40
0.8836514322
 40
1.0
 40
1.0
 40
1.0
 40
1.0
 10
54.1920302186
 20
224.408218198
 30
0.0
 10
54.3796347113
 20
223.1566039506
 30
0.0
 10
54.9149244229
 20
220.7000820097
 30
0.0
 10
56.2001223845
 20
217.202798818
 30
0.0
 10
57.9323355267
 20
214.003216947
 30
0.0
 10
60.0726641698
 20
211.1777412497
 30
0.0
 10
62.5724392354
 20
208.793918969
 30
0.0
 10
65.3744947074
 20
206.9101272428
 30
0.0
 10
68.4113694942
 20
205.5740248875
 30
0.0
 10
70.5506589374
 20
205.0697871489
 30
0.0
 10
71.626401767
 20
204.9191141294
 30
0.0
  0
SPLINE
  5
4D4
100
AcDbEntity
  8
0
100
AcDbSpline
 62
7
  6
CONTINUOUS
 70
0
 71
3
 72
11
 73
7
 74
0
 42
0.0000001
 43
0.0000001
 44
0.0000000001
 40
0.0
 40
0.0
 40
0.0
 40
0.0
 40
0.2685841875
 40
0.5241423208
 40
0.7663580625
 40
1.0
 40
1.0
 40
1.0
 40
1.0
 10
75.9584343018
 20
204.5069032817
 30
0.0
 10
76.0095886785
 20
204.1656238922
 30
0.0
 10
76.1970233789
 20
203.5084711712
 30
0.0
 10
76.7323076928
 20
202.6644709468
 30
0.0
 10
77.4735978267
 20
202.0585930308
 30
0.0
 10
78.068262343
 20
201.8578090166
 30
0.0
 10
78.365550641
 20
201.81612715
 30
0.0
  0
SPLINE
  5
4D5
100
AcDbEntity
  8
0
100
AcDbSpline
 62
7
  6
CONTINUOUS
 70
0
 71
3
 72
9
 73
5
 74
0
 42
0.0000001
 43
0.0000001
 44
0.0000000001
 40
0.0
 40
0.0
 40
0.0
 40
0.0
 40
0.4971284861
 40
1.0
 40
1.0
 40
1.0
 40
1.0
 10
36.9276176745
 20
206.9098258834
 30
0.0
 10
36.6925812951
 20
206.9427488167
 30
0.0
 10
36.2117575372
 20
206.9604102012
 30
0.0
 10
35.7374097243
 20
206.8811871926
 30
0.0
 10
35.5055233925
 20
206.81902879
 30
0.0
  0
SPLINE
  5
4D6
100
AcDbEntity
  8
0
100
AcDbSpline
 62
7
  6
CONTINUOUS
 70
0
 71
3
 72
13
 73
9
 74
0
 42
0.0000001
 43
0.0000001
 44
0.0000000001
 40
0.0
 40
0.0
 40
0.0
 40
0.0
 40
0.1140514167
 40
0.2319544774
 40
0.4790598171
 40
0.6081950468
 40
0.7391933144
 40
1.0
 40
1.0
 40
1.0
 40
1.0
 10
24.9903929189
 20
259.2111502981
 30
0.0
 10
24.6344204044
 20
259.1157299139
 30
0.0
 10
23.9304377561
 20
258.8379454333
 30
0.0
 10
22.6341461262
 20
257.9758633806
 30
0.0
 10
21.5954151925
 20
256.7065637976
 30
0.0
 10
20.910092962
 20
255.2116225899
 30
0.0
 10
20.4676991613
 20
253.5815414453
 30
0.0
 10
20.4407410633
 20
252.2854998988
 30
0.0
 10
20.5656663481
 20
251.4520536199
 30
0.0
  0
SPLINE
  5
4D7
100
AcDbEntity
  8
0
100
AcDbSpline
 62
7
  6
CONTINUOUS
 70
0
 71
3
 72
12
 73
8
 74
0
 42
0.0000001
 43
0.0000001
 44
0.0000000001
 40
0.0
 40
0.0
 40
0.0
 40
0.0
 40
0.2683104961
 40
0.5236401366
 40
0.7656158433
 40
0.8833922802
 40
1.0
 40
1.0
 40
1.0
 40
1.0
 10
28.1430618519
 20
200.8990203006
 30
0.0
 10
28.2380587851
 20
200.2652427544
 30
0.0
 10
28.5866045394
 20
199.0447681489
 30
0.0
 10
29.5788767756
 20
197.4774581792
 30
0.0
 10
30.7425317202
 20
196.5296271569
 30
0.0
 10
31.7890079646
 20
196.069917853
 30
0.0
 10
32.3375889235
 20
195.9404449263
 30
0.0
 10
32.6134140298
 20
195.9018181436
 30
0.0
  0
SPLINE
  5
4D8
100
AcDbEntity
  8
0
100
AcDbSpline
 62
7
  6
CONTINUOUS
 70
0
 71
3
 72
13
 73
9
 74
0
 42
0.0000001
 43
0.0000001
 44
0.0000000001
 40
0.0
 40
0.0
 40
0.0
 40
0.0
 40
0.1176765541
 40
0.2385967
 40
0.3624595199
 40
0.4887098368
 40
0.7446939087
 40
1.0
 40
1.0
 40
1.0
 40
1.0
 10
64.9849406732
 20
251.6084390861
 30
0.0
 10
64.0005717865
 20
250.9157319082
 30
0.0
 10
62.1160627104
 20
249.3465070046
 30
0.0
 10
59.6493938708
 20
246.5618561548
 30
0.0
 10
57.5581874996
 20
243.3791752026
 30
0.0
 10
55.3292749903
 20
238.6917329181
 30
0.0
 10
53.7312315907
 20
232.2895890148
 30
0.0
 10
53.8049265095
 20
226.990803031
 30
0.0
 10
54.1920302186
 20
224.408218198
 30
0.0
  0
SPLINE
  5
4D9
100
AcDbEntity
  8
0
100
AcDbSpline
 62
7
  6
CONTINUOUS
 70
0
 71
3
 72
11
 73
7
 74
0
 42
0.0000001
 43
0.0000001
 44
0.0000000001
 40
0.0
 40
0.0
 40
0.0
 40
0.0
 40
0.2405881101
 40
0.4878174246
 40
0.7412679987
 40
1.0
 40
1.0
 40
1.0
 40
1.0
 10
91.4928513909
 20
250.4538487307
 30
0.0
 10
92.3410447902
 20
249.5005904733
 30
0.0
 10
93.9061690764
 20
247.4249166499
 30
0.0
 10
95.7788684041
 20
243.9528021351
 30
0.0
 10
97.169300991
 20
240.1591389665
 30
0.0
 10
97.7489538224
 20
237.4954666038
 30
0.0
 10
97.9523623027
 20
236.138415137
 30
0.0
  0
SPLINE
  5
4DA
100
AcDbEntity
  8
0
100
AcDbSpline
 62
7
  6
CONTINUOUS
 70
0
 71
3
 72
12
 73
8
 74
0
 42
0.0000001
 43
0.0000001
 44
0.0000000001
 40
0.0
 40
0.0
 40
0.0
 40
0.0
 40
0.2902332546
 40
0.5514365179
 40
0.785843497
 40
0.8949492823
 40
1.0
 40
1.0
 40
1.0
 40
1.0
 10
35.974012267
 20
261.0456573256
 30
0.0
 10
36.3000434696
 20
262.3461165529
 30
0.0
 10
37.0745222849
 20
264.7837509898
 30
0.0
 10
38.7145012599
 20
268.0414384818
 30
0.0
 10
40.4549624895
 20
270.2600327922
 30
0.0
 10
42.0210586283
 20
271.6245985076
 30
0.0
 10
42.8506569278
 20
272.1705585145
 30
0.0
 10
43.2743165706
 20
272.4072045389
 30
0.0
  0
SPLINE
  5
4DB
100
AcDbEntity
  8
0
100
AcDbSpline
 62
7
  6
CONTINUOUS
 70
0
 71
3
 72
9
 73
5
 74
0
 42
0.0000001
 43
0.0000001
 44
0.0000000001
 40
0.0
 40
0.0
 40
0.0
 40
0.0
 40
0.5029601385
 40
1.0
 40
1.0
 40
1.0
 40
1.0
 10
36.2023973015
 20
195.7761289797
 30
0.0
 10
35.9008902701
 20
195.6953083669
 30
0.0
 10
35.2842409294
 20
195.592229226
 30
0.0
 10
34.6591700191
 20
195.6153065537
 30
0.0
 10
34.3536740308
 20
195.658088473
 30
0.0
  0
SPLINE
  5
4DC
100
AcDbEntity
  8
0
100
AcDbSpline
 62
7
  6
CONTINUOUS
 70
0
 71
3
 72
11
 73
7
 74
0
 42
0.0000001
 43
0.0000001
 44
0.0000000001
 40
0.0
 40
0.0
 40
0.0
 40
0.0
 40
0.2582138496
 40
0.5115971522
 40
0.7590487519
 40
1.0
 40
1.0
 40
1.0
 40
1.0
 10
44.5325245921
 20
222.9215688502
 30
0.0
 10
44.8285425745
 20
221.1912985556
 30
0.0
 10
45.6495886483
 20
217.7981073532
 30
0.0
 10
47.5631262605
 20
212.987111868
 30
0.0
 10
50.1028024645
 20
208.6092944872
 30
0.0
 10
52.2033641494
 20
206.0162932495
 30
0.0
 10
53.336605762
 20
204.8335074099
 30
0.0
  0
SPLINE
  5
4DD
100
AcDbEntity
  8
0
100
AcDbSpline
 62
7
  6
CONTINUOUS
 70
0
 71
3
 72
13
 73
9
 74
0
 42
0.0000001
 43
0.0000001
 44
0.0000000001
 40
0.0
 40
0.0
 40
0.0
 40
0.0
 40
0.1197934006
 40
0.2419939218
 40
0.3662706763
 40
0.4921811827
 40
0.7463202942
 40
1.0
 40
1.0
 40
1.0
 40
1.0
 10
53.4284263318
 20
254.9790442141
 30
0.0
 10
52.5016782676
 20
253.9668635272
 30
0.0
 10
50.7585458599
 20
251.8002807572
 30
0.0
 10
48.5386300576
 20
248.2286462811
 30
0.0
 10
46.7201249786
 20
244.3586394096
 30
0.0
 10
44.8670116527
 20
238.8753031568
 30
0.0
 10
43.7022379067
 20
231.6478515632
 30
0.0
 10
44.0424518538
 20
225.7861188157
 30
0.0
 10
44.5325245921
 20
222.9215688502
 30
0.0
  0
SPLINE
  5
4DE
100
AcDbEntity
  8
0
100
AcDbSpline
 62
7
  6
CONTINUOUS
 70
0
 71
3
 72
15
 73
11
 74
0
 42
0.0000001
 43
0.0000001
 44
0.0000000001
 40
0.0
 40
0.0
 40
0.0
 40
0.0
 40
0.1300482411
 40
0.2611913022
 40
0.3919362061
 40
0.5208213963
 40
0.6466182885
 40
0.7684962554
 40
0.8861669866
 40
1.0
 40
1.0
 40
1.0
 40
1.0
 10
101.9473446054
 20
237.6531769898
 30
0.0
 10
102.2714152034
 20
235.4911212109
 30
0.0
 10
102.5516836398
 20
231.0850233495
 30
0.0
 10
101.8847989962
 20
224.5020956475
 30
0.0
 10
100.1609644229
 20
218.1319579588
 30
0.0
 10
97.4428693895
 20
212.2162464171
 30
0.0
 10
93.8303278292
 20
206.9775008596
 30
0.0
 10
89.4533844525
 20
202.6157447485
 30
0.0
 10
84.4758236803
 20
199.3022501358
 30
0.0
 10
80.8211669212
 20
197.8610237392
 30
0.0
 10
78.9728027821
 20
197.3655595978
 30
0.0
  0
SPLINE
  5
4DF
100
AcDbEntity
  8
0
100
AcDbSpline
 62
7
  6
CONTINUOUS
 70
0
 71
3
 72
9
 73
5
 74
0
 42
0.0000001
 43
0.0000001
 44
0.0000000001
 40
0.0
 40
0.0
 40
0.0
 40
0.0
 40
0.4918000313
 40
1.0
 40
1.0
 40
1.0
 40
1.0
 10
97.1413979542
 20
251.0044987308
 30
0.0
 10
98.3745359988
 20
249.0178886332
 30
0.0
 10
100.4382326092
 20
244.6903499259
 30
0.0
 10
101.5891833566
 20
240.0426705216
 30
0.0
 10
101.9473446054
 20
237.6531769898
 30
0.0
  0
SPLINE
  5
4E0
100
AcDbEntity
  8
0
100
AcDbSpline
 62
7
  6
CONTINUOUS
 70
0
 71
3
 72
14
 73
10
 74
0
 42
0.0000001
 43
0.0000001
 44
0.0000000001
 40
0.0
 40
0.0
 40
0.0
 40
0.0
 40
0.1127556118
 40
0.2278700507
 40
0.3471087597
 40
0.4712770028
 40
0.600157247
 40
0.7326274336
 40
1.0
 40
1.0
 40
1.0
 40
1.0
 10
78.365550641
 20
201.81612715
 30
0.0
 10
78.5846166746
 20
201.7854125836
 30
0.0
 10
79.0381532822
 20
201.7843495913
 30
0.0
 10
79.7023491364
 20
201.9649737741
 30
0.0
 10
80.3199698941
 20
202.3158308258
 30
0.0
 10
80.8597032505
 20
202.8166259203
 30
0.0
 10
81.2958138064
 20
203.4415161085
 30
0.0
 10
81.7122236281
 20
204.3964837732
 30
0.0
 10
81.8136562754
 20
205.1995361791
 30
0.0
 10
81.7794531023
 20
205.7229627347
 30
0.0
  0
SPLINE
  5
4E1
100
AcDbEntity
  8
0
100
AcDbSpline
 62
7
  6
CONTINUOUS
 70
0
 71
3
 72
9
 73
5
 74
0
 42
0.0000001
 43
0.0000001
 44
0.0000000001
 40
0.0
 40
0.0
 40
0.0
 40
0.0
 40
0.5002194314
 40
1.0
 40
1.0
 40
1.0
 40
1.0
 10
36.0647567329
 20
260.4402503615
 30
0.0
 10
36.4406565574
 20
257.9324128937
 30
0.0
 10
36.4321197075
 20
252.7809977597
 30
0.0
 10
34.9559394667
 20
247.8452131449
 30
0.0
 10
33.8728883454
 20
245.5547391558
 30
0.0
  0
SPLINE
  5
4E2
100
AcDbEntity
  8
0
100
AcDbSpline
 62
7
  6
CONTINUOUS
 70
0
 71
3
 72
9
 73
5
 74
0
 42
0.0000001
 43
0.0000001
 44
0.0000000001
 40
0.0
 40
0.0
 40
0.0
 40
0.0
 40
0.4997805916
 40
1.0
 40
1.0
 40
1.0
 40
1.0
 10
33.8728883454
 20
245.5547391558
 30
0.0
 10
32.5141549686
 20
242.6812406394
 30
0.0
 10
30.6622344206
 20
236.4890833255
 30
0.0
 10
30.651524815
 20
230.0264129808
 30
0.0
 10
31.1231072672
 20
226.8802233167
 30
0.0
  0
SPLINE
  5
4E3
100
AcDbEntity
  8
0
100
AcDbSpline
 62
7
  6
CONTINUOUS
 70
0
 71
3
 72
15
 73
11
 74
0
 42
0.0000001
 43
0.0000001
 44
0.0000000001
 40
0.0
 40
0.0
 40
0.0
 40
0.0
 40
0.1163540852
 40
0.2338627738
 40
0.3535442489
 40
0.4761638599
 40
0.6021690163
 40
0.731667606
 40
0.8644435963
 40
1.0
 40
1.0
 40
1.0
 40
1.0
 10
71.3143279134
 20
202.6908684107
 30
0.0
 10
70.143037581
 20
202.8548434955
 30
0.0
 10
67.813828485
 20
203.4038894132
 30
0.0
 10
64.5074022808
 20
204.8586405851
 30
0.0
 10
61.4566670039
 20
206.9096258646
 30
0.0
 10
58.7350379046
 20
209.5050426754
 30
0.0
 10
56.4047787654
 20
212.5813000401
 30
0.0
 10
54.5188060381
 20
216.0648629546
 30
0.0
 10
53.1195885034
 20
219.8725481697
 30
0.0
 10
52.5367777194
 20
222.5470908672
 30
0.0
 10
52.3325260224
 20
223.9097679032
 30
0.0
  0
SPLINE
  5
4E4
100
AcDbEntity
  8
0
100
AcDbSpline
 62
7
  6
CONTINUOUS
 70
0
 71
3
 72
11
 73
7
 74
0
 42
0.0000001
 43
0.0000001
 44
0.0000000001
 40
0.0
 40
0.0
 40
0.0
 40
0.0
 40
0.2347672889
 40
0.4791078822
 40
0.7345637042
 40
1.0
 40
1.0
 40
1.0
 40
1.0
 10
36.8722930576
 20
206.7850377152
 30
0.0
 10
37.1989580337
 20
206.6423586978
 30
0.0
 10
37.8249779902
 20
206.2492576777
 30
0.0
 10
38.5804655276
 20
205.4121201399
 30
0.0
 10
39.1266026195
 20
204.3742815367
 30
0.0
 10
39.3277113149
 20
203.6015049924
 30
0.0
 10
39.3874544104
 20
203.2029254679
 30
0.0
  0
SPLINE
  5
4E5
100
AcDbEntity
  8
0
100
AcDbSpline
 62
7
  6
CONTINUOUS
 70
0
 71
3
 72
13
 73
9
 74
0
 42
0.0000001
 43
0.0000001
 44
0.0000000001
 40
0.0
 40
0.0
 40
0.0
 40
0.0
 40
0.2541140801
 40
0.382221256
 40
0.5097793436
 40
0.7596933377
 40
0.8813154275
 40
1.0
 40
1.0
 40
1.0
 40
1.0
 10
52.3325260224
 20
223.9097679032
 30
0.0
 10
51.9374731381
 20
226.5453861194
 30
0.0
 10
51.8482258395
 20
230.60659394
 30
0.0
 10
52.7022985319
 20
235.8940289206
 30
0.0
 10
54.179760819
 20
240.9970733039
 30
0.0
 10
56.5640916996
 20
245.7335708382
 30
0.0
 10
59.7478933211
 20
249.7856438303
 30
0.0
 10
61.571292361
 20
251.5407175609
 30
0.0
 10
62.5293836002
 20
252.3353221091
 30
0.0
  0
SPLINE
  5
4E6
100
AcDbEntity
  8
0
100
AcDbSpline
 62
7
  6
CONTINUOUS
 70
0
 71
3
 72
15
 73
11
 74
0
 42
0.0000001
 43
0.0000001
 44
0.0000000001
 40
0.0
 40
0.0
 40
0.0
 40
0.0
 40
0.1355563997
 40
0.2683323858
 40
0.3978309741
 40
0.5238361299
 40
0.6464557417
 40
0.7661372187
 40
0.8836459099
 40
1.0
 40
1.0
 40
1.0
 40
1.0
 10
31.1231072672
 20
226.8802233167
 30
0.0
 10
31.3273589581
 20
225.5175463211
 30
0.0
 10
31.9101697107
 20
222.843003703
 30
0.0
 10
33.3093871978
 20
219.0353185761
 30
0.0
 10
35.1953598493
 20
215.5517556928
 30
0.0
 10
37.5256189512
 20
212.4754983151
 30
0.0
 10
40.2472480298
 20
209.8800814513
 30
0.0
 10
43.2979833318
 20
207.8290961119
 30
0.0
 10
46.6044096059
 20
206.3743448632
 30
0.0
 10
48.9336187754
 20
205.8252989106
 30
0.0
 10
50.1049091591
 20
205.6613238304
 30
0.0
  0
SPLINE
  5
4E7
100
AcDbEntity
  8
0
100
AcDbSpline
 62
7
  6
CONTINUOUS
 70
0
 71
3
 72
11
 73
7
 74
0
 42
0.0000001
 43
0.0000001
 44
0.0000000001
 40
0.0
 40
0.0
 40
0.0
 40
0.0
 40
0.260491735
 40
0.5125029066
 40
0.7580440023
 40
1.0
 40
1.0
 40
1.0
 40
1.0
 10
53.96534474
 20
204.7247216272
 30
0.0
 10
54.1378146139
 20
204.465151839
 30
0.0
 10
54.5255844067
 20
203.9843659891
 30
0.0
 10
55.2296095727
 20
203.4026336128
 30
0.0
 10
56.0216716451
 20
202.9933269502
 30
0.0
 10
56.59205803
 20
202.8460424519
 30
0.0
 10
56.8787305071
 20
202.8059031003
 30
0.0
  0
SPLINE
  5
4E8
100
AcDbEntity
  8
0
100
AcDbSpline
 62
7
  6
CONTINUOUS
 70
0
 71
3
 72
11
 73
7
 74
0
 42
0.0000001
 43
0.0000001
 44
0.0000000001
 40
0.0
 40
0.0
 40
0.0
 40
0.0
 40
0.2389039058
 40
0.4830095042
 40
0.7361544208
 40
1.0
 40
1.0
 40
1.0
 40
1.0
 10
78.0881492617
 20
199.8354476826
 30
0.0
 10
77.7365805886
 20
199.8846736373
 30
0.0
 10
77.036132743
 20
200.0851398241
 30
0.0
 10
76.0943938864
 20
200.665601647
 30
0.0
 10
75.3050530018
 20
201.4909963467
 30
0.0
 10
74.9144311654
 20
202.1613165776
 30
0.0
 10
74.753932091
 20
202.5190192878
 30
0.0
  0
SPLINE
  5
4E9
100
AcDbEntity
  8
0
100
AcDbSpline
 62
7
  6
CONTINUOUS
 70
0
 71
3
 72
13
 73
9
 74
0
 42
0.0000001
 43
0.0000001
 44
0.0000000001
 40
0.0
 40
0.0
 40
0.0
 40
0.0
 40
0.1154282857
 40
0.2346059073
 40
0.3575310456
 40
0.483730465
 40
0.741622157
 40
1.0
 40
1.0
 40
1.0
 40
1.0
 10
81.6802266673
 20
206.3849576473
 30
0.0
 10
82.9056896249
 20
206.9266842102
 30
0.0
 10
85.2917127521
 20
208.279676148
 30
0.0
 10
88.4802249555
 20
210.968356258
 30
0.0
 10
91.2399616952
 20
214.2607489044
 30
0.0
 10
94.2504106981
 20
219.3432367503
 30
0.0
 10
96.5026339664
 20
226.5771407001
 30
0.0
 10
96.5374390121
 20
232.6739175608
 30
0.0
 10
96.0928581065
 20
235.6399648422
 30
0.0
  0
SPLINE
  5
4EA
100
AcDbEntity
  8
0
100
AcDbSpline
 62
7
  6
CONTINUOUS
 70
0
 71
3
 72
11
 73
7
 74
0
 42
0.0000001
 43
0.0000001
 44
0.0000000001
 40
0.0
 40
0.0
 40
0.0
 40
0.0
 40
0.2603433733
 40
0.5143774345
 40
0.7610200371
 40
1.0
 40
1.0
 40
1.0
 40
1.0
 10
96.0928581065
 20
235.6399648422
 30
0.0
 10
95.8787150055
 20
237.0686329531
 30
0.0
 10
95.242302194
 20
239.8647234018
 30
0.0
 10
93.6611300835
 20
243.7998957563
 30
0.0
 10
91.5093830988
 20
247.3176903905
 30
0.0
 10
89.7057981021
 20
249.3440839326
 30
0.0
 10
88.73310445
 20
250.2453970212
 30
0.0
  0
SPLINE
  5
4EB
100
AcDbEntity
  8
0
100
AcDbSpline
 62
7
  6
CONTINUOUS
 70
0
 71
3
 72
11
 73
7
 74
0
 42
0.0000001
 43
0.0000001
 44
0.0000000001
 40
0.0
 40
0.0
 40
0.0
 40
0.0
 40
0.2685847685
 40
0.5241532458
 40
0.766366416
 40
1.0
 40
1.0
 40
1.0
 40
1.0
 10
40.366350661
 20
203.0658275239
 30
0.0
 10
40.2932724397
 20
203.5533731124
 30
0.0
 10
40.0254665196
 20
204.4921679848
 30
0.0
 10
39.2608363929
 20
205.6979606258
 30
0.0
 10
38.2018002521
 20
206.5634335394
 30
0.0
 10
37.3523099244
 20
206.8503367325
 30
0.0
 10
36.9276176745
 20
206.9098258834
 30
0.0
  0
SPLINE
  5
4EC
100
AcDbEntity
  8
0
100
AcDbSpline
 62
7
  6
CONTINUOUS
 70
0
 71
3
 72
11
 73
7
 74
0
 42
0.0000001
 43
0.0000001
 44
0.0000000001
 40
0.0
 40
0.0
 40
0.0
 40
0.0
 40
0.2622924268
 40
0.5169759602
 40
0.762825119
 40
1.0
 40
1.0
 40
1.0
 40
1.0
 10
51.2448635221
 20
224.06209895
 30
0.0
 10
51.5139932
 20
222.2665847044
 30
0.0
 10
52.353554585
 20
218.7648293169
 30
0.0
 10
54.5177567263
 20
213.9144074827
 30
0.0
 10
57.4890540409
 20
209.7198650309
 30
0.0
 10
59.9779860194
 20
207.4394792706
 30
0.0
 10
61.308167195
 20
206.4772787527
 30
0.0
  0
SPLINE
  5
4ED
100
AcDbEntity
  8
0
100
AcDbSpline
 62
7
  6
CONTINUOUS
 70
0
 71
3
 72
11
 73
7
 74
0
 42
0.0000001
 43
0.0000001
 44
0.0000000001
 40
0.0
 40
0.0
 40
0.0
 40
0.0
 40
0.2423393027
 40
0.4928828474
 40
0.7471935943
 40
1.0
 40
1.0
 40
1.0
 40
1.0
 10
59.4250567898
 20
250.6250427827
 30
0.0
 10
57.8062578419
 20
248.9647330704
 30
0.0
 10
54.9444916999
 20
245.1459110717
 30
0.0
 10
52.079526937
 20
238.5313437528
 30
0.0
 10
50.7211491394
 20
231.3521956231
 30
0.0
 10
50.8862819981
 20
226.454396372
 30
0.0
 10
51.2448635221
 20
224.06209895
 30
0.0
  0
SPLINE
  5
4EE
100
AcDbEntity
  8
0
100
AcDbSpline
 62
7
  6
CONTINUOUS
 70
0
 71
3
 72
11
 73
7
 74
0
 42
0.0000001
 43
0.0000001
 44
0.0000000001
 40
0.0
 40
0.0
 40
0.0
 40
0.0
 40
0.2522671355
 40
0.5061777883
 40
0.7568341797
 40
1.0
 40
1.0
 40
1.0
 40
1.0
 10
46.1630423335
 20
222.6987877833
 30
0.0
 10
45.741082798
 20
225.513915283
 30
0.0
 10
45.5221152742
 20
231.2740150464
 30
0.0
 10
47.0165152822
 20
239.7451813885
 30
0.0
 10
50.2308832577
 20
247.6151832972
 30
0.0
 10
53.4651090269
 20
252.2260800681
 30
0.0
 10
55.3042866339
 20
254.2623228301
 30
0.0
  0
SPLINE
  5
4EF
100
AcDbEntity
  8
0
100
AcDbSpline
 62
7
  6
CONTINUOUS
 70
0
 71
3
 72
11
 73
7
 74
0
 42
0.0000001
 43
0.0000001
 44
0.0000000001
 40
0.0
 40
0.0
 40
0.0
 40
0.0
 40
0.2401665836
 40
0.4872408471
 40
0.7408446117
 40
1.0
 40
1.0
 40
1.0
 40
1.0
 10
54.5446877394
 20
204.6642910026
 30
0.0
 10
53.4415472172
 20
205.8434801087
 30
0.0
 10
51.4038651988
 20
208.4305550702
 30
0.0
 10
48.9684924758
 20
212.7970658376
 30
0.0
 10
47.1656454576
 20
217.5959361187
 30
0.0
 10
46.4213278609
 20
220.9756209163
 30
0.0
 10
46.1630423335
 20
222.6987877833
 30
0.0
  0
SPLINE
  5
4F0
100
AcDbEntity
  8
0
100
AcDbSpline
 62
7
  6
CONTINUOUS
 70
0
 71
3
 72
9
 73
5
 74
0
 42
0.0000001
 43
0.0000001
 44
0.0000000001
 40
0.0
 40
0.0
 40
0.0
 40
0.0
 40
0.4975659169
 40
1.0
 40
1.0
 40
1.0
 40
1.0
 10
34.3536740308
 20
195.658088473
 30
0.0
 10
34.0812997173
 20
195.6962320046
 30
0.0
 10
33.5397955964
 20
195.8232260552
 30
0.0
 10
33.0300701733
 20
196.0453775465
 30
0.0
 10
32.7860776787
 20
196.1780341321
 30
0.0
  0
SPLINE
  5
4F1
100
AcDbEntity
  8
0
100
AcDbSpline
 62
7
  6
CONTINUOUS
 70
0
 71
3
 72
11
 73
7
 74
0
 42
0.0000001
 43
0.0000001
 44
0.0000000001
 40
0.0
 40
0.0
 40
0.0
 40
0.0
 40
0.235589836
 40
0.4805599135
 40
0.7357658557
 40
1.0
 40
1.0
 40
1.0
 40
1.0
 10
32.7860776787
 20
196.1780341321
 30
0.0
 10
32.4054802668
 20
196.3849616166
 30
0.0
 10
31.6838395217
 20
196.9151009299
 30
0.0
 10
30.8180228947
 20
197.9707280793
 30
0.0
 10
30.1907866673
 20
199.2409831183
 30
0.0
 10
29.9553466089
 20
200.1747732872
 30
0.0
 10
29.8833218523
 20
200.6552906256
 30
0.0
  0
SPLINE
  5
4F2
100
AcDbEntity
  8
0
100
AcDbSpline
 62
7
  6
CONTINUOUS
 70
0
 71
3
 72
13
 73
9
 74
0
 42
0.0000001
 43
0.0000001
 44
0.0000000001
 40
0.0
 40
0.0
 40
0.0
 40
0.0
 40
0.2608067127
 40
0.3918049855
 40
0.5209402171
 40
0.7680455474
 40
0.885948595
 40
1.0
 40
1.0
 40
1.0
 40
1.0
 10
22.3059263486
 20
251.2083239449
 30
0.0
 10
22.1810010508
 20
252.0417703103
 30
0.0
 10
22.207959171
 20
253.3378119705
 30
0.0
 10
22.6503530711
 20
254.9678932025
 30
0.0
 10
23.3356753547
 20
256.4628343785
 30
0.0
 10
24.374406307
 20
257.7321338548
 30
0.0
 10
25.6706978624
 20
258.5942158161
 30
0.0
 10
26.3746804415
 20
258.8720002488
 30
0.0
 10
26.7306529192
 20
258.9674206231
 30
0.0
  0
SPLINE
  5
4F3
100
AcDbEntity
  8
0
100
AcDbSpline
 62
7
  6
CONTINUOUS
 70
0
 71
3
 72
11
 73
7
 74
0
 42
0.0000001
 43
0.0000001
 44
0.0000000001
 40
0.0
 40
0.0
 40
0.0
 40
0.0
 40
0.2634204582
 40
0.5183455262
 40
0.7636653194
 40
1.0
 40
1.0
 40
1.0
 40
1.0
 10
31.3063657419
 20
250.3612344222
 30
0.0
 10
31.1557865845
 20
250.0446924889
 30
0.0
 10
30.8005526803
 20
249.4475876201
 30
0.0
 10
30.113752071
 20
248.6890715962
 30
0.0
 10
29.3102867807
 20
248.1142127366
 30
0.0
 10
28.7101884136
 20
247.8688488341
 30
0.0
 10
28.4064230819
 20
247.7874228715
 30
0.0
  0
SPLINE
  5
4F4
100
AcDbEntity
  8
0
100
AcDbSpline
 62
7
  6
CONTINUOUS
 70
0
 71
3
 72
12
 73
8
 74
0
 42
0.0000001
 43
0.0000001
 44
0.0000000001
 40
0.0
 40
0.0
 40
0.0
 40
0.0
 40
0.1141465032
 40
0.2321738583
 40
0.4794960043
 40
0.7389461754
 40
1.0
 40
1.0
 40
1.0
 40
1.0
 10
29.385319332
 20
247.6503249293
 30
0.0
 10
29.6591228725
 20
247.7237194695
 30
0.0
 10
30.2006122986
 20
247.9374036387
 30
0.0
 10
31.1980273794
 20
248.6007381184
 30
0.0
 10
32.2055019581
 20
249.8321336895
 30
0.0
 10
32.857572603
 20
251.657553912
 30
0.0
 10
32.8850549292
 20
252.9777256443
 30
0.0
 10
32.7889551578
 20
253.6188608393
 30
0.0
  0
SPLINE
  5
4F5
100
AcDbEntity
  8
0
100
AcDbSpline
 62
7
  6
CONTINUOUS
 70
0
 71
3
 72
17
 73
13
 74
0
 42
0.0000001
 43
0.0000001
 44
0.0000000001
 40
0.0
 40
0.0
 40
0.0
 40
0.0
 40
0.1179828774
 40
0.2605779244
 40
0.4170407478
 40
0.5743024798
 40
0.7191848507
 40
0.8405111667
 40
0.8902229497
 40
0.9324169003
 40
0.9681664809
 40
1.0
 40
1.0
 40
1.0
 40
1.0
 10
9.1473628648
 20
205.6838824357
 30
0.0
 10
9.3275442387
 20
205.5798130204
 30
0.0
 10
9.7607913835
 20
205.4125228442
 30
0.0
 10
10.4834037828
 20
205.2662967276
 30
0.0
 10
11.2886012438
 20
205.2116766295
 30
0.0
 10
12.0984443598
 20
205.254698286
 30
0.0
 10
12.8346577756
 20
205.3909045721
 30
0.0
 10
13.3637856928
 20
205.580601979
 30
0.0
 10
13.6854759303
 20
205.7781996543
 30
0.0
 10
13.8537905161
 20
205.9302791997
 30
0.0
 10
13.9614530738
 20
206.0947296215
 30
0.0
 10
13.9873775741
 20
206.2148041931
 30
0.0
 10
13.987404227
 20
206.2709462547
 30
0.0
  0
SPLINE
  5
4F6
100
AcDbEntity
  8
0
100
AcDbSpline
 62
7
  6
CONTINUOUS
 70
0
 71
3
 72
17
 73
13
 74
0
 42
0.0000001
 43
0.0000001
 44
0.0000000001
 40
0.0
 40
0.0
 40
0.0
 40
0.0
 40
0.1179828774
 40
0.2605779244
 40
0.4170407478
 40
0.5743024798
 40
0.7191848507
 40
0.8405111667
 40
0.8902229497
 40
0.9324169003
 40
0.9681664809
 40
1.0
 40
1.0
 40
1.0
 40
1.0
 10
-9.4321499362
 20
216.4150639763
 30
0.0
 10
-9.2519685624
 20
216.310994561
 30
0.0
 10
-8.8187214175
 20
216.1437043848
 30
0.0
 10
-8.0961090183
 20
215.9974782682
 30
0.0
 10
-7.2909115573
 20
215.9428581701
 30
0.0
 10
-6.4810684412
 20
215.9858798265
 30
0.0
 10
-5.7448550254
 20
216.1220861126
 30
0.0
 10
-5.2157271083
 20
216.3117835195
 30
0.0
 10
-4.8940368708
 20
216.5093811949
 30
0.0
 10
-4.725722285
 20
216.6614607403
 30
0.0
 10
-4.6180597272
 20
216.825911162
 30
0.0
 10
-4.592135227
 20
216.9459857337
 30
0.0
 10
-4.592108574
 20
217.0021277953
 30
0.0
  0
SPLINE
  5
4F7
100
AcDbEntity
  8
0
100
AcDbSpline
 62
7
  6
CONTINUOUS
 70
0
 71
3
 72
11
 73
7
 74
0
 42
0.0000001
 43
0.0000001
 44
0.0000000001
 40
0.0
 40
0.0
 40
0.0
 40
0.0
 40
0.2032383987
 40
0.4289071888
 40
0.692421533
 40
1.0
 40
1.0
 40
1.0
 40
1.0
 10
8.6874869426
 20
206.2709459779
 30
0.0
 10
8.6874619286
 20
206.2182562926
 30
0.0
 10
8.7100727764
 20
206.1062761496
 30
0.0
 10
8.804911786
 20
205.9508410967
 30
0.0
 10
8.9544864387
 20
205.8061656243
 30
0.0
 10
9.0783129776
 20
205.7237643682
 30
0.0
 10
9.1473628648
 20
205.6838824357
 30
0.0
  0
SPLINE
  5
4F8
100
AcDbEntity
  8
0
100
AcDbSpline
 62
7
  6
CONTINUOUS
 70
0
 71
3
 72
11
 73
7
 74
0
 42
0.0000001
 43
0.0000001
 44
0.0000000001
 40
0.0
 40
0.0
 40
0.0
 40
0.0
 40
0.2032383987
 40
0.4289071888
 40
0.692421533
 40
1.0
 40
1.0
 40
1.0
 40
1.0
 10
-9.8920258585
 20
217.0021275185
 30
0.0
 10
-9.8920508725
 20
216.9494378332
 30
0.0
 10
-9.8694400246
 20
216.8374576901
 30
0.0
 10
-9.7746010151
 20
216.6820226373
 30
0.0
 10
-9.6250263624
 20
216.5373471649
 30
0.0
 10
-9.5011998234
 20
216.4549459087
 30
0.0
 10
-9.4321499362
 20
216.4150639763
 30
0.0
  0
SPLINE
  5
4F9
100
AcDbEntity
  8
0
100
AcDbSpline
 62
7
  6
CONTINUOUS
 70
0
 71
3
 72
12
 73
8
 74
0
 42
0.0000001
 43
0.0000001
 44
0.0000000001
 40
0.0
 40
0.0
 40
0.0
 40
0.0
 40
0.1142494827
 40
0.2323281236
 40
0.4796853552
 40
0.7390200919
 40
1.0
 40
1.0
 40
1.0
 40
1.0
 10
24.9022410348
 20
259.4400337119
 30
0.0
 10
24.5367877091
 20
259.3378919648
 30
0.0
 10
23.8148966436
 20
259.0454338535
 30
0.0
 10
22.4865261589
 20
258.1492332498
 30
0.0
 10
21.1447375007
 20
256.4994057711
 30
0.0
 10
20.2720455177
 20
254.0596447315
 30
0.0
 10
20.2291890912
 20
252.2955816836
 30
0.0
 10
20.3530223143
 20
251.4376754842
 30
0.0
  0
SPLINE
  5
4FA
100
AcDbEntity
  8
0
100
AcDbSpline
 62
7
  6
CONTINUOUS
 70
0
 71
3
 72
11
 73
7
 74
0
 42
0.0000001
 43
0.0000001
 44
0.0000000001
 40
0.0
 40
0.0
 40
0.0
 40
0.0
 40
0.2679461675
 40
0.5235960916
 40
0.7663126085
 40
1.0
 40
1.0
 40
1.0
 40
1.0
 10
27.9364502745
 20
200.8436369345
 30
0.0
 10
28.031001323
 20
200.212834134
 30
0.0
 10
28.3711128175
 20
198.9963079633
 30
0.0
 10
29.3319362521
 20
197.4166075152
 30
0.0
 10
30.6634199025
 20
196.2476406649
 30
0.0
 10
31.7415892726
 20
195.8162102702
 30
0.0
 10
32.2865673081
 20
195.7045667855
 30
0.0
  0
SPLINE
  5
4FB
100
AcDbEntity
  8
0
100
AcDbSpline
 62
7
  6
CONTINUOUS
 70
0
 71
3
 72
11
 73
7
 74
0
 42
0.0000001
 43
0.0000001
 44
0.0000000001
 40
0.0
 40
0.0
 40
0.0
 40
0.0
 40
0.2032665715
 40
0.4289015617
 40
0.692283341
 40
1.0
 40
1.0
 40
1.0
 40
1.0
 10
-17.1593629012
 20
212.3915611668
 30
0.0
 10
-17.1593398041
 20
212.292132011
 30
0.0
 10
-17.1167496962
 20
212.080850267
 30
0.0
 10
-16.9377715065
 20
211.7876640393
 30
0.0
 10
-16.6556903396
 20
211.5145824775
 30
0.0
 10
-16.4219887096
 20
211.3591772039
 30
0.0
 10
-16.2916462335
 20
211.2838938104
 30
0.0
  0
SPLINE
  5
4FC
100
AcDbEntity
  8
0
100
AcDbSpline
 62
7
  6
CONTINUOUS
 70
0
 71
3
 72
13
 73
9
 74
0
 42
0.0000001
 43
0.0000001
 44
0.0000000001
 40
0.0
 40
0.0
 40
0.0
 40
0.0
 40
0.083672979
 40
0.1736474593
 40
0.2747441703
 40
0.3898444162
 40
0.6656232473
 40
1.0
 40
1.0
 40
1.0
 40
1.0
 10
-17.1593629012
 20
219.4928595145
 30
0.0
 10
-17.159381599
 20
219.573350033
 30
0.0
 10
-17.1323685668
 20
219.7413304208
 30
0.0
 10
-17.0155267852
 20
219.9816376783
 30
0.0
 10
-16.8275585391
 20
220.2110927637
 30
0.0
 10
-16.4653107791
 20
220.5185925325
 30
0.0
 10
-15.8438654464
 20
220.8500778543
 30
0.0
 10
-15.2851827709
 20
221.0355138153
 30
0.0
 10
-14.9744923835
 20
221.118796077
 30
0.0
  0
SPLINE
  5
4FD
100
AcDbEntity
  8
0
100
AcDbSpline
 62
7
  6
CONTINUOUS
 70
0
 71
3
 72
13
 73
9
 74
0
 42
0.0000001
 43
0.0000001
 44
0.0000000001
 40
0.0
 40
0.0
 40
0.0
 40
0.0
 40
0.1115123649
 40
0.2274071969
 40
0.3478144136
 40
0.4725175079
 40
0.7320964134
 40
1.0
 40
1.0
 40
1.0
 40
1.0
 10
14.5544134536
 20
260.0370245988
 30
0.0
 10
13.3991707851
 20
259.9773803532
 30
0.0
 10
11.0499051116
 20
259.661802657
 30
0.0
 10
7.5742929427
 20
258.650791925
 30
0.0
 10
4.1460072658
 20
257.1154612771
 30
0.0
 10
-0.3296518067
 20
254.3760249108
 30
0.0
 10
-5.4157822578
 20
249.8205688525
 30
0.0
 10
-8.6374424584
 20
245.3398123292
 30
0.0
 10
-10.0158145269
 20
242.9266029039
 30
0.0
  0
SPLINE
  5
4FE
100
AcDbEntity
  8
0
100
AcDbSpline
 62
7
  6
CONTINUOUS
 70
0
 71
3
 72
13
 73
9
 74
0
 42
0.0000001
 43
0.0000001
 44
0.0000000001
 40
0.0
 40
0.0
 40
0.0
 40
0.0
 40
0.1140354166
 40
0.2319219367
 40
0.3540191309
 40
0.4800422958
 40
0.7392299027
 40
1.0
 40
1.0
 40
1.0
 40
1.0
 10
22.4871998469
 20
261.7032032572
 30
0.0
 10
21.9943148264
 20
261.5710827252
 30
0.0
 10
21.0197324566
 20
261.1867384342
 30
0.0
 10
19.6924011521
 20
260.3032080723
 30
0.0
 10
18.525103836
 20
259.1398363221
 30
0.0
 10
17.2302161358
 20
257.2622902314
 30
0.0
 10
16.2354415902
 20
254.4883534028
 30
0.0
 10
16.1876818893
 20
252.1138411601
 30
0.0
 10
16.3606553607
 20
250.9598386194
 30
0.0
  0
SPLINE
  5
4FF
100
AcDbEntity
  8
0
100
AcDbSpline
 62
7
  6
CONTINUOUS
 70
0
 71
3
 72
17
 73
13
 74
0
 42
0.0000001
 43
0.0000001
 44
0.0000000001
 40
0.0
 40
0.0
 40
0.0
 40
0.0
 40
0.1179828774
 40
0.2605779244
 40
0.4170407478
 40
0.5743024798
 40
0.7191848507
 40
0.8405111667
 40
0.8902229497
 40
0.9324169003
 40
0.9681664809
 40
1.0
 40
1.0
 40
1.0
 40
1.0
 10
-5.0519844963
 20
217.5891913375
 30
0.0
 10
-5.2321658701
 20
217.6932607528
 30
0.0
 10
-5.665413015
 20
217.860550929
 30
0.0
 10
-6.3880254142
 20
218.0067770455
 30
0.0
 10
-7.1932228752
 20
218.0613971437
 30
0.0
 10
-8.0030659913
 20
218.0183754872
 30
0.0
 10
-8.739279407
 20
217.8821692011
 30
0.0
 10
-9.2684073242
 20
217.6924717942
 30
0.0
 10
-9.5900975617
 20
217.4948741189
 30
0.0
 10
-9.7584121475
 20
217.3427945735
 30
0.0
 10
-9.8660747053
 20
217.1783441517
 30
0.0
 10
-9.8919992055
 20
217.05826958
 30
0.0
 10
-9.8920258585
 20
217.0021275185
 30
0.0
  0
SPLINE
  5
500
100
AcDbEntity
  8
0
100
AcDbSpline
 62
7
  6
CONTINUOUS
 70
0
 71
3
 72
11
 73
7
 74
0
 42
0.0000001
 43
0.0000001
 44
0.0000000001
 40
0.0
 40
0.0
 40
0.0
 40
0.0
 40
0.2032383987
 40
0.4289071888
 40
0.692421533
 40
1.0
 40
1.0
 40
1.0
 40
1.0
 10
-4.592108574
 20
217.0021277953
 30
0.0
 10
-4.59208356
 20
217.0548174806
 30
0.0
 10
-4.6146944079
 20
217.1667976236
 30
0.0
 10
-4.7095334174
 20
217.3222326765
 30
0.0
 10
-4.8591080701
 20
217.4669081489
 30
0.0
 10
-4.982934609
 20
217.549309405
 30
0.0
 10
-5.0519844963
 20
217.5891913375
 30
0.0
  0
SPLINE
  5
501
100
AcDbEntity
  8
0
100
AcDbSpline
 62
7
  6
CONTINUOUS
 70
0
 71
3
 72
9
 73
5
 74
0
 42
0.0000001
 43
0.0000001
 44
0.0000000001
 40
0.0
 40
0.0
 40
0.0
 40
0.0
 40
0.249180208
 40
1.0
 40
1.0
 40
1.0
 40
1.0
 10
32.5998787815
 20
195.6513230304
 30
0.0
 10
32.7170786912
 20
195.6354507139
 30
0.0
 10
33.1896727053
 20
195.5893456321
 30
0.0
 10
33.6690160833
 20
195.6154309873
 30
0.0
 10
34.0206221677
 20
195.6734808394
 30
0.0
  0
SPLINE
  5
502
100
AcDbEntity
  8
0
100
AcDbSpline
 62
7
  6
CONTINUOUS
 70
0
 71
3
 72
11
 73
7
 74
0
 42
0.0000001
 43
0.0000001
 44
0.0000000001
 40
0.0
 40
0.0
 40
0.0
 40
0.0
 40
0.307716659
 40
0.5710984383
 40
0.7967334285
 40
1.0
 40
1.0
 40
1.0
 40
1.0
 10
-16.2916462335
 20
218.3851921581
 30
0.0
 10
-16.4219887096
 20
218.4604755516
 30
0.0
 10
-16.6556903396
 20
218.6158808252
 30
0.0
 10
-16.9377715065
 20
218.888962387
 30
0.0
 10
-17.1167496962
 20
219.1821486147
 30
0.0
 10
-17.1593398041
 20
219.3934303587
 30
0.0
 10
-17.1593629012
 20
219.4928595145
 30
0.0
  0
SPLINE
  5
503
100
AcDbEntity
  8
0
100
AcDbSpline
 62
7
  6
CONTINUOUS
 70
0
 71
3
 72
17
 73
13
 74
0
 42
0.0000001
 43
0.0000001
 44
0.0000000001
 40
0.0
 40
0.0
 40
0.0
 40
0.0
 40
0.1179828774
 40
0.2605779244
 40
0.4170407478
 40
0.5743024798
 40
0.7191848507
 40
0.8405111667
 40
0.8902229497
 40
0.9324169003
 40
0.9681664809
 40
1.0
 40
1.0
 40
1.0
 40
1.0
 10
13.5275283048
 20
206.8580097969
 30
0.0
 10
13.3473469309
 20
206.9620792122
 30
0.0
 10
12.9140997861
 20
207.1293693884
 30
0.0
 10
12.1914873869
 20
207.275595505
 30
0.0
 10
11.3862899259
 20
207.3302156031
 30
0.0
 10
10.5764468098
 20
207.2871939466
 30
0.0
 10
9.840233394
 20
207.1509876605
 30
0.0
 10
9.3111054769
 20
206.9612902536
 30
0.0
 10
8.9894152394
 20
206.7636925783
 30
0.0
 10
8.8211006536
 20
206.6116130329
 30
0.0
 10
8.7134380958
 20
206.4471626111
 30
0.0
 10
8.6875135956
 20
206.3270880395
 30
0.0
 10
8.6874869426
 20
206.2709459779
 30
0.0
  0
SPLINE
  5
504
100
AcDbEntity
  8
0
100
AcDbSpline
 62
7
  6
CONTINUOUS
 70
0
 71
3
 72
13
 73
9
 74
0
 42
0.0000001
 43
0.0000001
 44
0.0000000001
 40
0.0
 40
0.0
 40
0.0
 40
0.0
 40
0.2607701243
 40
0.5199577384
 40
0.6459808999
 40
0.7680780881
 40
0.8859645952
 40
1.0
 40
1.0
 40
1.0
 40
1.0
 10
18.5359803612
 20
250.6551765257
 30
0.0
 10
18.3630068719
 20
251.8091791861
 30
0.0
 10
18.4107666167
 20
254.1836915959
 30
0.0
 10
19.4055413245
 20
256.957628516
 30
0.0
 10
20.7004290929
 20
258.8351745482
 30
0.0
 10
21.8677263983
 20
259.998546164
 30
0.0
 10
23.1950576034
 20
260.8820764212
 30
0.0
 10
24.1696398779
 20
261.2664206451
 30
0.0
 10
24.6625248474
 20
261.3985411635
 30
0.0
  0
SPLINE
  5
505
100
AcDbEntity
  8
0
100
AcDbSpline
 62
7
  6
CONTINUOUS
 70
0
 71
3
 72
11
 73
7
 74
0
 42
0.0000001
 43
0.0000001
 44
0.0000000001
 40
0.0
 40
0.0
 40
0.0
 40
0.0
 40
0.2032383987
 40
0.4289071888
 40
0.692421533
 40
1.0
 40
1.0
 40
1.0
 40
1.0
 10
13.987404227
 20
206.2709462547
 30
0.0
 10
13.987429241
 20
206.32363594
 30
0.0
 10
13.9648183932
 20
206.435616083
 30
0.0
 10
13.8699793837
 20
206.5910511359
 30
0.0
 10
13.7204047309
 20
206.7357266083
 30
0.0
 10
13.596578192
 20
206.8181278644
 30
0.0
 10
13.5275283048
 20
206.8580097969
 30
0.0
  0
ENDSEC
  0
SECTION
  2
OBJECTS
  0
DICTIONARY
  5
C
100
AcDbDictionary
280
0
281
1
  3
ACAD_GROUP
350
D
  3
ACAD_MLINESTYLE
350
17
  3
ACAD_LAYOUT
350
1A
  3
ACAD_PLOTSETTINGS
350
19
  3
ACAD_PLOTSTYLENAME
350
E
  0
DICTIONARY
  5
D
102
{ACAD_REACTORS
330
C
102
}
100
AcDbDictionary
280
0
281
1
  0
ACDBDICTIONARYWDFLT
  5
E
102
{ACAD_REACTORS
330
C
102
}
100
AcDbDictionary
281
1
  3
Normal
350
F
100
AcDbDictionaryWithDefault
340
F
  0
DICTIONARY
  5
17
102
{ACAD_REACTORS
330
C
102
}
100
AcDbDictionary
280
0
281
1
  3
Standard
350
18
  0
DICTIONARY
  5
19
102
{ACAD_REACTORS
330
C
102
}
100
AcDbDictionary
281
1
  0
DICTIONARY
  5
1A
102
{ACAD_REACTORS
330
C
102
}
100
AcDbDictionary
281
1
  3
Model
350
506
  3
Layout1
350
507
  0
ACDBPLACEHOLDER
  5
F
102
{ACAD_REACTORS
330
E
102
}
  0
MLINESTYLE
  5
18
102
{ACAD_REACTORS
330
17
102
}
100
AcDbMlineStyle
  2
STANDARD
 70
0
  3

 62
256
 51
90.0
 52
90.0
 71
2
 49
0.5
 62
256
  6
BYLAYER
 49
-0.5
 62
256
  6
BYLAYER
  0
LAYOUT
  5
506
102
{ACAD_REACTORS
330
1A
102
}
100
AcDbPlotSettings
  1

  2
none_device
  4
ANSI_C_(22.00_x_17.00_Inches)
  6

 40
0.0
 41
0.0
 42
0.0
 43
0.0
 44
558.8
 45
431.8
 46
0.0
 47
0.0
 48
0.0
 49
0.0
140
0.0
141
0.0
142
1.0
143
1.0
 70
1024
 72
1
 73
0
 74
0
  7

 75
0
147
1.0
148
0.0
149
0.0
100
AcDbLayout
  1
Model
 70
0
 71
0
 10
0.0
 20
0.0
 11
558.8
 21
431.8
 12
0.0
 22
0.0
 32
0.0
 14
0.0
 24
0.0
 34
0.0
 15
0.0
 25
0.0
 35
0.0
146
0.0
 13
0.0
 23
0.0
 33
0.0
 16
1.0
 26
0.0
 36
0.0
 17
0.0
 27
1.0
 37
0.0
 76
0
330
216
345
0
346
0
  0
LAYOUT
  5
507
102
{ACAD_REACTORS
330
1A
102
}
100
AcDbPlotSettings
  1

  2
none_device
  4
ANSI_C_(22.00_x_17.00_Inches)
  6

 40
0.0
 41
0.0
 42
0.0
 43
0.0
 44
558.8
 45
431.8
 46
0.0
 47
0.0
 48
0.0
 49
0.0
140
0.0
141
0.0
142
1.0
143
1.0
 70
0
 72
1
 73
0
 74
0
  7

 75
0
147
1.0
148
0.0
149
0.0
100
AcDbLayout
  1
Layout1
 70
0
 71
1
 10
0.0
 20
0.0
 11
558.8
 21
431.8
 12
0.0
 22
0.0
 32
0.0
 14
0.0
 24
0.0
 34
0.0
 15
0.0
 25
0.0
 35
0.0
146
0.0
 13
0.0
 23
0.0
 33
0.0
 16
1.0
 26
0.0
 36
0.0
 17
0.0
 27
1.0
 37
0.0
 76
0
330
217
345
0
346
0
  0
ENDSEC
  0
EOF
