999
DXF file: Y:\3D PRATIKA-KAEDRA_OLGA\TRAVAIL_PHASE_6\CAD3D\PKF16W735_3D-Simplified\PKF16W735_2D-isometric.dxf
999
Pro/ENGINEER 2018260 by Parametric Technology Corporation
  0
SECTION
  2
HEADER
  9
$ACADVER
  1
AC1027
  9
$DWGCODEPAGE
  3
ANSI_1252
  9
$EXTMAX
 10
558.8
 20
431.8
 30
0.0
  9
$EXTMIN
 10
0.0
 20
0.0
 30
0.0
  9
$LIMMIN
 10
0.0
 20
0.0
  9
$LIMMAX
 10
558.8
 20
431.8
  9
$VIEWCTR
 10
279.4
 20
215.9
  9
$VIEWSIZE
 40
431.8
  9
$CLAYER
  8
0
  9
$LTSCALE
 40
30.734
  9
$CELTYPE
  6
BYLAYER
  9
$DIMSCALE
 40
1.0
  9
$DIMASZ
 40
0.1875
  9
$DIMEXO
 40
0.0625
  9
$DIMDLI
 40
21.2344
  9
$DIMEXE
 40
0.125
  9
$DIMCEN
 40
5.0292
  9
$DIMLFAC
 40
1.0
  9
$DIMBLK
  1
_CLOSED
  9
$DIMALT
 70
0
  9
$DIMALTF
 40
0.0393700787
  9
$DIMTXT
 40
0.15625
  9
$DIMTOL
 70
0
  9
$DIMLIM
 70
0
  9
$DIMTFAC
 40
1.0
  9
$DIMGAP
 40
0.625
  9
$DIMDSEP
 70
46
  9
$AUNITS
 70
0
  9
$PDMODE
 70
3
  9
$PDSIZE
 40
0.3125
  9
$HANDSEED
  5
4EF
  9
$TILEMODE
 70
1
  9
$MEASUREMENT
 70
1
  9
$INSUNITS
 70
4
  0
ENDSEC
  0
SECTION
  2
CLASSES
  0
CLASS
  1
ACDBDICTIONARYWDFLT
  2
AcDbDictionaryWithDefault
  3
AutoCAD 2000
 90
0
 91
1
280
0
281
0
  0
CLASS
  1
ACDBPLACEHOLDER
  2
AcDbPlaceHolder
  3
AutoCAD 2000
 90
0
 91
1
280
0
281
0
  0
CLASS
  1
LAYOUT
  2
AcDbLayout
  3
AutoCAD 2000
 90
0
 91
0
280
0
281
0
  0
ENDSEC
  0
SECTION
  2
TABLES
  0
TABLE
  2
VPORT
  5
8
100
AcDbSymbolTable
 70
2
  0
VPORT
  5
1F4
100
AcDbSymbolTableRecord
100
AcDbViewportTableRecord
  2
*ACTIVE
 70
0
 10
0.0
 20
0.0
 11
1.0
 21
1.0
 12
279.4
 22
215.9
 13
0.0
 23
0.0
 14
1.0
 24
1.0
 15
0.0
 25
0.0
 16
0.0
 26
0.0
 36
1.0
 17
0.0
 27
0.0
 37
0.0
 40
431.8
 41
1.2941176471
 42
50.0
 43
0.0
 44
0.0
 50
0.0
 51
0.0
 71
0
 72
100
 73
1
 74
1
 75
0
 76
0
 77
0
 78
0
  0
ENDTAB
  0
TABLE
  2
LTYPE
  5
5
100
AcDbSymbolTable
 70
6
  0
LTYPE
  5
14
100
AcDbSymbolTableRecord
100
AcDbLinetypeTableRecord
  2
BYBLOCK
 70
0
  3

 72
65
 73
0
 40
0.0
  0
LTYPE
  5
15
100
AcDbSymbolTableRecord
100
AcDbLinetypeTableRecord
  2
BYLAYER
 70
0
  3

 72
65
 73
0
 40
0.0
  0
LTYPE
  5
16
100
AcDbSymbolTableRecord
100
AcDbLinetypeTableRecord
  2
CONTINUOUS
 70
64
  3
Solid line
 72
65
 73
0
 40
0.0
  0
LTYPE
  5
1F5
100
AcDbSymbolTableRecord
100
AcDbLinetypeTableRecord
  2
CENTER
 70
64
  3
____ _ ____ _ ____ _ ____ _ ____ _ ____ _ ____
 72
65
 73
4
 40
0.6
 49
0.375
 74
0
 49
-0.075
 74
0
 49
0.075
 74
0
 49
-0.075
 74
0
  0
LTYPE
  5
1F6
100
AcDbSymbolTableRecord
100
AcDbLinetypeTableRecord
  2
HIDDEN
 70
64
  3
- - - - - - - - - - - - - - - - - - - -
 72
65
 73
2
 40
0.2
 49
0.1
 74
0
 49
-0.1
 74
0
  0
LTYPE
  5
1F7
100
AcDbSymbolTableRecord
100
AcDbLinetypeTableRecord
  2
PHANTOM
 70
64
  3
_____ _ _ _____ _ _ _____ _ _ _____
 72
65
 73
6
 40
0.8
 49
0.45
 74
0
 49
-0.05
 74
0
 49
0.1
 74
0
 49
-0.05
 74
0
 49
0.1
 74
0
 49
-0.05
 74
0
  0
LTYPE
  5
1F8
100
AcDbSymbolTableRecord
100
AcDbLinetypeTableRecord
  2
DOT
 70
64
  3
. . . . . . . . . . . . . . . . . . . .
 72
65
 73
2
 40
0.2
 49
0.1
 74
0
 49
-0.1
 74
0
  0
LTYPE
  5
1F9
100
AcDbSymbolTableRecord
100
AcDbLinetypeTableRecord
  2
DASHED
 70
64
  3
- - - - - - - - - - - - - - - - - - - -
 72
65
 73
2
 40
0.2
 49
0.1
 74
0
 49
-0.1
 74
0
  0
ENDTAB
  0
TABLE
  2
LAYER
  5
2
100
AcDbSymbolTable
 70
36
  0
LAYER
  5
10
100
AcDbSymbolTableRecord
100
AcDbLayerTableRecord
  2
0
 70
0
 62
7
  6
CONTINUOUS
370
-3
390
F
  0
LAYER
  5
1FA
100
AcDbSymbolTableRecord
100
AcDbLayerTableRecord
  2
DEFAULT_1
 70
0
 62
7
  6
CENTER
370
-3
390
F
  0
LAYER
  5
1FB
100
AcDbSymbolTableRecord
100
AcDbLayerTableRecord
  2
DEFAULT_2
 70
0
 62
8
  6
HIDDEN
370
-3
390
F
  0
LAYER
  5
1FC
100
AcDbSymbolTableRecord
100
AcDbLayerTableRecord
  2
DEFAULT_3
 70
0
 62
7
  6
PHANTOM
370
-3
390
F
  0
LAYER
  5
1FD
100
AcDbSymbolTableRecord
100
AcDbLayerTableRecord
  2
01_ALL_DTM_PLN
 70
0
 62
7
  6
CONTINUOUS
370
-3
390
F
  0
LAYER
  5
1FE
100
AcDbSymbolTableRecord
100
AcDbLayerTableRecord
  2
01__ASM_ALL_DTM_PLN
 70
0
 62
7
  6
CONTINUOUS
370
-3
390
F
  0
LAYER
  5
1FF
100
AcDbSymbolTableRecord
100
AcDbLayerTableRecord
  2
01__ASM_DEF_DTM_PLN
 70
0
 62
7
  6
CONTINUOUS
370
-3
390
F
  0
LAYER
  5
200
100
AcDbSymbolTableRecord
100
AcDbLayerTableRecord
  2
01___PRT_ALL_DTM_PLN
 70
0
 62
7
  6
CONTINUOUS
370
-3
390
F
  0
LAYER
  5
201
100
AcDbSymbolTableRecord
100
AcDbLayerTableRecord
  2
01___PRT_DEF_DTM_PLN
 70
0
 62
7
  6
CONTINUOUS
370
-3
390
F
  0
LAYER
  5
202
100
AcDbSymbolTableRecord
100
AcDbLayerTableRecord
  2
02_ALL_AXES
 70
0
 62
7
  6
CONTINUOUS
370
-3
390
F
  0
LAYER
  5
203
100
AcDbSymbolTableRecord
100
AcDbLayerTableRecord
  2
02__ASM_ALL_AXES
 70
0
 62
7
  6
CONTINUOUS
370
-3
390
F
  0
LAYER
  5
204
100
AcDbSymbolTableRecord
100
AcDbLayerTableRecord
  2
02___PRT_ALL_AXES
 70
0
 62
7
  6
CONTINUOUS
370
-3
390
F
  0
LAYER
  5
205
100
AcDbSymbolTableRecord
100
AcDbLayerTableRecord
  2
03_ALL_CURVES
 70
0
 62
7
  6
CONTINUOUS
370
-3
390
F
  0
LAYER
  5
206
100
AcDbSymbolTableRecord
100
AcDbLayerTableRecord
  2
03__ASM_ALL_CURVES
 70
0
 62
7
  6
CONTINUOUS
370
-3
390
F
  0
LAYER
  5
207
100
AcDbSymbolTableRecord
100
AcDbLayerTableRecord
  2
03___PRT_ALL_CURVES
 70
0
 62
7
  6
CONTINUOUS
370
-3
390
F
  0
LAYER
  5
208
100
AcDbSymbolTableRecord
100
AcDbLayerTableRecord
  2
04_ALL_DTM_PNT
 70
0
 62
7
  6
CONTINUOUS
370
-3
390
F
  0
LAYER
  5
209
100
AcDbSymbolTableRecord
100
AcDbLayerTableRecord
  2
04__ASM_ALL_DTM_PNT
 70
0
 62
7
  6
CONTINUOUS
370
-3
390
F
  0
LAYER
  5
20A
100
AcDbSymbolTableRecord
100
AcDbLayerTableRecord
  2
04___PRT_ALL_DTM_PNT
 70
0
 62
7
  6
CONTINUOUS
370
-3
390
F
  0
LAYER
  5
20B
100
AcDbSymbolTableRecord
100
AcDbLayerTableRecord
  2
05_ALL_DTM_CSYS
 70
0
 62
7
  6
CONTINUOUS
370
-3
390
F
  0
LAYER
  5
20C
100
AcDbSymbolTableRecord
100
AcDbLayerTableRecord
  2
05__ASM_ALL_DTM_CSYS
 70
0
 62
7
  6
CONTINUOUS
370
-3
390
F
  0
LAYER
  5
20D
100
AcDbSymbolTableRecord
100
AcDbLayerTableRecord
  2
05__ASM_DEF_DTM_CSYS
 70
0
 62
7
  6
CONTINUOUS
370
-3
390
F
  0
LAYER
  5
20E
100
AcDbSymbolTableRecord
100
AcDbLayerTableRecord
  2
05___PRT_ALL_DTM_CSYS
 70
0
 62
7
  6
CONTINUOUS
370
-3
390
F
  0
LAYER
  5
20F
100
AcDbSymbolTableRecord
100
AcDbLayerTableRecord
  2
05___PRT_DEF_DTM_CSYS
 70
0
 62
7
  6
CONTINUOUS
370
-3
390
F
  0
LAYER
  5
210
100
AcDbSymbolTableRecord
100
AcDbLayerTableRecord
  2
06_ALL_SURFS
 70
0
 62
7
  6
CONTINUOUS
370
-3
390
F
  0
LAYER
  5
211
100
AcDbSymbolTableRecord
100
AcDbLayerTableRecord
  2
06__ASM_ALL_SURFS
 70
0
 62
7
  6
CONTINUOUS
370
-3
390
F
  0
LAYER
  5
212
100
AcDbSymbolTableRecord
100
AcDbLayerTableRecord
  2
06___PRT_ALL_SURFS
 70
0
 62
7
  6
CONTINUOUS
370
-3
390
F
  0
LAYER
  5
213
100
AcDbSymbolTableRecord
100
AcDbLayerTableRecord
  2
07__ASM_ALL_SKELETONS
 70
0
 62
7
  6
CONTINUOUS
370
-3
390
F
  0
ENDTAB
  0
TABLE
  2
STYLE
  5
3
100
AcDbSymbolTable
 70
1
  0
STYLE
  5
11
100
AcDbSymbolTableRecord
100
AcDbTextStyleTableRecord
  2
STANDARD
 70
0
 40
0.0
 41
0.8
 50
0.0
 71
0
 42
0.2
  3
txt
  4

  0
STYLE
  5
214
100
AcDbSymbolTableRecord
100
AcDbTextStyleTableRecord
  2
TEXTSTYLE_1
 70
0
 40
0.0
 41
0.8
 50
0.0
 71
0
 42
0.2
  3
gdt
  4

  0
ENDTAB
  0
TABLE
  2
VIEW
  5
6
100
AcDbSymbolTable
 70
0
  0
ENDTAB
  0
TABLE
  2
UCS
  5
7
100
AcDbSymbolTable
 70
0
  0
ENDTAB
  0
TABLE
  2
APPID
  5
9
100
AcDbSymbolTable
 70
1
  0
APPID
  5
215
100
AcDbSymbolTableRecord
100
AcDbRegAppTableRecord
  2
ACAD
 70
0
  0
ENDTAB
  0
TABLE
  2
BLOCK_RECORD
  5
1
100
AcDbSymbolTable
 70
0
  0
BLOCK_RECORD
  5
216
100
AcDbSymbolTableRecord
100
AcDbBlockTableRecord
  2
*Model_Space
  0
BLOCK_RECORD
  5
217
100
AcDbSymbolTableRecord
100
AcDbBlockTableRecord
  2
*Paper_Space
  0
BLOCK_RECORD
  5
218
100
AcDbSymbolTableRecord
100
AcDbBlockTableRecord
  2
_CLOSED
  0
ENDTAB
  0
TABLE
  2
DIMSTYLE
  5
A
100
AcDbSymbolTable
 70
1
100
AcDbDimStyleTable
 71
0
  0
DIMSTYLE
105
219
100
AcDbSymbolTableRecord
100
AcDbDimStyleTableRecord
  2
STANDARD
 70
0
  3

  4

 40
1.0
 41
0.1875
 42
0.0625
 43
0.38
 44
0.125
 45
0.0
 46
0.0
 47
0.01
 48
0.01
140
0.15625
141
0.09
142
0.0
143
25.4
144
1.0
145
0.0
146
1.0
147
0.625
 71
0.0
 72
0.0
 73
1
 74
1
 75
0
 76
0
 77
0
 78
8
 79
2
170
0
171
1
172
0
173
0
174
0
175
0
176
0
177
0
178
0
270
2
179
2
271
2
272
2
273
2
274
2
275
0
280
0
281
0
282
0
283
1
284
8
285
0
286
0
287
3
288
0
340
11
278
46
341
218
342
218
343
218
344
218
  0
ENDTAB
  0
ENDSEC
  0
SECTION
  2
BLOCKS
  0
BLOCK
  5
20
100
AcDbEntity
  8
0
100
AcDbBlockBegin
  2
*Model_Space
 70
0
 10
0.0
 20
0.0
 30
0.0
  3
*Model_Space
  1

  0
ENDBLK
  5
21
100
AcDbEntity
  8
0
100
AcDbBlockEnd
  0
BLOCK
  5
1C
100
AcDbEntity
  8
0
100
AcDbBlockBegin
  2
*Paper_Space
 70
0
 10
0.0
 20
0.0
 30
0.0
  3
*Paper_Space
  1

  0
ENDBLK
  5
1D
100
AcDbEntity
  8
0
100
AcDbBlockEnd
  0
BLOCK
  5
21A
100
AcDbEntity
  8
0
100
AcDbBlockBegin
  2
_CLOSED
 70
64
 10
0.0
 20
0.0
  3
_CLOSED
  1

  0
LINE
  5
21B
100
AcDbEntity
  8
0
  6
BYBLOCK
 62
0
100
AcDbLine
 10
0.0
 20
0.0
 11
-1.0
 21
0.1666666667
  0
LINE
  5
21C
100
AcDbEntity
  8
0
  6
BYBLOCK
 62
0
100
AcDbLine
 10
-1.0
 20
0.1666666667
 11
-1.0
 21
-0.1666666667
  0
LINE
  5
21D
100
AcDbEntity
  8
0
  6
BYBLOCK
 62
0
100
AcDbLine
 10
-1.0
 20
-0.1666666667
 11
0.0
 21
0.0
  0
LINE
  5
21E
100
AcDbEntity
  8
0
  6
BYBLOCK
 62
0
100
AcDbLine
 10
-1.0
 20
0.0
 11
0.0
 21
0.0
  0
ENDBLK
  5
21F
100
AcDbEntity
  8
0
  6
BYBLOCK
 62
0
100
AcDbBlockEnd
  0
ENDSEC
  0
SECTION
  2
ENTITIES
  0
LINE
  5
220
100
AcDbEntity
  8
0
100
AcDbLine
 62
7
  6
CONTINUOUS
 10
21.0756218992
 20
185.4460563799
 11
73.5490382982
 21
199.5118433405
  0
LINE
  5
221
100
AcDbEntity
  8
0
100
AcDbLine
 62
7
  6
CONTINUOUS
 10
36.754826705
 20
194.2201447457
 11
62.3481320523
 21
201.080570564
  0
LINE
  5
222
100
AcDbEntity
  8
0
100
AcDbLine
 62
7
  6
CONTINUOUS
 10
31.8068482826
 20
193.226725709
 11
35.9390798298
 21
194.3343930309
  0
LINE
  5
223
100
AcDbEntity
  8
0
100
AcDbLine
 62
7
  6
CONTINUOUS
 10
24.8276200308
 20
194.2661442642
 11
21.0756218992
 21
193.260400594
  0
LWPOLYLINE
  5
224
100
AcDbEntity
  8
0
100
AcDbPolyline
 62
7
  6
CONTINUOUS
 90
4
 70
0
 10
42.0954198235
 20
290.3833020107
 10
42.012912576
 20
290.3527742499
 10
41.1178594209
 20
289.3812492325
 10
40.6531964524
 20
288.0333472565
  0
LINE
  5
225
100
AcDbEntity
  8
0
100
AcDbLine
 62
7
  6
CONTINUOUS
 10
50.352556182
 20
204.5121468507
 11
57.5813402388
 21
206.4498620502
  0
LINE
  5
226
100
AcDbEntity
  8
0
100
AcDbLine
 62
7
  6
CONTINUOUS
 10
24.6027585335
 20
203.603147911
 11
30.8011058542
 21
205.2646488939
  0
LINE
  5
227
100
AcDbEntity
  8
0
100
AcDbLine
 62
7
  6
CONTINUOUS
 10
-25.7217994883
 20
249.3025354161
 11
-0.1666486383
 21
261.3309072549
  0
LINE
  5
228
100
AcDbEntity
  8
0
100
AcDbLine
 62
7
  6
CONTINUOUS
 10
22.7262319625
 20
259.4674091591
 11
22.8794129491
 21
259.5231823002
  0
LINE
  5
229
100
AcDbEntity
  8
0
100
AcDbLine
 62
7
  6
CONTINUOUS
 10
22.8989467939
 20
259.5302945659
 11
23.9440271745
 21
259.9108079494
  0
LINE
  5
22A
100
AcDbEntity
  8
0
100
AcDbLine
 62
7
  6
CONTINUOUS
 10
5.1678553973
 20
214.3834551502
 11
5.4157892902
 21
214.4499151895
  0
LINE
  5
22B
100
AcDbEntity
  8
0
100
AcDbLine
 62
7
  6
CONTINUOUS
 10
32.17588899
 20
196.8059359758
 11
32.1573129606
 21
196.8053780298
  0
LWPOLYLINE
  5
22C
100
AcDbEntity
  8
0
100
AcDbPolyline
 62
7
  6
CONTINUOUS
 90
4
 70
0
 10
39.4403312771
 20
277.9142415998
 10
38.065543382
 20
277.1496953816
 10
37.2991107614
 20
275.8169757105
 10
37.1161063327
 20
274.500053743
  0
LINE
  5
22D
100
AcDbEntity
  8
0
100
AcDbLine
 62
7
  6
CONTINUOUS
 10
43.0914445326
 20
270.6865714846
 11
43.8359921501
 21
271.0977940548
  0
LINE
  5
22E
100
AcDbEntity
  8
0
100
AcDbLine
 62
7
  6
CONTINUOUS
 10
22.7402919054
 20
259.325244935
 11
22.462894686
 21
259.1975119609
  0
LINE
  5
22F
100
AcDbEntity
  8
0
100
AcDbLine
 62
7
  6
CONTINUOUS
 10
23.5618162601
 20
258.0004232618
 11
23.6833606672
 21
258.0563907608
  0
LINE
  5
230
100
AcDbEntity
  8
0
100
AcDbLine
 62
7
  6
CONTINUOUS
 10
24.0292426811
 20
257.9755976377
 11
24.3066399005
 21
258.1033306118
  0
LINE
  5
231
100
AcDbEntity
  8
0
100
AcDbLine
 62
7
  6
CONTINUOUS
 10
-10.2481769235
 20
240.8636303871
 11
-11.4980431353
 21
240.3220948056
  0
LINE
  5
232
100
AcDbEntity
  8
0
100
AcDbLine
 62
7
  6
CONTINUOUS
 10
-11.2501092425
 20
240.3885548449
 11
-10.2332337226
 21
240.8291414219
  0
LINE
  5
233
100
AcDbEntity
  8
0
100
AcDbLine
 62
7
  6
CONTINUOUS
 10
-2.2315892174
 20
244.2130797843
 11
-3.485820134
 21
243.7006635832
  0
LINE
  5
234
100
AcDbEntity
  8
0
100
AcDbLine
 62
7
  6
CONTINUOUS
 10
-3.2378862412
 20
243.7671236225
 11
-2.2193936372
 21
244.1832289059
  0
LINE
  5
235
100
AcDbEntity
  8
0
100
AcDbLine
 62
7
  6
CONTINUOUS
 10
0.7779468118
 20
245.391550112
 11
1.7971823846
 21
245.796227557
  0
LINE
  5
236
100
AcDbEntity
  8
0
100
AcDbLine
 62
7
  6
CONTINUOUS
 10
1.7863494922
 20
245.8234582633
 11
0.5300129189
 21
245.3250900727
  0
LINE
  5
237
100
AcDbEntity
  8
0
100
AcDbLine
 62
7
  6
CONTINUOUS
 10
0.50484278
 20
217.0767246379
 11
0.7527766728
 21
217.1431846772
  0
LINE
  5
238
100
AcDbEntity
  8
0
100
AcDbLine
 62
7
  6
CONTINUOUS
 10
-4.1581698374
 20
219.7699941255
 11
-3.9102359445
 21
219.8364541649
  0
LINE
  5
239
100
AcDbEntity
  8
0
100
AcDbLine
 62
7
  6
CONTINUOUS
 10
-8.8211824547
 20
222.4632636132
 11
-8.5732485619
 21
222.5297236525
  0
LINE
  5
23A
100
AcDbEntity
  8
0
100
AcDbLine
 62
7
  6
CONTINUOUS
 10
30.4115194256
 20
200.8757809444
 11
31.2060433435
 21
200.8670889047
  0
LINE
  5
23B
100
AcDbEntity
  8
0
100
AcDbLine
 62
7
  6
CONTINUOUS
 10
32.078908613
 20
200.7824140759
 11
33.127124707
 21
200.769091165
  0
LINE
  5
23C
100
AcDbEntity
  8
0
100
AcDbLine
 62
7
  6
CONTINUOUS
 10
32.5205152489
 20
200.9368782833
 11
32.8716701104
 21
200.9240058475
  0
LINE
  5
23D
100
AcDbEntity
  8
0
100
AcDbLine
 62
7
  6
CONTINUOUS
 10
31.4724385481
 20
201.0498586773
 11
32.4085852247
 21
201.0047557238
  0
LINE
  5
23E
100
AcDbEntity
  8
0
100
AcDbLine
 62
7
  6
CONTINUOUS
 10
31.1287071945
 20
199.8709052952
 11
30.3418985747
 21
199.911041799
  0
LINE
  5
23F
100
AcDbEntity
  8
0
100
AcDbLine
 62
7
  6
CONTINUOUS
 10
33.8364882033
 20
199.7327765474
 11
33.049788558
 21
199.7729075556
  0
LINE
  5
240
100
AcDbEntity
  8
0
100
AcDbLine
 62
7
  6
CONTINUOUS
 10
33.127124707
 20
200.769091165
 11
33.9139332155
 21
200.7289546768
  0
LINE
  5
241
100
AcDbEntity
  8
0
100
AcDbLine
 62
7
  6
CONTINUOUS
 10
30.4193443928
 20
200.9072198157
 11
31.2060433435
 21
200.8670889047
  0
LINE
  5
242
100
AcDbEntity
  8
0
100
AcDbLine
 62
7
  6
CONTINUOUS
 10
32.3884251061
 20
201.1545187257
 11
32.7470842219
 21
201.1353448377
  0
LINE
  5
243
100
AcDbEntity
  8
0
100
AcDbLine
 62
7
  6
CONTINUOUS
 10
31.3652387305
 20
201.2066431851
 11
31.6397276641
 21
201.1918330436
  0
LINE
  5
244
100
AcDbEntity
  8
0
100
AcDbLine
 62
7
  6
CONTINUOUS
 10
31.1349497873
 20
196.8279482611
 11
30.5388331186
 21
196.873072273
  0
LINE
  5
245
100
AcDbEntity
  8
0
100
AcDbLine
 62
7
  6
CONTINUOUS
 10
27.4983804187
 20
193.3951822577
 11
29.6737054192
 21
193.090520164
  0
LINE
  5
246
100
AcDbEntity
  8
0
100
AcDbLine
 62
7
  6
CONTINUOUS
 10
36.754826705
 20
194.2201447457
 11
35.9390798298
 21
194.3343930309
  0
LINE
  5
247
100
AcDbEntity
  8
0
100
AcDbLine
 62
7
  6
CONTINUOUS
 10
22.3402823792
 20
199.1611897018
 11
24.5156073797
 21
198.8565276081
  0
LWPOLYLINE
  5
248
100
AcDbEntity
  8
0
100
AcDbPolyline
 62
7
  6
CONTINUOUS
 90
4
 70
0
 10
42.7185783719
 20
270.4626699671
 10
42.4595998164
 20
270.301963469
 10
40.7676606665
 20
268.9134320821
 10
39.6051118907
 20
267.3788902128
  0
LINE
  5
249
100
AcDbEntity
  8
0
100
AcDbLine
 62
7
  6
CONTINUOUS
 10
43.0911422463
 20
270.6863899665
 11
42.7153008016
 21
270.4607027152
  0
LINE
  5
24A
100
AcDbEntity
  8
0
100
AcDbLine
 62
7
  6
CONTINUOUS
 10
58.8808035541
 20
271.5190764922
 11
58.9030644721
 21
271.5321291894
  0
LINE
  5
24B
100
AcDbEntity
  8
0
100
AcDbLine
 62
7
  6
CONTINUOUS
 10
-31.0937004962
 20
226.1922291132
 11
-25.7217994849
 21
227.6321966317
  0
LINE
  5
24C
100
AcDbEntity
  8
0
100
AcDbLine
 62
7
  6
CONTINUOUS
 10
125.4912120111
 20
271.6021748361
 11
125.3502384178
 21
271.5643865896
  0
LINE
  5
24D
100
AcDbEntity
  8
0
100
AcDbLine
 62
7
  6
CONTINUOUS
 10
-11.4980431353
 20
240.3220948056
 11
-11.2501092425
 21
240.3885548449
  0
LINE
  5
24E
100
AcDbEntity
  8
0
100
AcDbLine
 62
7
  6
CONTINUOUS
 10
77.3022548566
 20
196.7353963209
 11
74.9685009279
 21
197.061131107
  0
LINE
  5
24F
100
AcDbEntity
  8
0
100
AcDbLine
 62
7
  6
CONTINUOUS
 10
35.6619331228
 20
201.5114476278
 11
34.8461862476
 21
201.6256959129
  0
LINE
  5
250
100
AcDbEntity
  8
0
100
AcDbLine
 62
7
  6
CONTINUOUS
 10
24.6027585335
 20
203.603147911
 11
23.7870116583
 21
203.7173961961
  0
LINE
  5
251
100
AcDbEntity
  8
0
100
AcDbLine
 62
7
  6
CONTINUOUS
 10
55.4946677706
 20
202.0404228971
 11
76.4321709007
 21
199.1080502453
  0
LINE
  5
252
100
AcDbEntity
  8
0
100
AcDbLine
 62
7
  6
CONTINUOUS
 10
47.6171445245
 20
205.2670439864
 11
48.7824641838
 21
205.103836775
  0
LINE
  5
253
100
AcDbEntity
  8
0
100
AcDbLine
 62
7
  6
CONTINUOUS
 10
51.2635697019
 20
204.7563490195
 11
68.5546476546
 21
202.3346713346
  0
LINE
  5
254
100
AcDbEntity
  8
0
100
AcDbLine
 62
7
  6
CONTINUOUS
 10
63.8312735881
 20
206.1630419353
 11
74.1620630378
 21
204.7161777001
  0
LINE
  5
255
100
AcDbEntity
  8
0
100
AcDbLine
 62
7
  6
CONTINUOUS
 10
60.0702513554
 20
208.276520916
 11
80.065724585
 21
205.4760829414
  0
LINE
  5
256
100
AcDbEntity
  8
0
100
AcDbLine
 62
7
  6
CONTINUOUS
 10
79.9471872038
 20
206.2669119508
 11
59.0096840737
 21
209.1992846025
  0
LINE
  5
257
100
AcDbEntity
  8
0
100
AcDbLine
 62
7
  6
CONTINUOUS
 10
49.1477505951
 20
204.6810115685
 11
50.352556182
 21
204.5121468507
  0
LINE
  5
258
100
AcDbEntity
  8
0
100
AcDbLine
 62
7
  6
CONTINUOUS
 10
32.1324855236
 20
203.9504766981
 11
31.5469082336
 21
204.0708531772
  0
LINE
  5
259
100
AcDbEntity
  8
0
100
AcDbLine
 62
7
  6
CONTINUOUS
 10
32.2618026363
 20
199.5234673905
 11
32.6161042374
 21
199.4481634166
  0
LINE
  5
25A
100
AcDbEntity
  8
0
100
AcDbLine
 62
7
  6
CONTINUOUS
 10
31.3809638424
 20
199.8715660705
 11
32.3049649176
 21
199.6700002055
  0
LINE
  5
25B
100
AcDbEntity
  8
0
100
AcDbLine
 62
7
  6
CONTINUOUS
 10
32.1324833276
 20
203.9504648708
 11
32.2101400888
 21
203.9332323664
  0
LINE
  5
25C
100
AcDbEntity
  8
0
100
AcDbLine
 62
7
  6
CONTINUOUS
 10
32.7027937409
 20
203.8318335724
 11
32.7057372621
 21
203.8311604952
  0
LINE
  5
25D
100
AcDbEntity
  8
0
100
AcDbLine
 62
7
  6
CONTINUOUS
 10
32.4265093247
 20
199.7259677045
 11
32.7723913386
 21
199.6451745815
  0
LINE
  5
25E
100
AcDbEntity
  8
0
100
AcDbLine
 62
7
  6
CONTINUOUS
 10
31.2687840859
 20
199.5636140075
 11
31.5087476796
 21
199.5046516225
  0
LINE
  5
25F
100
AcDbEntity
  8
0
100
AcDbLine
 62
7
  6
CONTINUOUS
 10
32.0218713035
 20
200.0462130876
 11
33.049788558
 21
199.7729075556
  0
LINE
  5
260
100
AcDbEntity
  8
0
100
AcDbLine
 62
7
  6
CONTINUOUS
 10
30.3270366325
 20
200.0921854862
 11
31.1287071945
 21
199.8709052952
  0
LINE
  5
261
100
AcDbEntity
  8
0
100
AcDbLine
 62
7
  6
CONTINUOUS
 10
-33.2786227991
 20
224.5662925161
 11
-33.2786227991
 21
217.4465190459
  0
LINE
  5
262
100
AcDbEntity
  8
0
100
AcDbLine
 62
7
  6
CONTINUOUS
 10
-32.4108543462
 20
216.338851724
 11
-32.4108543462
 21
223.4586251942
  0
LINE
  5
263
100
AcDbEntity
  8
0
100
AcDbLine
 62
7
  6
CONTINUOUS
 10
24.7542068185
 20
260.080756761
 11
24.0039355644
 21
259.465767894
  0
LINE
  5
264
100
AcDbEntity
  8
0
100
AcDbLine
 62
7
  6
CONTINUOUS
 10
22.015327768
 20
257.2200858118
 11
22.7655990221
 21
257.8350746788
  0
LINE
  5
265
100
AcDbEntity
  8
0
100
AcDbLine
 62
7
  6
CONTINUOUS
 10
48.2349233144
 20
261.6633424909
 11
48.1832442121
 21
261.6227221994
  0
LINE
  5
266
100
AcDbEntity
  8
0
100
AcDbLine
 62
7
  6
CONTINUOUS
 10
-3.485820134
 20
243.7006635832
 11
-3.2378862412
 21
243.7671236225
  0
LINE
  5
267
100
AcDbEntity
  8
0
100
AcDbLine
 62
7
  6
CONTINUOUS
 10
0.7779468118
 20
245.391550112
 11
0.5300129189
 21
245.3250900727
  0
LINE
  5
268
100
AcDbEntity
  8
0
100
AcDbLine
 62
7
  6
CONTINUOUS
 10
17.3168013189
 20
252.2118337912
 11
23.5151486395
 21
253.8733347741
  0
LINE
  5
269
100
AcDbEntity
  8
0
100
AcDbLine
 62
7
  6
CONTINUOUS
 10
16.5010544437
 20
252.3260820764
 11
22.6994017644
 21
253.9875830592
  0
LINE
  5
26A
100
AcDbEntity
  8
0
100
AcDbLine
 62
7
  6
CONTINUOUS
 10
-6.2019836831
 20
242.2855071259
 11
-7.4951863767
 21
242.0330933942
  0
LINE
  5
26B
100
AcDbEntity
  8
0
100
AcDbLine
 62
7
  6
CONTINUOUS
 10
70.2427531141
 20
210.4287650808
 11
55.3670603859
 21
212.5121593739
  0
LINE
  5
26C
100
AcDbEntity
  8
0
100
AcDbLine
 62
7
  6
CONTINUOUS
 10
21.0756218992
 20
185.4460563799
 11
-32.4108543462
 21
216.338851724
  0
LINE
  5
26D
100
AcDbEntity
  8
0
100
AcDbLine
 62
7
  6
CONTINUOUS
 10
-32.4108543462
 20
223.4586251942
 11
18.8580921935
 21
193.8466338249
  0
LINE
  5
26E
100
AcDbEntity
  8
0
100
AcDbLine
 62
7
  6
CONTINUOUS
 10
18.3420201754
 20
197.289638207
 11
8.5880627339
 21
202.9233428776
  0
LINE
  5
26F
100
AcDbEntity
  8
0
100
AcDbLine
 62
7
  6
CONTINUOUS
 10
-25.7217994849
 20
227.6321966317
 11
7.7852840391
 21
208.279127472
  0
LINE
  5
270
100
AcDbEntity
  8
0
100
AcDbLine
 62
7
  6
CONTINUOUS
 10
-25.7217994957
 20
249.302535413
 11
-25.7217994849
 21
227.6321966317
  0
LINE
  5
271
100
AcDbEntity
  8
0
100
AcDbLine
 62
7
  6
CONTINUOUS
 10
22.6410131336
 20
258.0464136689
 11
22.015327768
 21
257.2200858118
  0
LINE
  5
272
100
AcDbEntity
  8
0
100
AcDbLine
 62
7
  6
CONTINUOUS
 10
23.9306111568
 20
259.469687811
 11
23.7773665914
 21
259.2673013396
  0
LINE
  5
273
100
AcDbEntity
  8
0
100
AcDbLine
 62
7
  6
CONTINUOUS
 10
24.1285214529
 20
259.2544289038
 11
24.7542068185
 21
260.080756761
  0
LINE
  5
274
100
AcDbEntity
  8
0
100
AcDbLine
 62
7
  6
CONTINUOUS
 10
48.2291235865
 20
261.6657543103
 11
48.1832448087
 21
261.6227228973
  0
LINE
  5
275
100
AcDbEntity
  8
0
100
AcDbLine
 62
7
  6
CONTINUOUS
 10
31.46938062
 20
201.1369861029
 11
31.6225616066
 21
201.1927592439
  0
LINE
  5
276
100
AcDbEntity
  8
0
100
AcDbLine
 62
7
  6
CONTINUOUS
 10
31.6420954514
 20
201.1998715097
 11
32.687175832
 21
201.5803848932
  0
LINE
  5
277
100
AcDbEntity
  8
0
100
AcDbLine
 62
7
  6
CONTINUOUS
 10
47.3495711021
 20
275.9755745849
 11
47.3823957706
 21
275.9845190042
  0
LINE
  5
278
100
AcDbEntity
  8
0
100
AcDbLine
 62
7
  6
CONTINUOUS
 10
33.2639076679
 20
269.1269747455
 11
25.8258908831
 21
267.1331735661
  0
LINE
  5
279
100
AcDbEntity
  8
0
100
AcDbLine
 62
7
  6
CONTINUOUS
 10
25.0101440079
 20
267.2474218512
 11
20.8779124607
 21
266.1397545293
  0
LINE
  5
27A
100
AcDbEntity
  8
0
100
AcDbLine
 62
7
  6
CONTINUOUS
 10
33.6859244237
 20
270.4607822449
 11
18.7025874601
 21
266.444416623
  0
LINE
  5
27B
100
AcDbEntity
  8
0
100
AcDbLine
 62
7
  6
CONTINUOUS
 10
33.7733258435
 20
270.737019308
 11
18.6661576741
 21
266.6874600524
  0
LINE
  5
27C
100
AcDbEntity
  8
0
100
AcDbLine
 62
7
  6
CONTINUOUS
 10
34.7122539252
 20
273.2639818277
 11
18.3382895994
 21
268.874850917
  0
LINE
  5
27D
100
AcDbEntity
  8
0
100
AcDbLine
 62
7
  6
CONTINUOUS
 10
35.1859550086
 20
274.278729887
 11
16.1629645987
 21
269.1795130106
  0
LINE
  5
27E
100
AcDbEntity
  8
0
100
AcDbLine
 62
7
  6
CONTINUOUS
 10
-0.7787039568
 20
265.4142697895
 11
35.6077392869
 21
275.167855409
  0
LINE
  5
27F
100
AcDbEntity
  8
0
100
AcDbLine
 62
7
  6
CONTINUOUS
 10
39.4170992369
 20
277.9081177347
 11
40.2973526741
 21
278.1440744947
  0
LINE
  5
280
100
AcDbEntity
  8
0
100
AcDbLine
 62
7
  6
CONTINUOUS
 10
120.7077311023
 20
265.0768902507
 11
120.8747254207
 21
265.0905746586
  0
LINE
  5
281
100
AcDbEntity
  8
0
100
AcDbLine
 62
7
  6
CONTINUOUS
 10
23.4327403325
 20
255.1363590321
 11
23.4141643031
 21
255.1358010861
  0
LINE
  5
282
100
AcDbEntity
  8
0
100
AcDbLine
 62
7
  6
CONTINUOUS
 10
6.6250468403
 20
213.5418084353
 11
5.1678553973
 21
214.3834551502
  0
LINE
  5
283
100
AcDbEntity
  8
0
100
AcDbLine
 62
7
  6
CONTINUOUS
 10
1.9620342229
 20
216.235077923
 11
0.50484278
 21
217.0767246379
  0
LINE
  5
284
100
AcDbEntity
  8
0
100
AcDbLine
 62
7
  6
CONTINUOUS
 10
-2.7009783944
 20
218.9283474107
 11
-4.1581698374
 21
219.7699941255
  0
LINE
  5
285
100
AcDbEntity
  8
0
100
AcDbLine
 62
7
  6
CONTINUOUS
 10
-7.3639910118
 20
221.6216168983
 11
-8.8211824547
 21
222.4632636132
  0
LINE
  5
286
100
AcDbEntity
  8
0
100
AcDbLine
 62
7
  6
CONTINUOUS
 10
6.5906420391
 20
213.7713420608
 11
5.4157892902
 21
214.4499151895
  0
LINE
  5
287
100
AcDbEntity
  8
0
100
AcDbLine
 62
7
  6
CONTINUOUS
 10
1.9276294217
 20
216.4646115485
 11
0.7527766728
 21
217.1431846772
  0
LINE
  5
288
100
AcDbEntity
  8
0
100
AcDbLine
 62
7
  6
CONTINUOUS
 10
-2.7353831956
 20
219.1578810361
 11
-3.9102359445
 21
219.8364541649
  0
LINE
  5
289
100
AcDbEntity
  8
0
100
AcDbLine
 62
7
  6
CONTINUOUS
 10
-7.398395813
 20
221.8511505238
 11
-8.5732485619
 21
222.5297236525
  0
LINE
  5
28A
100
AcDbEntity
  8
0
100
AcDbLine
 62
7
  6
CONTINUOUS
 10
31.1287071945
 20
199.8709052952
 11
31.3841617911
 21
199.7159906127
  0
LINE
  5
28B
100
AcDbEntity
  8
0
100
AcDbLine
 62
7
  6
CONTINUOUS
 10
32.5205152489
 20
200.9368782833
 11
32.4085852247
 21
201.0047557238
  0
LINE
  5
28C
100
AcDbEntity
  8
0
100
AcDbLine
 62
7
  6
CONTINUOUS
 10
33.127124707
 20
200.769091165
 11
32.8716701104
 21
200.9240058475
  0
LINE
  5
28D
100
AcDbEntity
  8
0
100
AcDbLine
 62
7
  6
CONTINUOUS
 10
31.3643462294
 20
199.784027785
 11
32.4878419575
 21
199.012722278
  0
LINE
  5
28E
100
AcDbEntity
  8
0
100
AcDbLine
 62
7
  6
CONTINUOUS
 10
31.4834405629
 20
200.9948218787
 11
31.2060433435
 21
200.8670889047
  0
LINE
  5
28F
100
AcDbEntity
  8
0
100
AcDbLine
 62
7
  6
CONTINUOUS
 10
32.3049649176
 20
199.6700002055
 11
32.4265093247
 21
199.7259677045
  0
LINE
  5
290
100
AcDbEntity
  8
0
100
AcDbLine
 62
7
  6
CONTINUOUS
 10
32.7723913386
 20
199.6451745815
 11
33.049788558
 21
199.7729075556
  0
LINE
  5
291
100
AcDbEntity
  8
0
100
AcDbLine
 62
7
  6
CONTINUOUS
 10
59.5195537316
 20
300.3353698615
 11
59.5351197091
 21
300.3397449153
  0
LINE
  5
292
100
AcDbEntity
  8
0
100
AcDbLine
 62
7
  6
CONTINUOUS
 10
59.5195537316
 20
300.3353698615
 11
59.5352416111
 21
300.339677638
  0
LINE
  5
293
100
AcDbEntity
  8
0
100
AcDbLine
 62
7
  6
CONTINUOUS
 10
22.6751503142
 20
273.6675547561
 11
36.4006903175
 21
276.3456536066
  0
LWPOLYLINE
  5
294
100
AcDbEntity
  8
0
100
AcDbPolyline
 62
7
  6
CONTINUOUS
 90
4
 70
0
 10
22.6751503142
 20
273.6675547561
 10
15.1368540097
 20
272.2364983583
 10
7.4333887628
 20
270.8582039585
 10
0.5598312163
 20
269.7030678747
  0
LINE
  5
295
100
AcDbEntity
  8
0
100
AcDbLine
 62
7
  6
CONTINUOUS
 10
41.0877119602
 20
278.2864794527
 11
40.2973182621
 21
278.1440652704
  0
LINE
  5
296
100
AcDbEntity
  8
0
100
AcDbLine
 62
7
  6
CONTINUOUS
 10
-8.3661653582
 20
266.7066618375
 11
7.4857592697
 21
267.6296044793
  0
LINE
  5
297
100
AcDbEntity
  8
0
100
AcDbLine
 62
7
  6
CONTINUOUS
 10
21.6683707681
 20
259.2062040006
 11
22.462894686
 21
259.1975119609
  0
LINE
  5
298
100
AcDbEntity
  8
0
100
AcDbLine
 62
7
  6
CONTINUOUS
 10
23.3357599555
 20
259.1128371322
 11
24.3839760495
 21
259.0995142213
  0
LINE
  5
299
100
AcDbEntity
  8
0
100
AcDbLine
 62
7
  6
CONTINUOUS
 10
23.7773665914
 20
259.2673013396
 11
24.1285214529
 21
259.2544289038
  0
LINE
  5
29A
100
AcDbEntity
  8
0
100
AcDbLine
 62
7
  6
CONTINUOUS
 10
22.7292898906
 20
259.3802817336
 11
23.6654365672
 21
259.33517878
  0
LINE
  5
29B
100
AcDbEntity
  8
0
100
AcDbLine
 62
7
  6
CONTINUOUS
 10
22.385558537
 20
258.2013283514
 11
21.5987499172
 21
258.2414648552
  0
LINE
  5
29C
100
AcDbEntity
  8
0
100
AcDbLine
 62
7
  6
CONTINUOUS
 10
25.0933395458
 20
258.0631996036
 11
24.3066399005
 21
258.1033306118
  0
LINE
  5
29D
100
AcDbEntity
  8
0
100
AcDbLine
 62
7
  6
CONTINUOUS
 10
24.3839760495
 20
259.0995142213
 11
25.170784558
 21
259.059377733
  0
LINE
  5
29E
100
AcDbEntity
  8
0
100
AcDbLine
 62
7
  6
CONTINUOUS
 10
21.6761957353
 20
259.2376428719
 11
22.462894686
 21
259.1975119609
  0
LINE
  5
29F
100
AcDbEntity
  8
0
100
AcDbLine
 62
7
  6
CONTINUOUS
 10
23.6452764486
 20
259.484941782
 11
24.0039355644
 21
259.465767894
  0
LINE
  5
2A0
100
AcDbEntity
  8
0
100
AcDbLine
 62
7
  6
CONTINUOUS
 10
22.622090073
 20
259.5370662413
 11
22.8965790066
 21
259.5222560999
  0
LINE
  5
2A1
100
AcDbEntity
  8
0
100
AcDbLine
 62
7
  6
CONTINUOUS
 10
22.3918011298
 20
255.1583713173
 11
21.7956844611
 21
255.2034953292
  0
LINE
  5
2A2
100
AcDbEntity
  8
0
100
AcDbLine
 62
7
  6
CONTINUOUS
 10
17.3168013189
 20
252.2118337912
 11
16.5010544437
 21
252.3260820764
  0
LINE
  5
2A3
100
AcDbEntity
  8
0
100
AcDbLine
 62
7
  6
CONTINUOUS
 10
23.5151486396
 20
253.8733347741
 11
22.6994017644
 21
253.9875830592
  0
LINE
  5
2A4
100
AcDbEntity
  8
0
100
AcDbLine
 62
7
  6
CONTINUOUS
 10
30.5689273049
 20
252.9751516583
 11
42.5136596246
 21
251.3022489167
  0
LINE
  5
2A5
100
AcDbEntity
  8
0
100
AcDbLine
 62
7
  6
CONTINUOUS
 10
11.5310179481
 20
256.9377790971
 11
9.3556929476
 21
257.2424411908
  0
LINE
  5
2A6
100
AcDbEntity
  8
0
100
AcDbLine
 62
7
  6
CONTINUOUS
 10
15.7724587222
 20
257.1869506644
 11
13.5971337217
 21
257.4916127581
  0
LINE
  5
2A7
100
AcDbEntity
  8
0
100
AcDbLine
 62
7
  6
CONTINUOUS
 10
-21.3278738627
 20
255.7927770361
 11
-22.052880982
 21
256.2115276837
  0
LINE
  5
2A8
100
AcDbEntity
  8
0
100
AcDbLine
 62
7
  6
CONTINUOUS
 10
-11.4980431353
 20
240.3220948056
 11
-8.8211824547
 21
222.4632636132
  0
LINE
  5
2A9
100
AcDbEntity
  8
0
100
AcDbLine
 62
7
  6
CONTINUOUS
 10
-8.5732485619
 20
222.5297236525
 11
-11.2501092425
 21
240.3885548449
  0
LINE
  5
2AA
100
AcDbEntity
  8
0
100
AcDbLine
 62
7
  6
CONTINUOUS
 10
-7.3639910118
 20
221.6216168983
 11
-10.2481769235
 21
240.8636303871
  0
LINE
  5
2AB
100
AcDbEntity
  8
0
100
AcDbLine
 62
7
  6
CONTINUOUS
 10
-7.4951863767
 20
242.0330933942
 11
-4.1581698374
 21
219.7699941255
  0
LINE
  5
2AC
100
AcDbEntity
  8
0
100
AcDbLine
 62
7
  6
CONTINUOUS
 10
-3.9102359445
 20
219.8364541649
 11
-7.2472524838
 21
242.0995534336
  0
LINE
  5
2AD
100
AcDbEntity
  8
0
100
AcDbLine
 62
7
  6
CONTINUOUS
 10
-2.7009783944
 20
218.9283474107
 11
-6.2019836831
 21
242.2855071259
  0
LINE
  5
2AE
100
AcDbEntity
  8
0
100
AcDbLine
 62
7
  6
CONTINUOUS
 10
23.0248412865
 20
259.9576972384
 11
22.8965790066
 21
259.5222560999
  0
LINE
  5
2AF
100
AcDbEntity
  8
0
100
AcDbLine
 62
7
  6
CONTINUOUS
 10
23.5186539787
 20
257.8538904468
 11
23.5618162601
 21
258.0004232618
  0
LINE
  5
2B0
100
AcDbEntity
  8
0
100
AcDbLine
 62
7
  6
CONTINUOUS
 10
23.7446933
 20
257.3431453343
 11
23.8729555799
 21
257.7785864729
  0
LINE
  5
2B1
100
AcDbEntity
  8
0
100
AcDbLine
 62
7
  6
CONTINUOUS
 10
40.8565513147
 20
287.9652923248
 11
40.8495973243
 21
287.9445330812
  0
LINE
  5
2B2
100
AcDbEntity
  8
0
100
AcDbLine
 62
7
  6
CONTINUOUS
 10
40.7650425518
 20
288.0019212057
 11
40.7575575538
 21
287.9813243822
  0
LINE
  5
2B3
100
AcDbEntity
  8
0
100
AcDbLine
 62
7
  6
CONTINUOUS
 10
78.1825022597
 20
255.7144038269
 11
78.1586178126
 21
255.6916218538
  0
LINE
  5
2B4
100
AcDbEntity
  8
0
100
AcDbLine
 62
7
  6
CONTINUOUS
 10
78.1832961876
 20
255.7141884899
 11
78.1586178126
 21
255.6916218538
  0
LINE
  5
2B5
100
AcDbEntity
  8
0
100
AcDbLine
 62
7
  6
CONTINUOUS
 10
33.497355476
 20
201.7503337047
 11
32.7470842219
 21
201.1353448377
  0
LINE
  5
2B6
100
AcDbEntity
  8
0
100
AcDbLine
 62
7
  6
CONTINUOUS
 10
30.7584764255
 20
198.8896627555
 11
31.5087476796
 21
199.5046516225
  0
LWPOLYLINE
  5
2B7
100
AcDbEntity
  8
0
100
AcDbPolyline
 62
7
  6
CONTINUOUS
 90
6
 70
0
 10
38.9788182126
 20
284.6015763884
 10
38.9242121136
 20
284.5943542811
 10
38.7658642906
 20
284.5391140863
 10
38.6252876941
 20
284.4308683502
 10
38.5325076479
 20
284.2934674221
 10
38.4859212012
 20
284.1345650733
  0
LINE
  5
2B8
100
AcDbEntity
  8
0
100
AcDbLine
 62
7
  6
CONTINUOUS
 10
41.030378168
 20
281.8291462028
 11
41.0693514918
 21
281.832651545
  0
LINE
  5
2B9
100
AcDbEntity
  8
0
100
AcDbLine
 62
7
  6
CONTINUOUS
 10
40.0259495572
 20
284.6873869132
 11
38.9786999233
 21
284.6015670386
  0
LINE
  5
2BA
100
AcDbEntity
  8
0
100
AcDbLine
 62
7
  6
CONTINUOUS
 10
110.1090717115
 20
259.7822799542
 11
110.2766633837
 21
259.7697771963
  0
LINE
  5
2BB
100
AcDbEntity
  8
0
100
AcDbLine
 62
7
  6
CONTINUOUS
 10
26.1030375901
 20
259.9561189688
 11
26.9187844655
 21
259.841870682
  0
LINE
  5
2BC
100
AcDbEntity
  8
0
100
AcDbLine
 62
7
  6
CONTINUOUS
 10
-0.7787039568
 20
265.4142697895
 11
10.3273473533
 21
263.8588273412
  0
LINE
  5
2BD
100
AcDbEntity
  8
0
100
AcDbLine
 62
7
  6
CONTINUOUS
 10
18.7025874602
 20
266.444416623
 11
20.8779124607
 21
266.1397545293
  0
LINE
  5
2BE
100
AcDbEntity
  8
0
100
AcDbLine
 62
7
  6
CONTINUOUS
 10
25.8258908831
 20
267.1331735661
 11
25.0101440079
 21
267.2474218512
  0
LINE
  5
2BF
100
AcDbEntity
  8
0
100
AcDbLine
 62
7
  6
CONTINUOUS
 10
16.1629645989
 20
269.1795130107
 11
18.3382895994
 21
268.874850917
  0
LINE
  5
2C0
100
AcDbEntity
  8
0
100
AcDbLine
 62
7
  6
CONTINUOUS
 10
33.4129963872
 20
268.132320713
 11
39.5744948052
 21
267.2693806889
  0
LINE
  5
2C1
100
AcDbEntity
  8
0
100
AcDbLine
 62
7
  6
CONTINUOUS
 10
23.3893368661
 20
262.2808997544
 11
22.8037595761
 21
262.4012762334
  0
LINE
  5
2C2
100
AcDbEntity
  8
0
100
AcDbLine
 62
7
  6
CONTINUOUS
 10
23.5186539787
 20
257.8538904468
 11
23.8729555799
 21
257.7785864729
  0
LINE
  5
2C3
100
AcDbEntity
  8
0
100
AcDbLine
 62
7
  6
CONTINUOUS
 10
22.6378151849
 20
258.2019891267
 11
23.5618162601
 21
258.0004232618
  0
LINE
  5
2C4
100
AcDbEntity
  8
0
100
AcDbLine
 62
7
  6
CONTINUOUS
 10
23.3893346701
 20
262.2808879271
 11
23.4669914313
 21
262.2636554226
  0
LINE
  5
2C5
100
AcDbEntity
  8
0
100
AcDbLine
 62
7
  6
CONTINUOUS
 10
23.9596450834
 20
262.1622566286
 11
23.9625886046
 21
262.1615835515
  0
LINE
  5
2C6
100
AcDbEntity
  8
0
100
AcDbLine
 62
7
  6
CONTINUOUS
 10
23.6833606672
 20
258.0563907608
 11
24.0292426811
 21
257.9755976377
  0
LINE
  5
2C7
100
AcDbEntity
  8
0
100
AcDbLine
 62
7
  6
CONTINUOUS
 10
22.5256354284
 20
257.8940370638
 11
22.7655990221
 21
257.8350746788
  0
LINE
  5
2C8
100
AcDbEntity
  8
0
100
AcDbLine
 62
7
  6
CONTINUOUS
 10
23.278722646
 20
258.3766361439
 11
24.3066399005
 21
258.1033306118
  0
LINE
  5
2C9
100
AcDbEntity
  8
0
100
AcDbLine
 62
7
  6
CONTINUOUS
 10
21.5838879749
 20
258.4226085425
 11
22.385558537
 21
258.2013283514
  0
LINE
  5
2CA
100
AcDbEntity
  8
0
100
AcDbLine
 62
7
  6
CONTINUOUS
 10
-20.7743193264
 20
259.0176890687
 11
-19.3319335879
 21
258.1845938537
  0
LINE
  5
2CB
100
AcDbEntity
  8
0
100
AcDbLine
 62
7
  6
CONTINUOUS
 10
32.6161042374
 20
199.4481634166
 11
33.2653470291
 21
198.7617828763
  0
LINE
  5
2CC
100
AcDbEntity
  8
0
100
AcDbLine
 62
7
  6
CONTINUOUS
 10
31.6397276641
 20
201.1918330436
 11
30.9904848725
 21
201.8782135839
  0
LINE
  5
2CD
100
AcDbEntity
  8
0
100
AcDbLine
 62
7
  6
CONTINUOUS
 10
31.3754202492
 20
199.554261939
 11
31.3907776888
 21
199.5336384863
  0
LINE
  5
2CE
100
AcDbEntity
  8
0
100
AcDbLine
 62
7
  6
CONTINUOUS
 10
31.3754202492
 20
199.554261939
 11
31.3906749825
 21
199.5333980985
  0
LINE
  5
2CF
100
AcDbEntity
  8
0
100
AcDbLine
 62
7
  6
CONTINUOUS
 10
-3.485820134
 20
243.7006635832
 11
0.50484278
 21
217.0767246379
  0
LINE
  5
2D0
100
AcDbEntity
  8
0
100
AcDbLine
 62
7
  6
CONTINUOUS
 10
0.7527766728
 20
217.1431846772
 11
-3.2378862412
 21
243.7671236225
  0
LINE
  5
2D1
100
AcDbEntity
  8
0
100
AcDbLine
 62
7
  6
CONTINUOUS
 10
1.9620342229
 20
216.235077923
 11
-2.2315892174
 21
244.2130797843
  0
LINE
  5
2D2
100
AcDbEntity
  8
0
100
AcDbLine
 62
7
  6
CONTINUOUS
 10
0.5300129189
 20
245.3250900727
 11
5.1678553973
 21
214.3834551502
  0
LINE
  5
2D3
100
AcDbEntity
  8
0
100
AcDbLine
 62
7
  6
CONTINUOUS
 10
5.4157892902
 20
214.4499151895
 11
0.7779468118
 21
245.391550112
  0
LINE
  5
2D4
100
AcDbEntity
  8
0
100
AcDbLine
 62
7
  6
CONTINUOUS
 10
6.6250468403
 20
213.5418084353
 11
1.7863494922
 21
245.8234582633
  0
LINE
  5
2D5
100
AcDbEntity
  8
0
100
AcDbLine
 62
7
  6
CONTINUOUS
 10
-0.7787039568
 20
265.4142697895
 11
8.5880627339
 21
202.9233428776
  0
LINE
  5
2D6
100
AcDbEntity
  8
0
100
AcDbLine
 62
7
  6
CONTINUOUS
 10
21.0756218992
 20
193.260400594
 11
21.0756218992
 21
185.4460563799
  0
LINE
  5
2D7
100
AcDbEntity
  8
0
100
AcDbLine
 62
7
  6
CONTINUOUS
 10
23.1744215241
 20
261.8844725305
 11
23.0248412865
 21
259.9576972384
  0
LINE
  5
2D8
100
AcDbEntity
  8
0
100
AcDbLine
 62
7
  6
CONTINUOUS
 10
22.825507412
 20
257.3900346233
 11
22.6759271744
 21
255.4632593313
  0
LINE
  5
2D9
100
AcDbEntity
  8
0
100
AcDbLine
 62
7
  6
CONTINUOUS
 10
23.4669914313
 20
262.2636554226
 11
23.3019224848
 21
260.1373667312
  0
LINE
  5
2DA
100
AcDbEntity
  8
0
100
AcDbLine
 62
7
  6
CONTINUOUS
 10
23.0816029894
 20
257.2993838087
 11
22.9165340428
 21
255.1730951173
  0
LINE
  5
2DB
100
AcDbEntity
  8
0
100
AcDbLine
 62
7
  6
CONTINUOUS
 10
23.5951130624
 20
255.4163700423
 11
23.7446933
 21
257.3431453343
  0
LINE
  5
2DC
100
AcDbEntity
  8
0
100
AcDbLine
 62
7
  6
CONTINUOUS
 10
23.9440271745
 20
259.9108079494
 11
24.0936074121
 21
261.8375832414
  0
LINE
  5
2DD
100
AcDbEntity
  8
0
100
AcDbLine
 62
7
  6
CONTINUOUS
 10
40.6539983036
 20
288.0377989624
 11
40.6314803874
 21
287.9116862166
  0
LINE
  5
2DE
100
AcDbEntity
  8
0
100
AcDbLine
 62
7
  6
CONTINUOUS
 10
48.2150192417
 20
261.6886654161
 11
48.1832441464
 21
261.6227220075
  0
LINE
  5
2DF
100
AcDbEntity
  8
0
100
AcDbLine
 62
7
  6
CONTINUOUS
 10
31.3841617911
 20
199.7159906127
 11
30.7584764255
 21
198.8896627555
  0
LINE
  5
2E0
100
AcDbEntity
  8
0
100
AcDbLine
 62
7
  6
CONTINUOUS
 10
32.6737598143
 20
201.1392647547
 11
32.5205152489
 21
200.9368782833
  0
LINE
  5
2E1
100
AcDbEntity
  8
0
100
AcDbLine
 62
7
  6
CONTINUOUS
 10
32.8716701104
 20
200.9240058475
 11
33.497355476
 21
201.7503337047
  0
LINE
  5
2E2
100
AcDbEntity
  8
0
100
AcDbLine
 62
7
  6
CONTINUOUS
 10
122.2837963552
 20
282.1161865862
 11
122.244380924
 21
282.1188173579
  0
LINE
  5
2E3
100
AcDbEntity
  8
0
100
AcDbLine
 62
7
  6
CONTINUOUS
 10
95.1678100601
 20
256.4866121218
 11
95.3104847734
 21
256.4498256298
  0
LINE
  5
2E4
100
AcDbEntity
  8
0
100
AcDbLine
 62
7
  6
CONTINUOUS
 10
-8.5494687296
 20
266.5969277878
 11
-10.9347479963
 21
267.9746207935
  0
LINE
  5
2E5
100
AcDbEntity
  8
0
100
AcDbLine
 62
7
  6
CONTINUOUS
 10
-8.377624685
 20
268.660071717
 11
-6.4327969358
 21
267.5367753278
  0
LINE
  5
2E6
100
AcDbEntity
  8
0
100
AcDbLine
 62
7
  6
CONTINUOUS
 10
22.385558537
 20
258.2013283514
 11
22.6410131336
 21
258.0464136689
  0
LINE
  5
2E7
100
AcDbEntity
  8
0
100
AcDbLine
 62
7
  6
CONTINUOUS
 10
23.7773665914
 20
259.2673013396
 11
23.6654365672
 21
259.33517878
  0
LINE
  5
2E8
100
AcDbEntity
  8
0
100
AcDbLine
 62
7
  6
CONTINUOUS
 10
24.3839760495
 20
259.0995142213
 11
24.1285214529
 21
259.2544289038
  0
LINE
  5
2E9
100
AcDbEntity
  8
0
100
AcDbLine
 62
7
  6
CONTINUOUS
 10
22.6211975719
 20
258.1144508413
 11
23.7446933
 21
257.3431453343
  0
LINE
  5
2EA
100
AcDbEntity
  8
0
100
AcDbLine
 62
7
  6
CONTINUOUS
 10
30.9904848725
 20
201.8782135839
 11
31.4834405629
 21
200.9948218787
  0
LINE
  5
2EB
100
AcDbEntity
  8
0
100
AcDbLine
 62
7
  6
CONTINUOUS
 10
32.4265093247
 20
199.7259677045
 11
32.5768791333
 21
199.456500399
  0
LINE
  5
2EC
100
AcDbEntity
  8
0
100
AcDbLine
 62
7
  6
CONTINUOUS
 10
33.2653470291
 20
198.7617828763
 11
32.7723913386
 21
199.6451745815
  0
LINE
  5
2ED
100
AcDbEntity
  8
0
100
AcDbLine
 62
7
  6
CONTINUOUS
 10
18.8580921935
 20
193.8466338249
 11
9.3556929476
 21
257.2424411908
  0
LINE
  5
2EE
100
AcDbEntity
  8
0
100
AcDbLine
 62
7
  6
CONTINUOUS
 10
11.5310179481
 20
256.9377790971
 11
21.0756218992
 21
193.260400594
  0
LINE
  5
2EF
100
AcDbEntity
  8
0
100
AcDbLine
 62
7
  6
CONTINUOUS
 10
13.3905221443
 20
257.436229392
 11
22.1336708018
 21
199.1058063357
  0
LINE
  5
2F0
100
AcDbEntity
  8
0
100
AcDbLine
 62
7
  6
CONTINUOUS
 10
13.5971337217
 20
257.4916127581
 11
22.3402823792
 21
199.1611897018
  0
LINE
  5
2F1
100
AcDbEntity
  8
0
100
AcDbLine
 62
7
  6
CONTINUOUS
 10
15.7724587222
 20
257.1869506644
 11
16.5010544437
 21
252.3260820764
  0
LINE
  5
2F2
100
AcDbEntity
  8
0
100
AcDbLine
 62
7
  6
CONTINUOUS
 10
23.7870116583
 20
203.7173961961
 11
24.5156073797
 21
198.8565276081
  0
LINE
  5
2F3
100
AcDbEntity
  8
0
100
AcDbLine
 62
7
  6
CONTINUOUS
 10
17.3168013189
 20
252.2118337912
 11
24.6027585335
 21
203.603147911
  0
LINE
  5
2F4
100
AcDbEntity
  8
0
100
AcDbLine
 62
7
  6
CONTINUOUS
 10
37.1125514264
 20
274.5005477461
 11
37.1123012438
 21
274.471400945
  0
LINE
  5
2F5
100
AcDbEntity
  8
0
100
AcDbLine
 62
7
  6
CONTINUOUS
 10
37.1120164929
 20
274.465098654
 11
37.1124433677
 21
274.4942226329
  0
LINE
  5
2F6
100
AcDbEntity
  8
0
100
AcDbLine
 62
7
  6
CONTINUOUS
 10
31.9175701816
 20
203.5540494742
 11
31.767989944
 21
201.6272741822
  0
LINE
  5
2F7
100
AcDbEntity
  8
0
100
AcDbLine
 62
7
  6
CONTINUOUS
 10
31.5686560695
 20
199.0596115671
 11
31.4190758319
 21
197.1328362751
  0
LINE
  5
2F8
100
AcDbEntity
  8
0
100
AcDbLine
 62
7
  6
CONTINUOUS
 10
32.2101400888
 20
203.9332323664
 11
32.0450711423
 21
201.806943675
  0
LINE
  5
2F9
100
AcDbEntity
  8
0
100
AcDbLine
 62
7
  6
CONTINUOUS
 10
31.8247516469
 20
198.9689607524
 11
31.6596827003
 21
196.842672061
  0
LINE
  5
2FA
100
AcDbEntity
  8
0
100
AcDbLine
 62
7
  6
CONTINUOUS
 10
32.3382617199
 20
197.085946986
 11
32.4878419575
 21
199.012722278
  0
LINE
  5
2FB
100
AcDbEntity
  8
0
100
AcDbLine
 62
7
  6
CONTINUOUS
 10
32.687175832
 20
201.5803848932
 11
32.8367560696
 21
203.5071601852
  0
LINE
  5
2FC
100
AcDbEntity
  8
0
100
AcDbLine
 62
7
  6
CONTINUOUS
 10
40.6539983036
 20
288.0377989624
 11
40.6097005263
 21
287.7528943399
  0
LINE
  5
2FD
100
AcDbEntity
  8
0
100
AcDbLine
 62
7
  6
CONTINUOUS
 10
40.6314803874
 20
287.9116862166
 11
40.6036464506
 21
287.7540085561
  0
LINE
  5
2FE
100
AcDbEntity
  8
0
100
AcDbLine
 62
7
  6
CONTINUOUS
 10
40.6532120342
 20
288.0334074947
 11
40.6493622071
 21
288.0116084097
  0
LINE
  5
2FF
100
AcDbEntity
  8
0
100
AcDbLine
 62
7
  6
CONTINUOUS
 10
31.767989944
 20
201.6272741822
 11
31.6397276641
 21
201.1918330436
  0
LINE
  5
300
100
AcDbEntity
  8
0
100
AcDbLine
 62
7
  6
CONTINUOUS
 10
32.2618026363
 20
199.5234673905
 11
32.3049649176
 21
199.6700002055
  0
LINE
  5
301
100
AcDbEntity
  8
0
100
AcDbLine
 62
7
  6
CONTINUOUS
 10
32.4878419575
 20
199.012722278
 11
32.6161042374
 21
199.4481634166
  0
LINE
  5
302
100
AcDbEntity
  8
0
100
AcDbLine
 62
7
  6
CONTINUOUS
 10
73.8684719651
 20
269.1381858669
 11
73.8765967386
 21
269.1535790261
  0
LINE
  5
303
100
AcDbEntity
  8
0
100
AcDbLine
 62
7
  6
CONTINUOUS
 10
95.1678107447
 20
256.4866117249
 11
95.2092601688
 21
256.5360122342
  0
LINE
  5
304
100
AcDbEntity
  8
0
100
AcDbLine
 62
7
  6
CONTINUOUS
 10
95.1678107447
 20
256.4866117249
 11
95.2097489361
 21
256.5357685332
  0
LINE
  5
305
100
AcDbEntity
  8
0
100
AcDbLine
 62
7
  6
CONTINUOUS
 10
23.8729555799
 20
257.7785864729
 11
24.5221983716
 21
257.0922059326
  0
LINE
  5
306
100
AcDbEntity
  8
0
100
AcDbLine
 62
7
  6
CONTINUOUS
 10
22.8965790066
 20
259.5222560999
 11
22.247336215
 21
260.2086366401
  0
LINE
  5
307
100
AcDbEntity
  8
0
100
AcDbLine
 62
7
  6
CONTINUOUS
 10
22.6322715917
 20
257.8846849953
 11
22.6476290313
 21
257.8640615426
  0
LINE
  5
308
100
AcDbEntity
  8
0
100
AcDbLine
 62
7
  6
CONTINUOUS
 10
22.6322715917
 20
257.8846849953
 11
22.647526325
 21
257.8638211548
  0
LINE
  5
309
100
AcDbEntity
  8
0
100
AcDbLine
 62
7
  6
CONTINUOUS
 10
22.247336215
 20
260.2086366401
 11
22.7402919054
 21
259.325244935
  0
LINE
  5
30A
100
AcDbEntity
  8
0
100
AcDbLine
 62
7
  6
CONTINUOUS
 10
23.6833606672
 20
258.0563907608
 11
23.8337304758
 21
257.7869234553
  0
LINE
  5
30B
100
AcDbEntity
  8
0
100
AcDbLine
 62
7
  6
CONTINUOUS
 10
24.5221983716
 20
257.0922059326
 11
24.0292426811
 21
257.9755976377
  0
LINE
  5
30C
100
AcDbEntity
  8
0
100
AcDbLine
 62
7
  6
CONTINUOUS
 10
35.9390798298
 20
194.3343930309
 11
35.0017297143
 21
200.5879786585
  0
LINE
  5
30D
100
AcDbEntity
  8
0
100
AcDbLine
 62
7
  6
CONTINUOUS
 10
26.1030375901
 20
259.9561189688
 11
25.0101440079
 21
267.2474218512
  0
LINE
  5
30E
100
AcDbEntity
  8
0
100
AcDbLine
 62
7
  6
CONTINUOUS
 10
25.8258908831
 20
267.1331735661
 11
26.9187844655
 21
259.841870682
  0
LINE
  5
30F
100
AcDbEntity
  8
0
100
AcDbLine
 62
7
  6
CONTINUOUS
 10
36.754826705
 20
194.2201447457
 11
35.6619331228
 21
201.5114476278
  0
LINE
  5
310
100
AcDbEntity
  8
0
100
AcDbLine
 62
7
  6
CONTINUOUS
 10
22.7655990221
 20
257.8350746788
 11
22.825507412
 21
257.3900346233
  0
LINE
  5
311
100
AcDbEntity
  8
0
100
AcDbLine
 62
7
  6
CONTINUOUS
 10
31.5087476796
 20
199.5046516225
 11
31.5686560695
 21
199.0596115671
  0
LINE
  5
312
100
AcDbEntity
  8
0
100
AcDbLine
 62
7
  6
CONTINUOUS
 10
23.6654365672
 20
259.33517878
 11
23.6452764486
 21
259.484941782
  0
LINE
  5
313
100
AcDbEntity
  8
0
100
AcDbLine
 62
7
  6
CONTINUOUS
 10
24.0039355644
 20
259.465767894
 11
23.9440271745
 21
259.9108079494
  0
LINE
  5
314
100
AcDbEntity
  8
0
100
AcDbLine
 62
7
  6
CONTINUOUS
 10
32.4085852247
 20
201.0047557238
 11
32.3884251061
 21
201.1545187257
  0
LINE
  5
315
100
AcDbEntity
  8
0
100
AcDbLine
 62
7
  6
CONTINUOUS
 10
32.7470842219
 20
201.1353448377
 11
32.687175832
 21
201.5803848932
  0
LINE
  5
316
100
AcDbEntity
  8
0
100
AcDbLine
 62
7
  6
CONTINUOUS
 10
49.7845342013
 20
286.9252523127
 11
49.7845342013
 21
288.8495422209
  0
LINE
  5
317
100
AcDbEntity
  8
0
100
AcDbLine
 62
7
  6
CONTINUOUS
 10
116.2328088857
 20
276.2189330086
 11
116.1989522701
 21
276.2272986675
  0
LINE
  5
318
100
AcDbEntity
  8
0
100
AcDbLine
 62
7
  6
CONTINUOUS
 10
78.2546546146
 20
255.6361524897
 11
78.1586177923
 21
255.6916223059
  0
LINE
  5
319
100
AcDbEntity
  8
0
100
AcDbLine
 62
7
  6
CONTINUOUS
 10
33.2639076679
 20
269.1269747455
 11
33.4129963872
 21
268.132320713
  0
LINE
  5
31A
100
AcDbEntity
  8
0
100
AcDbLine
 62
7
  6
CONTINUOUS
 10
110.144813331
 20
259.8449592041
 11
110.1090729559
 21
259.7822797083
  0
LINE
  5
31B
100
AcDbEntity
  8
0
100
AcDbLine
 62
7
  6
CONTINUOUS
 10
110.1454485802
 20
259.8452470767
 11
110.1090729559
 21
259.7822797083
  0
LINE
  5
31C
100
AcDbEntity
  8
0
100
AcDbLine
 62
7
  6
CONTINUOUS
 10
59.0308178526
 20
209.0582893717
 11
59.0096840737
 21
209.1992846025
  0
LINE
  5
31D
100
AcDbEntity
  8
0
100
AcDbLine
 62
7
  6
CONTINUOUS
 10
104.9071237817
 20
271.6817782731
 11
104.8846491605
 21
271.6947770216
  0
LINE
  5
31E
100
AcDbEntity
  8
0
100
AcDbLine
 62
7
  6
CONTINUOUS
 10
61.6709902413
 20
257.5183404992
 11
61.7057684375
 21
257.4526321354
  0
LINE
  5
31F
100
AcDbEntity
  8
0
100
AcDbLine
 62
7
  6
CONTINUOUS
 10
74.1620630378
 20
204.7161777001
 11
74.280600419
 21
203.9253486908
  0
LINE
  5
320
100
AcDbEntity
  8
0
100
AcDbLine
 62
7
  6
CONTINUOUS
 10
76.9520119113
 20
199.0720624316
 11
77.3022548566
 21
196.7353963209
  0
LINE
  5
321
100
AcDbEntity
  8
0
100
AcDbLine
 62
7
  6
CONTINUOUS
 10
80.065724585
 20
205.4760829414
 11
79.9471872038
 21
206.2669119507
  0
LINE
  5
322
100
AcDbEntity
  8
0
100
AcDbLine
 62
7
  6
CONTINUOUS
 10
74.9685009279
 20
197.061131107
 11
74.6677660191
 21
199.3551614978
  0
LINE
  5
323
100
AcDbEntity
  8
0
100
AcDbLine
 62
7
  6
CONTINUOUS
 10
120.7077327171
 20
265.0768902286
 11
120.7226489665
 21
265.1318492412
  0
LINE
  5
324
100
AcDbEntity
  8
0
100
AcDbLine
 62
7
  6
CONTINUOUS
 10
120.7077327171
 20
265.0768902286
 11
120.7240652256
 21
265.1322338881
  0
LINE
  5
325
100
AcDbEntity
  8
0
100
AcDbLine
 62
7
  6
CONTINUOUS
 10
90.0307721217
 20
269.1953348425
 11
90.0233076076
 21
269.2107796339
  0
LINE
  5
326
100
AcDbEntity
  8
0
100
AcDbLine
 62
7
  6
CONTINUOUS
 10
113.5845342013
 20
288.112677404
 11
113.5845196561
 21
288.124682586
  0
LINE
  5
327
100
AcDbEntity
  8
0
100
AcDbLine
 62
7
  6
CONTINUOUS
 10
113.3845342013
 20
287.1938392458
 11
113.3845342013
 21
288.124682586
  0
LINE
  5
328
100
AcDbEntity
  8
0
100
AcDbLine
 62
7
  6
CONTINUOUS
 10
126.045761566
 20
274.6486550342
 11
126.0685462839
 21
272.7256943738
  0
LWPOLYLINE
  5
329
100
AcDbEntity
  8
0
100
AcDbPolyline
 62
7
  6
CONTINUOUS
 90
3
 70
0
 10
125.9791889955
 20
270.9769765019
 10
125.9820109628
 20
276.1563845586
 10
125.3992392234
 20
280.7164088714
  0
LINE
  5
32A
100
AcDbEntity
  8
0
100
AcDbLine
 62
7
  6
CONTINUOUS
 10
125.3502824893
 20
271.6023320587
 11
125.3502401572
 21
271.56438683
  0
LINE
  5
32B
100
AcDbEntity
  8
0
100
AcDbLine
 62
7
  6
CONTINUOUS
 10
126.0274123866
 20
272.0352522304
 11
126.045761566
 21
274.6486550342
  0
LINE
  5
32C
100
AcDbEntity
  8
0
100
AcDbLine
 62
7
  6
CONTINUOUS
 10
126.0274117412
 20
272.0352405253
 11
126.0680543505
 21
272.7256927273
  0
LINE
  5
32D
100
AcDbEntity
  8
0
100
AcDbLine
 62
7
  6
CONTINUOUS
 10
122.3272874975
 20
288.4033922086
 11
122.3274525517
 21
288.4031939344
  0
LINE
  5
32E
100
AcDbEntity
  8
0
100
AcDbLine
 62
7
  6
CONTINUOUS
 10
122.7280579431
 20
287.984642927
 11
121.8572894889
 21
289.1885341552
  0
LINE
  5
32F
100
AcDbEntity
  8
0
100
AcDbLine
 62
7
  6
CONTINUOUS
 10
123.5196476281
 20
286.4631793294
 11
122.3274525517
 21
288.4031939344
  0
LINE
  5
330
100
AcDbEntity
  8
0
100
AcDbLine
 62
7
  6
CONTINUOUS
 10
124.2939610199
 20
284.6561471083
 11
122.7280579431
 21
287.984642927
  0
LINE
  5
331
100
AcDbEntity
  8
0
100
AcDbLine
 62
7
  6
CONTINUOUS
 10
125.3992392234
 20
280.7164088714
 11
124.2939610199
 21
284.6561471083
  0
LINE
  5
332
100
AcDbEntity
  8
0
100
AcDbLine
 62
7
  6
CONTINUOUS
 10
122.8607477877
 20
286.3287103771
 11
122.9428209358
 21
285.874882875
  0
LWPOLYLINE
  5
333
100
AcDbEntity
  8
0
100
AcDbPolyline
 62
7
  6
CONTINUOUS
 90
3
 70
0
 10
124.4493442072
 20
283.2103595993
 10
124.3552419455
 20
283.7450245614
 10
123.5196476281
 20
286.4631793294
  0
LINE
  5
334
100
AcDbEntity
  8
0
100
AcDbLine
 62
7
  6
CONTINUOUS
 10
124.452919203
 20
283.1876341043
 11
124.4494411074
 21
283.20961328
  0
ARC
  5
335
100
AcDbEntity
  8
0
100
AcDbCircle
 62
7
  6
CONTINUOUS
 10
-90.9526898743
 20
34.0215200691
 40
248.7446307168
100
AcDbArc
 50
70.0037423052
 51
70.6117782928
  0
ARC
  5
336
100
AcDbEntity
  8
0
100
AcDbCircle
 62
7
  6
CONTINUOUS
 10
53.5789589156
 20
200.7460298461
 40
22.2354995459
100
AcDbArc
 50
182.7090677884
 51
183.0723846014
  0
ARC
  5
337
100
AcDbEntity
  8
0
100
AcDbCircle
 62
7
  6
CONTINUOUS
 10
33.7142625322
 20
180.3930190005
 40
19.7259277576
100
AcDbArc
 50
94.9217573473
 51
95.6639242283
  0
ARC
  5
338
100
AcDbEntity
  8
0
100
AcDbCircle
 62
7
  6
CONTINUOUS
 10
47.3244755781
 20
200.4514478454
 40
15.974078326
100
AcDbArc
 50
182.3945974566
 51
182.6012802124
  0
ARC
  5
339
100
AcDbEntity
  8
0
100
AcDbCircle
 62
7
  6
CONTINUOUS
 10
46.8962372627
 20
198.0320649213
 40
15.7362130565
100
AcDbArc
 50
168.3848767344
 51
168.6202656821
  0
ARC
  5
33A
100
AcDbEntity
  8
0
100
AcDbCircle
 62
7
  6
CONTINUOUS
 10
38.2851564028
 20
198.5155595535
 40
7.036094697
100
AcDbArc
 50
168.8883511129
 51
169.6139203622
  0
ARC
  5
33B
100
AcDbEntity
  8
0
100
AcDbCircle
 62
7
  6
CONTINUOUS
 10
38.2850650577
 20
201.3325997904
 40
6.8184909671
100
AcDbArc
 50
181.6439673753
 51
182.3765550834
  0
ARC
  5
33C
100
AcDbEntity
  8
0
100
AcDbCircle
 62
7
  6
CONTINUOUS
 10
28.5073327544
 20
199.1270598108
 40
5.8558111676
100
AcDbArc
 50
232.3275840796
 51
232.6373225924
  0
ARC
  5
33D
100
AcDbEntity
  8
0
100
AcDbCircle
 62
7
  6
CONTINUOUS
 10
27.3962573388
 20
198.7585262301
 40
5.5491818772
100
AcDbArc
 50
271.881969036
 51
278.0530853393
  0
ARC
  5
33E
100
AcDbEntity
  8
0
100
AcDbCircle
 62
7
  6
CONTINUOUS
 10
27.4007839638
 20
198.6699174296
 40
5.4604724536
100
AcDbArc
 50
270.922277768
 51
271.8650313856
  0
ARC
  5
33F
100
AcDbEntity
  8
0
100
AcDbCircle
 62
7
  6
CONTINUOUS
 10
27.4009407481
 20
198.6570504647
 40
5.4476046322
100
AcDbArc
 50
267.9045757588
 51
270.9228072637
  0
ARC
  5
340
100
AcDbEntity
  8
0
100
AcDbCircle
 62
7
  6
CONTINUOUS
 10
30.9097409598
 20
201.9616349959
 40
3.5436043265
100
AcDbArc
 50
68.9398843867
 51
75.073557376
  0
ARC
  5
341
100
AcDbEntity
  8
0
100
AcDbCircle
 62
7
  6
CONTINUOUS
 10
30.7685940313
 20
199.5126939479
 40
2.653824063
100
AcDbArc
 50
243.5630417395
 51
244.1972766701
  0
ARC
  5
342
100
AcDbEntity
  8
0
100
AcDbCircle
 62
7
  6
CONTINUOUS
 10
30.7543054087
 20
199.4822823425
 40
2.6202251151
100
AcDbArc
 50
244.1891125413
 51
251.5153458014
  0
ARC
  5
343
100
AcDbEntity
  8
0
100
AcDbCircle
 62
7
  6
CONTINUOUS
 10
30.7370311852
 20
199.4339011886
 40
2.5688634207
100
AcDbArc
 50
251.5386254479
 51
254.375442031
  0
ARC
  5
344
100
AcDbEntity
  8
0
100
AcDbCircle
 62
7
  6
CONTINUOUS
 10
31.3670137871
 20
200.4265143023
 40
2.5651584616
100
AcDbArc
 50
344.3089076868
 51
355.5693788406
  0
ARC
  5
345
100
AcDbEntity
  8
0
100
AcDbCircle
 62
7
  6
CONTINUOUS
 10
32.8888181139
 20
200.213482158
 40
2.5651584611
100
AcDbArc
 50
164.3089076855
 51
175.5693788419
  0
ARC
  5
346
100
AcDbEntity
  8
0
100
AcDbCircle
 62
7
  6
CONTINUOUS
 10
31.3259817111
 20
199.377449991
 40
2.5566492729
100
AcDbArc
 50
265.71488475
 51
277.4998032296
  0
ARC
  5
347
100
AcDbEntity
  8
0
100
AcDbCircle
 62
7
  6
CONTINUOUS
 10
30.732876259
 20
199.419089246
 40
2.5534797635
100
AcDbArc
 50
254.3757124306
 51
259.9753764066
  0
ARC
  5
348
100
AcDbEntity
  8
0
100
AcDbCircle
 62
7
  6
CONTINUOUS
 10
30.7308051258
 20
199.4092585579
 40
2.5434386563
100
AcDbArc
 50
259.9827713485
 51
265.6713557145
  0
ARC
  5
349
100
AcDbEntity
  8
0
100
AcDbCircle
 62
7
  6
CONTINUOUS
 10
32.8597626082
 20
200.2147185165
 40
2.5360944755
100
AcDbArc
 50
175.5465172137
 51
186.8772030517
  0
ARC
  5
34A
100
AcDbEntity
  8
0
100
AcDbCircle
 62
7
  6
CONTINUOUS
 10
31.3960692934
 20
200.4252779438
 40
2.5360944754
100
AcDbArc
 50
355.5465172137
 51
6.8772030518
  0
ARC
  5
34B
100
AcDbEntity
  8
0
100
AcDbCircle
 62
7
  6
CONTINUOUS
 10
31.6237947921
 20
201.469492878
 40
2.5325954507
100
AcDbArc
 50
78.4128996418
 51
97.5518137882
  0
ARC
  5
34C
100
AcDbEntity
  8
0
100
AcDbCircle
 62
7
  6
CONTINUOUS
 10
31.3251494221
 20
199.339068557
 40
2.5183137674
100
AcDbArc
 50
256.5757058821
 51
265.6685194954
  0
ARC
  5
34D
100
AcDbEntity
  8
0
100
AcDbCircle
 62
7
  6
CONTINUOUS
 10
30.8929362028
 20
200.3114982969
 40
0.8978851579
100
AcDbArc
 50
300.8865027494
 51
302.5038363098
  0
ARC
  5
34E
100
AcDbEntity
  8
0
100
AcDbCircle
 62
7
  6
CONTINUOUS
 10
-293.4562517035
 20
255.8964902428
 40
385.6633526757
100
AcDbArc
 50
1.5717206992
 51
1.9805152158
  0
ARC
  5
34F
100
AcDbEntity
  8
0
100
AcDbCircle
 62
7
  6
CONTINUOUS
 10
-1.8737618144
 20
248.7117390715
 40
21.5277420927
100
AcDbArc
 50
151.3975896211
 51
159.6118704669
  0
ARC
  5
350
100
AcDbEntity
  8
0
100
AcDbCircle
 62
7
  6
CONTINUOUS
 10
24.9711138746
 20
238.7234420588
 40
19.7259277555
100
AcDbArc
 50
94.9217573473
 51
95.6639242283
  0
ARC
  5
351
100
AcDbEntity
  8
0
100
AcDbCircle
 62
7
  6
CONTINUOUS
 10
-30.0224483336
 20
258.8175669426
 40
137.1827730936
100
AcDbArc
 50
4.36778276
 51
5.5102478843
  0
ARC
  5
352
100
AcDbEntity
  8
0
100
AcDbCircle
 62
7
  6
CONTINUOUS
 10
29.23176018
 20
263.8767642248
 40
88.9812832687
100
AcDbArc
 50
6.5694241084
 51
8.3094047923
  0
ARC
  5
353
100
AcDbEntity
  8
0
100
AcDbCircle
 62
7
  6
CONTINUOUS
 10
28.2598224747
 20
262.1470422316
 40
28.4115127923
100
AcDbArc
 50
350.8633535652
 51
352.8405744239
  0
ARC
  5
354
100
AcDbEntity
  8
0
100
AcDbCircle
 62
7
  6
CONTINUOUS
 10
30.0485090007
 20
282.6638524728
 40
24.4889816286
100
AcDbArc
 50
253.4892472288
 51
254.0910857903
  0
ARC
  5
355
100
AcDbEntity
  8
0
100
AcDbCircle
 62
7
  6
CONTINUOUS
 10
23.3613766583
 20
262.7945821111
 40
23.9025509591
100
AcDbArc
 50
349.4528493967
 51
358.4628208372
  0
ARC
  5
356
100
AcDbEntity
  8
0
100
AcDbCircle
 62
7
  6
CONTINUOUS
 10
22.0574231812
 20
258.7353024032
 40
8.7637186326
100
AcDbArc
 50
188.2536049118
 51
188.5245448595
  0
ARC
  5
357
100
AcDbEntity
  8
0
100
AcDbCircle
 62
7
  6
CONTINUOUS
 10
29.5420077451
 20
256.8459826098
 40
7.0360946968
100
AcDbArc
 50
168.8883511129
 51
169.6139203622
  0
ARC
  5
358
100
AcDbEntity
  8
0
100
AcDbCircle
 62
7
  6
CONTINUOUS
 10
29.5419164001
 20
259.6630228466
 40
6.8184909671
100
AcDbArc
 50
181.6439673753
 51
182.3765550834
  0
ARC
  5
359
100
AcDbEntity
  8
0
100
AcDbCircle
 62
7
  6
CONTINUOUS
 10
20.1639012621
 20
261.1001015488
 40
5.7846184751
100
AcDbArc
 50
105.0058876441
 51
105.5369401465
  0
ARC
  5
35A
100
AcDbEntity
  8
0
100
AcDbCircle
 62
7
  6
CONTINUOUS
 10
22.0254453746
 20
257.8431170058
 40
2.6538240648
100
AcDbArc
 50
243.5630417397
 51
244.1972766699
  0
ARC
  5
35B
100
AcDbEntity
  8
0
100
AcDbCircle
 62
7
  6
CONTINUOUS
 10
22.0111567512
 20
257.8127053987
 40
2.6202251152
100
AcDbArc
 50
244.1891125413
 51
251.5153458013
  0
ARC
  5
35C
100
AcDbEntity
  8
0
100
AcDbCircle
 62
7
  6
CONTINUOUS
 10
21.9938825277
 20
257.7643242448
 40
2.5688634207
100
AcDbArc
 50
251.5386254479
 51
254.3754420311
  0
ARC
  5
35D
100
AcDbEntity
  8
0
100
AcDbCircle
 62
7
  6
CONTINUOUS
 10
22.6238651296
 20
258.7569373586
 40
2.5651584616
100
AcDbArc
 50
344.3089076868
 51
355.5693788406
  0
ARC
  5
35E
100
AcDbEntity
  8
0
100
AcDbCircle
 62
7
  6
CONTINUOUS
 10
24.1456694564
 20
258.5439052142
 40
2.565158461
100
AcDbArc
 50
164.3089076855
 51
175.5693788419
  0
ARC
  5
35F
100
AcDbEntity
  8
0
100
AcDbCircle
 62
7
  6
CONTINUOUS
 10
22.5828330536
 20
257.7078730472
 40
2.5566492729
100
AcDbArc
 50
265.71488475
 51
277.4998032296
  0
ARC
  5
360
100
AcDbEntity
  8
0
100
AcDbCircle
 62
7
  6
CONTINUOUS
 10
21.9897276015
 20
257.7495123022
 40
2.5534797635
100
AcDbArc
 50
254.3757124306
 51
259.9753764067
  0
ARC
  5
361
100
AcDbEntity
  8
0
100
AcDbCircle
 62
7
  6
CONTINUOUS
 10
21.9876564683
 20
257.7396816141
 40
2.5434386563
100
AcDbArc
 50
259.9827713485
 51
265.6713557145
  0
ARC
  5
362
100
AcDbEntity
  8
0
100
AcDbCircle
 62
7
  6
CONTINUOUS
 10
24.1166139507
 20
258.5451415727
 40
2.5360944755
100
AcDbArc
 50
175.5465172138
 51
186.8772030517
  0
ARC
  5
363
100
AcDbEntity
  8
0
100
AcDbCircle
 62
7
  6
CONTINUOUS
 10
22.6529206359
 20
258.755701
 40
2.5360944754
100
AcDbArc
 50
355.5465172137
 51
6.8772030518
  0
ARC
  5
364
100
AcDbEntity
  8
0
100
AcDbCircle
 62
7
  6
CONTINUOUS
 10
22.8806461346
 20
259.7999159342
 40
2.5325954507
100
AcDbArc
 50
78.4128996418
 51
97.5518137882
  0
ARC
  5
365
100
AcDbEntity
  8
0
100
AcDbCircle
 62
7
  6
CONTINUOUS
 10
22.5820007646
 20
257.6694916133
 40
2.5183137674
100
AcDbArc
 50
256.5757058821
 51
265.6685194954
  0
ARC
  5
366
100
AcDbEntity
  8
0
100
AcDbCircle
 62
7
  6
CONTINUOUS
 10
22.1497875453
 20
258.641921353
 40
0.8978851578
100
AcDbArc
 50
300.8865027493
 51
302.5038363099
  0
ARC
  5
367
100
AcDbEntity
  8
0
100
AcDbCircle
 62
7
  6
CONTINUOUS
 10
62.3001693209
 20
249.4510066186
 40
84.6235294731
100
AcDbArc
 50
175.4177928363
 51
176.4112667724
  0
ARC
  5
368
100
AcDbEntity
  8
0
100
AcDbCircle
 62
7
  6
CONTINUOUS
 10
75.9402061807
 20
241.8829408288
 40
60.7151855113
100
AcDbArc
 50
104.8115800557
 51
105.0055181883
  0
ARC
  5
369
100
AcDbEntity
  8
0
100
AcDbCircle
 62
7
  6
CONTINUOUS
 10
75.6013167296
 20
243.1415405634
 40
59.4117603491
100
AcDbArc
 50
105.0041034765
 51
105.6893297236
  0
ARC
  5
36A
100
AcDbEntity
  8
0
100
AcDbCircle
 62
7
  6
CONTINUOUS
 10
97.3089799115
 20
214.2528819909
 40
56.1533746367
100
AcDbArc
 50
112.5585477045
 51
119.8600314385
  0
ARC
  5
36B
100
AcDbEntity
  8
0
100
AcDbCircle
 62
7
  6
CONTINUOUS
 10
76.7892094048
 20
248.4530971706
 40
52.7564543684
100
AcDbArc
 50
104.4928082759
 51
105.0044625205
  0
ARC
  5
36C
100
AcDbEntity
  8
0
100
AcDbCircle
 62
7
  6
CONTINUOUS
 10
51.4460685588
 20
231.2100462787
 40
40.7058407202
100
AcDbArc
 50
79.6328228167
 51
85.081541244
  0
ARC
  5
36D
100
AcDbEntity
  8
0
100
AcDbCircle
 62
7
  6
CONTINUOUS
 10
75.6921654692
 20
236.6438907357
 40
36.2217426661
100
AcDbArc
 50
137.5845224604
 51
137.8466145876
  0
ARC
  5
36E
100
AcDbEntity
  8
0
100
AcDbCircle
 62
7
  6
CONTINUOUS
 10
38.7916576575
 20
224.3334294139
 40
24.4889816258
100
AcDbArc
 50
253.4892472288
 51
254.0910857903
  0
ARC
  5
36F
100
AcDbEntity
  8
0
100
AcDbCircle
 62
7
  6
CONTINUOUS
 10
71.5950355732
 20
224.1161607758
 40
21.9926696449
100
AcDbArc
 50
262.0536633258
 51
273.5225482751
  0
ARC
  5
370
100
AcDbEntity
  8
0
100
AcDbCircle
 62
7
  6
CONTINUOUS
 10
71.6995262284
 20
224.8680821903
 40
20.3018063758
100
AcDbArc
 50
262.058140609
 51
276.9669296294
  0
ARC
  5
371
100
AcDbEntity
  8
0
100
AcDbCircle
 62
7
  6
CONTINUOUS
 10
50.5327629602
 20
230.388961659
 40
19.8917429996
100
AcDbArc
 50
287.2056062155
 51
292.8327380495
  0
ARC
  5
372
100
AcDbEntity
  8
0
100
AcDbCircle
 62
7
  6
CONTINUOUS
 10
52.1327051399
 20
229.9206595917
 40
18.3397369789
100
AcDbArc
 50
285.0059361903
 51
285.6198490037
  0
ARC
  5
373
100
AcDbEntity
  8
0
100
AcDbCircle
 62
7
  6
CONTINUOUS
 10
52.1741070362
 20
229.7622504457
 40
18.1760100287
100
AcDbArc
 50
281.6608213668
 51
285.0091676068
  0
ARC
  5
374
100
AcDbEntity
  8
0
100
AcDbCircle
 62
7
  6
CONTINUOUS
 10
74.4778699889
 20
239.1743279379
 40
16.9714908511
100
AcDbArc
 50
98.0940872941
 51
105.0140309618
  0
ARC
  5
375
100
AcDbEntity
  8
0
100
AcDbCircle
 62
7
  6
CONTINUOUS
 10
74.3506192547
 20
239.8993295674
 40
16.2456994754
100
AcDbArc
 50
72.1602806169
 51
73.5043306256
  0
ARC
  5
376
100
AcDbEntity
  8
0
100
AcDbCircle
 62
7
  6
CONTINUOUS
 10
51.5439972816
 20
271.7070205467
 40
73.8072815252
100
AcDbArc
 50
0.2750585052
 51
8.9486148368
  0
ARC
  5
377
100
AcDbEntity
  8
0
100
AcDbCircle
 62
7
  6
CONTINUOUS
 10
52.1901722063
 20
270.3531809896
 40
71.4884143019
100
AcDbArc
 50
7.8524187179
 51
9.9779202397
  0
ARC
  5
378
100
AcDbEntity
  8
0
100
AcDbCircle
 62
7
  6
CONTINUOUS
 10
76.0892200151
 20
274.2525542586
 40
49.4730351898
100
AcDbArc
 50
356.9290694051
 51
357.470047597
  0
ARC
  5
379
100
AcDbEntity
  8
0
100
AcDbCircle
 62
7
  6
CONTINUOUS
 10
80.0228806431
 20
271.8299784436
 40
45.3281368291
100
AcDbArc
 50
359.7123319335
 51
0.2924519716
  0
ARC
  5
37A
100
AcDbEntity
  8
0
100
AcDbCircle
 62
7
  6
CONTINUOUS
 10
98.9839292447
 20
276.0309005032
 40
26.423417902
100
AcDbArc
 50
13.947536158
 51
15.7534957317
  0
ARC
  5
37B
100
AcDbEntity
  8
0
100
AcDbCircle
 62
7
  6
CONTINUOUS
 10
44.8358102579
 20
259.0764529023
 40
22.2354995457
100
AcDbArc
 50
182.7090677883
 51
183.0723846014
  0
ARC
  5
37C
100
AcDbEntity
  8
0
100
AcDbCircle
 62
7
  6
CONTINUOUS
 10
64.0268071189
 20
279.3042477112
 40
19.2336891636
100
AcDbArc
 50
122.9708019077
 51
123.8364074081
  0
ARC
  5
37D
100
AcDbEntity
  8
0
100
AcDbCircle
 62
7
  6
CONTINUOUS
 10
38.5813269218
 20
258.7818709017
 40
15.9740783272
100
AcDbArc
 50
182.3945974566
 51
182.6012802124
  0
ARC
  5
37E
100
AcDbEntity
  8
0
100
AcDbCircle
 62
7
  6
CONTINUOUS
 10
38.1530886031
 20
256.362487978
 40
15.7362130544
100
AcDbArc
 50
168.3848767343
 51
168.6202656821
  0
ARC
  5
37F
100
AcDbEntity
  8
0
100
AcDbCircle
 62
7
  6
CONTINUOUS
 10
56.6385060455
 20
283.2611742299
 40
14.6788379104
100
AcDbArc
 50
130.9131832142
 51
132.3909645166
  0
ARC
  5
380
100
AcDbEntity
  8
0
100
AcDbCircle
 62
7
  6
CONTINUOUS
 10
56.3491311726
 20
283.5765395246
 40
14.2508287686
100
AcDbArc
 50
132.3865164286
 51
134.4782312457
  0
ARC
  5
381
100
AcDbEntity
  8
0
100
AcDbCircle
 62
7
  6
CONTINUOUS
 10
50.7345606566
 20
284.3669263865
 40
10.6115250452
100
AcDbArc
 50
160.0859200434
 51
161.4799757993
  0
ARC
  5
382
100
AcDbEntity
  8
0
100
AcDbCircle
 62
7
  6
CONTINUOUS
 10
49.2916117797
 20
288.4859715514
 40
10.6093936709
100
AcDbArc
 50
218.8618711113
 51
219.8796675551
  0
ARC
  5
383
100
AcDbEntity
  8
0
100
AcDbCircle
 62
7
  6
CONTINUOUS
 10
50.4710962558
 20
284.4525739586
 40
10.3345002918
100
AcDbArc
 50
161.4662614058
 51
169.5406063291
  0
ARC
  5
384
100
AcDbEntity
  8
0
100
AcDbCircle
 62
7
  6
CONTINUOUS
 10
48.1818091167
 20
261.3654411592
 40
10.2234749056
100
AcDbArc
 50
145.1468859438
 51
146.3482335983
  0
ARC
  5
385
100
AcDbEntity
  8
0
100
AcDbCircle
 62
7
  6
CONTINUOUS
 10
47.9653250278
 20
261.7081942932
 40
10.2061981196
100
AcDbArc
 50
118.5117088196
 51
120.9336545209
  0
ARC
  5
386
100
AcDbEntity
  8
0
100
AcDbCircle
 62
7
  6
CONTINUOUS
 10
48.8604491896
 20
285.956375524
 40
8.8151178547
100
AcDbArc
 50
207.8916714044
 51
208.9943411021
  0
ARC
  5
387
100
AcDbEntity
  8
0
100
AcDbCircle
 62
7
  6
CONTINUOUS
 10
50.987773859
 20
287.7457412094
 40
7.4217351395
100
AcDbArc
 50
155.0805323258
 51
156.4245300967
  0
ARC
  5
388
100
AcDbEntity
  8
0
100
AcDbCircle
 62
7
  6
CONTINUOUS
 10
46.0322997945
 20
287.0721517895
 40
5.4643067288
100
AcDbArc
 50
170.0999184868
 51
171.1671479419
  0
ARC
  5
389
100
AcDbEntity
  8
0
100
AcDbCircle
 62
7
  6
CONTINUOUS
 10
45.984042295
 20
287.0795821293
 40
5.4154805927
100
AcDbArc
 50
171.1664302266
 51
172.8593164726
  0
ARC
  5
38A
100
AcDbEntity
  8
0
100
AcDbCircle
 62
7
  6
CONTINUOUS
 10
45.9013551308
 20
287.0894395691
 40
5.3322094402
100
AcDbArc
 50
172.8539703906
 51
178.2022997403
  0
ARC
  5
38B
100
AcDbEntity
  8
0
100
AcDbCircle
 62
7
  6
CONTINUOUS
 10
54.8549199927
 20
287.2079383739
 40
5.2739684741
100
AcDbArc
 50
164.4423237509
 51
170.4222840506
  0
ARC
  5
38C
100
AcDbEntity
  8
0
100
AcDbCircle
 62
7
  6
CONTINUOUS
 10
54.6548038574
 20
287.2437372406
 40
5.0706857853
100
AcDbArc
 50
170.4449222778
 51
174.6024429461
  0
ARC
  5
38D
100
AcDbEntity
  8
0
100
AcDbCircle
 62
7
  6
CONTINUOUS
 10
54.5971952398
 20
288.1099567389
 40
5.0126472583
100
AcDbArc
 50
171.3484468266
 51
179.9689021351
  0
ARC
  5
38E
100
AcDbEntity
  8
0
100
AcDbCircle
 62
7
  6
CONTINUOUS
 10
54.7486587668
 20
288.8509920795
 40
4.9641118187
100
AcDbArc
 50
180.0167342699
 51
187.8453779487
  0
ARC
  5
38F
100
AcDbEntity
  8
0
100
AcDbCircle
 62
7
  6
CONTINUOUS
 10
44.8280201801
 20
287.4729492119
 40
3.9945712484
100
AcDbArc
 50
154.0575170635
 51
158.262018966
  0
ARC
  5
390
100
AcDbEntity
  8
0
100
AcDbCircle
 62
7
  6
CONTINUOUS
 10
40.8885528233
 20
287.9688812422
 40
0.2429817445
100
AcDbArc
 50
163.5692376137
 51
169.8724987684
  0
ARC
  5
391
100
AcDbEntity
  8
0
100
AcDbCircle
 62
7
  6
CONTINUOUS
 10
81.5799881465
 20
373.209755388
 40
104.3411139694
100
AcDbArc
 50
265.9749303807
 51
274.6414686084
  0
ARC
  5
392
100
AcDbEntity
  8
0
100
AcDbCircle
 62
7
  6
CONTINUOUS
 10
81.3731973985
 20
369.6570607556
 40
100.7826813555
100
AcDbArc
 50
265.7341811996
 51
265.9504271028
  0
ARC
  5
393
100
AcDbEntity
  8
0
100
AcDbCircle
 62
7
  6
CONTINUOUS
 10
81.9033881437
 20
368.2891799285
 40
99.4105753783
100
AcDbArc
 50
274.6851755494
 51
274.903405662
  0
ARC
  5
394
100
AcDbEntity
  8
0
100
AcDbCircle
 62
7
  6
CONTINUOUS
 10
74.8253637012
 20
362.7372285434
 40
93.8820296998
100
AcDbArc
 50
269.3975775914
 51
270.6222377938
  0
ARC
  5
395
100
AcDbEntity
  8
0
100
AcDbCircle
 62
7
  6
CONTINUOUS
 10
76.9960760618
 20
361.6820271448
 40
92.5966266607
100
AcDbArc
 50
268.0643788645
 51
268.3042580319
  0
ARC
  5
396
100
AcDbEntity
  8
0
100
AcDbCircle
 62
7
  6
CONTINUOUS
 10
79.8294202548
 20
350.9725456665
 40
82.4109900965
100
AcDbArc
 50
277.1106450758
 51
277.3699015356
  0
ARC
  5
397
100
AcDbEntity
  8
0
100
AcDbCircle
 62
7
  6
CONTINUOUS
 10
78.2778423414
 20
347.9063309821
 40
79.8650702129
100
AcDbArc
 50
278.5138439615
 51
279.8765140518
  0
ARC
  5
398
100
AcDbEntity
  8
0
100
AcDbCircle
 62
7
  6
CONTINUOUS
 10
71.6834736127
 20
344.2443239254
 40
74.126203944
100
AcDbArc
 50
259.968384553
 51
261.3905596931
  0
ARC
  5
399
100
AcDbEntity
  8
0
100
AcDbCircle
 62
7
  6
CONTINUOUS
 10
72.8547489793
 20
340.0075816887
 40
69.8995075962
100
AcDbArc
 50
258.4680576336
 51
258.7579141599
  0
ARC
  5
39A
100
AcDbEntity
  8
0
100
AcDbCircle
 62
7
  6
CONTINUOUS
 10
87.1591615856
 20
337.8988645754
 40
68.5365363774
100
AcDbArc
 50
283.6086350864
 51
284.8012936037
  0
ARC
  5
39B
100
AcDbEntity
  8
0
100
AcDbCircle
 62
7
  6
CONTINUOUS
 10
75.9487738601
 20
337.6475632686
 40
68.2774254935
100
AcDbArc
 50
255.5429812886
 51
255.8239967656
  0
ARC
  5
39C
100
AcDbEntity
  8
0
100
AcDbCircle
 62
7
  6
CONTINUOUS
 10
87.9649421726
 20
334.8165585028
 40
65.3501016214
100
AcDbArc
 50
285.0053155187
 51
285.2945757698
  0
ARC
  5
39D
100
AcDbEntity
  8
0
100
AcDbCircle
 62
7
  6
CONTINUOUS
 10
88.9811320855
 20
331.1473154411
 40
61.542756631
100
AcDbArc
 50
285.283115909
 51
287.6610007492
  0
ARC
  5
39E
100
AcDbEntity
  8
0
100
AcDbCircle
 62
7
  6
CONTINUOUS
 10
87.1994022603
 20
334.4561218152
 40
60.6866753148
100
AcDbArc
 50
284.8475394044
 51
285.0414773181
  0
ARC
  5
39F
100
AcDbEntity
  8
0
100
AcDbCircle
 62
7
  6
CONTINUOUS
 10
89.6992973726
 20
317.5967444437
 40
48.3679258361
100
AcDbArc
 50
288.3256825943
 51
288.6956261171
  0
ARC
  5
3A0
100
AcDbEntity
  8
0
100
AcDbCircle
 62
7
  6
CONTINUOUS
 10
71.543632971
 20
320.434798418
 40
45.9802522585
100
AcDbArc
 50
249.7787796167
 51
250.1938672316
  0
ARC
  5
3A1
100
AcDbEntity
  8
0
100
AcDbCircle
 62
7
  6
CONTINUOUS
 10
89.641079269
 20
313.6430248528
 40
44.9450403243
100
AcDbArc
 50
290.0624667881
 51
292.0668679393
  0
ARC
  5
3A2
100
AcDbEntity
  8
0
100
AcDbCircle
 62
7
  6
CONTINUOUS
 10
61.8635913894
 20
310.2843317485
 40
37.5488628305
100
AcDbArc
 50
246.9436753082
 51
249.1936521719
  0
ARC
  5
3A3
100
AcDbEntity
  8
0
100
AcDbCircle
 62
7
  6
CONTINUOUS
 10
61.7370466782
 20
306.7568676896
 40
33.9777117103
100
AcDbArc
 50
244.9482237834
 51
245.4173272443
  0
ARC
  5
3A4
100
AcDbEntity
  8
0
100
AcDbCircle
 62
7
  6
CONTINUOUS
 10
62.0286352658
 20
301.3429869903
 40
29.284197615
100
AcDbArc
 50
239.9906448313
 51
240.4859857485
  0
ARC
  5
3A5
100
AcDbEntity
  8
0
100
AcDbCircle
 62
7
  6
CONTINUOUS
 10
67.1957740801
 20
303.5567549765
 40
25.4592271046
100
AcDbArc
 50
240.9085985073
 51
243.5259075565
  0
ARC
  5
3A6
100
AcDbEntity
  8
0
100
AcDbCircle
 62
7
  6
CONTINUOUS
 10
96.4580104191
 20
302.652536027
 40
24.4332570018
100
AcDbArc
 50
297.5082900589
 51
300.5944513732
  0
ARC
  5
3A7
100
AcDbEntity
  8
0
100
AcDbCircle
 62
7
  6
CONTINUOUS
 10
66.341792932
 20
302.0089027188
 40
23.6914354251
100
AcDbArc
 50
240.4985899548
 51
240.8933019838
  0
ARC
  5
3A8
100
AcDbEntity
  8
0
100
AcDbCircle
 62
7
  6
CONTINUOUS
 10
66.0983269386
 20
301.5789878974
 40
23.1973682163
100
AcDbArc
 50
239.9912490856
 51
240.4990584213
  0
ARC
  5
3A9
100
AcDbEntity
  8
0
100
AcDbCircle
 62
7
  6
CONTINUOUS
 10
66.2842381306
 20
300.8167901286
 40
21.9552340066
100
AcDbArc
 50
239.5985615068
 51
239.9907196636
  0
ARC
  5
3AA
100
AcDbEntity
  8
0
100
AcDbCircle
 62
7
  6
CONTINUOUS
 10
266.6786689373
 20
112.536236626
 40
223.9144781354
100
AcDbArc
 50
137.333273095
 51
139.976505766
  0
ARC
  5
3AB
100
AcDbEntity
  8
0
100
AcDbCircle
 62
7
  6
CONTINUOUS
 10
261.7356833208
 20
117.1986815487
 40
217.1199822067
100
AcDbArc
 50
135.5424981868
 51
137.3539386029
  0
ARC
  5
3AC
100
AcDbEntity
  8
0
100
AcDbCircle
 62
7
  6
CONTINUOUS
 10
137.2056271377
 20
194.1143264816
 40
85.287455893
100
AcDbArc
 50
121.9589180911
 51
126.8723233634
  0
ARC
  5
3AD
100
AcDbEntity
  8
0
100
AcDbCircle
 62
7
  6
CONTINUOUS
 10
497.9277527505
 20
255.529046177
 40
422.2933311746
100
AcDbArc
 50
178.190890176
 51
178.5642719258
  0
ARC
  5
3AE
100
AcDbEntity
  8
0
100
AcDbCircle
 62
7
  6
CONTINUOUS
 10
201.0619872698
 20
257.7700917248
 40
141.0923313699
100
AcDbArc
 50
174.6386159477
 51
175.7498783967
  0
ARC
  5
3AF
100
AcDbEntity
  8
0
100
AcDbCircle
 62
7
  6
CONTINUOUS
 10
137.5519575469
 20
262.3448180757
 40
89.9472321447
100
AcDbArc
 50
171.79341721
 51
173.5158652842
  0
ARC
  5
3B0
100
AcDbEntity
  8
0
100
AcDbCircle
 62
7
  6
CONTINUOUS
 10
118.8244965332
 20
273.0982882659
 40
81.7239744186
100
AcDbArc
 50
179.0372895612
 51
179.9994252174
  0
ARC
  5
3B1
100
AcDbEntity
  8
0
100
AcDbCircle
 62
7
  6
CONTINUOUS
 10
113.305971595
 20
274.1055715527
 40
75.4891820564
100
AcDbArc
 50
172.3700107295
 51
177.9158198464
  0
ARC
  5
3B2
100
AcDbEntity
  8
0
100
AcDbCircle
 62
7
  6
CONTINUOUS
 10
113.0658631917
 20
272.9364952601
 40
73.9798041831
100
AcDbArc
 50
169.5705145739
 51
170.9779936124
  0
ARC
  5
3B3
100
AcDbEntity
  8
0
100
AcDbCircle
 62
7
  6
CONTINUOUS
 10
112.3772786088
 20
268.4990354669
 40
71.9582837554
100
AcDbArc
 50
170.0689200328
 51
172.1826480559
  0
ARC
  5
3B4
100
AcDbEntity
  8
0
100
AcDbCircle
 62
7
  6
CONTINUOUS
 10
120.3229547603
 20
225.0521671779
 40
49.111938331
100
AcDbArc
 50
108.2942336475
 51
110.2732120132
  0
ARC
  5
3B5
100
AcDbEntity
  8
0
100
AcDbCircle
 62
7
  6
CONTINUOUS
 10
117.2051760096
 20
225.8515088982
 40
47.4701499967
100
AcDbArc
 50
105.313846599
 51
107.0763430413
  0
ARC
  5
3B6
100
AcDbEntity
  8
0
100
AcDbCircle
 62
7
  6
CONTINUOUS
 10
116.4658112553
 20
228.4566691193
 40
44.7622258304
100
AcDbArc
 50
104.9946103515
 51
105.2817521064
  0
ARC
  5
3B7
100
AcDbEntity
  8
0
100
AcDbCircle
 62
7
  6
CONTINUOUS
 10
119.0760472799
 20
232.3536021775
 40
41.5098295356
100
AcDbArc
 50
109.7352712337
 51
112.1928575101
  0
ARC
  5
3B8
100
AcDbEntity
  8
0
100
AcDbCircle
 62
7
  6
CONTINUOUS
 10
102.248938874
 20
299.4609304138
 40
27.0998988536
100
AcDbArc
 50
300.981585701
 51
301.5031753118
  0
ARC
  5
3B9
100
AcDbEntity
  8
0
100
AcDbCircle
 62
7
  6
CONTINUOUS
 10
104.2990289916
 20
280.600567772
 40
18.1521269817
100
AcDbArc
 50
51.5683215257
 51
52.9528911204
  0
ARC
  5
3BA
100
AcDbEntity
  8
0
100
AcDbCircle
 62
7
  6
CONTINUOUS
 10
105.5211758893
 20
290.3368036376
 40
17.7214687974
100
AcDbArc
 50
307.1884004141
 51
307.9113534055
  0
ARC
  5
3BB
100
AcDbEntity
  8
0
100
AcDbCircle
 62
7
  6
CONTINUOUS
 10
105.0405030267
 20
281.5350371616
 40
16.9592243099
100
AcDbArc
 50
49.5716704065
 51
51.5682715743
  0
ARC
  5
3BC
100
AcDbEntity
  8
0
100
AcDbCircle
 62
7
  6
CONTINUOUS
 10
111.4492578414
 20
283.9397590541
 40
11.6862461111
100
AcDbArc
 50
26.4920246374
 51
27.0236058244
  0
ARC
  5
3BD
100
AcDbEntity
  8
0
100
AcDbCircle
 62
7
  6
CONTINUOUS
 10
111.8251021893
 20
284.1225146701
 40
11.2683451019
100
AcDbArc
 50
22.2279829616
 51
26.5128131718
  0
ARC
  5
3BE
100
AcDbEntity
  8
0
100
AcDbCircle
 62
7
  6
CONTINUOUS
 10
114.8457637165
 20
285.6845663865
 40
8.213044668
100
AcDbArc
 50
334.2683493764
 51
335.4242518017
  0
ARC
  5
3BF
100
AcDbEntity
  8
0
100
AcDbCircle
 62
7
  6
CONTINUOUS
 10
116.3832070777
 20
285.1350178658
 40
6.5866167854
100
AcDbArc
 50
6.4410286436
 51
10.4412546388
  0
ARC
  5
3C0
100
AcDbEntity
  8
0
100
AcDbCircle
 62
7
  6
CONTINUOUS
 10
116.3273582092
 20
282.9233374896
 40
6.2726231757
100
AcDbArc
 50
350.8237093761
 51
358.3241455129
  0
ARC
  5
3C1
100
AcDbEntity
  8
0
100
AcDbCircle
 62
7
  6
CONTINUOUS
 10
116.4305075885
 20
283.3941968074
 40
5.9910677499
100
AcDbArc
 50
347.6830974498
 51
349.1728218811
  0
ARC
  5
3C2
100
AcDbEntity
  8
0
100
AcDbCircle
 62
7
  6
CONTINUOUS
 10
108.1632844856
 20
287.169795863
 40
5.4295152359
100
AcDbArc
 50
12.6759077777
 51
17.7101273381
  0
ARC
  5
3C3
100
AcDbEntity
  8
0
100
AcDbCircle
 62
7
  6
CONTINUOUS
 10
108.383492192
 20
287.2211662774
 40
5.2034024666
100
AcDbArc
 50
9.6365096116
 51
12.6561221287
  0
ARC
  5
3C4
100
AcDbEntity
  8
0
100
AcDbCircle
 62
7
  6
CONTINUOUS
 10
108.514149896
 20
287.2433182814
 40
5.0708802201
100
AcDbArc
 50
5.7579709611
 51
9.6368743231
  0
ARC
  5
3C5
100
AcDbEntity
  8
0
100
AcDbCircle
 62
7
  6
CONTINUOUS
 10
108.5759728146
 20
288.1101410451
 40
5.0085679001
100
AcDbArc
 50
0.1663489657
 51
8.6419739779
  0
ARC
  5
3C6
100
AcDbEntity
  8
0
100
AcDbCircle
 62
7
  6
CONTINUOUS
 10
108.4125391558
 20
288.8516739521
 40
4.9719825441
100
AcDbArc
 50
352.0948276349
 51
359.975434508
  0
ARC
  5
3C7
100
AcDbEntity
  8
0
100
AcDbCircle
 62
7
  6
CONTINUOUS
 10
109.0681282471
 20
288.1233741042
 40
4.5165980212
100
AcDbArc
 50
347.3528507994
 51
0.0032363324
  0
SPLINE
  5
3C8
100
AcDbEntity
  8
0
100
AcDbSpline
 62
7
  6
CONTINUOUS
 70
0
 71
3
 72
23
 73
19
 74
0
 42
0.0000001
 43
0.0000001
 44
0.0000000001
 40
0.0
 40
0.0
 40
0.0
 40
0.0
 40
0.0583868746
 40
0.1179407339
 40
0.1789676551
 40
0.2415802983
 40
0.3056948444
 40
0.3710439078
 40
0.4372147883
 40
0.5036998445
 40
0.5699559399
 40
0.6354659497
 40
0.6997980444
 40
0.7626593745
 40
0.8239347131
 40
0.8837075617
 40
0.9422508984
 40
1.0
 40
1.0
 40
1.0
 40
1.0
 10
32.175889038
 20
196.8059243428
 30
0.0
 10
32.3575923417
 20
196.8301180447
 30
0.0
 10
32.7205214508
 20
196.9174012725
 30
0.0
 10
33.2332792519
 20
197.1550858675
 30
0.0
 10
33.7037139242
 20
197.4914894366
 30
0.0
 10
34.117857535
 20
197.9149374317
 30
0.0
 10
34.4642222563
 20
198.4117644531
 30
0.0
 10
34.7332343665
 20
198.9666297086
 30
0.0
 10
34.9174457736
 20
199.5627938814
 30
0.0
 10
35.0116708222
 20
200.1824550469
 30
0.0
 10
35.0131383384
 20
200.8071905353
 30
0.0
 10
34.9215437879
 20
201.4184398174
 30
0.0
 10
34.7390573067
 20
201.9979660066
 30
0.0
 10
34.4702742729
 20
202.5282553987
 30
0.0
 10
34.1222085236
 20
202.992806037
 30
0.0
 10
33.7042685272
 20
203.3764200822
 30
0.0
 10
33.2290227072
 20
203.6655938693
 30
0.0
 10
32.882020728
 20
203.7887958895
 30
0.0
 10
32.7057390038
 20
203.8311765086
 30
0.0
  0
LINE
  5
3C9
100
AcDbEntity
  8
0
100
AcDbLine
 62
7
  6
CONTINUOUS
 10
32.7027937409
 20
203.8318335724
 11
32.2101400888
 21
203.9332323664
  0
LINE
  5
3CA
100
AcDbEntity
  8
0
100
AcDbLine
 62
7
  6
CONTINUOUS
 10
31.2909542009
 20
203.9801216554
 11
31.783607853
 21
203.8787228614
  0
LINE
  5
3CB
100
AcDbEntity
  8
0
100
AcDbLine
 62
7
  6
CONTINUOUS
 10
31.2381270726
 20
196.8522673189
 11
30.7404968124
 21
196.8895613501
  0
LINE
  5
3CC
100
AcDbEntity
  8
0
100
AcDbLine
 62
7
  6
CONTINUOUS
 10
31.6596827003
 20
196.842672061
 11
32.1573129606
 21
196.8053780298
  0
SPLINE
  5
3CD
100
AcDbEntity
  8
0
100
AcDbSpline
 62
7
  6
CONTINUOUS
 70
0
 71
3
 72
14
 73
10
 74
0
 42
0.0000001
 43
0.0000001
 44
0.0000000001
 40
0.0
 40
0.0
 40
0.0
 40
0.0
 40
0.3044147114
 40
0.4489463308
 40
0.5838574547
 40
0.7064989343
 40
0.8158223307
 40
0.9125775521
 40
1.0
 40
1.0
 40
1.0
 40
1.0
 10
31.9175701816
 20
203.5540494742
 30
0.0
 10
31.9205244632
 20
203.5921042114
 30
0.0
 10
31.9193041876
 20
203.6489421243
 30
0.0
 10
31.9056088688
 20
203.7209779937
 30
0.0
 10
31.890166763
 20
203.7691394288
 30
0.0
 10
31.8696503408
 20
203.8105377335
 30
0.0
 10
31.8447977307
 20
203.8437828632
 30
0.0
 10
31.8162055366
 20
203.8676086094
 30
0.0
 10
31.7943443057
 20
203.8765129907
 30
0.0
 10
31.783607853
 20
203.8787228614
 30
0.0
  0
SPLINE
  5
3CE
100
AcDbEntity
  8
0
100
AcDbSpline
 62
7
  6
CONTINUOUS
 70
0
 71
3
 72
18
 73
14
 74
0
 42
0.0000001
 43
0.0000001
 44
0.0000000001
 40
0.0
 40
0.0
 40
0.0
 40
0.0
 40
0.0579174412
 40
0.1159417572
 40
0.1742686152
 40
0.233092481
 40
0.2925775888
 40
0.3528598178
 40
0.4759870865
 40
0.6029503531
 40
0.7333401637
 40
0.8661557482
 40
1.0
 40
1.0
 40
1.0
 40
1.0
 10
31.5469082255
 20
204.0708531789
 30
0.0
 10
31.4387282484
 20
204.0930916178
 30
0.0
 10
31.2191119625
 20
204.1239992528
 30
0.0
 10
30.8860006409
 20
204.1285931301
 30
0.0
 10
30.5531573443
 20
204.0914695695
 30
0.0
 10
30.2246966537
 20
204.0132663156
 30
0.0
 10
29.9044320285
 20
203.8950990229
 30
0.0
 10
29.4905803961
 20
203.6851810865
 30
0.0
 10
29.0113410365
 20
203.3292466257
 30
0.0
 10
28.5278721258
 20
202.7819536329
 30
0.0
 10
28.149810895
 20
202.1359294176
 30
0.0
 10
27.8921530705
 20
201.4198049222
 30
0.0
 10
27.8073265558
 20
200.9152040343
 30
0.0
 10
27.7875721779
 20
200.660743633
 30
0.0
  0
SPLINE
  5
3CF
100
AcDbEntity
  8
0
100
AcDbSpline
 62
7
  6
CONTINUOUS
 70
0
 71
3
 72
14
 73
10
 74
0
 42
0.0000001
 43
0.0000001
 44
0.0000000001
 40
0.0
 40
0.0
 40
0.0
 40
0.0
 40
0.0880727346
 40
0.1829514764
 40
0.2894802393
 40
0.4097537614
 40
0.5434202002
 40
0.6884654828
 40
1.0
 40
1.0
 40
1.0
 40
1.0
 10
31.2381270726
 20
196.8522673189
 30
0.0
 10
31.2487523466
 20
196.8514711001
 30
0.0
 10
31.271297748
 20
196.8539686684
 30
0.0
 10
31.303307437
 20
196.8694035844
 30
0.0
 10
31.3328983219
 20
196.8952321684
 30
0.0
 10
31.359327172
 20
196.9302161468
 30
0.0
 10
31.3818846737
 20
196.9730931862
 30
0.0
 10
31.4064506388
 20
197.0402945367
 30
0.0
 10
31.4161586791
 20
197.0952598014
 30
0.0
 10
31.4190758319
 20
197.1328362751
 30
0.0
  0
SPLINE
  5
3D0
100
AcDbEntity
  8
0
100
AcDbSpline
 62
7
  6
CONTINUOUS
 70
0
 71
3
 72
19
 73
15
 74
0
 42
0.0000001
 43
0.0000001
 44
0.0000000001
 40
0.0
 40
0.0
 40
0.0
 40
0.0
 40
0.1342650524
 40
0.2667674223
 40
0.3320932077
 40
0.3966295666
 40
0.4603133558
 40
0.5231120364
 40
0.6459353797
 40
0.765647162
 40
0.824689575
 40
0.883317671
 40
0.941700902
 40
1.0
 40
1.0
 40
1.0
 40
1.0
 10
27.7875721779
 20
200.660743633
 30
0.0
 10
27.76958273
 20
200.4290176765
 30
0.0
 10
27.7712618325
 20
199.9648443635
 30
0.0
 10
27.868882653
 20
199.3953778744
 30
0.0
 10
28.0032293089
 20
198.9609944604
 30
0.0
 10
28.1303980402
 20
198.6505260226
 30
0.0
 10
28.2834070876
 20
198.3568234018
 30
0.0
 10
28.5182712569
 20
197.9941341793
 30
0.0
 10
28.8692478607
 20
197.5939040639
 30
0.0
 10
29.2910152916
 20
197.2788774606
 30
0.0
 10
29.6570940462
 20
197.0905872065
 30
0.0
 10
29.9426871051
 20
196.9822573426
 30
0.0
 10
30.2374756672
 20
196.9075566356
 30
0.0
 10
30.4382007614
 20
196.8806898014
 30
0.0
 10
30.5388331102
 20
196.8730722736
 30
0.0
  0
SPLINE
  5
3D1
100
AcDbEntity
  8
0
100
AcDbSpline
 62
7
  6
CONTINUOUS
 70
0
 71
3
 72
18
 73
14
 74
0
 42
0.0000001
 43
0.0000001
 44
0.0000000001
 40
0.0
 40
0.0
 40
0.0
 40
0.0
 40
0.0567838174
 40
0.1137046948
 40
0.1710292492
 40
0.2290006126
 40
0.2878254411
 40
0.3476642984
 40
0.4705829882
 40
0.5981695327
 40
0.7298280117
 40
0.8643196715
 40
1.0
 40
1.0
 40
1.0
 40
1.0
 10
31.5469076559
 20
204.0708500486
 30
0.0
 10
31.4415904022
 20
204.0925009721
 30
0.0
 10
31.2276981943
 20
204.1224929049
 30
0.0
 10
30.9030559517
 20
204.1264572155
 30
0.0
 10
30.5782127937
 20
204.0893944049
 30
0.0
 10
30.2569538838
 20
204.0117622238
 30
0.0
 10
29.9428761545
 20
203.8944734593
 30
0.0
 10
29.5350359759
 20
203.6854063266
 30
0.0
 10
29.0608925109
 20
203.3297491203
 30
0.0
 10
28.5810163878
 20
202.7819119371
 30
0.0
 10
28.2042479912
 20
202.1334134224
 30
0.0
 10
27.9467328966
 20
201.4133091584
 30
0.0
 10
27.861716405
 20
200.9056454499
 30
0.0
 10
27.8418317193
 20
200.6495065259
 30
0.0
  0
SPLINE
  5
3D2
100
AcDbEntity
  8
0
100
AcDbSpline
 62
7
  6
CONTINUOUS
 70
0
 71
3
 72
15
 73
11
 74
0
 42
0.0000001
 43
0.0000001
 44
0.0000000001
 40
0.0
 40
0.0
 40
0.0
 40
0.0
 40
0.1141392883
 40
0.2304606379
 40
0.3500170504
 40
0.4733816949
 40
0.600633881
 40
0.7313861462
 40
0.8648559676
 40
1.0
 40
1.0
 40
1.0
 40
1.0
 10
32.8367560696
 20
203.5071601852
 30
0.0
 10
32.9935205859
 20
203.4666305193
 30
0.0
 10
33.3022418311
 20
203.350736343
 30
0.0
 10
33.7242174366
 20
203.0830291096
 30
0.0
 10
34.0954820391
 20
202.7293795937
 30
0.0
 10
34.404544947
 20
202.3013996036
 30
0.0
 10
34.6423762402
 20
201.8126557268
 30
0.0
 10
34.8020203205
 20
201.2782956758
 30
0.0
 10
34.8789100754
 20
200.7148906133
 30
0.0
 10
34.8735008172
 20
200.3322161819
 30
0.0
 10
34.8567274261
 20
200.1412348157
 30
0.0
  0
SPLINE
  5
3D3
100
AcDbEntity
  8
0
100
AcDbSpline
 62
7
  6
CONTINUOUS
 70
0
 71
3
 72
13
 73
9
 74
0
 42
0.0000001
 43
0.0000001
 44
0.0000000001
 40
0.0
 40
0.0
 40
0.0
 40
0.0
 40
0.2655770187
 40
0.5236463557
 40
0.6481262938
 40
0.7688196905
 40
0.8858938766
 40
1.0
 40
1.0
 40
1.0
 40
1.0
 10
34.8567274261
 20
200.1412348157
 30
0.0
 10
34.8238296994
 20
199.7666622127
 30
0.0
 10
34.6517904563
 20
199.0333259126
 30
0.0
 10
34.1839724383
 20
198.225943244
 30
0.0
 10
33.6862773282
 20
197.7119096392
 30
0.0
 10
33.2694640874
 20
197.408274117
 30
0.0
 10
32.8175426789
 20
197.1920140842
 30
0.0
 10
32.4980288566
 20
197.1099219058
 30
0.0
 10
32.3382617199
 20
197.085946986
 30
0.0
  0
SPLINE
  5
3D4
100
AcDbEntity
  8
0
100
AcDbSpline
 62
7
  6
CONTINUOUS
 70
0
 71
3
 72
14
 73
10
 74
0
 42
0.0000001
 43
0.0000001
 44
0.0000000001
 40
0.0
 40
0.0
 40
0.0
 40
0.0
 40
0.3051062556
 40
0.4485164405
 40
0.5822134738
 40
0.7040825884
 40
0.8134025263
 40
0.9110600163
 40
1.0
 40
1.0
 40
1.0
 40
1.0
 10
32.3382617199
 20
197.085946986
 30
0.0
 10
32.3355497544
 20
197.0510135738
 30
0.0
 10
32.3268456444
 20
196.9997793395
 30
0.0
 10
32.3051901464
 20
196.936410107
 30
0.0
 10
32.2853073533
 20
196.8949829159
 30
0.0
 10
32.2618605653
 20
196.8600431447
 30
0.0
 10
32.235475611
 20
196.8326881924
 30
0.0
 10
32.2068662014
 20
196.8137423042
 30
0.0
 10
32.1860133819
 20
196.8072796841
 30
0.0
 10
32.1758890166
 20
196.8059302268
 30
0.0
  0
SPLINE
  5
3D5
100
AcDbEntity
  8
0
100
AcDbSpline
 62
7
  6
CONTINUOUS
 70
0
 71
3
 72
13
 73
9
 74
0
 42
0.0000001
 43
0.0000001
 44
0.0000000001
 40
0.0
 40
0.0
 40
0.0
 40
0.0
 40
0.0877654774
 40
0.1850668252
 40
0.2948912048
 40
0.4178661689
 40
0.6964624901
 40
1.0
 40
1.0
 40
1.0
 40
1.0
 10
32.7057389258
 20
203.8311759657
 30
0.0
 10
32.7163471953
 20
203.8286218079
 30
0.0
 10
32.7378293723
 20
203.8191179663
 30
0.0
 10
32.7658327826
 20
203.7948604914
 30
0.0
 10
32.7901391811
 20
203.7614437531
 30
0.0
 10
32.8179001503
 20
203.7039615469
 30
0.0
 10
32.8381554503
 20
203.6176544047
 30
0.0
 10
32.8396769134
 20
203.5447842037
 30
0.0
 10
32.8367560696
 20
203.5071601852
 30
0.0
  0
SPLINE
  5
3D6
100
AcDbEntity
  8
0
100
AcDbSpline
 62
7
  6
CONTINUOUS
 70
0
 71
3
 72
13
 73
9
 74
0
 42
0.0000001
 43
0.0000001
 44
0.0000000001
 40
0.0
 40
0.0
 40
0.0
 40
0.0
 40
0.2655410157
 40
0.5225013099
 40
0.6466562123
 40
0.7674497402
 40
0.8850631672
 40
1.0
 40
1.0
 40
1.0
 40
1.0
 10
27.8418317193
 20
200.6495065259
 30
0.0
 10
27.8134114848
 20
200.2834193578
 30
0.0
 10
27.848664377
 20
199.5525865389
 30
0.0
 10
28.1281525487
 20
198.6903245781
 30
0.0
 10
28.4818957219
 20
198.0905087027
 30
0.0
 10
28.80094778
 20
197.7009850169
 30
0.0
 10
29.1691535678
 20
197.3765660587
 30
0.0
 10
29.4447637741
 20
197.2071532481
 30
0.0
 10
29.5870774315
 20
197.13639416
 30
0.0
  0
SPLINE
  5
3D7
100
AcDbEntity
  8
0
100
AcDbSpline
 62
7
  6
CONTINUOUS
 70
0
 71
3
 72
9
 73
5
 74
0
 42
0.0000001
 43
0.0000001
 44
0.0000000001
 40
0.0
 40
0.0
 40
0.0
 40
0.0
 40
0.2477978952
 40
1.0
 40
1.0
 40
1.0
 40
1.0
 10
31.5566914049
 20
198.898631157
 30
0.0
 10
31.5794102804
 20
198.9016827667
 30
0.0
 10
31.6706943618
 20
198.9168467061
 30
0.0
 10
31.7600378785
 20
198.943387345
 30
0.0
 10
31.8247516469
 20
198.9689607524
 30
0.0
  0
SPLINE
  5
3D8
100
AcDbEntity
  8
0
100
AcDbSpline
 62
7
  6
CONTINUOUS
 70
0
 71
3
 72
15
 73
11
 74
0
 42
0.0000001
 43
0.0000001
 44
0.0000000001
 40
0.0
 40
0.0
 40
0.0
 40
0.0
 40
0.114208298
 40
0.230507713
 40
0.3499855207
 40
0.4732582426
 40
0.6004418844
 40
0.7311787738
 40
0.8647102154
 40
1.0
 40
1.0
 40
1.0
 40
1.0
 10
31.2381270726
 20
196.8522673189
 30
0.0
 10
31.0661686004
 20
196.8936062843
 30
0.0
 10
30.7269967891
 20
197.0144577034
 30
0.0
 10
30.2617930941
 20
197.2993287621
 30
0.0
 10
29.8510841871
 20
197.679206793
 30
0.0
 10
29.5076456966
 20
198.1415345551
 30
0.0
 10
29.2415444537
 20
198.6715737341
 30
0.0
 10
29.0606000762
 20
199.252836377
 30
0.0
 10
28.9700185543
 20
199.8672256995
 30
0.0
 10
28.9716399705
 20
200.2853233981
 30
0.0
 10
28.9878554412
 20
200.4941983714
 30
0.0
  0
SPLINE
  5
3D9
100
AcDbEntity
  8
0
100
AcDbSpline
 62
7
  6
CONTINUOUS
 70
0
 71
3
 72
13
 73
9
 74
0
 42
0.0000001
 43
0.0000001
 44
0.0000000001
 40
0.0
 40
0.0
 40
0.0
 40
0.0
 40
0.2657417671
 40
0.5239694325
 40
0.6484505566
 40
0.769069655
 40
0.8860199219
 40
1.0
 40
1.0
 40
1.0
 40
1.0
 10
28.9878554412
 20
200.4941983714
 30
0.0
 10
29.0202345451
 20
200.9112805898
 30
0.0
 10
29.2057350062
 20
201.7290189885
 30
0.0
 10
29.724558729
 20
202.6288275531
 30
0.0
 10
30.2795719771
 20
203.1991476575
 30
0.0
 10
30.7449152802
 20
203.5338164781
 30
0.0
 10
31.2494611953
 20
203.7690175317
 30
0.0
 10
31.6057435823
 20
203.8550690323
 30
0.0
 10
31.783607853
 20
203.8787228614
 30
0.0
  0
SPLINE
  5
3DA
100
AcDbEntity
  8
0
100
AcDbSpline
 62
7
  6
CONTINUOUS
 70
0
 71
3
 72
15
 73
11
 74
0
 42
0.0000001
 43
0.0000001
 44
0.0000000001
 40
0.0
 40
0.0
 40
0.0
 40
0.0
 40
0.1141392883
 40
0.2304606379
 40
0.3500170504
 40
0.4733816949
 40
0.600633881
 40
0.7313861462
 40
0.8648559676
 40
1.0
 40
1.0
 40
1.0
 40
1.0
 10
31.4190758319
 20
197.1328362751
 30
0.0
 10
31.2623113157
 20
197.1733659409
 30
0.0
 10
30.9535900704
 20
197.2892601172
 30
0.0
 10
30.5316144649
 20
197.5569673506
 30
0.0
 10
30.1603498624
 20
197.9106168666
 30
0.0
 10
29.8512869545
 20
198.3385968566
 30
0.0
 10
29.6134556613
 20
198.8273407335
 30
0.0
 10
29.4538115811
 20
199.3617007845
 30
0.0
 10
29.3769218261
 20
199.9251058469
 30
0.0
 10
29.3823310843
 20
200.3077802783
 30
0.0
 10
29.3991044755
 20
200.4987616446
 30
0.0
  0
SPLINE
  5
3DB
100
AcDbEntity
  8
0
100
AcDbSpline
 62
7
  6
CONTINUOUS
 70
0
 71
3
 72
13
 73
9
 74
0
 42
0.0000001
 43
0.0000001
 44
0.0000000001
 40
0.0
 40
0.0
 40
0.0
 40
0.0
 40
0.2655770187
 40
0.5236463557
 40
0.6481262938
 40
0.7688196905
 40
0.8858938766
 40
1.0
 40
1.0
 40
1.0
 40
1.0
 10
29.3991044755
 20
200.4987616446
 30
0.0
 10
29.4320022021
 20
200.8733342476
 30
0.0
 10
29.6040414452
 20
201.6066705476
 30
0.0
 10
30.0718594632
 20
202.4140532162
 30
0.0
 10
30.5695545733
 20
202.928086821
 30
0.0
 10
30.9863678141
 20
203.2317223432
 30
0.0
 10
31.4382892226
 20
203.447982376
 30
0.0
 10
31.7578030449
 20
203.5300745544
 30
0.0
 10
31.9175701816
 20
203.5540494742
 30
0.0
  0
SPLINE
  5
3DC
100
AcDbEntity
  8
0
100
AcDbSpline
 62
7
  6
CONTINUOUS
 70
0
 71
3
 72
9
 73
5
 74
0
 42
0.0000001
 43
0.0000001
 44
0.0000000001
 40
0.0
 40
0.0
 40
0.0
 40
0.0
 40
0.2511810962
 40
1.0
 40
1.0
 40
1.0
 40
1.0
 10
31.5298260437
 20
199.3473465424
 30
0.0
 10
31.5541500537
 20
199.3153804991
 30
0.0
 10
31.6514650013
 20
199.1884799895
 30
0.0
 10
31.7502827826
 20
199.0627383741
 30
0.0
 10
31.8247516469
 20
198.9689607524
 30
0.0
  0
SPLINE
  5
3DD
100
AcDbEntity
  8
0
100
AcDbSpline
 62
7
  6
CONTINUOUS
 70
0
 71
3
 72
9
 73
5
 74
0
 42
0.0000001
 43
0.0000001
 44
0.0000000001
 40
0.0
 40
0.0
 40
0.0
 40
0.0
 40
0.5019445265
 40
1.0
 40
1.0
 40
1.0
 40
1.0
 10
31.8713098784
 20
200.4347780002
 30
0.0
 10
31.8657858289
 20
200.3636215272
 30
0.0
 10
31.8427594323
 20
200.2225414169
 30
0.0
 10
31.7962538927
 20
200.0873370751
 30
0.0
 10
31.7674475532
 20
200.0226429738
 30
0.0
  0
SPLINE
  5
3DE
100
AcDbEntity
  8
0
100
AcDbSpline
 62
7
  6
CONTINUOUS
 70
0
 71
3
 72
9
 73
5
 74
0
 42
0.0000001
 43
0.0000001
 44
0.0000000001
 40
0.0
 40
0.0
 40
0.0
 40
0.0
 40
0.4959208638
 40
1.0
 40
1.0
 40
1.0
 40
1.0
 10
31.8320046035
 20
200.8542162576
 30
0.0
 10
31.8506500575
 20
200.786846975
 30
0.0
 10
31.8758961
 20
200.6473287502
 30
0.0
 10
31.8768092567
 20
200.5056166772
 30
0.0
 10
31.8713098784
 20
200.4347780002
 30
0.0
  0
SPLINE
  5
3DF
100
AcDbEntity
  8
0
100
AcDbSpline
 62
7
  6
CONTINUOUS
 70
0
 71
3
 72
9
 73
5
 74
0
 42
0.0000001
 43
0.0000001
 44
0.0000000001
 40
0.0
 40
0.0
 40
0.0
 40
0.0
 40
0.2491533009
 40
1.0
 40
1.0
 40
1.0
 40
1.0
 10
32.0450711423
 20
201.806943675
 30
0.0
 10
32.0202414902
 20
201.7867075638
 30
0.0
 10
31.920725014
 20
201.7053174919
 30
0.0
 10
31.8218344791
 20
201.6231569262
 30
0.0
 10
31.7481672728
 20
201.5607780878
 30
0.0
  0
SPLINE
  5
3E0
100
AcDbEntity
  8
0
100
AcDbSpline
 62
7
  6
CONTINUOUS
 70
0
 71
3
 72
9
 73
5
 74
0
 42
0.0000001
 43
0.0000001
 44
0.0000000001
 40
0.0
 40
0.0
 40
0.0
 40
0.0
 40
0.2532709335
 40
1.0
 40
1.0
 40
1.0
 40
1.0
 10
31.8320046035
 20
200.8542162576
 30
0.0
 10
31.8014599629
 20
200.8703824335
 30
0.0
 10
31.6809950093
 20
200.934465232
 30
0.0
 10
31.5611627232
 20
200.9997597145
 30
0.0
 10
31.4724385481
 20
201.0498586773
 30
0.0
  0
SPLINE
  5
3E1
100
AcDbEntity
  8
0
100
AcDbSpline
 62
7
  6
CONTINUOUS
 70
0
 71
3
 72
9
 73
5
 74
0
 42
0.0000001
 43
0.0000001
 44
0.0000000001
 40
0.0
 40
0.0
 40
0.0
 40
0.0
 40
0.2518219697
 40
1.0
 40
1.0
 40
1.0
 40
1.0
 10
32.0450711423
 20
201.806943675
 30
0.0
 10
32.0248037149
 20
201.817690918
 30
0.0
 10
31.9430374971
 20
201.8578988603
 30
0.0
 10
31.8562508506
 20
201.8879392613
 30
0.0
 10
31.7900022926
 20
201.9039590056
 30
0.0
  0
LINE
  5
3E2
100
AcDbEntity
  8
0
100
AcDbLine
 62
7
  6
CONTINUOUS
 10
33.9139332155
 20
200.7289546768
 11
32.078908613
 21
200.7824140759
  0
SPLINE
  5
3E3
100
AcDbEntity
  8
0
100
AcDbSpline
 62
7
  6
CONTINUOUS
 70
0
 71
3
 72
9
 73
5
 74
0
 42
0.0000001
 43
0.0000001
 44
0.0000000001
 40
0.0
 40
0.0
 40
0.0
 40
0.0
 40
0.2502822993
 40
1.0
 40
1.0
 40
1.0
 40
1.0
 10
32.0219024126
 20
200.0462058744
 30
0.0
 10
32.1732999309
 20
200.0201226702
 30
0.0
 10
32.7781858781
 20
199.9157852629
 30
0.0
 10
33.3830302468
 20
199.8112070474
 30
0.0
 10
33.8364882033
 20
199.7327765474
 30
0.0
  0
SPLINE
  5
3E4
100
AcDbEntity
  8
0
100
AcDbSpline
 62
7
  6
CONTINUOUS
 70
0
 71
3
 72
9
 73
5
 74
0
 42
0.0000001
 43
0.0000001
 44
0.0000000001
 40
0.0
 40
0.0
 40
0.0
 40
0.0
 40
0.2465631896
 40
1.0
 40
1.0
 40
1.0
 40
1.0
 10
31.3809648195
 20
199.8715658573
 30
0.0
 10
31.4124768515
 20
199.8846119183
 30
0.0
 10
31.5406235412
 20
199.9366995875
 30
0.0
 10
31.6698360472
 20
199.9861243241
 30
0.0
 10
31.7674475532
 20
200.0226429738
 30
0.0
  0
SPLINE
  5
3E5
100
AcDbEntity
  8
0
100
AcDbSpline
 62
7
  6
CONTINUOUS
 70
0
 71
3
 72
23
 73
19
 74
0
 42
0.0000001
 43
0.0000001
 44
0.0000000001
 40
0.0
 40
0.0
 40
0.0
 40
0.0
 40
0.0583868746
 40
0.1179407339
 40
0.1789676551
 40
0.2415802983
 40
0.3056948444
 40
0.3710439078
 40
0.4372147883
 40
0.5036998445
 40
0.5699559399
 40
0.6354659497
 40
0.6997980444
 40
0.7626593745
 40
0.8239347131
 40
0.8837075617
 40
0.9422508984
 40
1.0
 40
1.0
 40
1.0
 40
1.0
 10
23.4327403805
 20
255.136347399
 30
0.0
 10
23.6144436842
 20
255.1605411009
 30
0.0
 10
23.9773727933
 20
255.2478243287
 30
0.0
 10
24.4901305944
 20
255.4855089237
 30
0.0
 10
24.9605652667
 20
255.8219124928
 30
0.0
 10
25.3747088775
 20
256.2453604879
 30
0.0
 10
25.7210735988
 20
256.7421875094
 30
0.0
 10
25.990085709
 20
257.2970527648
 30
0.0
 10
26.1742971161
 20
257.8932169377
 30
0.0
 10
26.2685221647
 20
258.5128781032
 30
0.0
 10
26.2699896809
 20
259.1376135915
 30
0.0
 10
26.1783951304
 20
259.7488628736
 30
0.0
 10
25.9959086492
 20
260.3283890628
 30
0.0
 10
25.7271256154
 20
260.858678455
 30
0.0
 10
25.3790598661
 20
261.3232290932
 30
0.0
 10
24.9611198697
 20
261.7068431384
 30
0.0
 10
24.4858740497
 20
261.9960169256
 30
0.0
 10
24.1388720705
 20
262.1192189458
 30
0.0
 10
23.9625903463
 20
262.1615995648
 30
0.0
  0
LINE
  5
3E6
100
AcDbEntity
  8
0
100
AcDbLine
 62
7
  6
CONTINUOUS
 10
23.9596450834
 20
262.1622566286
 11
23.4669914313
 21
262.2636554226
  0
LINE
  5
3E7
100
AcDbEntity
  8
0
100
AcDbLine
 62
7
  6
CONTINUOUS
 10
22.5478055434
 20
262.3105447116
 11
23.0404591955
 21
262.2091459176
  0
LINE
  5
3E8
100
AcDbEntity
  8
0
100
AcDbLine
 62
7
  6
CONTINUOUS
 10
22.4949784151
 20
255.1826903751
 11
21.9973481549
 21
255.2199844063
  0
LINE
  5
3E9
100
AcDbEntity
  8
0
100
AcDbLine
 62
7
  6
CONTINUOUS
 10
22.9165340428
 20
255.1730951173
 11
23.4141643031
 21
255.1358010861
  0
SPLINE
  5
3EA
100
AcDbEntity
  8
0
100
AcDbSpline
 62
7
  6
CONTINUOUS
 70
0
 71
3
 72
14
 73
10
 74
0
 42
0.0000001
 43
0.0000001
 44
0.0000000001
 40
0.0
 40
0.0
 40
0.0
 40
0.0
 40
0.3044147114
 40
0.4489463308
 40
0.5838574547
 40
0.7064989343
 40
0.8158223307
 40
0.9125775521
 40
1.0
 40
1.0
 40
1.0
 40
1.0
 10
23.1744215241
 20
261.8844725305
 30
0.0
 10
23.1773758057
 20
261.9225272676
 30
0.0
 10
23.1761555301
 20
261.9793651805
 30
0.0
 10
23.1624602113
 20
262.05140105
 30
0.0
 10
23.1470181055
 20
262.099562485
 30
0.0
 10
23.1265016833
 20
262.1409607897
 30
0.0
 10
23.1016490732
 20
262.1742059195
 30
0.0
 10
23.0730568791
 20
262.1980316657
 30
0.0
 10
23.0511956482
 20
262.2069360469
 30
0.0
 10
23.0404591955
 20
262.2091459176
 30
0.0
  0
SPLINE
  5
3EB
100
AcDbEntity
  8
0
100
AcDbSpline
 62
7
  6
CONTINUOUS
 70
0
 71
3
 72
18
 73
14
 74
0
 42
0.0000001
 43
0.0000001
 44
0.0000000001
 40
0.0
 40
0.0
 40
0.0
 40
0.0
 40
0.0579174412
 40
0.1159417572
 40
0.1742686152
 40
0.233092481
 40
0.2925775888
 40
0.3528598178
 40
0.4759870865
 40
0.6029503531
 40
0.7333401637
 40
0.8661557482
 40
1.0
 40
1.0
 40
1.0
 40
1.0
 10
22.803759568
 20
262.4012762351
 30
0.0
 10
22.6955795909
 20
262.423514674
 30
0.0
 10
22.4759633049
 20
262.454422309
 30
0.0
 10
22.1428519834
 20
262.4590161863
 30
0.0
 10
21.8100086868
 20
262.4218926257
 30
0.0
 10
21.4815479962
 20
262.3436893718
 30
0.0
 10
21.161283371
 20
262.2255220792
 30
0.0
 10
20.7474317386
 20
262.0156041427
 30
0.0
 10
20.268192379
 20
261.6596696819
 30
0.0
 10
19.7847234683
 20
261.1123766891
 30
0.0
 10
19.4066622375
 20
260.4663524738
 30
0.0
 10
19.149004413
 20
259.7502279784
 30
0.0
 10
19.0641778983
 20
259.2456270906
 30
0.0
 10
19.0444235204
 20
258.9911666893
 30
0.0
  0
SPLINE
  5
3EC
100
AcDbEntity
  8
0
100
AcDbSpline
 62
7
  6
CONTINUOUS
 70
0
 71
3
 72
14
 73
10
 74
0
 42
0.0000001
 43
0.0000001
 44
0.0000000001
 40
0.0
 40
0.0
 40
0.0
 40
0.0
 40
0.0880727346
 40
0.1829514764
 40
0.2894802393
 40
0.4097537614
 40
0.5434202002
 40
0.6884654828
 40
1.0
 40
1.0
 40
1.0
 40
1.0
 10
22.4949784151
 20
255.1826903751
 30
0.0
 10
22.5056036891
 20
255.1818941564
 30
0.0
 10
22.5281490905
 20
255.1843917246
 30
0.0
 10
22.5601587795
 20
255.1998266407
 30
0.0
 10
22.5897496644
 20
255.2256552246
 30
0.0
 10
22.6161785145
 20
255.260639203
 30
0.0
 10
22.6387360162
 20
255.3035162425
 30
0.0
 10
22.6633019813
 20
255.3707175929
 30
0.0
 10
22.6730100216
 20
255.4256828577
 30
0.0
 10
22.6759271744
 20
255.4632593313
 30
0.0
  0
SPLINE
  5
3ED
100
AcDbEntity
  8
0
100
AcDbSpline
 62
7
  6
CONTINUOUS
 70
0
 71
3
 72
19
 73
15
 74
0
 42
0.0000001
 43
0.0000001
 44
0.0000000001
 40
0.0
 40
0.0
 40
0.0
 40
0.0
 40
0.1342650524
 40
0.2667674223
 40
0.3320932077
 40
0.3966295666
 40
0.4603133558
 40
0.5231120364
 40
0.6459353797
 40
0.765647162
 40
0.824689575
 40
0.883317671
 40
0.941700902
 40
1.0
 40
1.0
 40
1.0
 40
1.0
 10
19.0444235204
 20
258.9911666893
 30
0.0
 10
19.0264340725
 20
258.7594407327
 30
0.0
 10
19.028113175
 20
258.2952674198
 30
0.0
 10
19.1257339955
 20
257.7258009307
 30
0.0
 10
19.2600806514
 20
257.2914175166
 30
0.0
 10
19.3872493827
 20
256.9809490788
 30
0.0
 10
19.5402584301
 20
256.687246458
 30
0.0
 10
19.7751225994
 20
256.3245572356
 30
0.0
 10
20.1260992032
 20
255.9243271202
 30
0.0
 10
20.5478666341
 20
255.6093005168
 30
0.0
 10
20.9139453887
 20
255.4210102628
 30
0.0
 10
21.1995384476
 20
255.3126803989
 30
0.0
 10
21.4943270097
 20
255.2379796919
 30
0.0
 10
21.6950521039
 20
255.2111128576
 30
0.0
 10
21.7956844527
 20
255.2034953299
 30
0.0
  0
SPLINE
  5
3EE
100
AcDbEntity
  8
0
100
AcDbSpline
 62
7
  6
CONTINUOUS
 70
0
 71
3
 72
18
 73
14
 74
0
 42
0.0000001
 43
0.0000001
 44
0.0000000001
 40
0.0
 40
0.0
 40
0.0
 40
0.0
 40
0.0567838174
 40
0.1137046948
 40
0.1710292492
 40
0.2290006126
 40
0.2878254411
 40
0.3476642984
 40
0.4705829882
 40
0.5981695327
 40
0.7298280117
 40
0.8643196715
 40
1.0
 40
1.0
 40
1.0
 40
1.0
 10
22.8037589984
 20
262.4012731049
 30
0.0
 10
22.6984417447
 20
262.4229240283
 30
0.0
 10
22.4845495368
 20
262.4529159612
 30
0.0
 10
22.1599072942
 20
262.4568802718
 30
0.0
 10
21.8350641362
 20
262.4198174611
 30
0.0
 10
21.5138052263
 20
262.34218528
 30
0.0
 10
21.199727497
 20
262.2248965155
 30
0.0
 10
20.7918873184
 20
262.0158293828
 30
0.0
 10
20.3177438534
 20
261.6601721765
 30
0.0
 10
19.8378677303
 20
261.1123349934
 30
0.0
 10
19.4610993337
 20
260.4638364787
 30
0.0
 10
19.2035842391
 20
259.7437322146
 30
0.0
 10
19.1185677475
 20
259.2360685062
 30
0.0
 10
19.0986830618
 20
258.9799295821
 30
0.0
  0
SPLINE
  5
3EF
100
AcDbEntity
  8
0
100
AcDbSpline
 62
7
  6
CONTINUOUS
 70
0
 71
3
 72
15
 73
11
 74
0
 42
0.0000001
 43
0.0000001
 44
0.0000000001
 40
0.0
 40
0.0
 40
0.0
 40
0.0
 40
0.1141392883
 40
0.2304606379
 40
0.3500170504
 40
0.4733816949
 40
0.600633881
 40
0.7313861462
 40
0.8648559676
 40
1.0
 40
1.0
 40
1.0
 40
1.0
 10
24.0936074121
 20
261.8375832414
 30
0.0
 10
24.2503719284
 20
261.7970535756
 30
0.0
 10
24.5590931736
 20
261.6811593993
 30
0.0
 10
24.9810687791
 20
261.4134521658
 30
0.0
 10
25.3523333816
 20
261.0598026499
 30
0.0
 10
25.6613962895
 20
260.6318226599
 30
0.0
 10
25.8992275827
 20
260.143078783
 30
0.0
 10
26.058871663
 20
259.608718732
 30
0.0
 10
26.1357614179
 20
259.0453136695
 30
0.0
 10
26.1303521597
 20
258.6626392381
 30
0.0
 10
26.1135787686
 20
258.4716578719
 30
0.0
  0
SPLINE
  5
3F0
100
AcDbEntity
  8
0
100
AcDbSpline
 62
7
  6
CONTINUOUS
 70
0
 71
3
 72
13
 73
9
 74
0
 42
0.0000001
 43
0.0000001
 44
0.0000000001
 40
0.0
 40
0.0
 40
0.0
 40
0.0
 40
0.2655770187
 40
0.5236463557
 40
0.6481262938
 40
0.7688196905
 40
0.8858938766
 40
1.0
 40
1.0
 40
1.0
 40
1.0
 10
26.1135787686
 20
258.4716578719
 30
0.0
 10
26.0806810419
 20
258.0970852689
 30
0.0
 10
25.9086417988
 20
257.3637489689
 30
0.0
 10
25.4408237808
 20
256.5563663002
 30
0.0
 10
24.9431286707
 20
256.0423326955
 30
0.0
 10
24.5263154299
 20
255.7386971732
 30
0.0
 10
24.0743940214
 20
255.5224371405
 30
0.0
 10
23.7548801991
 20
255.4403449621
 30
0.0
 10
23.5951130624
 20
255.4163700423
 30
0.0
  0
SPLINE
  5
3F1
100
AcDbEntity
  8
0
100
AcDbSpline
 62
7
  6
CONTINUOUS
 70
0
 71
3
 72
14
 73
10
 74
0
 42
0.0000001
 43
0.0000001
 44
0.0000000001
 40
0.0
 40
0.0
 40
0.0
 40
0.0
 40
0.3051062556
 40
0.4485164405
 40
0.5822134738
 40
0.7040825884
 40
0.8134025263
 40
0.9110600163
 40
1.0
 40
1.0
 40
1.0
 40
1.0
 10
23.5951130624
 20
255.4163700423
 30
0.0
 10
23.5924010969
 20
255.3814366301
 30
0.0
 10
23.5836969869
 20
255.3302023957
 30
0.0
 10
23.5620414889
 20
255.2668331632
 30
0.0
 10
23.5421586958
 20
255.2254059721
 30
0.0
 10
23.5187119078
 20
255.190466201
 30
0.0
 10
23.4923269535
 20
255.1631112487
 30
0.0
 10
23.4637175439
 20
255.1441653605
 30
0.0
 10
23.4428647244
 20
255.1377027403
 30
0.0
 10
23.4327403591
 20
255.136353283
 30
0.0
  0
SPLINE
  5
3F2
100
AcDbEntity
  8
0
100
AcDbSpline
 62
7
  6
CONTINUOUS
 70
0
 71
3
 72
13
 73
9
 74
0
 42
0.0000001
 43
0.0000001
 44
0.0000000001
 40
0.0
 40
0.0
 40
0.0
 40
0.0
 40
0.0877654774
 40
0.1850668252
 40
0.2948912048
 40
0.4178661689
 40
0.6964624901
 40
1.0
 40
1.0
 40
1.0
 40
1.0
 10
23.9625902683
 20
262.1615990219
 30
0.0
 10
23.9731985378
 20
262.1590448641
 30
0.0
 10
23.9946807148
 20
262.1495410225
 30
0.0
 10
24.0226841251
 20
262.1252835477
 30
0.0
 10
24.0469905236
 20
262.0918668093
 30
0.0
 10
24.0747514928
 20
262.0343846031
 30
0.0
 10
24.0950067928
 20
261.9480774609
 30
0.0
 10
24.0965282559
 20
261.87520726
 30
0.0
 10
24.0936074121
 20
261.8375832414
 30
0.0
  0
SPLINE
  5
3F3
100
AcDbEntity
  8
0
100
AcDbSpline
 62
7
  6
CONTINUOUS
 70
0
 71
3
 72
13
 73
9
 74
0
 42
0.0000001
 43
0.0000001
 44
0.0000000001
 40
0.0
 40
0.0
 40
0.0
 40
0.0
 40
0.2655410157
 40
0.5225013099
 40
0.6466562123
 40
0.7674497402
 40
0.8850631672
 40
1.0
 40
1.0
 40
1.0
 40
1.0
 10
19.0986830618
 20
258.9799295821
 30
0.0
 10
19.0702628273
 20
258.613842414
 30
0.0
 10
19.1055157194
 20
257.8830095951
 30
0.0
 10
19.3850038912
 20
257.0207476344
 30
0.0
 10
19.7387470644
 20
256.420931759
 30
0.0
 10
20.0577991225
 20
256.0314080732
 30
0.0
 10
20.4260049103
 20
255.7069891149
 30
0.0
 10
20.7016151166
 20
255.5375763043
 30
0.0
 10
20.843928774
 20
255.4668172163
 30
0.0
  0
SPLINE
  5
3F4
100
AcDbEntity
  8
0
100
AcDbSpline
 62
7
  6
CONTINUOUS
 70
0
 71
3
 72
9
 73
5
 74
0
 42
0.0000001
 43
0.0000001
 44
0.0000000001
 40
0.0
 40
0.0
 40
0.0
 40
0.0
 40
0.2477978952
 40
1.0
 40
1.0
 40
1.0
 40
1.0
 10
22.8135427474
 20
257.2290542132
 30
0.0
 10
22.8362616229
 20
257.2321058229
 30
0.0
 10
22.9275457043
 20
257.2472697623
 30
0.0
 10
23.0168892209
 20
257.2738104012
 30
0.0
 10
23.0816029894
 20
257.2993838087
 30
0.0
  0
SPLINE
  5
3F5
100
AcDbEntity
  8
0
100
AcDbSpline
 62
7
  6
CONTINUOUS
 70
0
 71
3
 72
15
 73
11
 74
0
 42
0.0000001
 43
0.0000001
 44
0.0000000001
 40
0.0
 40
0.0
 40
0.0
 40
0.0
 40
0.114208298
 40
0.230507713
 40
0.3499855207
 40
0.4732582426
 40
0.6004418844
 40
0.7311787738
 40
0.8647102154
 40
1.0
 40
1.0
 40
1.0
 40
1.0
 10
22.4949784151
 20
255.1826903751
 30
0.0
 10
22.3230199429
 20
255.2240293405
 30
0.0
 10
21.9838481316
 20
255.3448807597
 30
0.0
 10
21.5186444366
 20
255.6297518184
 30
0.0
 10
21.1079355296
 20
256.0096298493
 30
0.0
 10
20.7644970391
 20
256.4719576113
 30
0.0
 10
20.4983957962
 20
257.0019967904
 30
0.0
 10
20.3174514187
 20
257.5832594332
 30
0.0
 10
20.2268698968
 20
258.1976487557
 30
0.0
 10
20.228491313
 20
258.6157464544
 30
0.0
 10
20.2447067837
 20
258.8246214277
 30
0.0
  0
SPLINE
  5
3F6
100
AcDbEntity
  8
0
100
AcDbSpline
 62
7
  6
CONTINUOUS
 70
0
 71
3
 72
13
 73
9
 74
0
 42
0.0000001
 43
0.0000001
 44
0.0000000001
 40
0.0
 40
0.0
 40
0.0
 40
0.0
 40
0.2657417671
 40
0.5239694325
 40
0.6484505566
 40
0.769069655
 40
0.8860199219
 40
1.0
 40
1.0
 40
1.0
 40
1.0
 10
20.2447067837
 20
258.8246214277
 30
0.0
 10
20.2770858875
 20
259.241703646
 30
0.0
 10
20.4625863487
 20
260.0594420447
 30
0.0
 10
20.9814100715
 20
260.9592506093
 30
0.0
 10
21.5364233196
 20
261.5295707137
 30
0.0
 10
22.0017666227
 20
261.8642395343
 30
0.0
 10
22.5063125378
 20
262.099440588
 30
0.0
 10
22.8625949248
 20
262.1854920886
 30
0.0
 10
23.0404591955
 20
262.2091459176
 30
0.0
  0
SPLINE
  5
3F7
100
AcDbEntity
  8
0
100
AcDbSpline
 62
7
  6
CONTINUOUS
 70
0
 71
3
 72
15
 73
11
 74
0
 42
0.0000001
 43
0.0000001
 44
0.0000000001
 40
0.0
 40
0.0
 40
0.0
 40
0.0
 40
0.1141392883
 40
0.2304606379
 40
0.3500170504
 40
0.4733816949
 40
0.600633881
 40
0.7313861462
 40
0.8648559676
 40
1.0
 40
1.0
 40
1.0
 40
1.0
 10
22.6759271744
 20
255.4632593313
 30
0.0
 10
22.5191626582
 20
255.5037889971
 30
0.0
 10
22.2104414129
 20
255.6196831734
 30
0.0
 10
21.7884658074
 20
255.8873904069
 30
0.0
 10
21.4172012049
 20
256.2410399228
 30
0.0
 10
21.108138297
 20
256.6690199128
 30
0.0
 10
20.8703070038
 20
257.1577637897
 30
0.0
 10
20.7106629236
 20
257.6921238407
 30
0.0
 10
20.6337731686
 20
258.2555289032
 30
0.0
 10
20.6391824268
 20
258.6382033346
 30
0.0
 10
20.655955818
 20
258.8291847008
 30
0.0
  0
SPLINE
  5
3F8
100
AcDbEntity
  8
0
100
AcDbSpline
 62
7
  6
CONTINUOUS
 70
0
 71
3
 72
13
 73
9
 74
0
 42
0.0000001
 43
0.0000001
 44
0.0000000001
 40
0.0
 40
0.0
 40
0.0
 40
0.0
 40
0.2655770187
 40
0.5236463557
 40
0.6481262938
 40
0.7688196905
 40
0.8858938766
 40
1.0
 40
1.0
 40
1.0
 40
1.0
 10
20.655955818
 20
258.8291847008
 30
0.0
 10
20.6888535446
 20
259.2037573038
 30
0.0
 10
20.8608927877
 20
259.9370936039
 30
0.0
 10
21.3287108057
 20
260.7444762725
 30
0.0
 10
21.8264059158
 20
261.2585098772
 30
0.0
 10
22.2432191566
 20
261.5621453995
 30
0.0
 10
22.6951405651
 20
261.7784054323
 30
0.0
 10
23.0146543874
 20
261.8604976106
 30
0.0
 10
23.1744215241
 20
261.8844725305
 30
0.0
  0
SPLINE
  5
3F9
100
AcDbEntity
  8
0
100
AcDbSpline
 62
7
  6
CONTINUOUS
 70
0
 71
3
 72
9
 73
5
 74
0
 42
0.0000001
 43
0.0000001
 44
0.0000000001
 40
0.0
 40
0.0
 40
0.0
 40
0.0
 40
0.2511810962
 40
1.0
 40
1.0
 40
1.0
 40
1.0
 10
22.7866773862
 20
257.6777695986
 30
0.0
 10
22.8110013962
 20
257.6458035554
 30
0.0
 10
22.9083163438
 20
257.5189030458
 30
0.0
 10
23.0071341251
 20
257.3931614303
 30
0.0
 10
23.0816029894
 20
257.2993838087
 30
0.0
  0
SPLINE
  5
3FA
100
AcDbEntity
  8
0
100
AcDbSpline
 62
7
  6
CONTINUOUS
 70
0
 71
3
 72
9
 73
5
 74
0
 42
0.0000001
 43
0.0000001
 44
0.0000000001
 40
0.0
 40
0.0
 40
0.0
 40
0.0
 40
0.5019445265
 40
1.0
 40
1.0
 40
1.0
 40
1.0
 10
23.1281612209
 20
258.7652010564
 30
0.0
 10
23.1226371714
 20
258.6940445835
 30
0.0
 10
23.0996107748
 20
258.5529644732
 30
0.0
 10
23.0531052352
 20
258.4177601313
 30
0.0
 10
23.0242988957
 20
258.3530660301
 30
0.0
  0
SPLINE
  5
3FB
100
AcDbEntity
  8
0
100
AcDbSpline
 62
7
  6
CONTINUOUS
 70
0
 71
3
 72
9
 73
5
 74
0
 42
0.0000001
 43
0.0000001
 44
0.0000000001
 40
0.0
 40
0.0
 40
0.0
 40
0.0
 40
0.4959208638
 40
1.0
 40
1.0
 40
1.0
 40
1.0
 10
23.088855946
 20
259.1846393139
 30
0.0
 10
23.1075014
 20
259.1172700312
 30
0.0
 10
23.1327474425
 20
258.9777518065
 30
0.0
 10
23.1336605992
 20
258.8360397334
 30
0.0
 10
23.1281612209
 20
258.7652010564
 30
0.0
  0
SPLINE
  5
3FC
100
AcDbEntity
  8
0
100
AcDbSpline
 62
7
  6
CONTINUOUS
 70
0
 71
3
 72
9
 73
5
 74
0
 42
0.0000001
 43
0.0000001
 44
0.0000000001
 40
0.0
 40
0.0
 40
0.0
 40
0.0
 40
0.2491533009
 40
1.0
 40
1.0
 40
1.0
 40
1.0
 10
23.3019224848
 20
260.1373667312
 30
0.0
 10
23.2770928327
 20
260.1171306201
 30
0.0
 10
23.1775763565
 20
260.0357405481
 30
0.0
 10
23.0786858216
 20
259.9535799825
 30
0.0
 10
23.0050186153
 20
259.891201144
 30
0.0
  0
SPLINE
  5
3FD
100
AcDbEntity
  8
0
100
AcDbSpline
 62
7
  6
CONTINUOUS
 70
0
 71
3
 72
9
 73
5
 74
0
 42
0.0000001
 43
0.0000001
 44
0.0000000001
 40
0.0
 40
0.0
 40
0.0
 40
0.0
 40
0.2532709335
 40
1.0
 40
1.0
 40
1.0
 40
1.0
 10
23.088855946
 20
259.1846393139
 30
0.0
 10
23.0583113054
 20
259.2008054897
 30
0.0
 10
22.9378463518
 20
259.2648882883
 30
0.0
 10
22.8180140657
 20
259.3301827707
 30
0.0
 10
22.7292898906
 20
259.3802817336
 30
0.0
  0
SPLINE
  5
3FE
100
AcDbEntity
  8
0
100
AcDbSpline
 62
7
  6
CONTINUOUS
 70
0
 71
3
 72
9
 73
5
 74
0
 42
0.0000001
 43
0.0000001
 44
0.0000000001
 40
0.0
 40
0.0
 40
0.0
 40
0.0
 40
0.2518219697
 40
1.0
 40
1.0
 40
1.0
 40
1.0
 10
23.3019224848
 20
260.1373667312
 30
0.0
 10
23.2816550574
 20
260.1481139742
 30
0.0
 10
23.1998888396
 20
260.1883219165
 30
0.0
 10
23.1131021931
 20
260.2183623176
 30
0.0
 10
23.0468536351
 20
260.2343820618
 30
0.0
  0
LINE
  5
3FF
100
AcDbEntity
  8
0
100
AcDbLine
 62
7
  6
CONTINUOUS
 10
25.170784558
 20
259.059377733
 11
23.3357599555
 21
259.1128371322
  0
SPLINE
  5
400
100
AcDbEntity
  8
0
100
AcDbSpline
 62
7
  6
CONTINUOUS
 70
0
 71
3
 72
9
 73
5
 74
0
 42
0.0000001
 43
0.0000001
 44
0.0000000001
 40
0.0
 40
0.0
 40
0.0
 40
0.0
 40
0.2502822993
 40
1.0
 40
1.0
 40
1.0
 40
1.0
 10
23.2787537551
 20
258.3766289306
 30
0.0
 10
23.4301512734
 20
258.3505457264
 30
0.0
 10
24.0350372206
 20
258.2462083191
 30
0.0
 10
24.6398815893
 20
258.1416301037
 30
0.0
 10
25.0933395458
 20
258.0631996036
 30
0.0
  0
SPLINE
  5
401
100
AcDbEntity
  8
0
100
AcDbSpline
 62
7
  6
CONTINUOUS
 70
0
 71
3
 72
9
 73
5
 74
0
 42
0.0000001
 43
0.0000001
 44
0.0000000001
 40
0.0
 40
0.0
 40
0.0
 40
0.0
 40
0.2465631896
 40
1.0
 40
1.0
 40
1.0
 40
1.0
 10
22.637816162
 20
258.2019889136
 30
0.0
 10
22.669328194
 20
258.2150349746
 30
0.0
 10
22.7974748837
 20
258.2671226437
 30
0.0
 10
22.9266873897
 20
258.3165473804
 30
0.0
 10
23.0242988957
 20
258.3530660301
 30
0.0
  0
SPLINE
  5
402
100
AcDbEntity
  8
0
100
AcDbSpline
 62
7
  6
CONTINUOUS
 70
0
 71
3
 72
17
 73
13
 74
0
 42
0.0000001
 43
0.0000001
 44
0.0000000001
 40
0.0
 40
0.0
 40
0.0
 40
0.0
 40
0.1230898135
 40
0.2507369842
 40
0.3812862037
 40
0.5121302181
 40
0.6405646998
 40
0.7646752291
 40
0.8250232959
 40
0.8842405236
 40
0.9424925217
 40
1.0
 40
1.0
 40
1.0
 40
1.0
 10
-25.1037002269
 20
250.320647444
 30
0.0
 10
-25.3108440343
 20
251.446885049
 30
0.0
 10
-25.4237521797
 20
253.8055578559
 30
0.0
 10
-24.7636761501
 20
257.3184616568
 30
0.0
 10
-23.3478774885
 20
260.6783583324
 30
0.0
 10
-21.2697086127
 20
263.6824071721
 30
0.0
 10
-18.6522207266
 20
266.1451918868
 30
0.0
 10
-16.1084311517
 20
267.6243421113
 30
0.0
 10
-13.9600044338
 20
268.3661103358
 30
0.0
 10
-12.3315359905
 20
268.6882742577
 30
0.0
 10
-10.6998656699
 20
268.7684718775
 30
0.0
 10
-9.6236141456
 20
268.6540556344
 30
0.0
 10
-9.0979644792
 20
268.5544513399
 30
0.0
  0
SPLINE
  5
403
100
AcDbEntity
  8
0
100
AcDbSpline
 62
7
  6
CONTINUOUS
 70
0
 71
3
 72
9
 73
5
 74
0
 42
0.0000001
 43
0.0000001
 44
0.0000000001
 40
0.0
 40
0.0
 40
0.0
 40
0.0
 40
0.2452798743
 40
1.0
 40
1.0
 40
1.0
 40
1.0
 10
-8.377624685
 20
268.660071717
 30
0.0
 10
-8.5914394187
 20
268.6251569422
 30
0.0
 10
-9.4594019129
 20
268.4603391624
 30
0.0
 10
-10.3101282801
 20
268.2074892943
 30
0.0
 10
-10.9347479963
 20
267.9746207935
 30
0.0
  0
SPLINE
  5
404
100
AcDbEntity
  8
0
100
AcDbSpline
 62
7
  6
CONTINUOUS
 70
0
 71
3
 72
11
 73
7
 74
0
 42
0.0000001
 43
0.0000001
 44
0.0000000001
 40
0.0
 40
0.0
 40
0.0
 40
0.0
 40
0.2546272404
 40
0.5066601154
 40
0.7552231618
 40
1.0
 40
1.0
 40
1.0
 40
1.0
 10
-10.9347479963
 20
267.9746207935
 30
0.0
 10
-11.8274448875
 20
267.28089513
 30
0.0
 10
-13.5825716035
 20
265.8728229926
 30
0.0
 10
-16.1131993668
 20
263.6712351229
 30
0.0
 10
-18.5112683251
 20
261.3888817196
 30
0.0
 10
-20.0331659002
 20
259.8125944377
 30
0.0
 10
-20.7743193264
 20
259.0176890687
 30
0.0
  0
SPLINE
  5
405
100
AcDbEntity
  8
0
100
AcDbSpline
 62
7
  6
CONTINUOUS
 70
0
 71
3
 72
17
 73
13
 74
0
 42
0.0000001
 43
0.0000001
 44
0.0000000001
 40
0.0
 40
0.0
 40
0.0
 40
0.0
 40
0.0534046964
 40
0.1084878047
 40
0.224290902
 40
0.3480279667
 40
0.478149582
 40
0.6118187404
 40
0.6789799843
 40
0.7457070259
 40
0.8760053273
 40
1.0
 40
1.0
 40
1.0
 40
1.0
 10
-9.239318072
 20
268.5182227158
 30
0.0
 10
-9.7067645448
 20
268.5811556802
 30
0.0
 10
-10.6679794458
 20
268.633633933
 30
0.0
 10
-12.6460568633
 20
268.4487687521
 30
0.0
 10
-15.1601881307
 20
267.661695559
 30
0.0
 10
-17.9783427321
 20
265.962233206
 30
0.0
 10
-20.4913928749
 20
263.6047731472
 30
0.0
 10
-22.205714879
 20
261.2133590558
 30
0.0
 10
-23.2967495422
 20
259.1137749551
 30
0.0
 10
-24.1695862059
 20
256.9464914027
 30
0.0
 10
-24.8413304712
 20
254.1721214124
 30
0.0
 10
-24.9016484926
 20
251.9047901273
 30
0.0
 10
-24.7968651422
 20
250.814708699
 30
0.0
  0
SPLINE
  5
406
100
AcDbEntity
  8
0
100
AcDbSpline
 62
7
  6
CONTINUOUS
 70
0
 71
3
 72
15
 73
11
 74
0
 42
0.0000001
 43
0.0000001
 44
0.0000000001
 40
0.0
 40
0.0
 40
0.0
 40
0.0
 40
0.0836175766
 40
0.1735327936
 40
0.2745582891
 40
0.3895840814
 40
0.5198999086
 40
0.6656225368
 40
0.8260944682
 40
1.0
 40
1.0
 40
1.0
 40
1.0
 10
49.7845471598
 20
288.8495422208
 30
0.0
 10
49.784577501
 20
289.3614692485
 30
0.0
 10
49.9564309249
 20
290.4297911911
 30
0.0
 10
50.6994812566
 20
291.9582123476
 30
0.0
 10
51.8950608889
 20
293.4173910568
 30
0.0
 10
53.5172582225
 20
294.7963493909
 30
0.0
 10
55.5429447611
 20
296.0836529153
 30
0.0
 10
57.9451249143
 20
297.2644218391
 30
0.0
 10
60.6906411244
 20
298.3226472091
 30
0.0
 10
62.6522541426
 20
298.914834498
 30
0.0
 10
63.6806400476
 20
299.1904989782
 30
0.0
  0
SPLINE
  5
407
100
AcDbEntity
  8
0
100
AcDbSpline
 62
7
  6
CONTINUOUS
 70
0
 71
3
 72
19
 73
15
 74
0
 42
0.0000001
 43
0.0000001
 44
0.0000000001
 40
0.0
 40
0.0
 40
0.0
 40
0.0
 40
0.1437927501
 40
0.2990289408
 40
0.4562714565
 40
0.6058605483
 40
0.6750130013
 40
0.7390970209
 40
0.7973619681
 40
0.8493061298
 40
0.8947794449
 40
0.9341460629
 40
0.9685228895
 40
1.0
 40
1.0
 40
1.0
 40
1.0
 10
63.6806400476
 20
299.1904989782
 30
0.0
 10
66.2043612222
 20
299.8669962758
 30
0.0
 10
71.5609286837
 20
300.8794444148
 30
0.0
 10
79.8434806494
 20
301.4916271324
 30
0.0
 10
88.2505181967
 20
301.2348326572
 30
0.0
 10
95.0348824078
 20
300.2918450002
 30
0.0
 10
100.0346986314
 20
299.0873215303
 30
0.0
 10
103.3516463663
 20
298.0231588526
 30
0.0
 10
106.2758699388
 20
296.7944767419
 30
0.0
 10
108.7572828339
 20
295.4220164977
 30
0.0
 10
110.7551397705
 20
293.9266951185
 30
0.0
 10
112.2364608214
 20
292.3241165879
 30
0.0
 10
113.1662932709
 20
290.6257630715
 30
0.0
 10
113.3845551422
 20
289.421503994
 30
0.0
 10
113.3845212428
 20
288.849542221
 30
0.0
  0
SPLINE
  5
408
100
AcDbEntity
  8
0
100
AcDbSpline
 62
7
  6
CONTINUOUS
 70
0
 71
3
 72
9
 73
5
 74
0
 42
0.0000001
 43
0.0000001
 44
0.0000000001
 40
0.0
 40
0.0
 40
0.0
 40
0.0
 40
0.2468001902
 40
1.0
 40
1.0
 40
1.0
 40
1.0
 10
113.3372732054
 20
288.1678574862
 30
0.0
 10
113.3258726925
 20
288.085628241
 30
0.0
 10
113.2714837796
 20
287.7536162841
 30
0.0
 10
113.184377016
 20
287.427112136
 30
0.0
 10
113.1026735591
 20
287.1872953485
 30
0.0
  0
SPLINE
  5
409
100
AcDbEntity
  8
0
100
AcDbSpline
 62
7
  6
CONTINUOUS
 70
0
 71
3
 72
14
 73
10
 74
0
 42
0.0000001
 43
0.0000001
 44
0.0000000001
 40
0.0
 40
0.0
 40
0.0
 40
0.0
 40
0.0856942216
 40
0.1803884929
 40
0.2862652217
 40
0.4044794541
 40
0.5353989279
 40
0.6787946145
 40
1.0
 40
1.0
 40
1.0
 40
1.0
 10
113.1026735591
 20
287.1872953485
 30
0.0
 10
112.9490178353
 20
286.7362835624
 30
0.0
 10
112.5035843157
 20
285.8262880844
 30
0.0
 10
111.5222131248
 20
284.5628872115
 30
0.0
 10
110.2175716821
 20
283.3536539937
 30
0.0
 10
108.6044137364
 20
282.2085916122
 30
0.0
 10
106.6991639992
 20
281.1371212109
 30
0.0
 10
103.6805005174
 20
279.7692688487
 30
0.0
 10
101.2134605855
 20
278.9709898108
 30
0.0
 10
99.4884283551
 20
278.5085854636
 30
0.0
  0
SPLINE
  5
40A
100
AcDbEntity
  8
0
100
AcDbSpline
 62
7
  6
CONTINUOUS
 70
0
 71
3
 72
15
 73
11
 74
0
 42
0.0000001
 43
0.0000001
 44
0.0000000001
 40
0.0
 40
0.0
 40
0.0
 40
0.0
 40
0.1238689158
 40
0.2565375465
 40
0.3938522102
 40
0.5313717319
 40
0.6646480647
 40
0.7894796039
 40
0.9021944299
 40
1.0
 40
1.0
 40
1.0
 40
1.0
 10
99.4884283551
 20
278.5085854636
 30
0.0
 10
97.6866272896
 20
278.0256028093
 30
0.0
 10
93.8992704096
 20
277.2279623905
 30
0.0
 10
88.0050289952
 20
276.5141664847
 30
0.0
 10
81.8673005422
 20
276.2585329493
 30
0.0
 10
75.7189768759
 20
276.4714535762
 30
0.0
 10
69.7926207963
 20
277.1442431311
 30
0.0
 10
64.3102436338
 20
278.2506789291
 30
0.0
 10
59.47748953
 20
279.7465926328
 30
0.0
 10
56.5789903125
 20
281.0681025423
 30
0.0
 10
55.3035415616
 20
281.8047780536
 30
0.0
  0
SPLINE
  5
40B
100
AcDbEntity
  8
0
100
AcDbSpline
 62
7
  6
CONTINUOUS
 70
0
 71
3
 72
11
 73
7
 74
0
 42
0.0000001
 43
0.0000001
 44
0.0000000001
 40
0.0
 40
0.0
 40
0.0
 40
0.0
 40
0.2962127976
 40
0.5592077367
 40
0.7918075055
 40
1.0
 40
1.0
 40
1.0
 40
1.0
 10
55.1736729947
 20
281.8803796281
 30
0.0
 10
54.531403684
 20
282.2572283126
 30
0.0
 10
53.3531032109
 20
283.030951514
 30
0.0
 10
51.8449400841
 20
284.3416934481
 30
0.0
 10
50.720654428
 20
285.7210346824
 30
0.0
 10
50.2204859627
 20
286.7248949842
 30
0.0
 10
50.0549141843
 20
287.2214012094
 30
0.0
  0
SPLINE
  5
40C
100
AcDbEntity
  8
0
100
AcDbSpline
 62
7
  6
CONTINUOUS
 70
0
 71
3
 72
9
 73
5
 74
0
 42
0.0000001
 43
0.0000001
 44
0.0000000001
 40
0.0
 40
0.0
 40
0.0
 40
0.0
 40
0.2537756891
 40
1.0
 40
1.0
 40
1.0
 40
1.0
 10
50.0549141843
 20
287.2214012094
 30
0.0
 10
50.0287225091
 20
287.299943156
 30
0.0
 10
49.9323459546
 20
287.6116598448
 30
0.0
 10
49.8641962329
 20
287.932207552
 30
0.0
 10
49.8310108175
 20
288.1733898396
 30
0.0
  0
SPLINE
  5
40D
100
AcDbEntity
  8
0
100
AcDbSpline
 62
7
  6
CONTINUOUS
 70
0
 71
3
 72
9
 73
5
 74
0
 42
0.0000001
 43
0.0000001
 44
0.0000000001
 40
0.0
 40
0.0
 40
0.0
 40
0.0
 40
0.5030224569
 40
1.0
 40
1.0
 40
1.0
 40
1.0
 10
76.7843912287
 20
210.8464620853
 30
0.0
 10
75.7173855569
 20
210.5604453649
 30
0.0
 10
73.5354034768
 20
210.1955779669
 30
0.0
 10
71.3236029045
 20
210.2773799933
 30
0.0
 10
70.2427579042
 20
210.428798881
 30
0.0
  0
SPLINE
  5
40E
100
AcDbEntity
  8
0
100
AcDbSpline
 62
7
  6
CONTINUOUS
 70
0
 71
3
 72
13
 73
9
 74
0
 42
0.0000001
 43
0.0000001
 44
0.0000000001
 40
0.0
 40
0.0
 40
0.0
 40
0.0
 40
0.2680784006
 40
0.5231816647
 40
0.6459686618
 40
0.7658127255
 40
0.8834850884
 40
1.0
 40
1.0
 40
1.0
 40
1.0
 10
60.4989571455
 20
240.5793599291
 30
0.0
 10
60.5862348927
 20
239.9970813796
 30
0.0
 10
60.9055689983
 20
238.8762785353
 30
0.0
 10
61.6785766108
 20
237.6585503104
 30
0.0
 10
62.4731239037
 20
236.9011301275
 30
0.0
 10
63.1332528126
 20
236.457311126
 30
0.0
 10
63.848629911
 20
236.1425135969
 30
0.0
 10
64.3526147209
 20
236.0237673036
 30
0.0
 10
64.606041558
 20
235.988255197
 30
0.0
  0
SPLINE
  5
40F
100
AcDbEntity
  8
0
100
AcDbSpline
 62
7
  6
CONTINUOUS
 70
0
 71
3
 72
13
 73
9
 74
0
 42
0.0000001
 43
0.0000001
 44
0.0000000001
 40
0.0
 40
0.0
 40
0.0
 40
0.0
 40
0.2680784006
 40
0.5231816647
 40
0.6459686618
 40
0.7658127255
 40
0.8834850884
 40
1.0
 40
1.0
 40
1.0
 40
1.0
 10
73.3719403865
 20
244.0300336653
 30
0.0
 10
73.4592181338
 20
243.4477551158
 30
0.0
 10
73.7785522393
 20
242.3269522715
 30
0.0
 10
74.5515598519
 20
241.1092240466
 30
0.0
 10
75.3461071448
 20
240.3518038637
 30
0.0
 10
76.0062360537
 20
239.9079848622
 30
0.0
 10
76.7216131521
 20
239.5931873331
 30
0.0
 10
77.2255979619
 20
239.4744410399
 30
0.0
 10
77.4790247991
 20
239.4389289332
 30
0.0
  0
SPLINE
  5
410
100
AcDbEntity
  8
0
100
AcDbSpline
 62
7
  6
CONTINUOUS
 70
0
 71
3
 72
13
 73
9
 74
0
 42
0.0000001
 43
0.0000001
 44
0.0000000001
 40
0.0
 40
0.0
 40
0.0
 40
0.0
 40
0.2680784006
 40
0.5231816647
 40
0.6459686618
 40
0.7658127255
 40
0.8834850884
 40
1.0
 40
1.0
 40
1.0
 40
1.0
 10
58.6796627244
 20
225.1113099175
 30
0.0
 10
58.7669404716
 20
224.529031368
 30
0.0
 10
59.0862745772
 20
223.4082285237
 30
0.0
 10
59.8592821898
 20
222.1905002988
 30
0.0
 10
60.6538294827
 20
221.4330801159
 30
0.0
 10
61.3139583915
 20
220.9892611144
 30
0.0
 10
62.0293354899
 20
220.6744635853
 30
0.0
 10
62.5333202998
 20
220.555717292
 30
0.0
 10
62.786747137
 20
220.5202051854
 30
0.0
  0
SPLINE
  5
411
100
AcDbEntity
  8
0
100
AcDbSpline
 62
7
  6
CONTINUOUS
 70
0
 71
3
 72
13
 73
9
 74
0
 42
0.0000001
 43
0.0000001
 44
0.0000000001
 40
0.0
 40
0.0
 40
0.0
 40
0.0
 40
0.2680784006
 40
0.5231816647
 40
0.6459686618
 40
0.7658127255
 40
0.8834850884
 40
1.0
 40
1.0
 40
1.0
 40
1.0
 10
79.5085871451
 20
230.6946173067
 30
0.0
 10
79.5958648923
 20
230.1123387573
 30
0.0
 10
79.9151989979
 20
228.9915359129
 30
0.0
 10
80.6882066104
 20
227.773807688
 30
0.0
 10
81.4827539033
 20
227.0163875051
 30
0.0
 10
82.1428828122
 20
226.5725685037
 30
0.0
 10
82.8582599106
 20
226.2577709746
 30
0.0
 10
83.3622447204
 20
226.1390246813
 30
0.0
 10
83.6156715576
 20
226.1035125747
 30
0.0
  0
SPLINE
  5
412
100
AcDbEntity
  8
0
100
AcDbSpline
 62
7
  6
CONTINUOUS
 70
0
 71
3
 72
13
 73
9
 74
0
 42
0.0000001
 43
0.0000001
 44
0.0000000001
 40
0.0
 40
0.0
 40
0.0
 40
0.0
 40
0.1126084257
 40
0.227816271
 40
0.3475015298
 40
0.4724025418
 40
0.7336674034
 40
1.0
 40
1.0
 40
1.0
 40
1.0
 10
74.8376979911
 20
224.488315064
 30
0.0
 10
74.570565174
 20
224.5257250939
 30
0.0
 10
74.0160739295
 20
224.5229611856
 30
0.0
 10
73.2082550188
 20
224.2845631242
 30
0.0
 10
72.4652455452
 20
223.8296110997
 30
0.0
 10
71.6053763791
 20
222.9620084999
 30
0.0
 10
70.9057470154
 20
221.5112513171
 30
0.0
 10
70.8342910775
 20
220.2111951826
 30
0.0
 10
70.9288595184
 20
219.5802763481
 30
0.0
  0
SPLINE
  5
413
100
AcDbEntity
  8
0
100
AcDbSpline
 62
7
  6
CONTINUOUS
 70
0
 71
3
 72
11
 73
7
 74
0
 42
0.0000001
 43
0.0000001
 44
0.0000000001
 40
0.0
 40
0.0
 40
0.0
 40
0.0
 40
0.2412230496
 40
0.4864011509
 40
0.7387088598
 40
1.0
 40
1.0
 40
1.0
 40
1.0
 10
82.1617029227
 20
235.5179362151
 30
0.0
 10
81.9882884793
 20
235.5422054529
 30
0.0
 10
81.6313191309
 20
235.5490771099
 30
0.0
 10
81.1032159274
 20
235.4324103847
 30
0.0
 10
80.6014776429
 20
235.1950711453
 30
0.0
 10
80.302760737
 20
234.9670464332
 30
0.0
 10
80.1636857173
 20
234.8380752114
 30
0.0
  0
SPLINE
  5
414
100
AcDbEntity
  8
0
100
AcDbSpline
 62
7
  6
CONTINUOUS
 70
0
 71
3
 72
15
 73
11
 74
0
 42
0.0000001
 43
0.0000001
 44
0.0000000001
 40
0.0
 40
0.0
 40
0.0
 40
0.0
 40
0.1122972302
 40
0.2271857688
 40
0.3465392092
 40
0.47109438
 40
0.6004024434
 40
0.7330571102
 40
0.8670061981
 40
1.0
 40
1.0
 40
1.0
 40
1.0
 10
85.2722415207
 20
237.9316276891
 30
0.0
 10
84.8783543417
 20
237.986822173
 30
0.0
 10
84.0607517429
 20
237.982719054
 30
0.0
 10
82.8695844162
 20
237.6311546677
 30
0.0
 10
81.7741603381
 20
236.9605108303
 30
0.0
 10
80.8355562635
 20
236.0132443414
 30
0.0
 10
80.1027525113
 20
234.8446577577
 30
0.0
 10
79.6143369021
 20
233.5198644142
 30
0.0
 10
79.3957793653
 20
232.1126050713
 30
0.0
 10
79.4387631309
 20
231.1604522643
 30
0.0
 10
79.5085871451
 20
230.6946173067
 30
0.0
  0
SPLINE
  5
415
100
AcDbEntity
  8
0
100
AcDbSpline
 62
7
  6
CONTINUOUS
 70
0
 71
3
 72
11
 73
7
 74
0
 42
0.0000001
 43
0.0000001
 44
0.0000000001
 40
0.0
 40
0.0
 40
0.0
 40
0.0
 40
0.2412230496
 40
0.4864011509
 40
0.7387088598
 40
1.0
 40
1.0
 40
1.0
 40
1.0
 10
61.3327785021
 20
229.9346288259
 30
0.0
 10
61.1593640586
 20
229.9588980636
 30
0.0
 10
60.8023947102
 20
229.9657697206
 30
0.0
 10
60.2742915068
 20
229.8491029954
 30
0.0
 10
59.7725532223
 20
229.611763756
 30
0.0
 10
59.4738363164
 20
229.3837390439
 30
0.0
 10
59.3347612966
 20
229.2547678222
 30
0.0
  0
SPLINE
  5
416
100
AcDbEntity
  8
0
100
AcDbSpline
 62
7
  6
CONTINUOUS
 70
0
 71
3
 72
15
 73
11
 74
0
 42
0.0000001
 43
0.0000001
 44
0.0000000001
 40
0.0
 40
0.0
 40
0.0
 40
0.0
 40
0.1122972302
 40
0.2271857688
 40
0.3465392092
 40
0.47109438
 40
0.6004024434
 40
0.7330571102
 40
0.8670061981
 40
1.0
 40
1.0
 40
1.0
 40
1.0
 10
64.4433171001
 20
232.3483202998
 30
0.0
 10
64.0494299211
 20
232.4035147838
 30
0.0
 10
63.2318273223
 20
232.3994116648
 30
0.0
 10
62.0406599956
 20
232.0478472784
 30
0.0
 10
60.9452359175
 20
231.3772034411
 30
0.0
 10
60.0066318429
 20
230.4299369522
 30
0.0
 10
59.2738280907
 20
229.2613503685
 30
0.0
 10
58.7854124814
 20
227.936557025
 30
0.0
 10
58.5668549447
 20
226.529297682
 30
0.0
 10
58.6098387103
 20
225.577144875
 30
0.0
 10
58.6796627244
 20
225.1113099175
 30
0.0
  0
SPLINE
  5
417
100
AcDbEntity
  8
0
100
AcDbSpline
 62
7
  6
CONTINUOUS
 70
0
 71
3
 72
11
 73
7
 74
0
 42
0.0000001
 43
0.0000001
 44
0.0000000001
 40
0.0
 40
0.0
 40
0.0
 40
0.0
 40
0.2412230496
 40
0.4864011509
 40
0.7387088598
 40
1.0
 40
1.0
 40
1.0
 40
1.0
 10
76.0250561642
 20
248.8533525737
 30
0.0
 10
75.8516417208
 20
248.8776218114
 30
0.0
 10
75.4946723724
 20
248.8844934684
 30
0.0
 10
74.9665691689
 20
248.7678267432
 30
0.0
 10
74.4648308844
 20
248.5304875038
 30
0.0
 10
74.1661139785
 20
248.3024627917
 30
0.0
 10
74.0270389587
 20
248.17349157
 30
0.0
  0
SPLINE
  5
418
100
AcDbEntity
  8
0
100
AcDbSpline
 62
7
  6
CONTINUOUS
 70
0
 71
3
 72
15
 73
11
 74
0
 42
0.0000001
 43
0.0000001
 44
0.0000000001
 40
0.0
 40
0.0
 40
0.0
 40
0.0
 40
0.1122972302
 40
0.2271857688
 40
0.3465392092
 40
0.47109438
 40
0.6004024434
 40
0.7330571102
 40
0.8670061981
 40
1.0
 40
1.0
 40
1.0
 40
1.0
 10
79.1355947622
 20
251.2670440476
 30
0.0
 10
78.7417075832
 20
251.3222385316
 30
0.0
 10
77.9241049844
 20
251.3181354126
 30
0.0
 10
76.7329376577
 20
250.9665710262
 30
0.0
 10
75.6375135796
 20
250.2959271889
 30
0.0
 10
74.698909505
 20
249.3486607
 30
0.0
 10
73.9661057528
 20
248.1800741163
 30
0.0
 10
73.4776901436
 20
246.8552807728
 30
0.0
 10
73.2591326068
 20
245.4480214298
 30
0.0
 10
73.3021163724
 20
244.4958686228
 30
0.0
 10
73.3719403865
 20
244.0300336653
 30
0.0
  0
SPLINE
  5
419
100
AcDbEntity
  8
0
100
AcDbSpline
 62
7
  6
CONTINUOUS
 70
0
 71
3
 72
11
 73
7
 74
0
 42
0.0000001
 43
0.0000001
 44
0.0000000001
 40
0.0
 40
0.0
 40
0.0
 40
0.0
 40
0.2412230496
 40
0.4864011509
 40
0.7387088598
 40
1.0
 40
1.0
 40
1.0
 40
1.0
 10
63.1520729232
 20
245.4026788375
 30
0.0
 10
62.9786584797
 20
245.4269480752
 30
0.0
 10
62.6216891313
 20
245.4338197322
 30
0.0
 10
62.0935859279
 20
245.317153007
 30
0.0
 10
61.5918476434
 20
245.0798137676
 30
0.0
 10
61.2931307374
 20
244.8517890555
 30
0.0
 10
61.1540557177
 20
244.7228178338
 30
0.0
  0
SPLINE
  5
41A
100
AcDbEntity
  8
0
100
AcDbSpline
 62
7
  6
CONTINUOUS
 70
0
 71
3
 72
15
 73
11
 74
0
 42
0.0000001
 43
0.0000001
 44
0.0000000001
 40
0.0
 40
0.0
 40
0.0
 40
0.0
 40
0.1122972302
 40
0.2271857688
 40
0.3465392092
 40
0.47109438
 40
0.6004024434
 40
0.7330571102
 40
0.8670061981
 40
1.0
 40
1.0
 40
1.0
 40
1.0
 10
66.2626115212
 20
247.8163703114
 30
0.0
 10
65.8687243421
 20
247.8715647954
 30
0.0
 10
65.0511217433
 20
247.8674616764
 30
0.0
 10
63.8599544166
 20
247.51589729
 30
0.0
 10
62.7645303385
 20
246.8452534527
 30
0.0
 10
61.8259262639
 20
245.8979869638
 30
0.0
 10
61.0931225118
 20
244.7294003801
 30
0.0
 10
60.6047069025
 20
243.4046070366
 30
0.0
 10
60.3861493657
 20
241.9973476936
 30
0.0
 10
60.4291331314
 20
241.0451948866
 30
0.0
 10
60.4989571455
 20
240.5793599291
 30
0.0
  0
SPLINE
  5
41B
100
AcDbEntity
  8
0
100
AcDbSpline
 62
7
  6
CONTINUOUS
 70
0
 71
3
 72
11
 73
7
 74
0
 42
0.0000001
 43
0.0000001
 44
0.0000000001
 40
0.0
 40
0.0
 40
0.0
 40
0.0
 40
0.26144256
 40
0.5138101811
 40
0.7589154293
 40
1.0
 40
1.0
 40
1.0
 40
1.0
 10
60.5318418269
 20
240.386196391
 30
0.0
 10
60.6299548167
 20
240.2213837593
 30
0.0
 10
60.8548964935
 20
239.9151059286
 30
0.0
 10
61.2746243406
 20
239.5426757975
 30
0.0
 10
61.7545048543
 20
239.2810351402
 30
0.0
 10
62.1031046582
 20
239.1881158518
 30
0.0
 10
62.2782676547
 20
239.1636019052
 30
0.0
  0
SPLINE
  5
41C
100
AcDbEntity
  8
0
100
AcDbSpline
 62
7
  6
CONTINUOUS
 70
0
 71
3
 72
11
 73
7
 74
0
 42
0.0000001
 43
0.0000001
 44
0.0000000001
 40
0.0
 40
0.0
 40
0.0
 40
0.0
 40
0.26144256
 40
0.5138101811
 40
0.7589154293
 40
1.0
 40
1.0
 40
1.0
 40
1.0
 10
73.404825068
 20
243.8368701272
 30
0.0
 10
73.5029380577
 20
243.6720574955
 30
0.0
 10
73.7278797346
 20
243.3657796648
 30
0.0
 10
74.1476075817
 20
242.9933495337
 30
0.0
 10
74.6274880953
 20
242.7317088764
 30
0.0
 10
74.9760878992
 20
242.638789588
 30
0.0
 10
75.1512508958
 20
242.6142756414
 30
0.0
  0
SPLINE
  5
41D
100
AcDbEntity
  8
0
100
AcDbSpline
 62
7
  6
CONTINUOUS
 70
0
 71
3
 72
11
 73
7
 74
0
 42
0.0000001
 43
0.0000001
 44
0.0000000001
 40
0.0
 40
0.0
 40
0.0
 40
0.0
 40
0.26144256
 40
0.5138101811
 40
0.7589154293
 40
1.0
 40
1.0
 40
1.0
 40
1.0
 10
58.7125474058
 20
224.9181463794
 30
0.0
 10
58.8106603956
 20
224.7533337477
 30
0.0
 10
59.0356020724
 20
224.447055917
 30
0.0
 10
59.4553299196
 20
224.0746257859
 30
0.0
 10
59.9352104332
 20
223.8129851286
 30
0.0
 10
60.2838102371
 20
223.7200658402
 30
0.0
 10
60.4589732336
 20
223.6955518936
 30
0.0
  0
SPLINE
  5
41E
100
AcDbEntity
  8
0
100
AcDbSpline
 62
7
  6
CONTINUOUS
 70
0
 71
3
 72
11
 73
7
 74
0
 42
0.0000001
 43
0.0000001
 44
0.0000000001
 40
0.0
 40
0.0
 40
0.0
 40
0.0
 40
0.26144256
 40
0.5138101811
 40
0.7589154293
 40
1.0
 40
1.0
 40
1.0
 40
1.0
 10
79.5414718265
 20
230.5014537687
 30
0.0
 10
79.6395848162
 20
230.336641137
 30
0.0
 10
79.8645264931
 20
230.0303633063
 30
0.0
 10
80.2842543402
 20
229.6579331752
 30
0.0
 10
80.7641348538
 20
229.3962925179
 30
0.0
 10
81.1127346577
 20
229.3033732295
 30
0.0
 10
81.2878976543
 20
229.2788592829
 30
0.0
  0
SPLINE
  5
41F
100
AcDbEntity
  8
0
100
AcDbSpline
 62
7
  6
CONTINUOUS
 70
0
 71
3
 72
11
 73
7
 74
0
 42
0.0000001
 43
0.0000001
 44
0.0000000001
 40
0.0
 40
0.0
 40
0.0
 40
0.0
 40
0.2685754896
 40
0.5241420781
 40
0.7663548172
 40
1.0
 40
1.0
 40
1.0
 40
1.0
 10
70.9288595184
 20
219.5802763481
 30
0.0
 10
70.9880509022
 20
219.1853775997
 30
0.0
 10
71.2049631621
 20
218.4249681874
 30
0.0
 10
71.8242862768
 20
217.4482810153
 30
0.0
 10
72.6820989287
 20
216.7472094034
 30
0.0
 10
73.3702163827
 20
216.5148361882
 30
0.0
 10
73.714236152
 20
216.4666586936
 30
0.0
  0
SPLINE
  5
420
100
AcDbEntity
  8
0
100
AcDbSpline
 62
7
  6
CONTINUOUS
 70
0
 71
3
 72
21
 73
17
 74
0
 42
0.0000001
 43
0.0000001
 44
0.0000000001
 40
0.0
 40
0.0
 40
0.0
 40
0.0
 40
0.0565615995
 40
0.1142608697
 40
0.173516853
 40
0.2345544262
 40
0.2973934702
 40
0.3618633321
 40
0.4276336416
 40
0.4942545553
 40
0.6275991475
 40
0.7579496841
 40
0.8211030959
 40
0.8824737805
 40
0.9420421022
 40
1.0
 40
1.0
 40
1.0
 40
1.0
 10
79.3275750652
 20
255.3638910648
 30
0.0
 10
80.350175345
 20
255.034797023
 30
0.0
 10
82.3548456332
 20
254.1620773558
 30
0.0
 10
85.0853129019
 20
252.2842726693
 30
0.0
 10
87.4900906476
 20
249.8828182005
 30
0.0
 10
89.5034751283
 20
247.0269511803
 30
0.0
 10
91.0732226164
 20
243.7961264493
 30
0.0
 10
92.1585483742
 20
240.2792095152
 30
0.0
 10
92.7314655241
 20
236.5709716052
 30
0.0
 10
92.792953057
 20
231.5105188463
 30
0.0
 10
91.5641862478
 20
225.2723749197
 30
0.0
 10
88.6885262456
 20
219.6645642172
 30
0.0
 10
85.5507093213
 20
215.9558490272
 30
0.0
 10
82.8833853802
 20
213.6698225874
 30
0.0
 10
79.9526318455
 20
211.9186080955
 30
0.0
 10
77.8476249891
 20
211.1314677242
 30
0.0
 10
76.7843912287
 20
210.8464620853
 30
0.0
  0
SPLINE
  5
421
100
AcDbEntity
  8
0
100
AcDbSpline
 62
7
  6
CONTINUOUS
 70
0
 71
3
 72
13
 73
9
 74
0
 42
0.0000001
 43
0.0000001
 44
0.0000000001
 40
0.0
 40
0.0
 40
0.0
 40
0.0
 40
0.1126063929
 40
0.2278108646
 40
0.3474930754
 40
0.4723911047
 40
0.7336559431
 40
1.0
 40
1.0
 40
1.0
 40
1.0
 10
81.2878976543
 20
229.2788592829
 30
0.0
 10
81.4956666982
 20
229.2497821413
 30
0.0
 10
81.9269236243
 20
229.2519036738
 30
0.0
 10
82.5552151845
 20
229.4373265012
 30
0.0
 10
83.1330995941
 20
229.7911600063
 30
0.0
 10
83.8018926097
 20
230.4659411966
 30
0.0
 10
84.3460846609
 20
231.5943110325
 30
0.0
 10
84.4016626164
 20
232.6054920203
 30
0.0
 10
84.3281061632
 20
233.0962281618
 30
0.0
  0
SPLINE
  5
422
100
AcDbEntity
  8
0
100
AcDbSpline
 62
7
  6
CONTINUOUS
 70
0
 71
3
 72
13
 73
9
 74
0
 42
0.0000001
 43
0.0000001
 44
0.0000000001
 40
0.0
 40
0.0
 40
0.0
 40
0.0
 40
0.2680784006
 40
0.5231816647
 40
0.6459686618
 40
0.7658127255
 40
0.8834850884
 40
1.0
 40
1.0
 40
1.0
 40
1.0
 10
89.3793259333
 20
233.340522957
 30
0.0
 10
89.292048186
 20
233.9228015065
 30
0.0
 10
88.9727140805
 20
235.0436043508
 30
0.0
 10
88.1997064679
 20
236.2613325757
 30
0.0
 10
87.405159175
 20
237.0187527586
 30
0.0
 10
86.7450302661
 20
237.4625717601
 30
0.0
 10
86.0296531677
 20
237.7773692892
 30
0.0
 10
85.5256683579
 20
237.8961155825
 30
0.0
 10
85.2722415207
 20
237.9316276891
 30
0.0
  0
SPLINE
  5
423
100
AcDbEntity
  8
0
100
AcDbSpline
 62
7
  6
CONTINUOUS
 70
0
 71
3
 72
11
 73
7
 74
0
 42
0.0000001
 43
0.0000001
 44
0.0000000001
 40
0.0
 40
0.0
 40
0.0
 40
0.0
 40
0.2352697226
 40
0.4800197919
 40
0.7353294026
 40
1.0
 40
1.0
 40
1.0
 40
1.0
 10
83.8741912007
 20
237.8971616702
 30
0.0
 10
84.2383768905
 20
237.7133835342
 30
0.0
 10
84.9314102628
 20
237.2313483695
 30
0.0
 10
85.7644504901
 20
236.2497778586
 30
0.0
 10
86.3674071894
 20
235.0564064673
 30
0.0
 10
86.5921441839
 20
234.1751866314
 30
0.0
 10
86.6601696826
 20
233.7213505741
 30
0.0
  0
SPLINE
  5
424
100
AcDbEntity
  8
0
100
AcDbSpline
 62
7
  6
CONTINUOUS
 70
0
 71
3
 72
15
 73
11
 74
0
 42
0.0000001
 43
0.0000001
 44
0.0000000001
 40
0.0
 40
0.0
 40
0.0
 40
0.0
 40
0.1122972302
 40
0.2271857688
 40
0.3465392092
 40
0.47109438
 40
0.6004024434
 40
0.7330571102
 40
0.8670061981
 40
1.0
 40
1.0
 40
1.0
 40
1.0
 10
83.6156715576
 20
226.1035125747
 30
0.0
 10
84.0095587366
 20
226.0483180907
 30
0.0
 10
84.8271613354
 20
226.0524212097
 30
0.0
 10
86.0183286621
 20
226.4039855961
 30
0.0
 10
87.1137527402
 20
227.0746294334
 30
0.0
 10
88.0523568148
 20
228.0218959223
 30
0.0
 10
88.785160567
 20
229.190482506
 30
0.0
 10
89.2735761762
 20
230.5152758495
 30
0.0
 10
89.492133713
 20
231.9225351925
 30
0.0
 10
89.4491499474
 20
232.8746879995
 30
0.0
 10
89.3793259333
 20
233.340522957
 30
0.0
  0
SPLINE
  5
425
100
AcDbEntity
  8
0
100
AcDbSpline
 62
7
  6
CONTINUOUS
 70
0
 71
3
 72
20
 73
16
 74
0
 42
0.0000001
 43
0.0000001
 44
0.0000000001
 40
0.0
 40
0.0
 40
0.0
 40
0.0
 40
0.1300136337
 40
0.192217745
 40
0.2522861615
 40
0.3105658315
 40
0.3677208992
 40
0.4246268617
 40
0.4822093585
 40
0.5412627231
 40
0.6023106215
 40
0.7302582468
 40
0.7971234084
 40
0.8649526926
 40
1.0
 40
1.0
 40
1.0
 40
1.0
 10
70.3636293998
 20
218.9848783725
 30
0.0
 10
70.4755751934
 20
218.2380255214
 30
0.0
 10
70.8288566693
 20
217.1454422066
 30
0.0
 10
71.6601314884
 20
215.9296358547
 30
0.0
 10
72.4200328845
 20
215.1950909996
 30
0.0
 10
73.2963749389
 20
214.657772556
 30
0.0
 10
74.2553512332
 20
214.3400314871
 30
0.0
 10
75.2581641799
 20
214.2560267624
 30
0.0
 10
76.2635729217
 20
214.4087187424
 30
0.0
 10
77.2314271129
 20
214.7908061779
 30
0.0
 10
78.4385011021
 20
215.5933173116
 30
0.0
 10
79.4051036004
 20
216.7746430747
 30
0.0
 10
80.0430108861
 20
218.1660920288
 30
0.0
 10
80.454829483
 20
219.6833217606
 30
0.0
 10
80.4799096851
 20
220.8896649067
 30
0.0
 10
80.3636297438
 20
221.6654332915
 30
0.0
  0
SPLINE
  5
426
100
AcDbEntity
  8
0
100
AcDbSpline
 62
7
  6
CONTINUOUS
 70
0
 71
3
 72
20
 73
16
 74
0
 42
0.0000001
 43
0.0000001
 44
0.0000000001
 40
0.0
 40
0.0
 40
0.0
 40
0.0
 40
0.1300136337
 40
0.192217745
 40
0.2522861615
 40
0.3105658315
 40
0.3677208992
 40
0.4246268617
 40
0.4822093585
 40
0.5412627231
 40
0.6023106215
 40
0.7302582468
 40
0.7971234084
 40
0.8649526926
 40
1.0
 40
1.0
 40
1.0
 40
1.0
 10
80.3636297438
 20
221.6654332915
 30
0.0
 10
80.2516839526
 20
222.4122861428
 30
0.0
 10
79.8984024738
 20
223.5048694572
 30
0.0
 10
79.0671276554
 20
224.7206758093
 30
0.0
 10
78.3072262591
 20
225.4552206643
 30
0.0
 10
77.4308842047
 20
225.992539108
 30
0.0
 10
76.4719079105
 20
226.3102801769
 30
0.0
 10
75.4690949638
 20
226.3942849015
 30
0.0
 10
74.4636862219
 20
226.2415929215
 30
0.0
 10
73.4958320307
 20
225.8595054861
 30
0.0
 10
72.2887580415
 20
225.0569943523
 30
0.0
 10
71.3221555434
 20
223.8756685893
 30
0.0
 10
70.6842482574
 20
222.4842196351
 30
0.0
 10
70.2724296613
 20
220.9669899034
 30
0.0
 10
70.2473494561
 20
219.7606467568
 30
0.0
 10
70.3636293998
 20
218.9848783725
 30
0.0
  0
SPLINE
  5
427
100
AcDbEntity
  8
0
100
AcDbSpline
 62
7
  6
CONTINUOUS
 70
0
 71
3
 72
13
 73
9
 74
0
 42
0.0000001
 43
0.0000001
 44
0.0000000001
 40
0.0
 40
0.0
 40
0.0
 40
0.0
 40
0.1126063929
 40
0.2278108646
 40
0.3474930754
 40
0.4723911047
 40
0.7336559431
 40
1.0
 40
1.0
 40
1.0
 40
1.0
 10
60.4589732336
 20
223.6955518936
 30
0.0
 10
60.6667422776
 20
223.666474752
 30
0.0
 10
61.0979992037
 20
223.6685962845
 30
0.0
 10
61.7262907638
 20
223.8540191119
 30
0.0
 10
62.3041751734
 20
224.207852617
 30
0.0
 10
62.9729681891
 20
224.8826338074
 30
0.0
 10
63.5171602403
 20
226.0110036432
 30
0.0
 10
63.5727381958
 20
227.022184631
 30
0.0
 10
63.4991817426
 20
227.5129207725
 30
0.0
  0
SPLINE
  5
428
100
AcDbEntity
  8
0
100
AcDbSpline
 62
7
  6
CONTINUOUS
 70
0
 71
3
 72
11
 73
7
 74
0
 42
0.0000001
 43
0.0000001
 44
0.0000000001
 40
0.0
 40
0.0
 40
0.0
 40
0.0
 40
0.2352697226
 40
0.4800197919
 40
0.7353294026
 40
1.0
 40
1.0
 40
1.0
 40
1.0
 10
63.04526678
 20
232.313854281
 30
0.0
 10
63.4094524699
 20
232.130076145
 30
0.0
 10
64.1024858421
 20
231.6480409802
 30
0.0
 10
64.9355260695
 20
230.6664704693
 30
0.0
 10
65.5384827688
 20
229.473099078
 30
0.0
 10
65.7632197633
 20
228.5918792422
 30
0.0
 10
65.831245262
 20
228.1380431849
 30
0.0
  0
SPLINE
  5
429
100
AcDbEntity
  8
0
100
AcDbSpline
 62
7
  6
CONTINUOUS
 70
0
 71
3
 72
15
 73
11
 74
0
 42
0.0000001
 43
0.0000001
 44
0.0000000001
 40
0.0
 40
0.0
 40
0.0
 40
0.0
 40
0.1122972302
 40
0.2271857688
 40
0.3465392092
 40
0.47109438
 40
0.6004024434
 40
0.7330571102
 40
0.8670061981
 40
1.0
 40
1.0
 40
1.0
 40
1.0
 10
62.786747137
 20
220.5202051854
 30
0.0
 10
63.180634316
 20
220.4650107015
 30
0.0
 10
63.9982369148
 20
220.4691138205
 30
0.0
 10
65.1894042415
 20
220.8206782068
 30
0.0
 10
66.2848283196
 20
221.4913220442
 30
0.0
 10
67.2234323942
 20
222.4385885331
 30
0.0
 10
67.9562361463
 20
223.6071751168
 30
0.0
 10
68.4446517556
 20
224.9319684603
 30
0.0
 10
68.6632092924
 20
226.3392278032
 30
0.0
 10
68.6202255268
 20
227.2913806102
 30
0.0
 10
68.5504015126
 20
227.7572155678
 30
0.0
  0
SPLINE
  5
42A
100
AcDbEntity
  8
0
100
AcDbSpline
 62
7
  6
CONTINUOUS
 70
0
 71
3
 72
13
 73
9
 74
0
 42
0.0000001
 43
0.0000001
 44
0.0000000001
 40
0.0
 40
0.0
 40
0.0
 40
0.0
 40
0.2617700361
 40
0.5214408287
 40
0.6473478895
 40
0.7690707987
 40
0.8864349026
 40
1.0
 40
1.0
 40
1.0
 40
1.0
 10
67.650539683
 20
243.6060931965
 30
0.0
 10
67.7695043571
 20
242.8124134776
 30
0.0
 10
67.7268843663
 20
241.1787525148
 30
0.0
 10
67.0090232404
 20
239.2836224678
 30
0.0
 10
66.0841470215
 20
238.0231989724
 30
0.0
 10
65.2562323634
 20
237.2589551468
 30
0.0
 10
64.3213368867
 20
236.7003948896
 30
0.0
 10
63.6411312014
 20
236.4786790751
 30
0.0
 10
63.2996050379
 20
236.4109723415
 30
0.0
  0
SPLINE
  5
42B
100
AcDbEntity
  8
0
100
AcDbSpline
 62
7
  6
CONTINUOUS
 70
0
 71
3
 72
13
 73
9
 74
0
 42
0.0000001
 43
0.0000001
 44
0.0000000001
 40
0.0
 40
0.0
 40
0.0
 40
0.0
 40
0.1126063929
 40
0.2278108646
 40
0.3474930754
 40
0.4723911047
 40
0.7336559431
 40
1.0
 40
1.0
 40
1.0
 40
1.0
 10
75.1512508958
 20
242.6142756414
 30
0.0
 10
75.3590199397
 20
242.5851984998
 30
0.0
 10
75.7902768658
 20
242.5873200323
 30
0.0
 10
76.418568426
 20
242.7727428597
 30
0.0
 10
76.9964528356
 20
243.1265763648
 30
0.0
 10
77.6652458512
 20
243.8013575552
 30
0.0
 10
78.2094379024
 20
244.929727391
 30
0.0
 10
78.2650158579
 20
245.9409083788
 30
0.0
 10
78.1914594047
 20
246.4316445203
 30
0.0
  0
SPLINE
  5
42C
100
AcDbEntity
  8
0
100
AcDbSpline
 62
7
  6
CONTINUOUS
 70
0
 71
3
 72
11
 73
7
 74
0
 42
0.0000001
 43
0.0000001
 44
0.0000000001
 40
0.0
 40
0.0
 40
0.0
 40
0.0
 40
0.2685853076
 40
0.5241481037
 40
0.7663578688
 40
1.0
 40
1.0
 40
1.0
 40
1.0
 10
65.3184761636
 20
242.9809707841
 30
0.0
 10
65.2724368837
 20
243.2881245085
 30
0.0
 10
65.1037370925
 20
243.8795660165
 30
0.0
 10
64.6219880157
 20
244.6391815945
 30
0.0
 10
63.9548298286
 20
245.1844481195
 30
0.0
 10
63.419642945
 20
245.3652325882
 30
0.0
 10
63.1520729232
 20
245.4026788375
 30
0.0
  0
SPLINE
  5
42D
100
AcDbEntity
  8
0
100
AcDbSpline
 62
7
  6
CONTINUOUS
 70
0
 71
3
 72
13
 73
9
 74
0
 42
0.0000001
 43
0.0000001
 44
0.0000000001
 40
0.0
 40
0.0
 40
0.0
 40
0.0
 40
0.2617700361
 40
0.5214408287
 40
0.6473478895
 40
0.7690707987
 40
0.8864349026
 40
1.0
 40
1.0
 40
1.0
 40
1.0
 10
80.5235229241
 20
247.0567669327
 30
0.0
 10
80.6424875982
 20
246.2630872138
 30
0.0
 10
80.5998676073
 20
244.629426251
 30
0.0
 10
79.8820064815
 20
242.7342962041
 30
0.0
 10
78.9571302626
 20
241.4738727086
 30
0.0
 10
78.1292156044
 20
240.709628883
 30
0.0
 10
77.1943201278
 20
240.1510686258
 30
0.0
 10
76.5141144424
 20
239.9293528113
 30
0.0
 10
76.172588279
 20
239.8616460777
 30
0.0
  0
SPLINE
  5
42E
100
AcDbEntity
  8
0
100
AcDbSpline
 62
7
  6
CONTINUOUS
 70
0
 71
3
 72
13
 73
9
 74
0
 42
0.0000001
 43
0.0000001
 44
0.0000000001
 40
0.0
 40
0.0
 40
0.0
 40
0.0
 40
0.2680784006
 40
0.5231816647
 40
0.6459686618
 40
0.7658127255
 40
0.8834850884
 40
1.0
 40
1.0
 40
1.0
 40
1.0
 10
83.2426791747
 20
246.6759393156
 30
0.0
 10
83.1554014275
 20
247.2582178651
 30
0.0
 10
82.836067322
 20
248.3790207094
 30
0.0
 10
82.0630597094
 20
249.5967489343
 30
0.0
 10
81.2685124165
 20
250.3541691172
 30
0.0
 10
80.6083835076
 20
250.7979881187
 30
0.0
 10
79.8930064092
 20
251.1127856477
 30
0.0
 10
79.3890215994
 20
251.231531941
 30
0.0
 10
79.1355947622
 20
251.2670440476
 30
0.0
  0
SPLINE
  5
42F
100
AcDbEntity
  8
0
100
AcDbSpline
 62
7
  6
CONTINUOUS
 70
0
 71
3
 72
11
 73
7
 74
0
 42
0.0000001
 43
0.0000001
 44
0.0000000001
 40
0.0
 40
0.0
 40
0.0
 40
0.0
 40
0.2685853076
 40
0.5241481037
 40
0.7663578688
 40
1.0
 40
1.0
 40
1.0
 40
1.0
 10
78.1914594047
 20
246.4316445203
 30
0.0
 10
78.1454201248
 20
246.7387982447
 30
0.0
 10
77.9767203335
 20
247.3302397527
 30
0.0
 10
77.4949712568
 20
248.0898553307
 30
0.0
 10
76.8278130697
 20
248.6351218557
 30
0.0
 10
76.2926261861
 20
248.8159063244
 30
0.0
 10
76.0250561642
 20
248.8533525737
 30
0.0
  0
SPLINE
  5
430
100
AcDbEntity
  8
0
100
AcDbSpline
 62
7
  6
CONTINUOUS
 70
0
 71
3
 72
13
 73
9
 74
0
 42
0.0000001
 43
0.0000001
 44
0.0000000001
 40
0.0
 40
0.0
 40
0.0
 40
0.0
 40
0.2617700361
 40
0.5214408287
 40
0.6473478895
 40
0.7690707987
 40
0.8864349026
 40
1.0
 40
1.0
 40
1.0
 40
1.0
 10
65.831245262
 20
228.1380431849
 30
0.0
 10
65.9502099361
 20
227.344363466
 30
0.0
 10
65.9075899452
 20
225.7107025032
 30
0.0
 10
65.1897288194
 20
223.8155724562
 30
0.0
 10
64.2648526005
 20
222.5551489608
 30
0.0
 10
63.4369379423
 20
221.7909051352
 30
0.0
 10
62.5020424656
 20
221.232344878
 30
0.0
 10
61.8218367803
 20
221.0106290635
 30
0.0
 10
61.4803106169
 20
220.9429223299
 30
0.0
  0
SPLINE
  5
431
100
AcDbEntity
  8
0
100
AcDbSpline
 62
7
  6
CONTINUOUS
 70
0
 71
3
 72
11
 73
7
 74
0
 42
0.0000001
 43
0.0000001
 44
0.0000000001
 40
0.0
 40
0.0
 40
0.0
 40
0.0
 40
0.2685853076
 40
0.5241481037
 40
0.7663578688
 40
1.0
 40
1.0
 40
1.0
 40
1.0
 10
63.4991817426
 20
227.5129207725
 30
0.0
 10
63.4531424627
 20
227.8200744969
 30
0.0
 10
63.2844426714
 20
228.4115160049
 30
0.0
 10
62.8026935947
 20
229.1711315829
 30
0.0
 10
62.1355354075
 20
229.7163981079
 30
0.0
 10
61.600348524
 20
229.8971825766
 30
0.0
 10
61.3327785021
 20
229.9346288259
 30
0.0
  0
SPLINE
  5
432
100
AcDbEntity
  8
0
100
AcDbSpline
 62
7
  6
CONTINUOUS
 70
0
 71
3
 72
13
 73
9
 74
0
 42
0.0000001
 43
0.0000001
 44
0.0000000001
 40
0.0
 40
0.0
 40
0.0
 40
0.0
 40
0.2617700361
 40
0.5214408287
 40
0.6473478895
 40
0.7690707987
 40
0.8864349026
 40
1.0
 40
1.0
 40
1.0
 40
1.0
 10
86.6601696826
 20
233.7213505741
 30
0.0
 10
86.7791343567
 20
232.9276708553
 30
0.0
 10
86.7365143658
 20
231.2940098925
 30
0.0
 10
86.01865324
 20
229.3988798455
 30
0.0
 10
85.0937770211
 20
228.1384563501
 30
0.0
 10
84.2658623629
 20
227.3742125244
 30
0.0
 10
83.3309668863
 20
226.8156522672
 30
0.0
 10
82.6507612009
 20
226.5939364527
 30
0.0
 10
82.3092350375
 20
226.5262297191
 30
0.0
  0
SPLINE
  5
433
100
AcDbEntity
  8
0
100
AcDbSpline
 62
7
  6
CONTINUOUS
 70
0
 71
3
 72
11
 73
7
 74
0
 42
0.0000001
 43
0.0000001
 44
0.0000000001
 40
0.0
 40
0.0
 40
0.0
 40
0.0
 40
0.2352697226
 40
0.4800197919
 40
0.7353294026
 40
1.0
 40
1.0
 40
1.0
 40
1.0
 10
77.7375444421
 20
251.2325780288
 30
0.0
 10
78.101730132
 20
251.0487998928
 30
0.0
 10
78.7947635042
 20
250.566764728
 30
0.0
 10
79.6278037316
 20
249.5851942171
 30
0.0
 10
80.2307604309
 20
248.3918228258
 30
0.0
 10
80.4554974254
 20
247.51060299
 30
0.0
 10
80.5235229241
 20
247.0567669327
 30
0.0
  0
SPLINE
  5
434
100
AcDbEntity
  8
0
100
AcDbSpline
 62
7
  6
CONTINUOUS
 70
0
 71
3
 72
15
 73
11
 74
0
 42
0.0000001
 43
0.0000001
 44
0.0000000001
 40
0.0
 40
0.0
 40
0.0
 40
0.0
 40
0.1122972302
 40
0.2271857688
 40
0.3465392092
 40
0.47109438
 40
0.6004024434
 40
0.7330571102
 40
0.8670061981
 40
1.0
 40
1.0
 40
1.0
 40
1.0
 10
77.4790247991
 20
239.4389289332
 30
0.0
 10
77.8729119781
 20
239.3837344493
 30
0.0
 10
78.6905145769
 20
239.3878375683
 30
0.0
 10
79.8816819036
 20
239.7394019546
 30
0.0
 10
80.9771059817
 20
240.410045792
 30
0.0
 10
81.9157100563
 20
241.3573122809
 30
0.0
 10
82.6485138085
 20
242.5258988646
 30
0.0
 10
83.1369294177
 20
243.8506922081
 30
0.0
 10
83.3554869545
 20
245.257951551
 30
0.0
 10
83.3125031889
 20
246.210104358
 30
0.0
 10
83.2426791747
 20
246.6759393156
 30
0.0
  0
SPLINE
  5
435
100
AcDbEntity
  8
0
100
AcDbSpline
 62
7
  6
CONTINUOUS
 70
0
 71
3
 72
11
 73
7
 74
0
 42
0.0000001
 43
0.0000001
 44
0.0000000001
 40
0.0
 40
0.0
 40
0.0
 40
0.0
 40
0.2685853076
 40
0.5241481037
 40
0.7663578688
 40
1.0
 40
1.0
 40
1.0
 40
1.0
 10
84.3281061632
 20
233.0962281618
 30
0.0
 10
84.2820668833
 20
233.4033818862
 30
0.0
 10
84.113367092
 20
233.9948233941
 30
0.0
 10
83.6316180153
 20
234.7544389721
 30
0.0
 10
82.9644598282
 20
235.2997054972
 30
0.0
 10
82.4292729446
 20
235.4804899659
 30
0.0
 10
82.1617029227
 20
235.5179362151
 30
0.0
  0
SPLINE
  5
436
100
AcDbEntity
  8
0
100
AcDbSpline
 62
7
  6
CONTINUOUS
 70
0
 71
3
 72
13
 73
9
 74
0
 42
0.0000001
 43
0.0000001
 44
0.0000000001
 40
0.0
 40
0.0
 40
0.0
 40
0.0
 40
0.1126084257
 40
0.227816271
 40
0.3475015298
 40
0.4724025418
 40
0.7336674034
 40
1.0
 40
1.0
 40
1.0
 40
1.0
 10
73.714236152
 20
216.4666586936
 30
0.0
 10
73.9813689687
 20
216.4292486638
 30
0.0
 10
74.5358602125
 20
216.4320125719
 30
0.0
 10
75.343679122
 20
216.6704106326
 30
0.0
 10
76.0866885949
 20
217.1253626556
 30
0.0
 10
76.9465577606
 20
217.9929652531
 30
0.0
 10
77.6461871253
 20
219.4437224327
 30
0.0
 10
77.7176430659
 20
220.7437785652
 30
0.0
 10
77.6230746263
 20
221.3746973991
 30
0.0
  0
SPLINE
  5
437
100
AcDbEntity
  8
0
100
AcDbSpline
 62
7
  6
CONTINUOUS
 70
0
 71
3
 72
11
 73
7
 74
0
 42
0.0000001
 43
0.0000001
 44
0.0000000001
 40
0.0
 40
0.0
 40
0.0
 40
0.0
 40
0.2685754896
 40
0.5241420781
 40
0.7663548172
 40
1.0
 40
1.0
 40
1.0
 40
1.0
 10
77.6230746263
 20
221.3746973991
 30
0.0
 10
77.563883243
 20
221.7695961485
 30
0.0
 10
77.3469709845
 20
222.5300055633
 30
0.0
 10
76.7276478697
 20
223.5066927387
 30
0.0
 10
75.8698352167
 20
224.2077643533
 30
0.0
 10
75.1817177611
 20
224.4401375693
 30
0.0
 10
74.8376979911
 20
224.488315064
 30
0.0
  0
SPLINE
  5
438
100
AcDbEntity
  8
0
100
AcDbSpline
 62
7
  6
CONTINUOUS
 70
0
 71
3
 72
23
 73
19
 74
0
 42
0.0000001
 43
0.0000001
 44
0.0000000001
 40
0.0
 40
0.0
 40
0.0
 40
0.0
 40
0.0563097297
 40
0.113337936
 40
0.1716937769
 40
0.2317901457
 40
0.2938044706
 40
0.3576762181
 40
0.4231334789
 40
0.489737149
 40
0.5569340489
 40
0.624114011
 40
0.6906684771
 40
0.7560491519
 40
0.81982455
 40
0.8817345151
 40
0.9417276107
 40
1.0
 40
1.0
 40
1.0
 40
1.0
 10
70.2427579042
 20
210.428798881
 30
0.0
 10
69.1315028798
 20
210.5844780023
 30
0.0
 10
66.9210790372
 20
211.1355060954
 30
0.0
 10
63.8233750585
 20
212.6409711981
 30
0.0
 10
61.0263570117
 20
214.776908464
 30
0.0
 10
58.6163582682
 20
217.4731587923
 30
0.0
 10
56.6634512809
 20
220.6445270373
 30
0.0
 10
55.2239655699
 20
224.1933374996
 30
0.0
 10
54.3388906442
 20
228.0120009858
 30
0.0
 10
54.0332763181
 20
231.9856202058
 30
0.0
 10
54.3154388827
 20
235.9949974454
 30
0.0
 10
55.1766739566
 20
239.9199452119
 30
0.0
 10
56.5914486629
 20
243.6427197436
 30
0.0
 10
58.5182031563
 20
247.0513903437
 30
0.0
 10
60.9003450062
 20
250.0429399324
 30
0.0
 10
63.6687296705
 20
252.5259018307
 30
0.0
 10
66.739976497
 20
254.4223839416
 30
0.0
 10
68.959690394
 20
255.2657966518
 30
0.0
 10
70.0813105912
 20
255.5664530951
 30
0.0
  0
SPLINE
  5
439
100
AcDbEntity
  8
0
100
AcDbSpline
 62
7
  6
CONTINUOUS
 70
0
 71
3
 72
13
 73
9
 74
0
 42
0.0000001
 43
0.0000001
 44
0.0000000001
 40
0.0
 40
0.0
 40
0.0
 40
0.0
 40
0.1126063929
 40
0.2278108646
 40
0.3474930754
 40
0.4723911047
 40
0.7336559431
 40
1.0
 40
1.0
 40
1.0
 40
1.0
 10
62.2782676547
 20
239.1636019052
 30
0.0
 10
62.4860366987
 20
239.1345247636
 30
0.0
 10
62.9172936248
 20
239.1366462961
 30
0.0
 10
63.5455851849
 20
239.3220691235
 30
0.0
 10
64.1234695945
 20
239.6759026286
 30
0.0
 10
64.7922626102
 20
240.350683819
 30
0.0
 10
65.3364546613
 20
241.4790536548
 30
0.0
 10
65.3920326169
 20
242.4902346426
 30
0.0
 10
65.3184761636
 20
242.9809707841
 30
0.0
  0
SPLINE
  5
43A
100
AcDbEntity
  8
0
100
AcDbSpline
 62
7
  6
CONTINUOUS
 70
0
 71
3
 72
13
 73
9
 74
0
 42
0.0000001
 43
0.0000001
 44
0.0000000001
 40
0.0
 40
0.0
 40
0.0
 40
0.0
 40
0.2680784006
 40
0.5231816647
 40
0.6459686618
 40
0.7658127255
 40
0.8834850884
 40
1.0
 40
1.0
 40
1.0
 40
1.0
 10
70.3696959337
 20
243.2252655794
 30
0.0
 10
70.2824181865
 20
243.8075441288
 30
0.0
 10
69.9630840809
 20
244.9283469732
 30
0.0
 10
69.1900764684
 20
246.1460751981
 30
0.0
 10
68.3955291754
 20
246.903495381
 30
0.0
 10
67.7354002666
 20
247.3473143824
 30
0.0
 10
67.0200231682
 20
247.6621119115
 30
0.0
 10
66.5160383583
 20
247.7808582048
 30
0.0
 10
66.2626115212
 20
247.8163703114
 30
0.0
  0
SPLINE
  5
43B
100
AcDbEntity
  8
0
100
AcDbSpline
 62
7
  6
CONTINUOUS
 70
0
 71
3
 72
13
 73
9
 74
0
 42
0.0000001
 43
0.0000001
 44
0.0000000001
 40
0.0
 40
0.0
 40
0.0
 40
0.0
 40
0.2680784006
 40
0.5231816647
 40
0.6459686618
 40
0.7658127255
 40
0.8834850884
 40
1.0
 40
1.0
 40
1.0
 40
1.0
 10
68.5504015126
 20
227.7572155678
 30
0.0
 10
68.4631237654
 20
228.3394941172
 30
0.0
 10
68.1437896598
 20
229.4602969616
 30
0.0
 10
67.3707820473
 20
230.6780251865
 30
0.0
 10
66.5762347544
 20
231.4354453694
 30
0.0
 10
65.9161058455
 20
231.8792643708
 30
0.0
 10
65.2007287471
 20
232.1940618999
 30
0.0
 10
64.6967439373
 20
232.3128081932
 30
0.0
 10
64.4433171001
 20
232.3483202998
 30
0.0
  0
SPLINE
  5
43C
100
AcDbEntity
  8
0
100
AcDbSpline
 62
7
  6
CONTINUOUS
 70
0
 71
3
 72
11
 73
7
 74
0
 42
0.0000001
 43
0.0000001
 44
0.0000000001
 40
0.0
 40
0.0
 40
0.0
 40
0.0
 40
0.2352697226
 40
0.4800197919
 40
0.7353294026
 40
1.0
 40
1.0
 40
1.0
 40
1.0
 10
64.8645612011
 20
247.7819042926
 30
0.0
 10
65.2287468909
 20
247.5981261566
 30
0.0
 10
65.9217802632
 20
247.1160909918
 30
0.0
 10
66.7548204905
 20
246.1345204809
 30
0.0
 10
67.3577771899
 20
244.9411490896
 30
0.0
 10
67.5825141844
 20
244.0599292538
 30
0.0
 10
67.650539683
 20
243.6060931965
 30
0.0
  0
SPLINE
  5
43D
100
AcDbEntity
  8
0
100
AcDbSpline
 62
7
  6
CONTINUOUS
 70
0
 71
3
 72
15
 73
11
 74
0
 42
0.0000001
 43
0.0000001
 44
0.0000000001
 40
0.0
 40
0.0
 40
0.0
 40
0.0
 40
0.1122972302
 40
0.2271857688
 40
0.3465392092
 40
0.47109438
 40
0.6004024434
 40
0.7330571102
 40
0.8670061981
 40
1.0
 40
1.0
 40
1.0
 40
1.0
 10
64.606041558
 20
235.988255197
 30
0.0
 10
64.9999287371
 20
235.9330607131
 30
0.0
 10
65.8175313359
 20
235.9371638321
 30
0.0
 10
67.0086986626
 20
236.2887282184
 30
0.0
 10
68.1041227406
 20
236.9593720558
 30
0.0
 10
69.0427268153
 20
237.9066385447
 30
0.0
 10
69.7755305674
 20
239.0752251284
 30
0.0
 10
70.2639461767
 20
240.4000184719
 30
0.0
 10
70.4825037135
 20
241.8072778148
 30
0.0
 10
70.4395199478
 20
242.7594306218
 30
0.0
 10
70.3696959337
 20
243.2252655794
 30
0.0
  0
SPLINE
  5
43E
100
AcDbEntity
  8
0
100
AcDbSpline
 62
7
  6
CONTINUOUS
 70
0
 71
3
 72
10
 73
6
 74
0
 42
0.0000001
 43
0.0000001
 44
0.0000000001
 40
0.0
 40
0.0
 40
0.0
 40
0.0
 40
0.1789095827
 40
0.4138158063
 40
1.0
 40
1.0
 40
1.0
 40
1.0
 10
61.7057684375
 20
257.4526321354
 30
0.0
 10
61.7310305245
 20
257.4049046455
 30
0.0
 10
61.8300810692
 20
257.3196625912
 30
0.0
 10
62.0995820918
 20
257.1858696376
 30
0.0
 10
62.3434315919
 20
257.1241753513
 30
0.0
 10
62.5174079333
 20
257.091983055
 30
0.0
  0
SPLINE
  5
43F
100
AcDbEntity
  8
0
100
AcDbSpline
 62
7
  6
CONTINUOUS
 70
0
 71
3
 72
9
 73
5
 74
0
 42
0.0000001
 43
0.0000001
 44
0.0000000001
 40
0.0
 40
0.0
 40
0.0
 40
0.0
 40
0.48968515
 40
1.0
 40
1.0
 40
1.0
 40
1.0
 10
62.5174079333
 20
257.091983055
 30
0.0
 10
65.0404167143
 20
256.6251348316
 30
0.0
 10
70.2433177179
 20
255.9350746129
 30
0.0
 10
75.4846985702
 20
255.6999132108
 30
0.0
 10
78.1586177923
 20
255.6916223059
 30
0.0
  0
SPLINE
  5
440
100
AcDbEntity
  8
0
100
AcDbSpline
 62
7
  6
CONTINUOUS
 70
0
 71
3
 72
10
 73
6
 74
0
 42
0.0000001
 43
0.0000001
 44
0.0000000001
 40
0.0
 40
0.0
 40
0.0
 40
0.0
 40
0.2083828524
 40
0.4548516882
 40
1.0
 40
1.0
 40
1.0
 40
1.0
 10
78.2546546146
 20
255.6361524897
 30
0.0
 10
78.3225404302
 20
255.5969429377
 30
0.0
 10
78.4844515395
 20
255.5362878765
 30
0.0
 10
78.8514535028
 20
255.4532735201
 30
0.0
 10
79.1502130093
 20
255.4289555935
 30
0.0
 10
79.3552680746
 20
255.4251704199
 30
0.0
  0
SPLINE
  5
441
100
AcDbEntity
  8
0
100
AcDbSpline
 62
7
  6
CONTINUOUS
 70
0
 71
3
 72
9
 73
5
 74
0
 42
0.0000001
 43
0.0000001
 44
0.0000000001
 40
0.0
 40
0.0
 40
0.0
 40
0.0
 40
0.5077612824
 40
1.0
 40
1.0
 40
1.0
 40
1.0
 10
79.3552680746
 20
255.4251704199
 30
0.0
 10
82.0397238712
 20
255.3756217557
 30
0.0
 10
87.3329111541
 20
255.500409634
 30
0.0
 10
92.5974112384
 20
256.0769868481
 30
0.0
 10
95.1678100601
 20
256.4866121218
 30
0.0
  0
SPLINE
  5
442
100
AcDbEntity
  8
0
100
AcDbSpline
 62
7
  6
CONTINUOUS
 70
0
 71
3
 72
9
 73
5
 74
0
 42
0.0000001
 43
0.0000001
 44
0.0000000001
 40
0.0
 40
0.0
 40
0.0
 40
0.0
 40
0.492667316
 40
1.0
 40
1.0
 40
1.0
 40
1.0
 10
95.3104847734
 20
256.4498256298
 30
0.0
 10
95.5056409326
 20
256.3995083179
 30
0.0
 10
95.9180417916
 20
256.3662944729
 30
0.0
 10
96.3270307214
 20
256.3914995142
 30
0.0
 10
96.5325137752
 20
256.4206306783
 30
0.0
  0
SPLINE
  5
443
100
AcDbEntity
  8
0
100
AcDbSpline
 62
7
  6
CONTINUOUS
 70
0
 71
3
 72
9
 73
5
 74
0
 42
0.0000001
 43
0.0000001
 44
0.0000000001
 40
0.0
 40
0.0
 40
0.0
 40
0.0
 40
0.5270627996
 40
1.0
 40
1.0
 40
1.0
 40
1.0
 10
96.5325137752
 20
256.4206306783
 30
0.0
 10
98.9692827071
 20
256.7660940363
 30
0.0
 10
103.56641621
 20
257.6279279525
 30
0.0
 10
108.0497510227
 20
258.9846560082
 30
0.0
 10
110.1090717115
 20
259.7822799542
 30
0.0
  0
SPLINE
  5
444
100
AcDbEntity
  8
0
100
AcDbSpline
 62
7
  6
CONTINUOUS
 70
0
 71
3
 72
9
 73
5
 74
0
 42
0.0000001
 43
0.0000001
 44
0.0000000001
 40
0.0
 40
0.0
 40
0.0
 40
0.0
 40
0.5304353444
 40
1.0
 40
1.0
 40
1.0
 40
1.0
 10
110.2766633837
 20
259.7697771963
 30
0.0
 10
110.4835919316
 20
259.7543403609
 30
0.0
 10
110.8775180581
 20
259.7767529174
 30
0.0
 10
111.2611340067
 20
259.8648679714
 30
0.0
 10
111.4340650899
 20
259.9268140298
 30
0.0
  0
SPLINE
  5
445
100
AcDbEntity
  8
0
100
AcDbSpline
 62
7
  6
CONTINUOUS
 70
0
 71
3
 72
11
 73
7
 74
0
 42
0.0000001
 43
0.0000001
 44
0.0000000001
 40
0.0
 40
0.0
 40
0.0
 40
0.0
 40
0.2861088367
 40
0.5486792046
 40
0.7866442791
 40
1.0
 40
1.0
 40
1.0
 40
1.0
 10
111.4340650899
 20
259.9268140298
 30
0.0
 10
112.3922220711
 20
260.270040685
 30
0.0
 10
114.2089689153
 20
260.9889743789
 30
0.0
 10
116.7238838548
 20
262.2242502548
 30
0.0
 10
118.8891517411
 20
263.5592555433
 30
0.0
 10
120.151724688
 20
264.5602717106
 30
0.0
 10
120.7077311023
 20
265.0768902507
 30
0.0
  0
SPLINE
  5
446
100
AcDbEntity
  8
0
100
AcDbSpline
 62
7
  6
CONTINUOUS
 70
0
 71
3
 72
9
 73
5
 74
0
 42
0.0000001
 43
0.0000001
 44
0.0000000001
 40
0.0
 40
0.0
 40
0.0
 40
0.0
 40
0.5723105239
 40
1.0
 40
1.0
 40
1.0
 40
1.0
 10
120.8747254207
 20
265.0905746586
 30
0.0
 10
121.0611474071
 20
265.1058515741
 30
0.0
 10
121.3839785004
 20
265.1731314033
 30
0.0
 10
121.6840917372
 20
265.3202367901
 30
0.0
 10
121.7912959133
 20
265.4099358427
 30
0.0
  0
SPLINE
  5
447
100
AcDbEntity
  8
0
100
AcDbSpline
 62
7
  6
CONTINUOUS
 70
0
 71
3
 72
11
 73
7
 74
0
 42
0.0000001
 43
0.0000001
 44
0.0000000001
 40
0.0
 40
0.0
 40
0.0
 40
0.0
 40
0.2891093822
 40
0.5470611104
 40
0.7805746813
 40
1.0
 40
1.0
 40
1.0
 40
1.0
 10
121.7912959133
 20
265.4099358427
 30
0.0
 10
122.3321989752
 20
265.8625211035
 30
0.0
 10
123.3030292819
 20
266.7868226652
 30
0.0
 10
124.4439480515
 20
268.325961097
 30
0.0
 10
125.1598153946
 20
269.9227591259
 30
0.0
 10
125.3395205037
 20
271.0292131744
 30
0.0
 10
125.3502384178
 20
271.5643865896
 30
0.0
  0
SPLINE
  5
448
100
AcDbEntity
  8
0
100
AcDbSpline
 62
7
  6
CONTINUOUS
 70
0
 71
3
 72
9
 73
5
 74
0
 42
0.0000001
 43
0.0000001
 44
0.0000000001
 40
0.0
 40
0.0
 40
0.0
 40
0.0
 40
0.5844322413
 40
1.0
 40
1.0
 40
1.0
 40
1.0
 10
125.4912120111
 20
271.6021748361
 30
0.0
 10
125.60231405
 20
271.6319563729
 30
0.0
 10
125.7880892743
 20
271.7044904289
 30
0.0
 10
125.9411340132
 20
271.8402878784
 30
0.0
 10
125.9831739888
 20
271.9104459931
 30
0.0
  0
SPLINE
  5
449
100
AcDbEntity
  8
0
100
AcDbSpline
 62
7
  6
CONTINUOUS
 70
0
 71
3
 72
9
 73
5
 74
0
 42
0.0000001
 43
0.0000001
 44
0.0000000001
 40
0.0
 40
0.0
 40
0.0
 40
0.0
 40
0.2634563351
 40
1.0
 40
1.0
 40
1.0
 40
1.0
 10
125.9831739888
 20
271.9104459931
 30
0.0
 10
125.9891751292
 20
271.9204609537
 30
0.0
 10
126.0102173719
 20
271.9594604658
 30
0.0
 10
126.0235474397
 20
272.002829437
 30
0.0
 10
126.0274117412
 20
272.0352405253
 30
0.0
  0
SPLINE
  5
44A
100
AcDbEntity
  8
0
100
AcDbSpline
 62
7
  6
CONTINUOUS
 70
0
 71
3
 72
11
 73
7
 74
0
 42
0.0000001
 43
0.0000001
 44
0.0000000001
 40
0.0
 40
0.0
 40
0.0
 40
0.0
 40
0.2116327592
 40
0.4486144142
 40
0.7116124966
 40
1.0
 40
1.0
 40
1.0
 40
1.0
 10
39.6715660632
 20
267.0307238557
 30
0.0
 10
40.1551735985
 20
266.5025908219
 30
0.0
 10
41.2800475718
 20
265.4731073592
 30
0.0
 10
43.2589698459
 20
264.0926709465
 30
0.0
 10
45.599957797
 20
262.8050688852
 30
0.0
 10
47.3089117604
 20
262.0508612328
 30
0.0
 10
48.2150192417
 20
261.6886654161
 30
0.0
  0
SPLINE
  5
44B
100
AcDbEntity
  8
0
100
AcDbSpline
 62
7
  6
CONTINUOUS
 70
0
 71
3
 72
11
 73
7
 74
0
 42
0.0000001
 43
0.0000001
 44
0.0000000001
 40
0.0
 40
0.0
 40
0.0
 40
0.0
 40
0.1880682088
 40
0.4038981727
 40
0.6746854605
 40
1.0
 40
1.0
 40
1.0
 40
1.0
 10
48.1832441464
 20
261.6227220075
 30
0.0
 10
48.1652525656
 20
261.5853824322
 30
0.0
 10
48.1622527846
 20
261.4863226001
 30
0.0
 10
48.2553470123
 20
261.3632810575
 30
0.0
 10
48.3984004083
 20
261.2550961958
 30
0.0
 10
48.5165333862
 20
261.1957560366
 30
0.0
 10
48.5823449222
 20
261.1673114696
 30
0.0
  0
SPLINE
  5
44C
100
AcDbEntity
  8
0
100
AcDbSpline
 62
7
  6
CONTINUOUS
 70
0
 71
3
 72
9
 73
5
 74
0
 42
0.0000001
 43
0.0000001
 44
0.0000000001
 40
0.0
 40
0.0
 40
0.0
 40
0.0
 40
0.4700047928
 40
1.0
 40
1.0
 40
1.0
 40
1.0
 10
48.5823449222
 20
261.1673114696
 30
0.0
 10
50.5398721476
 20
260.3212510351
 30
0.0
 10
54.8543622757
 20
258.8648865832
 30
0.0
 10
59.2989603237
 20
257.9135868703
 30
0.0
 10
61.6709902413
 20
257.5183404992
 30
0.0
  0
SPLINE
  5
44D
100
AcDbEntity
  8
0
100
AcDbSpline
 62
7
  6
CONTINUOUS
 70
0
 71
3
 72
10
 73
6
 74
0
 42
0.0000001
 43
0.0000001
 44
0.0000000001
 40
0.0
 40
0.0
 40
0.0
 40
0.0
 40
0.2459974878
 40
0.4792783201
 40
1.0
 40
1.0
 40
1.0
 40
1.0
 10
39.605111703
 20
267.3788902952
 30
0.0
 10
39.5892045652
 20
267.3521877813
 30
0.0
 10
39.5668476343
 20
267.2939420679
 30
0.0
 10
39.5718105687
 20
267.1647892566
 30
0.0
 10
39.6271343665
 20
267.0792470055
 30
0.0
 10
39.6715660632
 20
267.0307238557
 30
0.0
  0
SPLINE
  5
44E
100
AcDbEntity
  8
0
100
AcDbSpline
 62
7
  6
CONTINUOUS
 70
0
 71
3
 72
11
 73
7
 74
0
 42
0.0000001
 43
0.0000001
 44
0.0000000001
 40
0.0
 40
0.0
 40
0.0
 40
0.0
 40
0.2256266902
 40
0.4618875185
 40
0.7178854553
 40
1.0
 40
1.0
 40
1.0
 40
1.0
 10
37.1006010561
 20
273.0991064365
 30
0.0
 10
37.1006643284
 20
272.6288508479
 30
0.0
 10
37.2202897235
 20
271.6625453238
 30
0.0
 10
37.7484635783
 20
270.2503218125
 30
0.0
 10
38.6121559202
 20
268.8761405453
 30
0.0
 10
39.3625654173
 20
268.0360187299
 30
0.0
 10
39.7818562733
 20
267.6237980608
 30
0.0
  0
SPLINE
  5
44F
100
AcDbEntity
  8
0
100
AcDbSpline
 62
7
  6
CONTINUOUS
 70
0
 71
3
 72
9
 73
5
 74
0
 42
0.0000001
 43
0.0000001
 44
0.0000000001
 40
0.0
 40
0.0
 40
0.0
 40
0.0
 40
0.4845289009
 40
1.0
 40
1.0
 40
1.0
 40
1.0
 10
49.5841376307
 20
288.1013151484
 30
0.0
 10
49.5846496336
 20
287.7591149178
 30
0.0
 10
49.6714309714
 20
287.0507308497
 30
0.0
 10
49.9159857476
 20
286.3819449998
 30
0.0
 10
50.0719814733
 20
286.053006691
 30
0.0
  0
SPLINE
  5
450
100
AcDbEntity
  8
0
100
AcDbSpline
 62
7
  6
CONTINUOUS
 70
0
 71
3
 72
10
 73
6
 74
0
 42
0.0000001
 43
0.0000001
 44
0.0000000001
 40
0.0
 40
0.0
 40
0.0
 40
0.0
 40
0.4358550782
 40
0.7013156629
 40
1.0
 40
1.0
 40
1.0
 40
1.0
 10
50.0719814733
 20
286.053006691
 30
0.0
 10
50.4915069
 20
285.1683799889
 30
0.0
 10
51.5182847664
 20
283.9138234932
 30
0.0
 10
53.2576142543
 20
282.4951593816
 30
0.0
 10
54.3288551742
 20
281.8102591334
 30
0.0
 10
54.9098449669
 20
281.4746902191
 30
0.0
  0
SPLINE
  5
451
100
AcDbEntity
  8
0
100
AcDbSpline
 62
7
  6
CONTINUOUS
 70
0
 71
3
 72
21
 73
17
 74
0
 42
0.0000001
 43
0.0000001
 44
0.0000000001
 40
0.0
 40
0.0
 40
0.0
 40
0.0
 40
0.0527537259
 40
0.11224409
 40
0.1776234967
 40
0.2478336331
 40
0.3976946266
 40
0.5511087482
 40
0.6256586461
 40
0.6969335308
 40
0.7636829541
 40
0.8248001965
 40
0.8793775197
 40
0.92678757
 40
0.9668216642
 40
1.0
 40
1.0
 40
1.0
 40
1.0
 10
54.9098449669
 20
281.4746902191
 30
0.0
 10
55.8483114292
 20
280.9326494194
 30
0.0
 10
57.9287013301
 20
279.9226379526
 30
0.0
 10
61.3634561048
 20
278.6770398334
 30
0.0
 10
65.2377851601
 20
277.6349574048
 30
0.0
 10
71.0007203706
 20
276.5279145884
 30
0.0
 10
78.6611271899
 20
275.8227997945
 30
0.0
 10
86.4390702889
 20
275.9813760803
 30
0.0
 10
92.5534148799
 20
276.6503740489
 30
0.0
 10
96.8589842838
 20
277.4001107039
 30
0.0
 10
100.8338532247
 20
278.3843775247
 30
0.0
 10
104.3913882237
 20
279.579883954
 30
0.0
 10
107.4534524349
 20
280.956513763
 30
0.0
 10
109.9539113163
 20
282.4797499372
 30
0.0
 10
111.8413159769
 20
284.1055567179
 30
0.0
 10
112.7416281219
 20
285.3379597271
 30
0.0
 10
113.0463217118
 20
285.9476709867
 30
0.0
  0
SPLINE
  5
452
100
AcDbEntity
  8
0
100
AcDbSpline
 62
7
  6
CONTINUOUS
 70
0
 71
3
 72
9
 73
5
 74
0
 42
0.0000001
 43
0.0000001
 44
0.0000000001
 40
0.0
 40
0.0
 40
0.0
 40
0.0
 40
0.2599726386
 40
1.0
 40
1.0
 40
1.0
 40
1.0
 10
113.0463217118
 20
285.9476709867
 30
0.0
 10
113.0952725118
 20
286.045624652
 30
0.0
 10
113.273196178
 20
286.4274315095
 30
0.0
 10
113.4070998632
 20
286.8302891161
 30
0.0
 10
113.4751396871
 20
287.1344818689
 30
0.0
  0
SPLINE
  5
453
100
AcDbEntity
  8
0
100
AcDbSpline
 62
7
  6
CONTINUOUS
 70
0
 71
3
 72
9
 73
5
 74
0
 42
0.0000001
 43
0.0000001
 44
0.0000000001
 40
0.0
 40
0.0
 40
0.0
 40
0.0
 40
0.2521561399
 40
1.0
 40
1.0
 40
1.0
 40
1.0
 10
122.8607528242
 20
286.3286830078
 30
0.0
 10
122.8281036898
 20
286.5060617465
 30
0.0
 10
122.6800632438
 20
287.206007571
 30
0.0
 10
122.4582060838
 20
287.8900143569
 30
0.0
 10
122.256050805
 20
288.385249979
 30
0.0
  0
SPLINE
  5
454
100
AcDbEntity
  8
0
100
AcDbSpline
 62
7
  6
CONTINUOUS
 70
0
 71
3
 72
20
 73
16
 74
0
 42
0.0000001
 43
0.0000001
 44
0.0000000001
 40
0.0
 40
0.0
 40
0.0
 40
0.0
 40
0.0434228163
 40
0.0886879953
 40
0.1368554956
 40
0.1887628757
 40
0.244772768
 40
0.304879576
 40
0.3687968582
 40
0.4360245223
 40
0.505905708
 40
0.5776736603
 40
0.7234393429
 40
0.866395256
 40
1.0
 40
1.0
 40
1.0
 40
1.0
 10
121.8595926462
 20
289.249493268
 30
0.0
 10
121.4213742216
 20
290.1086849031
 30
0.0
 10
120.3065014098
 20
291.7560641449
 30
0.0
 10
118.1322158959
 20
293.9003893407
 30
0.0
 10
115.5015638404
 20
295.7892923341
 30
0.0
 10
112.4570110688
 20
297.4612129949
 30
0.0
 10
109.020775621
 20
298.9301816196
 30
0.0
 10
105.2247640044
 20
300.1992975928
 30
0.0
 10
101.109107248
 20
301.2635323332
 30
0.0
 10
96.7232352485
 20
302.1142795203
 30
0.0
 10
92.1241887806
 20
302.7430052041
 30
0.0
 10
85.7604215607
 20
303.2777042419
 30
0.0
 10
77.7393975105
 20
303.3531788749
 30
0.0
 10
68.3811899305
 20
302.5322009879
 30
0.0
 10
62.3358960359
 20
301.3474137787
 30
0.0
 10
59.4695082018
 20
300.5790628043
 30
0.0
  0
SPLINE
  5
455
100
AcDbEntity
  8
0
100
AcDbSpline
 62
7
  6
CONTINUOUS
 70
0
 71
3
 72
14
 73
10
 74
0
 42
0.0000001
 43
0.0000001
 44
0.0000000001
 40
0.0
 40
0.0
 40
0.0
 40
0.0
 40
0.2954544734
 40
0.4303081753
 40
0.5565924135
 40
0.6750525159
 40
0.787096839
 40
0.8948903343
 40
1.0
 40
1.0
 40
1.0
 40
1.0
 10
59.4695082018
 20
300.5790628043
 30
0.0
 10
57.2501511205
 20
299.9841519706
 30
0.0
 10
54.0554786338
 20
298.9452589025
 30
0.0
 10
50.1136014407
 20
297.147422255
 30
0.0
 10
47.5414701032
 20
295.6892964517
 30
0.0
 10
45.2795536334
 20
294.0717420135
 30
0.0
 10
43.3491179724
 20
292.2704637161
 30
0.0
 10
41.794176434
 20
290.2631125458
 30
0.0
 10
41.0450221388
 20
288.7699005948
 30
0.0
 10
40.7650425518
 20
288.0019212057
 30
0.0
  0
SPLINE
  5
456
100
AcDbEntity
  8
0
100
AcDbSpline
 62
7
  6
CONTINUOUS
 70
0
 71
3
 72
17
 73
13
 74
0
 42
0.0000001
 43
0.0000001
 44
0.0000000001
 40
0.0
 40
0.0
 40
0.0
 40
0.0
 40
0.2522879581
 40
0.3781324436
 40
0.5037423449
 40
0.6290734314
 40
0.7540419193
 40
0.8163419219
 40
0.8784506028
 40
0.9402066714
 40
0.9708184527
 40
1.0
 40
1.0
 40
1.0
 40
1.0
 10
90.400630957
 20
269.2424331558
 30
0.0
 10
90.5344243259
 20
269.253908363
 30
0.0
 10
90.7350866186
 20
269.269674586
 30
0.0
 10
91.0026918409
 20
269.2864836737
 30
0.0
 10
91.2030019338
 20
269.2963522468
 30
0.0
 10
91.4030295329
 20
269.3024741809
 30
0.0
 10
91.5693773519
 20
269.3031044844
 30
0.0
 10
91.7022253725
 20
269.2984851246
 30
0.0
 10
91.8005720202
 20
269.2915363038
 30
0.0
 10
91.8836689483
 20
269.27881506
 30
0.0
 10
91.9430315061
 20
269.262758888
 30
0.0
 10
91.9761722879
 20
269.240395117
 30
0.0
 10
91.9767260971
 20
269.2248726167
 30
0.0
  0
SPLINE
  5
457
100
AcDbEntity
  8
0
100
AcDbSpline
 62
7
  6
CONTINUOUS
 70
0
 71
3
 72
11
 73
7
 74
0
 42
0.0000001
 43
0.0000001
 44
0.0000000001
 40
0.0
 40
0.0
 40
0.0
 40
0.0
 40
0.2598011266
 40
0.5216638912
 40
0.7710758776
 40
1.0
 40
1.0
 40
1.0
 40
1.0
 10
90.031015398
 20
269.1954875512
 30
0.0
 10
87.3645418621
 20
268.8643364552
 30
0.0
 10
82.0523673941
 20
267.811740393
 30
0.0
 10
74.4852798005
 20
265.222183224
 30
0.0
 10
67.6191025872
 20
261.7866112281
 30
0.0
 10
63.5317867228
 20
258.9597052593
 30
0.0
 10
61.7057687172
 20
257.4526330986
 30
0.0
  0
SPLINE
  5
458
100
AcDbEntity
  8
0
100
AcDbSpline
 62
7
  6
CONTINUOUS
 70
0
 71
3
 72
9
 73
5
 74
0
 42
0.0000001
 43
0.0000001
 44
0.0000000001
 40
0.0
 40
0.0
 40
0.0
 40
0.0
 40
0.2393124679
 40
1.0
 40
1.0
 40
1.0
 40
1.0
 10
61.6709895946
 20
257.5183400962
 30
0.0
 10
62.2368489062
 20
258.0123205131
 30
0.0
 10
64.6564877289
 20
260.0129386897
 30
0.0
 10
67.2812477887
 20
261.7615909045
 30
0.0
 10
69.351175684
 20
262.9515746413
 30
0.0
  0
SPLINE
  5
459
100
AcDbEntity
  8
0
100
AcDbSpline
 62
7
  6
CONTINUOUS
 70
0
 71
3
 72
9
 73
5
 74
0
 42
0.0000001
 43
0.0000001
 44
0.0000000001
 40
0.0
 40
0.0
 40
0.0
 40
0.0
 40
0.264363071
 40
1.0
 40
1.0
 40
1.0
 40
1.0
 10
37.1126223099
 20
274.5006121368
 30
0.0
 10
37.1141662214
 20
274.5900697826
 30
0.0
 10
37.1282415134
 20
274.9281390343
 30
0.0
 10
37.178083344
 20
275.2656839805
 30
0.0
 10
37.241864265
 20
275.5063444077
 30
0.0
  0
SPLINE
  5
45A
100
AcDbEntity
  8
0
100
AcDbSpline
 62
7
  6
CONTINUOUS
 70
0
 71
3
 72
15
 73
11
 74
0
 42
0.0000001
 43
0.0000001
 44
0.0000000001
 40
0.0
 40
0.0
 40
0.0
 40
0.0
 40
0.0919733103
 40
0.1799369428
 40
0.2718139147
 40
0.3755678277
 40
0.4971713793
 40
0.6406087556
 40
0.8080052113
 40
1.0
 40
1.0
 40
1.0
 40
1.0
 10
37.241864265
 20
275.5063444077
 30
0.0
 10
37.3061452869
 20
275.7488918334
 30
0.0
 10
37.4879230135
 20
276.2126213445
 30
0.0
 10
37.9617043526
 20
276.7992029175
 30
0.0
 10
38.6247118821
 20
277.221395233
 30
0.0
 10
39.4629628773
 20
277.4688060545
 30
0.0
 10
40.4713732449
 20
277.5470119675
 30
0.0
 10
41.650996668
 20
277.4544125862
 30
0.0
 10
42.9994199575
 20
277.1908329487
 30
0.0
 10
43.9429445728
 20
276.9201379928
 30
0.0
 10
44.4415515299
 20
276.7596504264
 30
0.0
  0
SPLINE
  5
45B
100
AcDbEntity
  8
0
100
AcDbSpline
 62
7
  6
CONTINUOUS
 70
0
 71
3
 72
9
 73
5
 74
0
 42
0.0000001
 43
0.0000001
 44
0.0000000001
 40
0.0
 40
0.0
 40
0.0
 40
0.0
 40
0.4988451675
 40
1.0
 40
1.0
 40
1.0
 40
1.0
 10
75.7670124753
 20
266.1098499129
 30
0.0
 10
78.0563565274
 20
266.9277189377
 30
0.0
 10
82.7548722683
 20
268.2749572812
 30
0.0
 10
87.5888236822
 20
269.0112864422
 30
0.0
 10
90.0229717023
 20
269.2107431418
 30
0.0
  0
SPLINE
  5
45C
100
AcDbEntity
  8
0
100
AcDbSpline
 62
7
  6
CONTINUOUS
 70
0
 71
3
 72
15
 73
11
 74
0
 42
0.0000001
 43
0.0000001
 44
0.0000000001
 40
0.0
 40
0.0
 40
0.0
 40
0.0
 40
0.1013782491
 40
0.2091406652
 40
0.323788521
 40
0.445723358
 40
0.5749550441
 40
0.7109994559
 40
0.853097243
 40
1.0
 40
1.0
 40
1.0
 40
1.0
 10
48.5823616804
 20
261.1673066422
 30
0.0
 10
49.1580025859
 20
261.6704119797
 30
0.0
 10
50.3823952326
 20
262.6681372019
 30
0.0
 10
52.4263504931
 20
264.0123094705
 30
0.0
 10
54.7330217685
 20
265.2130620403
 30
0.0
 10
57.2811912885
 20
266.2778557366
 30
0.0
 10
60.0614662126
 20
267.1806055326
 30
0.0
 10
63.0500640876
 20
267.9037353687
 30
0.0
 10
66.2118703938
 20
268.4422877598
 30
0.0
 10
68.382141148
 20
268.6668781692
 30
0.0
 10
69.4879540936
 20
268.7335260128
 30
0.0
  0
SPLINE
  5
45D
100
AcDbEntity
  8
0
100
AcDbSpline
 62
7
  6
CONTINUOUS
 70
0
 71
3
 72
9
 73
5
 74
0
 42
0.0000001
 43
0.0000001
 44
0.0000000001
 40
0.0
 40
0.0
 40
0.0
 40
0.0
 40
0.2480638125
 40
1.0
 40
1.0
 40
1.0
 40
1.0
 10
69.4879540936
 20
268.7335260128
 30
0.0
 10
69.8469757018
 20
268.7591417193
 30
0.0
 10
71.2951964204
 20
268.8484759397
 30
0.0
 10
72.7473860993
 20
268.87800309
 30
0.0
 10
73.8382830715
 20
268.8603220276
 30
0.0
  0
SPLINE
  5
45E
100
AcDbEntity
  8
0
100
AcDbSpline
 62
7
  6
CONTINUOUS
 70
0
 71
3
 72
9
 73
5
 74
0
 42
0.0000001
 43
0.0000001
 44
0.0000000001
 40
0.0
 40
0.0
 40
0.0
 40
0.0
 40
0.2356468078
 40
1.0
 40
1.0
 40
1.0
 40
1.0
 10
39.4403280532
 20
277.9142493738
 30
0.0
 10
39.5042811327
 20
277.9308886192
 30
0.0
 10
39.7778624858
 20
277.9930793478
 30
0.0
 10
40.0582775002
 20
278.0227342975
 30
0.0
 10
40.2724313916
 20
278.0318284051
 30
0.0
  0
SPLINE
  5
45F
100
AcDbEntity
  8
0
100
AcDbSpline
 62
7
  6
CONTINUOUS
 70
0
 71
3
 72
11
 73
7
 74
0
 42
0.0000001
 43
0.0000001
 44
0.0000000001
 40
0.0
 40
0.0
 40
0.0
 40
0.0
 40
0.1835708567
 40
0.410770477
 40
0.6834172607
 40
1.0
 40
1.0
 40
1.0
 40
1.0
 10
40.2724313916
 20
278.0318284051
 30
0.0
 10
40.7264082115
 20
278.0511066636
 30
0.0
 10
41.7471793415
 20
277.9641588595
 30
0.0
 10
43.3950212918
 20
277.5678212513
 30
0.0
 10
45.3030112983
 20
276.8937853368
 30
0.0
 10
46.6410146237
 20
276.3105063732
 30
0.0
 10
47.3494786994
 20
275.9756226013
 30
0.0
  0
SPLINE
  5
460
100
AcDbEntity
  8
0
100
AcDbSpline
 62
7
  6
CONTINUOUS
 70
0
 71
3
 72
11
 73
7
 74
0
 42
0.0000001
 43
0.0000001
 44
0.0000000001
 40
0.0
 40
0.0
 40
0.0
 40
0.0
 40
0.1649324521
 40
0.4096125662
 40
0.6991878234
 40
1.0
 40
1.0
 40
1.0
 40
1.0
 10
73.8684719651
 20
269.1381856945
 30
0.0
 10
73.8726209429
 20
269.1232596328
 30
0.0
 10
73.8704330277
 20
269.0835236332
 30
0.0
 10
73.8534847539
 20
269.0205782221
 30
0.0
 10
73.8304090596
 20
268.9446560179
 30
0.0
 10
73.834760554
 20
268.8883562621
 30
0.0
 10
73.8382767397
 20
268.8603208477
 30
0.0
  0
SPLINE
  5
461
100
AcDbEntity
  8
0
100
AcDbSpline
 62
7
  6
CONTINUOUS
 70
0
 71
3
 72
12
 73
8
 74
0
 42
0.0000001
 43
0.0000001
 44
0.0000000001
 40
0.0
 40
0.0
 40
0.0
 40
0.0
 40
0.1478895205
 40
0.2919999944
 40
0.430226655
 40
0.5611705431
 40
1.0
 40
1.0
 40
1.0
 40
1.0
 10
73.8688442697
 20
269.1382903982
 30
0.0
 10
72.5261265088
 20
269.1843564036
 30
0.0
 10
69.8705143997
 20
269.1816763574
 30
0.0
 10
65.9703201765
 20
268.8892979756
 30
0.0
 10
62.2537453686
 20
268.3021148033
 30
0.0
 10
56.0246594012
 20
266.7600237482
 30
0.0
 10
51.1412977251
 20
264.3882384856
 30
0.0
 10
48.2291235865
 20
261.6657543103
 30
0.0
  0
SPLINE
  5
462
100
AcDbEntity
  8
0
100
AcDbSpline
 62
7
  6
CONTINUOUS
 70
0
 71
3
 72
9
 73
5
 74
0
 42
0.0000001
 43
0.0000001
 44
0.0000000001
 40
0.0
 40
0.0
 40
0.0
 40
0.0
 40
0.2347424438
 40
1.0
 40
1.0
 40
1.0
 40
1.0
 10
48.2150180263
 20
261.6886651589
 30
0.0
 10
48.6476223745
 20
262.1060844149
 30
0.0
 10
50.568674478
 20
263.8030003732
 30
0.0
 10
52.774760958
 20
265.1637056582
 30
0.0
 10
54.5345242807
 20
266.026181086
 30
0.0
  0
SPLINE
  5
463
100
AcDbEntity
  8
0
100
AcDbSpline
 62
7
  6
CONTINUOUS
 70
0
 71
3
 72
9
 73
5
 74
0
 42
0.0000001
 43
0.0000001
 44
0.0000000001
 40
0.0
 40
0.0
 40
0.0
 40
0.0
 40
0.2395084582
 40
1.0
 40
1.0
 40
1.0
 40
1.0
 10
54.5345242807
 20
266.026181086
 30
0.0
 10
54.98113387
 20
266.24506836
 30
0.0
 10
56.8684407251
 20
267.1125373467
 30
0.0
 10
58.837764749
 20
267.7976956493
 30
0.0
 10
60.3576642513
 20
268.2265426721
 30
0.0
  0
SPLINE
  5
464
100
AcDbEntity
  8
0
100
AcDbSpline
 62
7
  6
CONTINUOUS
 70
0
 71
3
 72
9
 73
5
 74
0
 42
0.0000001
 43
0.0000001
 44
0.0000000001
 40
0.0
 40
0.0
 40
0.0
 40
0.0
 40
0.4798727903
 40
1.0
 40
1.0
 40
1.0
 40
1.0
 10
60.3576642513
 20
268.2265426721
 30
0.0
 10
62.4738686552
 20
268.7231420839
 30
0.0
 10
66.980519259
 20
269.3647834578
 30
0.0
 10
71.5267559338
 20
269.3289000381
 30
0.0
 10
73.8762583949
 20
269.1536111768
 30
0.0
  0
SPLINE
  5
465
100
AcDbEntity
  8
0
100
AcDbSpline
 62
7
  6
CONTINUOUS
 70
0
 71
3
 72
12
 73
8
 74
0
 42
0.0000001
 43
0.0000001
 44
0.0000000001
 40
0.0
 40
0.0
 40
0.0
 40
0.0
 40
0.0528363226
 40
0.1246551475
 40
0.3304332219
 40
0.6222811782
 40
1.0
 40
1.0
 40
1.0
 40
1.0
 10
40.0012901358
 20
284.5375399158
 30
0.0
 10
39.9931721004
 20
284.4865735629
 30
0.0
 10
39.9966275048
 20
284.3632833904
 30
0.0
 10
40.0586036392
 20
284.0462617428
 30
0.0
 10
40.2479512785
 20
283.5206048931
 30
0.0
 10
40.5986912427
 20
282.7411937308
 30
0.0
 10
40.8968269774
 20
282.1585889365
 30
0.0
 10
41.0694130853
 20
281.8325007914
 30
0.0
  0
SPLINE
  5
466
100
AcDbEntity
  8
0
100
AcDbSpline
 62
7
  6
CONTINUOUS
 70
0
 71
3
 72
17
 73
13
 74
0
 42
0.0000001
 43
0.0000001
 44
0.0000000001
 40
0.0
 40
0.0
 40
0.0
 40
0.0
 40
0.2493227411
 40
0.3741993107
 40
0.4992251197
 40
0.6244115648
 40
0.7497815416
 40
0.8125552718
 40
0.8754031808
 40
0.9383354434
 40
0.9698412771
 40
1.0
 40
1.0
 40
1.0
 40
1.0
 10
74.2559776959
 20
269.1260057664
 30
0.0
 10
74.3910993014
 20
269.1164362898
 30
0.0
 10
74.5938035915
 20
269.1006242467
 30
0.0
 10
74.863865877
 20
269.0753518872
 30
0.0
 10
75.0665018529
 20
269.0536748698
 30
0.0
 10
75.2690131037
 20
269.028285131
 30
0.0
 10
75.4372710906
 20
269.0027005469
 30
0.0
 10
75.5714408752
 20
268.9772223166
 30
0.0
 10
75.6708301486
 20
268.9546643515
 30
0.0
 10
75.7543901843
 20
268.9291680069
 30
0.0
 10
75.8132992284
 20
268.9032525541
 30
0.0
 10
75.8454468603
 20
268.8770893257
 30
0.0
 10
75.844926613
 20
268.86071199
 30
0.0
  0
SPLINE
  5
467
100
AcDbEntity
  8
0
100
AcDbSpline
 62
7
  6
CONTINUOUS
 70
0
 71
3
 72
11
 73
7
 74
0
 42
0.0000001
 43
0.0000001
 44
0.0000000001
 40
0.0
 40
0.0
 40
0.0
 40
0.0
 40
0.2342097139
 40
0.4886044375
 40
0.7477081097
 40
1.0
 40
1.0
 40
1.0
 40
1.0
 10
103.305809845
 20
271.1216719024
 30
0.0
 10
101.1377814273
 20
270.3222547696
 30
0.0
 10
96.7191306551
 20
268.3666532537
 30
0.0
 10
90.2864940747
 20
264.7367739271
 30
0.0
 10
84.0413851161
 20
260.4698690426
 30
0.0
 10
80.1151326167
 20
257.2897320277
 30
0.0
 10
78.2546544631
 20
255.6361534783
 30
0.0
  0
SPLINE
  5
468
100
AcDbEntity
  8
0
100
AcDbSpline
 62
7
  6
CONTINUOUS
 70
0
 71
3
 72
9
 73
5
 74
0
 42
0.0000001
 43
0.0000001
 44
0.0000000001
 40
0.0
 40
0.0
 40
0.0
 40
0.0
 40
0.5144683143
 40
1.0
 40
1.0
 40
1.0
 40
1.0
 10
92.0620330088
 20
266.4745782903
 30
0.0
 10
93.9054342722
 20
267.4584233603
 30
0.0
 10
97.5672795429
 20
269.2275994315
 30
0.0
 10
101.3806519425
 20
270.6500570101
 30
0.0
 10
103.2657724331
 20
271.22890601
 30
0.0
  0
SPLINE
  5
469
100
AcDbEntity
  8
0
100
AcDbSpline
 62
7
  6
CONTINUOUS
 70
0
 71
3
 72
15
 73
11
 74
0
 42
0.0000001
 43
0.0000001
 44
0.0000000001
 40
0.0
 40
0.0
 40
0.0
 40
0.0
 40
0.2561469346
 40
0.3832404819
 40
0.5095849676
 40
0.6350569188
 40
0.7594303691
 40
0.8821704704
 40
0.9425182563
 40
1.0
 40
1.0
 40
1.0
 40
1.0
 10
105.2031134459
 20
271.781010061
 30
0.0
 10
105.315190677
 20
271.8116570035
 30
0.0
 10
105.4832204698
 20
271.8562335971
 30
0.0
 10
105.7076915543
 20
271.9116148552
 30
0.0
 10
105.8750474871
 20
271.9502793847
 30
0.0
 10
106.0425934453
 20
271.985090019
 30
0.0
 10
106.2073011399
 20
272.014633925
 30
0.0
 10
106.3514139182
 20
272.030182261
 30
0.0
 10
106.4500890942
 20
272.0328592074
 30
0.0
 10
106.5238803164
 20
272.0163268576
 30
0.0
 10
106.526407893
 20
271.9903751323
 30
0.0
  0
SPLINE
  5
46A
100
AcDbEntity
  8
0
100
AcDbSpline
 62
7
  6
CONTINUOUS
 70
0
 71
3
 72
15
 73
11
 74
0
 42
0.0000001
 43
0.0000001
 44
0.0000000001
 40
0.0
 40
0.0
 40
0.0
 40
0.0
 40
0.1239983714
 40
0.2504101092
 40
0.3784884601
 40
0.5071720634
 40
0.6352380108
 40
0.7611424116
 40
0.8833419011
 40
1.0
 40
1.0
 40
1.0
 40
1.0
 10
79.3552924198
 20
255.4251722916
 30
0.0
 10
80.1919248284
 20
256.1462144864
 30
0.0
 10
81.8867878072
 20
257.5964573394
 30
0.0
 10
84.5231771712
 20
259.6990480717
 30
0.0
 10
87.2741940633
 20
261.7202631607
 30
0.0
 10
90.1010478159
 20
263.6599553742
 30
0.0
 10
92.9800452445
 20
265.4858079141
 30
0.0
 10
95.8772511447
 20
267.1706657249
 30
0.0
 10
98.7470618554
 20
268.6950360591
 30
0.0
 10
100.6673197732
 20
269.6142697015
 30
0.0
 10
101.6206884348
 20
270.0275444965
 30
0.0
  0
SPLINE
  5
46B
100
AcDbEntity
  8
0
100
AcDbSpline
 62
7
  6
CONTINUOUS
 70
0
 71
3
 72
9
 73
5
 74
0
 42
0.0000001
 43
0.0000001
 44
0.0000000001
 40
0.0
 40
0.0
 40
0.0
 40
0.0
 40
0.2541225201
 40
1.0
 40
1.0
 40
1.0
 40
1.0
 10
101.6206884348
 20
270.0275444965
 30
0.0
 10
101.7700892952
 20
270.0943785769
 30
0.0
 10
102.3589602283
 20
270.3552133643
 30
0.0
 10
102.9518408863
 20
270.6070631954
 30
0.0
 10
103.3967317721
 20
270.7882872066
 30
0.0
  0
SPLINE
  5
46C
100
AcDbEntity
  8
0
100
AcDbSpline
 62
7
  6
CONTINUOUS
 70
0
 71
3
 72
9
 73
5
 74
0
 42
0.0000001
 43
0.0000001
 44
0.0000000001
 40
0.0
 40
0.0
 40
0.0
 40
0.0
 40
0.5303771524
 40
1.0
 40
1.0
 40
1.0
 40
1.0
 10
107.6522534211
 20
272.5051793799
 30
0.0
 10
109.2248515503
 20
273.0070332691
 30
0.0
 10
112.1516511897
 20
274.0805416813
 30
0.0
 10
114.9457500481
 20
275.4748699151
 30
0.0
 10
116.1988498706
 20
276.2272943968
 30
0.0
  0
SPLINE
  5
46D
100
AcDbEntity
  8
0
100
AcDbSpline
 62
7
  6
CONTINUOUS
 70
0
 71
3
 72
9
 73
5
 74
0
 42
0.0000001
 43
0.0000001
 44
0.0000000001
 40
0.0
 40
0.0
 40
0.0
 40
0.0
 40
0.5287677948
 40
1.0
 40
1.0
 40
1.0
 40
1.0
 10
100.0382008962
 20
278.0938641181
 30
0.0
 10
101.441069955
 20
278.4699108608
 30
0.0
 10
104.0666215762
 20
279.2906474877
 30
0.0
 10
106.5953617622
 20
280.3833528844
 30
0.0
 10
107.7431686162
 20
280.981604986
 30
0.0
  0
SPLINE
  5
46E
100
AcDbEntity
  8
0
100
AcDbSpline
 62
7
  6
CONTINUOUS
 70
0
 71
3
 72
9
 73
5
 74
0
 42
0.0000001
 43
0.0000001
 44
0.0000000001
 40
0.0
 40
0.0
 40
0.0
 40
0.0
 40
0.5469784243
 40
1.0
 40
1.0
 40
1.0
 40
1.0
 10
108.8935134424
 20
281.6206004937
 30
0.0
 10
109.8770140839
 20
282.2036366546
 30
0.0
 10
111.6020411457
 20
283.4050346856
 30
0.0
 10
113.0122486037
 20
284.9965770964
 30
0.0
 10
113.4967015217
 20
285.8102063592
 30
0.0
  0
SPLINE
  5
46F
100
AcDbEntity
  8
0
100
AcDbSpline
 62
7
  6
CONTINUOUS
 70
0
 71
3
 72
15
 73
11
 74
0
 42
0.0000001
 43
0.0000001
 44
0.0000000001
 40
0.0
 40
0.0
 40
0.0
 40
0.0
 40
0.1129189157
 40
0.2187857105
 40
0.3234299027
 40
0.4329282102
 40
0.5524310751
 40
0.685546224
 40
0.8344496171
 40
1.0
 40
1.0
 40
1.0
 40
1.0
 10
113.4967015217
 20
285.8102063592
 30
0.0
 10
113.7458021023
 20
286.2285659442
 30
0.0
 10
114.1503988585
 20
287.0913440828
 30
0.0
 10
114.4158457592
 20
288.4764844509
 30
0.0
 10
114.3003527358
 20
289.8685744295
 30
0.0
 10
113.8096896986
 20
291.2362434288
 30
0.0
 10
112.9625676201
 20
292.5605245141
 30
0.0
 10
111.7765169557
 20
293.8321123622
 30
0.0
 10
110.26658384
 20
295.0423141131
 30
0.0
 10
109.1152946498
 20
295.7639647833
 30
0.0
 10
108.4940040406
 20
296.1155045631
 30
0.0
  0
SPLINE
  5
470
100
AcDbEntity
  8
0
100
AcDbSpline
 62
7
  6
CONTINUOUS
 70
0
 71
3
 72
15
 73
11
 74
0
 42
0.0000001
 43
0.0000001
 44
0.0000000001
 40
0.0
 40
0.0
 40
0.0
 40
0.0
 40
0.0982313507
 40
0.2110154801
 40
0.3356405696
 40
0.4685557489
 40
0.6057113952
 40
0.742819399
 40
0.8755902357
 40
1.0
 40
1.0
 40
1.0
 40
1.0
 10
108.4940040406
 20
296.1155045631
 30
0.0
 10
107.1862155892
 20
296.8554797975
 30
0.0
 10
104.2285969127
 20
298.184301952
 30
0.0
 10
99.3120771631
 20
299.6929648563
 30
0.0
 10
93.7505597946
 20
300.8123763612
 30
0.0
 10
87.7458031134
 20
301.499272743
 30
0.0
 10
81.5155367335
 20
301.7278091309
 30
0.0
 10
75.2877030776
 20
301.4890201376
 30
0.0
 10
69.2907786843
 20
300.7922637375
 30
0.0
 10
65.428959301
 20
300.0070895045
 30
0.0
 10
63.5864592768
 20
299.5307915839
 30
0.0
  0
SPLINE
  5
471
100
AcDbEntity
  8
0
100
AcDbSpline
 62
7
  6
CONTINUOUS
 70
0
 71
3
 72
17
 73
13
 74
0
 42
0.0000001
 43
0.0000001
 44
0.0000000001
 40
0.0
 40
0.0
 40
0.0
 40
0.0
 40
0.127382625
 40
0.2639292289
 40
0.404741513
 40
0.544584672
 40
0.6782953732
 40
0.8011251091
 40
0.8572188132
 40
0.9092182163
 40
0.9568544721
 40
1.0
 40
1.0
 40
1.0
 40
1.0
 10
60.4189058794
 20
300.5806664119
 30
0.0
 10
62.7361504063
 20
301.1934169611
 30
0.0
 10
67.6130109868
 20
302.1838139126
 30
0.0
 10
75.1919159317
 20
303.0154379859
 30
0.0
 10
83.0486728745
 20
303.2154476954
 30
0.0
 10
90.8424484919
 20
302.7789532687
 30
0.0
 10
98.2354335935
 20
301.7239305303
 30
0.0
 10
103.9644050488
 20
300.3311326995
 30
0.0
 10
108.0757984118
 20
298.9164977483
 30
0.0
 10
110.7757893761
 20
297.7703182268
 30
0.0
 10
113.157221819
 20
296.5197102421
 30
0.0
 10
114.5872619507
 20
295.5777103142
 30
0.0
 10
115.2351674693
 20
295.0885141122
 30
0.0
  0
SPLINE
  5
472
100
AcDbEntity
  8
0
100
AcDbSpline
 62
7
  6
CONTINUOUS
 70
0
 71
3
 72
15
 73
11
 74
0
 42
0.0000001
 43
0.0000001
 44
0.0000000001
 40
0.0
 40
0.0
 40
0.0
 40
0.0
 40
0.1453118791
 40
0.275315043
 40
0.3933377623
 40
0.5043905466
 40
0.6147595031
 40
0.7308712052
 40
0.858059661
 40
1.0
 40
1.0
 40
1.0
 40
1.0
 10
116.0384982667
 20
294.4446998177
 30
0.0
 10
116.5661205185
 20
293.9948553303
 30
0.0
 10
117.513714046
 20
293.076692205
 30
0.0
 10
118.627813947
 20
291.5527680731
 30
0.0
 10
119.3314421994
 20
289.9734250501
 30
0.0
 10
119.6013856452
 20
288.356798395
 30
0.0
 10
119.4238434647
 20
286.7361679183
 30
0.0
 10
118.8082531165
 20
285.1471273538
 30
0.0
 10
117.7776405315
 20
283.6108842853
 30
0.0
 10
116.8802165427
 20
282.6836894248
 30
0.0
 10
116.3778083401
 20
282.2295071847
 30
0.0
  0
SPLINE
  5
473
100
AcDbEntity
  8
0
100
AcDbSpline
 62
7
  6
CONTINUOUS
 70
0
 71
3
 72
9
 73
5
 74
0
 42
0.0000001
 43
0.0000001
 44
0.0000000001
 40
0.0
 40
0.0
 40
0.0
 40
0.0
 40
0.2325219136
 40
1.0
 40
1.0
 40
1.0
 40
1.0
 10
116.3778083401
 20
282.2295071847
 30
0.0
 10
116.1363603549
 20
282.0112356951
 30
0.0
 10
115.0673829975
 20
281.1063728765
 30
0.0
 10
113.8932324183
 20
280.3306260498
 30
0.0
 10
112.963373922
 20
279.792561387
 30
0.0
  0
SPLINE
  5
474
100
AcDbEntity
  8
0
100
AcDbSpline
 62
7
  6
CONTINUOUS
 70
0
 71
3
 72
9
 73
5
 74
0
 42
0.0000001
 43
0.0000001
 44
0.0000000001
 40
0.0
 40
0.0
 40
0.0
 40
0.0
 40
0.465658445
 40
1.0
 40
1.0
 40
1.0
 40
1.0
 10
112.963373922
 20
279.792561387
 30
0.0
 10
111.5143606763
 20
278.9540866874
 30
0.0
 10
108.2362490789
 20
277.43991508
 30
0.0
 10
104.8042970797
 20
276.3460242531
 30
0.0
 10
102.9487567499
 20
275.8486364943
 30
0.0
  0
SPLINE
  5
475
100
AcDbEntity
  8
0
100
AcDbSpline
 62
7
  6
CONTINUOUS
 70
0
 71
3
 72
15
 73
11
 74
0
 42
0.0000001
 43
0.0000001
 44
0.0000000001
 40
0.0
 40
0.0
 40
0.0
 40
0.0
 40
0.0120779484
 40
0.0552561481
 40
0.1306160915
 40
0.238286826
 40
0.3783364079
 40
0.5512496637
 40
0.7580906165
 40
1.0
 40
1.0
 40
1.0
 40
1.0
 10
38.4860690864
 20
284.134970034
 30
0.0
 10
38.48690396
 20
284.1414722216
 30
0.0
 10
38.5304290742
 20
284.1086848674
 30
0.0
 10
38.5611948838
 20
284.0756949345
 30
0.0
 10
38.6600687181
 20
283.9788549663
 30
0.0
 10
38.7755889154
 20
283.8564881036
 30
0.0
 10
38.9347959752
 20
283.6889501117
 30
0.0
 10
39.1264944486
 20
283.4833461559
 30
0.0
 10
39.3538615389
 20
283.2335200671
 30
0.0
 10
39.514970379
 20
283.0509601055
 30
0.0
 10
39.6010935504
 20
282.9518496021
 30
0.0
  0
SPLINE
  5
476
100
AcDbEntity
  8
0
100
AcDbSpline
 62
7
  6
CONTINUOUS
 70
0
 71
3
 72
11
 73
7
 74
0
 42
0.0000001
 43
0.0000001
 44
0.0000000001
 40
0.0
 40
0.0
 40
0.0
 40
0.0
 40
0.1909163249
 40
0.4287195074
 40
0.7093836209
 40
1.0
 40
1.0
 40
1.0
 40
1.0
 10
90.0307721216
 20
269.1953346703
 30
0.0
 10
90.0458553364
 20
269.1847692026
 30
0.0
 10
90.0711416882
 20
269.1484986847
 30
0.0
 10
90.0784025926
 20
269.079368344
 30
0.0
 10
90.0755130807
 20
269.0013229681
 30
0.0
 10
90.0907331455
 20
268.9471195265
 30
0.0
 10
90.1017439778
 20
268.9213400348
 30
0.0
  0
SPLINE
  5
477
100
AcDbEntity
  8
0
100
AcDbSpline
 62
7
  6
CONTINUOUS
 70
0
 71
3
 72
15
 73
11
 74
0
 42
0.0000001
 43
0.0000001
 44
0.0000000001
 40
0.0
 40
0.0
 40
0.0
 40
0.0
 40
0.1017983555
 40
0.216965034
 40
0.3427220183
 40
0.475609268
 40
0.6117695452
 40
0.7471733627
 40
0.8778248846
 40
1.0
 40
1.0
 40
1.0
 40
1.0
 10
55.8462262265
 20
280.7672835416
 30
0.0
 10
57.2136689428
 20
280.0849092024
 30
0.0
 10
60.2464991208
 20
278.8656627621
 30
0.0
 10
65.2131416636
 20
277.4941129577
 30
0.0
 10
70.7439809865
 20
276.5026921892
 30
0.0
 10
76.6487306298
 20
275.927420759
 30
0.0
 10
82.7243853071
 20
275.7889014128
 30
0.0
 10
88.7606800734
 20
276.0923072685
 30
0.0
 10
94.5481539689
 20
276.8263966368
 30
0.0
 10
98.2665939178
 20
277.6189752537
 30
0.0
 10
100.0382007993
 20
278.0938641914
 30
0.0
  0
SPLINE
  5
478
100
AcDbEntity
  8
0
100
AcDbSpline
 62
7
  6
CONTINUOUS
 70
0
 71
3
 72
15
 73
11
 74
0
 42
0.0000001
 43
0.0000001
 44
0.0000000001
 40
0.0
 40
0.0
 40
0.0
 40
0.0
 40
0.1191380462
 40
0.2458778536
 40
0.3773786829
 40
0.5105962706
 40
0.64241606
 40
0.7697801284
 40
0.8898198553
 40
1.0
 40
1.0
 40
1.0
 40
1.0
 10
102.7502330481
 20
275.7957073726
 30
0.0
 10
100.9302822236
 20
275.3144565299
 30
0.0
 10
97.1276934117
 20
274.4928502419
 30
0.0
 10
91.216249864
 20
273.6758897094
 30
0.0
 10
85.0407089164
 20
273.2509374598
 30
0.0
 10
78.7706372836
 20
273.2300827271
 30
0.0
 10
72.5776632226
 20
273.6138858143
 30
0.0
 10
66.6309758232
 20
274.3915311394
 30
0.0
 10
61.0934563105
 20
275.5408205017
 30
0.0
 10
57.6017121409
 20
276.5846029475
 30
0.0
 10
55.9637474101
 20
277.1745306928
 30
0.0
  0
SPLINE
  5
479
100
AcDbEntity
  8
0
100
AcDbSpline
 62
7
  6
CONTINUOUS
 70
0
 71
3
 72
9
 73
5
 74
0
 42
0.0000001
 43
0.0000001
 44
0.0000000001
 40
0.0
 40
0.0
 40
0.0
 40
0.0
 40
0.2580844545
 40
1.0
 40
1.0
 40
1.0
 40
1.0
 10
55.6507536974
 20
277.2885357045
 30
0.0
 10
55.3898984246
 20
277.3846256483
 30
0.0
 10
54.3826231951
 20
277.766209577
 30
0.0
 10
53.3895697352
 20
278.1858286588
 30
0.0
 10
52.6644459784
 20
278.5217150888
 30
0.0
  0
SPLINE
  5
47A
100
AcDbEntity
  8
0
100
AcDbSpline
 62
7
  6
CONTINUOUS
 70
0
 71
3
 72
9
 73
5
 74
0
 42
0.0000001
 43
0.0000001
 44
0.0000000001
 40
0.0
 40
0.0
 40
0.0
 40
0.0
 40
0.5354069932
 40
1.0
 40
1.0
 40
1.0
 40
1.0
 10
52.6644459784
 20
278.5217150888
 30
0.0
 10
51.5379414753
 20
279.0435261211
 30
0.0
 10
49.4820391309
 20
280.1285402478
 30
0.0
 10
47.5970494956
 20
281.501880001
 30
0.0
 10
46.7975063912
 20
282.2238784323
 30
0.0
  0
SPLINE
  5
47B
100
AcDbEntity
  8
0
100
AcDbSpline
 62
7
  6
CONTINUOUS
 70
0
 71
3
 72
13
 73
9
 74
0
 42
0.0000001
 43
0.0000001
 44
0.0000000001
 40
0.0
 40
0.0
 40
0.0
 40
0.0
 40
0.2875296134
 40
0.5365332492
 40
0.6523865349
 40
0.7661092814
 40
0.880935369
 40
1.0
 40
1.0
 40
1.0
 40
1.0
 10
46.7975063912
 20
282.2238784323
 30
0.0
 10
46.1192415489
 20
282.8363609233
 30
0.0
 10
44.9476783404
 20
284.0970483997
 30
0.0
 10
43.9738925553
 20
285.9688719002
 30
0.0
 10
43.6491839481
 20
287.4630722768
 30
0.0
 10
43.6167214359
 20
288.5636642447
 30
0.0
 10
43.7893938269
 20
289.6609237655
 30
0.0
 10
44.034161557
 20
290.3672586821
 30
0.0
 10
44.185500913
 20
290.7141137009
 30
0.0
  0
SPLINE
  5
47C
100
AcDbEntity
  8
0
100
AcDbSpline
 62
7
  6
CONTINUOUS
 70
0
 71
3
 72
9
 73
5
 74
0
 42
0.0000001
 43
0.0000001
 44
0.0000000001
 40
0.0
 40
0.0
 40
0.0
 40
0.0
 40
0.2320931634
 40
1.0
 40
1.0
 40
1.0
 40
1.0
 10
44.2569955482
 20
290.8728446312
 30
0.0
 10
44.373470305
 20
291.1235778775
 30
0.0
 10
44.9349267254
 20
292.1763768476
 30
0.0
 10
45.7118140826
 20
293.1038293726
 30
0.0
 10
46.3644558152
 20
293.7447438205
 30
0.0
  0
SPLINE
  5
47D
100
AcDbEntity
  8
0
100
AcDbSpline
 62
7
  6
CONTINUOUS
 70
0
 71
3
 72
18
 73
14
 74
0
 42
0.0000001
 43
0.0000001
 44
0.0000000001
 40
0.0
 40
0.0
 40
0.0
 40
0.0
 40
0.2087359911
 40
0.3237606104
 40
0.3838533711
 40
0.4458870221
 40
0.5093689779
 40
0.5749564886
 40
0.6416614975
 40
0.7106304195
 40
0.7803888002
 40
0.8521241326
 40
1.0
 40
1.0
 40
1.0
 40
1.0
 10
47.0251191564
 20
294.3540131325
 30
0.0
 10
47.7587522622
 20
294.9898698991
 30
0.0
 10
48.9862192789
 20
295.8750067877
 30
0.0
 10
50.5277966062
 20
296.7759388206
 30
0.0
 10
51.501784107
 20
297.2940991376
 30
0.0
 10
52.2772412657
 20
297.6736022046
 30
0.0
 10
53.0820997413
 20
298.051053538
 30
0.0
 10
53.9205517385
 20
298.4063928526
 30
0.0
 10
54.7851146373
 20
298.7655564556
 30
0.0
 10
55.6817953219
 20
299.0959240173
 30
0.0
 10
56.6010624782
 20
299.4324122728
 30
0.0
 10
57.879263392
 20
299.8543185295
 30
0.0
 10
58.8574580235
 20
300.1491792026
 30
0.0
 10
59.5195537316
 20
300.3353698615
 30
0.0
  0
SPLINE
  5
47E
100
AcDbEntity
  8
0
100
AcDbSpline
 62
7
  6
CONTINUOUS
 70
0
 71
3
 72
10
 73
6
 74
0
 42
0.0000001
 43
0.0000001
 44
0.0000000001
 40
0.0
 40
0.0
 40
0.0
 40
0.0
 40
0.5403104057
 40
0.7808782765
 40
1.0
 40
1.0
 40
1.0
 40
1.0
 10
63.1308675065
 20
299.4108544517
 30
0.0
 10
61.3221574513
 20
298.9260198048
 30
0.0
 10
58.7376840512
 20
298.087427632
 30
0.0
 10
55.5833868112
 20
296.6445603497
 30
0.0
 10
54.1966982672
 20
295.8536285754
 30
0.0
 10
53.5596108383
 20
295.4403129338
 30
0.0
  0
SPLINE
  5
47F
100
AcDbEntity
  8
0
100
AcDbSpline
 62
7
  6
CONTINUOUS
 70
0
 71
3
 72
14
 73
10
 74
0
 42
0.0000001
 43
0.0000001
 44
0.0000000001
 40
0.0
 40
0.0
 40
0.0
 40
0.0
 40
0.3033813062
 40
0.4338511209
 40
0.5528659051
 40
0.6640774376
 40
0.7722309414
 40
0.882576419
 40
1.0
 40
1.0
 40
1.0
 40
1.0
 10
53.3170363295
 20
295.2803426184
 30
0.0
 10
52.3651818214
 20
294.6421823647
 30
0.0
 10
51.069428571
 20
293.6010601183
 30
0.0
 10
49.7788260353
 20
291.9483154905
 30
0.0
 10
49.1453310906
 20
290.7316585395
 30
0.0
 10
48.8101798909
 20
289.4864260346
 30
0.0
 10
48.7840491293
 20
288.2285572407
 30
0.0
 10
49.0679089426
 20
286.9801311109
 30
0.0
 10
49.4421752663
 20
286.1976211999
 30
0.0
 10
49.6687569448
 20
285.8163089708
 30
0.0
  0
SPLINE
  5
480
100
AcDbEntity
  8
0
100
AcDbSpline
 62
7
  6
CONTINUOUS
 70
0
 71
3
 72
10
 73
6
 74
0
 42
0.0000001
 43
0.0000001
 44
0.0000000001
 40
0.0
 40
0.0
 40
0.0
 40
0.0
 40
0.4511219912
 40
0.7128306612
 40
1.0
 40
1.0
 40
1.0
 40
1.0
 10
49.6687569448
 20
285.8163089708
 30
0.0
 10
50.1709199443
 20
284.9712234632
 30
0.0
 10
51.2283253687
 20
283.7912076608
 30
0.0
 10
52.9417988637
 20
282.4457037751
 30
0.0
 10
53.9547041101
 20
281.8042239083
 30
0.0
 10
54.4965746493
 20
281.4912494488
 30
0.0
  0
SPLINE
  5
481
100
AcDbEntity
  8
0
100
AcDbSpline
 62
7
  6
CONTINUOUS
 70
0
 71
3
 72
9
 73
5
 74
0
 42
0.0000001
 43
0.0000001
 44
0.0000000001
 40
0.0
 40
0.0
 40
0.0
 40
0.0
 40
0.2541005987
 40
1.0
 40
1.0
 40
1.0
 40
1.0
 10
49.8888391452
 20
289.8449735361
 30
0.0
 10
49.8602878552
 20
289.7641060407
 30
0.0
 10
49.7550535406
 20
289.4433993124
 30
0.0
 10
49.6793866955
 20
289.1128728009
 30
0.0
 10
49.6415847241
 20
288.8639838955
 30
0.0
  0
SPLINE
  5
482
100
AcDbEntity
  8
0
100
AcDbSpline
 62
7
  6
CONTINUOUS
 70
0
 71
3
 72
9
 73
5
 74
0
 42
0.0000001
 43
0.0000001
 44
0.0000000001
 40
0.0
 40
0.0
 40
0.0
 40
0.0
 40
0.2536279549
 40
1.0
 40
1.0
 40
1.0
 40
1.0
 10
86.0302650122
 20
262.3421246582
 30
0.0
 10
85.3349201246
 20
261.8214089175
 30
0.0
 10
82.6239851018
 20
259.7278164166
 30
0.0
 10
80.0327071702
 20
257.4784855866
 30
0.0
 10
78.1825022597
 20
255.7144038269
 30
0.0
  0
SPLINE
  5
483
100
AcDbEntity
  8
0
100
AcDbSpline
 62
7
  6
CONTINUOUS
 70
0
 71
3
 72
15
 73
11
 74
0
 42
0.0000001
 43
0.0000001
 44
0.0000000001
 40
0.0
 40
0.0
 40
0.0
 40
0.0
 40
0.112265934
 40
0.2293134805
 40
0.3509167968
 40
0.4765496969
 40
0.6054768268
 40
0.7365772658
 40
0.8686117623
 40
1.0
 40
1.0
 40
1.0
 40
1.0
 10
62.5174301782
 20
257.0919812802
 30
0.0
 10
63.283608458
 20
257.6947111003
 30
0.0
 10
64.8674370602
 20
258.9028459571
 30
0.0
 10
67.3990492318
 20
260.6026301303
 30
0.0
 10
70.1337924671
 20
262.1958316048
 30
0.0
 10
73.0412809145
 20
263.6876631346
 30
0.0
 10
76.102899411
 20
265.0488814523
 30
0.0
 10
79.2874670658
 20
266.2573539705
 30
0.0
 10
82.5516174247
 20
267.3013618451
 30
0.0
 10
84.7668144133
 20
267.8795166518
 30
0.0
 10
85.8814007535
 20
268.1230629415
 30
0.0
  0
SPLINE
  5
484
100
AcDbEntity
  8
0
100
AcDbSpline
 62
7
  6
CONTINUOUS
 70
0
 71
3
 72
10
 73
6
 74
0
 42
0.0000001
 43
0.0000001
 44
0.0000000001
 40
0.0
 40
0.0
 40
0.0
 40
0.0
 40
0.2446666657
 40
0.4890417776
 40
1.0
 40
1.0
 40
1.0
 40
1.0
 10
40.3083554586
 20
286.3286916706
 30
0.0
 10
40.2398702495
 20
285.9568423152
 30
0.0
 10
40.1666615458
 20
285.1998270777
 30
0.0
 10
40.2925376776
 20
283.6531735053
 30
0.0
 10
40.6999858756
 20
282.5305861908
 30
0.0
 10
41.0693460104
 20
281.8326739625
 30
0.0
  0
SPLINE
  5
485
100
AcDbEntity
  8
0
100
AcDbSpline
 62
7
  6
CONTINUOUS
 70
0
 71
3
 72
9
 73
5
 74
0
 42
0.0000001
 43
0.0000001
 44
0.0000000001
 40
0.0
 40
0.0
 40
0.0
 40
0.0
 40
0.2605738993
 40
1.0
 40
1.0
 40
1.0
 40
1.0
 10
40.8855889945
 20
288.1887831471
 30
0.0
 10
40.9005936266
 20
288.2564991859
 30
0.0
 10
40.9628434211
 20
288.5152889266
 30
0.0
 10
41.0444939649
 20
288.7696180902
 30
0.0
 10
41.1175138204
 20
288.9523889753
 30
0.0
  0
SPLINE
  5
486
100
AcDbEntity
  8
0
100
AcDbSpline
 62
7
  6
CONTINUOUS
 70
0
 71
3
 72
9
 73
5
 74
0
 42
0.0000001
 43
0.0000001
 44
0.0000000001
 40
0.0
 40
0.0
 40
0.0
 40
0.0
 40
0.2606238139
 40
1.0
 40
1.0
 40
1.0
 40
1.0
 10
41.235967266
 20
289.2204489462
 30
0.0
 10
41.2704100523
 20
289.2911190564
 30
0.0
 10
41.4109068021
 20
289.5580409028
 30
0.0
 10
41.5871392095
 20
289.8068480373
 30
0.0
 10
41.736983437
 20
289.9720437549
 30
0.0
  0
SPLINE
  5
487
100
AcDbEntity
  8
0
100
AcDbSpline
 62
7
  6
CONTINUOUS
 70
0
 71
3
 72
9
 73
5
 74
0
 42
0.0000001
 43
0.0000001
 44
0.0000000001
 40
0.0
 40
0.0
 40
0.0
 40
0.0
 40
0.2529038886
 40
1.0
 40
1.0
 40
1.0
 40
1.0
 10
85.8814007535
 20
268.1230629415
 30
0.0
 10
86.2343438083
 20
268.2041763251
 30
0.0
 10
87.6325625148
 20
268.5130091593
 30
0.0
 10
89.0428213266
 20
268.7691292126
 30
0.0
 10
90.1017364797
 20
268.921340121
 30
0.0
  0
SPLINE
  5
488
100
AcDbEntity
  8
0
100
AcDbSpline
 62
7
  6
CONTINUOUS
 70
0
 71
3
 72
9
 73
5
 74
0
 42
0.0000001
 43
0.0000001
 44
0.0000000001
 40
0.0
 40
0.0
 40
0.0
 40
0.0
 40
0.5140175378
 40
1.0
 40
1.0
 40
1.0
 40
1.0
 10
90.400630957
 20
269.2424331558
 30
0.0
 10
92.6292401107
 20
269.4336302498
 30
0.0
 10
96.953852359
 20
269.9516360676
 30
0.0
 10
101.2296294077
 20
270.7887455589
 30
0.0
 10
103.2850269596
 20
271.2864536856
 30
0.0
  0
SPLINE
  5
489
100
AcDbEntity
  8
0
100
AcDbSpline
 62
7
  6
CONTINUOUS
 70
0
 71
3
 72
11
 73
7
 74
0
 42
0.0000001
 43
0.0000001
 44
0.0000000001
 40
0.0
 40
0.0
 40
0.0
 40
0.0
 40
0.2274191857
 40
0.468247608
 40
0.7344867816
 40
1.0
 40
1.0
 40
1.0
 40
1.0
 10
104.9071237815
 20
271.6817781063
 30
0.0
 10
104.9295914241
 20
271.6748337183
 30
0.0
 10
104.9733382108
 20
271.6485307532
 30
0.0
 10
105.0110389514
 20
271.5799606564
 30
0.0
 10
105.0285942289
 20
271.5020186829
 30
0.0
 10
105.0481904708
 20
271.450400613
 30
0.0
 10
105.0592331019
 20
271.4252636988
 30
0.0
  0
SPLINE
  5
48A
100
AcDbEntity
  8
0
100
AcDbSpline
 62
7
  6
CONTINUOUS
 70
0
 71
3
 72
9
 73
5
 74
0
 42
0.0000001
 43
0.0000001
 44
0.0000000001
 40
0.0
 40
0.0
 40
0.0
 40
0.0
 40
0.5096873601
 40
1.0
 40
1.0
 40
1.0
 40
1.0
 10
122.3148071564
 20
282.2687965694
 30
0.0
 10
122.5756308626
 20
282.839180752
 30
0.0
 10
122.9589682714
 20
284.0252492866
 30
0.0
 10
122.9958369879
 20
285.2743571814
 30
0.0
 10
122.9282481049
 20
285.8739079999
 30
0.0
  0
SPLINE
  5
48B
100
AcDbEntity
  8
0
100
AcDbSpline
 62
7
  6
CONTINUOUS
 70
0
 71
3
 72
10
 73
6
 74
0
 42
0.0000001
 43
0.0000001
 44
0.0000000001
 40
0.0
 40
0.0
 40
0.0
 40
0.0
 40
0.2891382041
 40
0.5510192292
 40
1.0
 40
1.0
 40
1.0
 40
1.0
 10
116.4098813414
 20
276.3552606109
 30
0.0
 10
117.0910323039
 20
276.7727405528
 30
0.0
 10
118.3561047256
 20
277.627963678
 30
0.0
 10
120.4577696369
 20
279.4205088945
 30
0.0
 10
121.7058122063
 20
281.0012736735
 30
0.0
 10
122.2443675855
 20
282.1188430456
 30
0.0
  0
SPLINE
  5
48C
100
AcDbEntity
  8
0
100
AcDbSpline
 62
7
  6
CONTINUOUS
 70
0
 71
3
 72
15
 73
11
 74
0
 42
0.0000001
 43
0.0000001
 44
0.0000000001
 40
0.0
 40
0.0
 40
0.0
 40
0.0
 40
0.2366272237
 40
0.4423210148
 40
0.6164104095
 40
0.7582271136
 40
0.8671342042
 40
0.9430937799
 40
0.9867693533
 40
1.0
 40
1.0
 40
1.0
 40
1.0
 10
41.0305319037
 20
281.8293252389
 30
0.0
 10
40.859905833
 20
282.0420243861
 30
0.0
 10
40.5423963053
 20
282.4405627283
 30
0.0
 10
40.104180575
 20
283.0004203326
 30
0.0
 10
39.7389867827
 20
283.4755729524
 30
0.0
 10
39.4437074643
 20
283.8722463754
 30
0.0
 10
39.2285742779
 20
284.1658313196
 30
0.0
 10
39.069005549
 20
284.4092143017
 30
0.0
 10
39.0084975176
 20
284.4974748546
 30
0.0
 10
38.9639735141
 20
284.5996191616
 30
0.0
 10
38.9791463856
 20
284.6011153458
 30
0.0
  0
SPLINE
  5
48D
100
AcDbEntity
  8
0
100
AcDbSpline
 62
7
  6
CONTINUOUS
 70
0
 71
3
 72
10
 73
6
 74
0
 42
0.0000001
 43
0.0000001
 44
0.0000000001
 40
0.0
 40
0.0
 40
0.0
 40
0.0
 40
0.5442384975
 40
0.7851669039
 40
1.0
 40
1.0
 40
1.0
 40
1.0
 10
106.7619230866
 20
269.2651811873
 30
0.0
 10
108.3912857779
 20
270.636012233
 30
0.0
 10
110.7912160628
 20
272.5581924844
 30
0.0
 10
113.9789964852
 20
274.827969114
 30
0.0
 10
115.478581065
 20
275.7947199955
 30
0.0
 10
116.1991762072
 20
276.227422749
 30
0.0
  0
SPLINE
  5
48E
100
AcDbEntity
  8
0
100
AcDbSpline
 62
7
  6
CONTINUOUS
 70
0
 71
3
 72
14
 73
10
 74
0
 42
0.0000001
 43
0.0000001
 44
0.0000000001
 40
0.0
 40
0.0
 40
0.0
 40
0.0
 40
0.2163450535
 40
0.4436847095
 40
0.5630759323
 40
0.6883219946
 40
0.8239867069
 40
0.9006993015
 40
1.0
 40
1.0
 40
1.0
 40
1.0
 10
41.1501488711
 20
281.683481985
 30
0.0
 10
41.1799927376
 20
281.6296200693
 30
0.0
 10
41.2409254294
 20
281.5190036456
 30
0.0
 10
41.3165057155
 20
281.3776849964
 30
0.0
 10
41.3773586823
 20
281.2578710457
 30
0.0
 10
41.4238873388
 20
281.1602584134
 30
0.0
 10
41.4620933436
 20
281.0715710223
 30
0.0
 10
41.4895497211
 20
280.9880675386
 30
0.0
 10
41.50207765
 20
280.9370567264
 30
0.0
 10
41.4972141219
 20
280.9092148277
 30
0.0
  0
SPLINE
  5
48F
100
AcDbEntity
  8
0
100
AcDbSpline
 62
7
  6
CONTINUOUS
 70
0
 71
3
 72
9
 73
5
 74
0
 42
0.0000001
 43
0.0000001
 44
0.0000000001
 40
0.0
 40
0.0
 40
0.0
 40
0.0
 40
0.2444016669
 40
1.0
 40
1.0
 40
1.0
 40
1.0
 10
40.8045648259
 20
281.616009345
 30
0.0
 10
40.8584697684
 20
281.556042073
 30
0.0
 10
41.0817721484
 20
281.3131521125
 30
0.0
 10
41.315663062
 20
281.0800503817
 30
0.0
 10
41.4972211449
 20
280.9092230606
 30
0.0
  0
SPLINE
  5
490
100
AcDbEntity
  8
0
100
AcDbSpline
 62
7
  6
CONTINUOUS
 70
0
 71
3
 72
12
 73
8
 74
0
 42
0.0000001
 43
0.0000001
 44
0.0000000001
 40
0.0
 40
0.0
 40
0.0
 40
0.0
 40
0.0902780314
 40
0.1955195111
 40
0.4411564948
 40
0.7155658496
 40
1.0
 40
1.0
 40
1.0
 40
1.0
 10
116.2323788985
 20
276.2188495474
 30
0.0
 10
115.5408191137
 20
275.6957161788
 30
0.0
 10
114.0670096571
 20
274.5310443181
 30
0.0
 10
110.8214693864
 20
271.8060775618
 30
0.0
 10
106.3743702555
 20
267.7658567273
 30
0.0
 10
100.8551758287
 20
262.3559776229
 30
0.0
 10
97.1524576168
 20
258.4675373109
 30
0.0
 10
95.3104841781
 20
256.4498265963
 30
0.0
  0
SPLINE
  5
491
100
AcDbEntity
  8
0
100
AcDbSpline
 62
7
  6
CONTINUOUS
 70
0
 71
3
 72
9
 73
5
 74
0
 42
0.0000001
 43
0.0000001
 44
0.0000000001
 40
0.0
 40
0.0
 40
0.0
 40
0.0
 40
0.2154203884
 40
1.0
 40
1.0
 40
1.0
 40
1.0
 10
39.6010935504
 20
282.9518496021
 30
0.0
 10
39.6881115658
 20
282.8564690115
 30
0.0
 10
40.0922410016
 20
282.4138755274
 30
0.0
 10
40.4933165252
 20
281.9684656868
 30
0.0
 10
40.8045655307
 20
281.6159848795
 30
0.0
  0
SPLINE
  5
492
100
AcDbEntity
  8
0
100
AcDbSpline
 62
7
  6
CONTINUOUS
 70
0
 71
3
 72
10
 73
6
 74
0
 42
0.0000001
 43
0.0000001
 44
0.0000000001
 40
0.0
 40
0.0
 40
0.0
 40
0.0
 40
0.4491125266
 40
0.7111855663
 40
1.0
 40
1.0
 40
1.0
 40
1.0
 10
41.1501488711
 20
281.683481985
 30
0.0
 10
41.7687742098
 20
280.5670840566
 30
0.0
 10
43.1234758525
 20
279.005707334
 30
0.0
 10
45.3467589574
 20
277.2369920284
 30
0.0
 10
46.6716366119
 20
276.395012412
 30
0.0
 10
47.3823832141
 20
275.9844901258
 30
0.0
  0
SPLINE
  5
493
100
AcDbEntity
  8
0
100
AcDbSpline
 62
7
  6
CONTINUOUS
 70
0
 71
3
 72
11
 73
7
 74
0
 42
0.0000001
 43
0.0000001
 44
0.0000000001
 40
0.0
 40
0.0
 40
0.0
 40
0.0
 40
0.3282795396
 40
0.6038209018
 40
0.8264370398
 40
1.0
 40
1.0
 40
1.0
 40
1.0
 10
47.3824741366
 20
275.9844672091
 30
0.0
 10
46.7409309421
 20
276.3550106469
 30
0.0
 10
45.5412350776
 20
277.0036892769
 30
0.0
 10
43.8301327366
 20
277.7542772031
 30
0.0
 10
42.3773381499
 20
278.1986533775
 30
0.0
 10
41.4789811805
 20
278.3048141859
 30
0.0
 10
41.0877119602
 20
278.2864794527
 30
0.0
  0
SPLINE
  5
494
100
AcDbEntity
  8
0
100
AcDbSpline
 62
7
  6
CONTINUOUS
 70
0
 71
3
 72
11
 73
7
 74
0
 42
0.0000001
 43
0.0000001
 44
0.0000000001
 40
0.0
 40
0.0
 40
0.0
 40
0.0
 40
0.2506573475
 40
0.5008735555
 40
0.7591585076
 40
1.0
 40
1.0
 40
1.0
 40
1.0
 10
116.2328088855
 20
276.218932851
 30
0.0
 10
116.2600157504
 20
276.2159607061
 30
0.0
 10
116.3142254915
 20
276.1988040853
 30
0.0
 10
116.3752798173
 20
276.1391004076
 30
0.0
 10
116.4115538061
 20
276.0652328693
 30
0.0
 10
116.4336108503
 20
276.0154405828
 30
0.0
 10
116.4429115927
 20
275.990843307
 30
0.0
  0
SPLINE
  5
495
100
AcDbEntity
  8
0
100
AcDbSpline
 62
7
  6
CONTINUOUS
 70
0
 71
3
 72
17
 73
13
 74
0
 42
0.0000001
 43
0.0000001
 44
0.0000000001
 40
0.0
 40
0.0
 40
0.0
 40
0.0
 40
0.262520079
 40
0.5184155696
 40
0.6432016347
 40
0.7650844532
 40
0.8245559474
 40
0.8826319595
 40
0.9109957077
 40
0.9388150999
 40
0.9663636158
 40
1.0
 40
1.0
 40
1.0
 40
1.0
 10
116.4098813414
 20
276.3552606109
 30
0.0
 10
116.4831608567
 20
276.4001704924
 30
0.0
 10
116.6285870738
 20
276.4876864897
 30
0.0
 10
116.8117126092
 20
276.5917698564
 30
0.0
 10
116.9577462024
 20
276.6676068908
 30
0.0
 10
117.048522318
 20
276.7102414677
 30
0.0
 10
117.1213451083
 20
276.7393429913
 30
0.0
 10
117.1667891183
 20
276.7541923077
 30
0.0
 10
117.2033423491
 20
276.7626158344
 30
0.0
 10
117.2305281972
 20
276.7654738501
 30
0.0
 10
117.2603461345
 20
276.764947992
 30
0.0
 10
117.2773233809
 20
276.747107013
 30
0.0
 10
117.2789215903
 20
276.7362113944
 30
0.0
  0
SPLINE
  5
496
100
AcDbEntity
  8
0
100
AcDbSpline
 62
7
  6
CONTINUOUS
 70
0
 71
3
 72
9
 73
5
 74
0
 42
0.0000001
 43
0.0000001
 44
0.0000000001
 40
0.0
 40
0.0
 40
0.0
 40
0.0
 40
0.47782353
 40
1.0
 40
1.0
 40
1.0
 40
1.0
 10
47.3495711022
 20
275.975574464
 30
0.0
 10
47.3018387577
 20
275.9601320126
 30
0.0
 10
47.2202322822
 20
275.8816184185
 30
0.0
 10
47.1746846485
 20
275.7873684095
 30
0.0
 10
47.1551098108
 20
275.7361570952
 30
0.0
  0
SPLINE
  5
497
100
AcDbEntity
  8
0
100
AcDbSpline
 62
7
  6
CONTINUOUS
 70
0
 71
3
 72
9
 73
5
 74
0
 42
0.0000001
 43
0.0000001
 44
0.0000000001
 40
0.0
 40
0.0
 40
0.0
 40
0.0
 40
0.2681417586
 40
1.0
 40
1.0
 40
1.0
 40
1.0
 10
114.309653163
 20
274.1570313142
 30
0.0
 10
114.4977466933
 20
274.3239016217
 30
0.0
 10
115.2006883847
 20
274.9445207752
 30
0.0
 10
115.9117474
 20
275.5562569562
 30
0.0
 10
116.4429046499
 20
275.9908411421
 30
0.0
  0
SPLINE
  5
498
100
AcDbEntity
  8
0
100
AcDbSpline
 62
7
  6
CONTINUOUS
 70
0
 71
3
 72
9
 73
5
 74
0
 42
0.0000001
 43
0.0000001
 44
0.0000000001
 40
0.0
 40
0.0
 40
0.0
 40
0.0
 40
0.2342829187
 40
1.0
 40
1.0
 40
1.0
 40
1.0
 10
44.4415514568
 20
276.7596489426
 30
0.0
 10
44.6574299958
 20
276.6901637596
 30
0.0
 10
45.5747018822
 20
276.3806272917
 30
0.0
 10
46.4759454137
 20
276.0247852451
 30
0.0
 10
47.1581131676
 20
275.7348808814
 30
0.0
  0
SPLINE
  5
499
100
AcDbEntity
  8
0
100
AcDbSpline
 62
7
  6
CONTINUOUS
 70
0
 71
3
 72
16
 73
12
 74
0
 42
0.0000001
 43
0.0000001
 44
0.0000000001
 40
0.0
 40
0.0
 40
0.0
 40
0.0
 40
0.2350228544
 40
0.4753797535
 40
0.5981581505
 40
0.7234497069
 40
0.787502968
 40
0.8530948098
 40
0.9216123198
 40
0.958523164
 40
1.0
 40
1.0
 40
1.0
 40
1.0
 10
47.6021679747
 20
275.8588448759
 30
0.0
 10
47.6811925261
 20
275.8141000487
 30
0.0
 10
47.8402900304
 20
275.7222725099
 30
0.0
 10
48.0377234723
 20
275.6020210197
 30
0.0
 10
48.195754175
 20
275.4988028184
 30
0.0
 10
48.2945909276
 20
275.4296604951
 30
0.0
 10
48.3729092042
 20
275.3697858015
 30
0.0
 10
48.4315382996
 20
275.3207659179
 30
0.0
 10
48.4795122491
 20
275.2742926479
 30
0.0
 10
48.5136937899
 20
275.23023999
 30
0.0
 10
48.5280747788
 20
275.1999886592
 30
0.0
 10
48.5257996719
 20
275.1841243073
 30
0.0
  0
SPLINE
  5
49A
100
AcDbEntity
  8
0
100
AcDbSpline
 62
7
  6
CONTINUOUS
 70
0
 71
3
 72
9
 73
5
 74
0
 42
0.0000001
 43
0.0000001
 44
0.0000000001
 40
0.0
 40
0.0
 40
0.0
 40
0.0
 40
0.4656652825
 40
1.0
 40
1.0
 40
1.0
 40
1.0
 10
47.6021679747
 20
275.8588448759
 30
0.0
 10
49.24011534
 20
274.9315690372
 30
0.0
 10
52.9417249892
 20
273.2644573575
 30
0.0
 10
56.8117004398
 20
272.0712976467
 30
0.0
 10
58.9030784396
 20
271.5320912351
 30
0.0
  0
SPLINE
  5
49B
100
AcDbEntity
  8
0
100
AcDbSpline
 62
7
  6
CONTINUOUS
 70
0
 71
3
 72
12
 73
8
 74
0
 42
0.0000001
 43
0.0000001
 44
0.0000000001
 40
0.0
 40
0.0
 40
0.0
 40
0.0
 40
0.304536246
 40
0.5736441805
 40
0.6938592345
 40
0.804592924
 40
1.0
 40
1.0
 40
1.0
 40
1.0
 10
58.8811301516
 20
271.5191366319
 30
0.0
 10
57.2806100427
 20
271.8467280456
 30
0.0
 10
54.233935984
 20
272.3237021793
 30
0.0
 10
50.4992632226
 20
272.4409857796
 30
0.0
 10
47.8250106541
 20
272.1817722843
 30
0.0
 10
45.5783494554
 20
271.7468733787
 30
0.0
 10
44.014562393
 20
271.1771268039
 30
0.0
 10
43.0935153277
 20
270.6765804526
 30
0.0
  0
SPLINE
  5
49C
100
AcDbEntity
  8
0
100
AcDbSpline
 62
7
  6
CONTINUOUS
 70
0
 71
3
 72
15
 73
11
 74
0
 42
0.0000001
 43
0.0000001
 44
0.0000000001
 40
0.0
 40
0.0
 40
0.0
 40
0.0
 40
0.1368739398
 40
0.2733292095
 40
0.4080999662
 40
0.5397508268
 40
0.6666503799
 40
0.7868994058
 40
0.8987266213
 40
1.0
 40
1.0
 40
1.0
 40
1.0
 10
96.5325365144
 20
256.4206362352
 30
0.0
 10
97.3126649469
 20
257.2603959688
 30
0.0
 10
98.8610418788
 20
258.9461322092
 30
0.0
 10
101.2028296907
 20
261.4353916517
 30
0.0
 10
103.5548822468
 20
263.8542464139
 30
0.0
 10
105.8733978623
 20
266.1938232669
 30
0.0
 10
108.1341687712
 20
268.4191285093
 30
0.0
 10
110.3056127748
 20
270.4981739298
 30
0.0
 10
112.3464372745
 20
272.4027649811
 30
0.0
 10
113.6681049246
 20
273.6023588645
 30
0.0
 10
114.309653163
 20
274.1570313142
 30
0.0
  0
SPLINE
  5
49D
100
AcDbEntity
  8
0
100
AcDbSpline
 62
7
  6
CONTINUOUS
 70
0
 71
3
 72
9
 73
5
 74
0
 42
0.0000001
 43
0.0000001
 44
0.0000000001
 40
0.0
 40
0.0
 40
0.0
 40
0.0
 40
0.2326647228
 40
1.0
 40
1.0
 40
1.0
 40
1.0
 10
43.8359921501
 20
271.0977940548
 30
0.0
 10
44.1523945521
 20
271.2583157625
 30
0.0
 10
45.541785731
 20
271.8901018181
 30
0.0
 10
47.0288203996
 20
272.2928591256
 30
0.0
 10
48.1800178522
 20
272.5024218554
 30
0.0
  0
SPLINE
  5
49E
100
AcDbEntity
  8
0
100
AcDbSpline
 62
7
  6
CONTINUOUS
 70
0
 71
3
 72
9
 73
5
 74
0
 42
0.0000001
 43
0.0000001
 44
0.0000000001
 40
0.0
 40
0.0
 40
0.0
 40
0.0
 40
0.4538724245
 40
1.0
 40
1.0
 40
1.0
 40
1.0
 10
48.1800178522
 20
272.5024218554
 30
0.0
 10
49.8010840728
 20
272.7247208778
 30
0.0
 10
53.4419609061
 20
272.7034341521
 30
0.0
 10
56.9964133865
 20
272.023733982
 30
0.0
 10
58.9028856595
 20
271.5321791393
 30
0.0
  0
SPLINE
  5
49F
100
AcDbEntity
  8
0
100
AcDbSpline
 62
7
  6
CONTINUOUS
 70
0
 71
3
 72
17
 73
13
 74
0
 42
0.0000001
 43
0.0000001
 44
0.0000000001
 40
0.0
 40
0.0
 40
0.0
 40
0.0
 40
0.2446749855
 40
0.3678450513
 40
0.4916405552
 40
0.6161652028
 40
0.7416279538
 40
0.8048591949
 40
0.8686077944
 40
0.9332852625
 40
0.9664394842
 40
1.0
 40
1.0
 40
1.0
 40
1.0
 10
59.2275425484
 20
271.449322375
 30
0.0
 10
59.3433948202
 20
271.4200511268
 30
0.0
 10
59.5172389153
 20
271.3747105113
 30
0.0
 10
59.7485415402
 20
271.3102715158
 30
0.0
 10
59.9226058474
 20
271.2590986379
 30
0.0
 10
60.0967353795
 20
271.2042092954
 30
0.0
 10
60.2412575305
 20
271.1541322068
 30
0.0
 10
60.3562342117
 20
271.1092363069
 30
0.0
 10
60.4417128906
 20
271.0719820428
 30
0.0
 10
60.5128006833
 20
271.0346547169
 30
0.0
 10
60.5633732957
 20
270.9990411839
 30
0.0
 10
60.5884388619
 20
270.9696957652
 30
0.0
 10
60.5869240549
 20
270.9533758321
 30
0.0
  0
SPLINE
  5
4A0
100
AcDbEntity
  8
0
100
AcDbSpline
 62
7
  6
CONTINUOUS
 70
0
 71
3
 72
9
 73
5
 74
0
 42
0.0000001
 43
0.0000001
 44
0.0000000001
 40
0.0
 40
0.0
 40
0.0
 40
0.0
 40
0.4808005774
 40
1.0
 40
1.0
 40
1.0
 40
1.0
 10
39.7922232227
 20
267.2078967793
 30
0.0
 10
40.187243872
 20
267.7750846721
 30
0.0
 10
41.1356916825
 20
268.8757410474
 30
0.0
 10
42.3373281879
 20
269.6944903019
 30
0.0
 10
42.9927045607
 20
270.0516762536
 30
0.0
  0
SPLINE
  5
4A1
100
AcDbEntity
  8
0
100
AcDbSpline
 62
7
  6
CONTINUOUS
 70
0
 71
3
 72
11
 73
7
 74
0
 42
0.0000001
 43
0.0000001
 44
0.0000000001
 40
0.0
 40
0.0
 40
0.0
 40
0.0
 40
0.2051691315
 40
0.4388379766
 40
0.7038701361
 40
1.0
 40
1.0
 40
1.0
 40
1.0
 10
42.9927045607
 20
270.0516762536
 30
0.0
 10
43.7266448236
 20
270.451680224
 30
0.0
 10
45.3934216203
 20
271.1342132762
 30
0.0
 10
48.207397738
 20
271.7417548756
 30
0.0
 10
51.4451997338
 20
271.9707208331
 30
0.0
 10
53.7355520731
 20
271.8850912602
 30
0.0
 10
54.9361021589
 20
271.765996942
 30
0.0
  0
SPLINE
  5
4A2
100
AcDbEntity
  8
0
100
AcDbSpline
 62
7
  6
CONTINUOUS
 70
0
 71
3
 72
9
 73
5
 74
0
 42
0.0000001
 43
0.0000001
 44
0.0000000001
 40
0.0
 40
0.0
 40
0.0
 40
0.0
 40
0.4842348032
 40
1.0
 40
1.0
 40
1.0
 40
1.0
 10
59.2275425484
 20
271.449322375
 30
0.0
 10
61.5501673838
 20
270.8626285681
 30
0.0
 10
66.4104599028
 20
269.8976624675
 30
0.0
 10
71.3321022016
 20
269.3433855989
 30
0.0
 10
73.8765971353
 20
269.1535885848
 30
0.0
  0
SPLINE
  5
4A3
100
AcDbEntity
  8
0
100
AcDbSpline
 62
7
  6
CONTINUOUS
 70
0
 71
3
 72
11
 73
7
 74
0
 42
0.0000001
 43
0.0000001
 44
0.0000000001
 40
0.0
 40
0.0
 40
0.0
 40
0.0
 40
0.1802635037
 40
0.5740004289
 40
0.7861758546
 40
1.0
 40
1.0
 40
1.0
 40
1.0
 10
58.8808035542
 20
271.5190763319
 30
0.0
 10
58.8704492932
 20
271.5043912774
 30
0.0
 10
58.8388937302
 20
271.4567080571
 30
0.0
 10
58.7910145658
 20
271.3941023714
 30
0.0
 10
58.7626292642
 20
271.3157384815
 30
0.0
 10
58.766254889
 20
271.2720538638
 30
0.0
 10
58.7713197453
 20
271.2513507873
 30
0.0
  0
SPLINE
  5
4A4
100
AcDbEntity
  8
0
100
AcDbSpline
 62
7
  6
CONTINUOUS
 70
0
 71
3
 72
11
 73
7
 74
0
 42
0.0000001
 43
0.0000001
 44
0.0000000001
 40
0.0
 40
0.0
 40
0.0
 40
0.0
 40
0.2445972378
 40
0.4997955339
 40
0.7466302382
 40
1.0
 40
1.0
 40
1.0
 40
1.0
 10
41.0303781682
 20
281.8291460452
 30
0.0
 10
41.0039665947
 20
281.8232026087
 30
0.0
 10
40.9515484471
 20
281.8038387851
 30
0.0
 10
40.8803098851
 20
281.7615806708
 30
0.0
 10
40.8195377796
 20
281.7006527539
 30
0.0
 10
40.8055896215
 20
281.6440067527
 30
0.0
 10
40.804563273
 20
281.6159825514
 30
0.0
  0
SPLINE
  5
4A5
100
AcDbEntity
  8
0
100
AcDbSpline
 62
7
  6
CONTINUOUS
 70
0
 71
3
 72
10
 73
6
 74
0
 42
0.0000001
 43
0.0000001
 44
0.0000000001
 40
0.0
 40
0.0
 40
0.0
 40
0.0
 40
0.5156982162
 40
0.7481313838
 40
1.0
 40
1.0
 40
1.0
 40
1.0
 10
40.8852808505
 20
288.1886416317
 30
0.0
 10
40.8350642143
 20
288.1861159264
 30
0.0
 10
40.7605212598
 20
288.1680964058
 30
0.0
 10
40.6829087801
 20
288.1055880307
 30
0.0
 10
40.6624403017
 20
288.061164227
 30
0.0
 10
40.6554939075
 20
288.0376102023
 30
0.0
  0
SPLINE
  5
4A6
100
AcDbEntity
  8
0
100
AcDbSpline
 62
7
  6
CONTINUOUS
 70
0
 71
3
 72
9
 73
5
 74
0
 42
0.0000001
 43
0.0000001
 44
0.0000000001
 40
0.0
 40
0.0
 40
0.0
 40
0.0
 40
0.2405757449
 40
1.0
 40
1.0
 40
1.0
 40
1.0
 10
114.9216899493
 20
268.5001046404
 30
0.0
 10
114.556423546
 20
267.7965055517
 30
0.0
 10
113.0152895914
 20
264.8836979597
 30
0.0
 10
111.3970241129
 20
262.0122959002
 30
0.0
 10
110.1454485802
 20
259.8452470767
 30
0.0
  0
SPLINE
  5
4A7
100
AcDbEntity
  8
0
100
AcDbSpline
 62
7
  6
CONTINUOUS
 70
0
 71
3
 72
9
 73
5
 74
0
 42
0.0000001
 43
0.0000001
 44
0.0000000001
 40
0.0
 40
0.0
 40
0.0
 40
0.0
 40
0.235570481
 40
1.0
 40
1.0
 40
1.0
 40
1.0
 10
117.628798834
 20
274.0568342179
 30
0.0
 10
117.4303334058
 20
273.6138622683
 30
0.0
 10
116.5697456724
 20
271.7415463387
 30
0.0
 10
115.6474330815
 20
269.8980766465
 30
0.0
 10
114.9216899493
 20
268.5001046404
 30
0.0
  0
SPLINE
  5
4A8
100
AcDbEntity
  8
0
100
AcDbSpline
 62
7
  6
CONTINUOUS
 70
0
 71
3
 72
9
 73
5
 74
0
 42
0.0000001
 43
0.0000001
 44
0.0000000001
 40
0.0
 40
0.0
 40
0.0
 40
0.0
 40
0.2552424538
 40
1.0
 40
1.0
 40
1.0
 40
1.0
 10
116.442905008
 20
275.990865107
 30
0.0
 10
116.5161662498
 20
276.051822991
 30
0.0
 10
116.8012131225
 20
276.2930094863
 30
0.0
 10
117.0781676887
 20
276.5438040287
 30
0.0
 10
117.2789278366
 20
276.7362278602
 30
0.0
  0
SPLINE
  5
4A9
100
AcDbEntity
  8
0
100
AcDbSpline
 62
7
  6
CONTINUOUS
 70
0
 71
3
 72
10
 73
6
 74
0
 42
0.0000001
 43
0.0000001
 44
0.0000000001
 40
0.0
 40
0.0
 40
0.0
 40
0.0
 40
0.5742090709
 40
0.8079074847
 40
1.0
 40
1.0
 40
1.0
 40
1.0
 10
117.628798834
 20
274.0568342179
 30
0.0
 10
118.5678665769
 20
275.5674886596
 30
0.0
 10
119.8668792536
 20
277.7075827917
 30
0.0
 10
121.3793720827
 20
280.4112244374
 30
0.0
 10
121.9861549858
 20
281.5829069562
 30
0.0
 10
122.2444679697
 20
282.1189656779
 30
0.0
  0
SPLINE
  5
4AA
100
AcDbEntity
  8
0
100
AcDbSpline
 62
7
  6
CONTINUOUS
 70
0
 71
3
 72
14
 73
10
 74
0
 42
0.0000001
 43
0.0000001
 44
0.0000000001
 40
0.0
 40
0.0
 40
0.0
 40
0.0
 40
0.0742191553
 40
0.1674237738
 40
0.2780702808
 40
0.403618602
 40
0.5412462551
 40
0.6882024452
 40
1.0
 40
1.0
 40
1.0
 40
1.0
 10
122.283480259
 20
282.1160447104
 30
0.0
 10
122.1472950928
 20
281.5013894594
 30
0.0
 10
121.7179464107
 20
280.1429643118
 30
0.0
 10
120.816486075
 20
277.9623302132
 30
0.0
 10
119.6018765848
 20
275.4445363473
 30
0.0
 10
118.1137846535
 20
272.6439450703
 30
0.0
 10
116.3928167129
 20
269.6200355037
 30
0.0
 10
113.7942243121
 20
265.2793438668
 30
0.0
 10
111.7086702654
 20
261.9933747268
 30
0.0
 10
110.276662451
 20
259.7697780432
 30
0.0
  0
SPLINE
  5
4AB
100
AcDbEntity
  8
0
100
AcDbSpline
 62
7
  6
CONTINUOUS
 70
0
 71
3
 72
11
 73
7
 74
0
 42
0.0000001
 43
0.0000001
 44
0.0000000001
 40
0.0
 40
0.0
 40
0.0
 40
0.0
 40
0.2583226325
 40
0.51733969
 40
0.7752852046
 40
1.0
 40
1.0
 40
1.0
 40
1.0
 10
122.283796355
 20
282.1161864286
 30
0.0
 10
122.3119841863
 20
282.1175442147
 30
0.0
 10
122.3698792725
 20
282.1089564513
 30
0.0
 10
122.4424715127
 20
282.0609619645
 30
0.0
 10
122.4915860646
 20
281.9954975152
 30
0.0
 10
122.5139332711
 20
281.946863993
 30
0.0
 10
122.5197110931
 20
281.9230045907
 30
0.0
  0
SPLINE
  5
4AC
100
AcDbEntity
  8
0
100
AcDbSpline
 62
7
  6
CONTINUOUS
 70
0
 71
3
 72
18
 73
14
 74
0
 42
0.0000001
 43
0.0000001
 44
0.0000000001
 40
0.0
 40
0.0
 40
0.0
 40
0.0
 40
0.2864853952
 40
0.4239707533
 40
0.5565944397
 40
0.6829477622
 40
0.7430252147
 40
0.8003385717
 40
0.8539524489
 40
0.9021470684
 40
0.9413403531
 40
0.9580287541
 40
1.0
 40
1.0
 40
1.0
 40
1.0
 10
122.3148071564
 20
282.2687965694
 30
0.0
 10
122.3385388518
 20
282.320689997
 30
0.0
 10
122.3737082991
 20
282.3974663874
 30
0.0
 10
122.4206717201
 20
282.497890082
 30
0.0
 10
122.4548271373
 20
282.5690959889
 30
0.0
 10
122.4833083022
 20
282.6258985663
 30
0.0
 10
122.5061944739
 20
282.6687506634
 30
0.0
 10
122.5230720889
 20
282.6982551297
 30
0.0
 10
122.5398353523
 20
282.725461785
 30
0.0
 10
122.5567776137
 20
282.7470385766
 30
0.0
 10
122.5712937161
 20
282.7641381066
 30
0.0
 10
122.5932450988
 20
282.7637627696
 30
0.0
 10
122.5958470415
 20
282.7481042253
 30
0.0
 10
122.5972973609
 20
282.7398711188
 30
0.0
  0
SPLINE
  5
4AD
100
AcDbEntity
  8
0
100
AcDbSpline
 62
7
  6
CONTINUOUS
 70
0
 71
3
 72
9
 73
5
 74
0
 42
0.0000001
 43
0.0000001
 44
0.0000000001
 40
0.0
 40
0.0
 40
0.0
 40
0.0
 40
0.2759836466
 40
1.0
 40
1.0
 40
1.0
 40
1.0
 10
122.016515364
 20
279.8828444965
 30
0.0
 10
122.0741200246
 20
280.0674526789
 30
0.0
 10
122.2734416909
 20
280.7391184937
 30
0.0
 10
122.4367526492
 20
281.4224974348
 30
0.0
 10
122.5197058963
 20
281.923001383
 30
0.0
  0
SPLINE
  5
4AE
100
AcDbEntity
  8
0
100
AcDbSpline
 62
7
  6
CONTINUOUS
 70
0
 71
3
 72
14
 73
10
 74
0
 42
0.0000001
 43
0.0000001
 44
0.0000000001
 40
0.0
 40
0.0
 40
0.0
 40
0.0
 40
0.1485148967
 40
0.2937204983
 40
0.4339079088
 40
0.5675437632
 40
0.6928326721
 40
0.8078190656
 40
1.0
 40
1.0
 40
1.0
 40
1.0
 10
111.434082761
 20
259.9268227494
 30
0.0
 10
112.0423163288
 20
260.8679789278
 30
0.0
 10
113.2167791253
 20
262.7476741971
 30
0.0
 10
114.9113192549
 20
265.5490186896
 30
0.0
 10
116.511226874
 20
268.2762885022
 30
0.0
 10
117.9741904702
 20
270.9087531441
 30
0.0
 10
119.2799490768
 20
273.410378961
 30
0.0
 10
120.6956413157
 20
276.3499473934
 30
0.0
 10
121.5723293178
 20
278.5024877449
 30
0.0
 10
122.016515364
 20
279.8828444965
 30
0.0
  0
SPLINE
  5
4AF
100
AcDbEntity
  8
0
100
AcDbSpline
 62
7
  6
CONTINUOUS
 70
0
 71
3
 72
9
 73
5
 74
0
 42
0.0000001
 43
0.0000001
 44
0.0000000001
 40
0.0
 40
0.0
 40
0.0
 40
0.0
 40
0.5363588654
 40
1.0
 40
1.0
 40
1.0
 40
1.0
 10
123.0082678939
 20
280.1200416565
 30
0.0
 10
123.1189003233
 20
281.1455140434
 30
0.0
 10
123.2377683842
 20
283.0685666467
 30
0.0
 10
123.098810951
 20
284.997027686
 30
0.0
 10
122.9428402362
 20
285.8748652507
 30
0.0
  0
SPLINE
  5
4B0
100
AcDbEntity
  8
0
100
AcDbSpline
 62
7
  6
CONTINUOUS
 70
0
 71
3
 72
9
 73
5
 74
0
 42
0.0000001
 43
0.0000001
 44
0.0000000001
 40
0.0
 40
0.0
 40
0.0
 40
0.0
 40
0.2636988756
 40
1.0
 40
1.0
 40
1.0
 40
1.0
 10
122.7356793471
 20
274.3300441284
 30
0.0
 10
122.8006191532
 20
274.8357484934
 30
0.0
 10
123.0131977877
 20
276.7571790638
 30
0.0
 10
123.0808476814
 20
278.6982683289
 30
0.0
 10
123.0082678939
 20
280.1200416565
 30
0.0
  0
SPLINE
  5
4B1
100
AcDbEntity
  8
0
100
AcDbSpline
 62
7
  6
CONTINUOUS
 70
0
 71
3
 72
9
 73
5
 74
0
 42
0.0000001
 43
0.0000001
 44
0.0000000001
 40
0.0
 40
0.0
 40
0.0
 40
0.0
 40
0.5149138948
 40
1.0
 40
1.0
 40
1.0
 40
1.0
 10
120.7240652256
 20
265.1322338881
 30
0.0
 10
121.181260309
 20
266.6835220199
 30
0.0
 10
121.9794589941
 20
269.7237539191
 30
0.0
 10
122.5416237848
 20
272.8188793928
 30
0.0
 10
122.7356793471
 20
274.3300441284
 30
0.0
  0
SPLINE
  5
4B2
100
AcDbEntity
  8
0
100
AcDbSpline
 62
7
  6
CONTINUOUS
 70
0
 71
3
 72
9
 73
5
 74
0
 42
0.0000001
 43
0.0000001
 44
0.0000000001
 40
0.0
 40
0.0
 40
0.0
 40
0.0
 40
0.2409939437
 40
1.0
 40
1.0
 40
1.0
 40
1.0
 10
122.2314057386
 20
288.3569948297
 30
0.0
 10
122.3289787125
 20
288.2295624903
 30
0.0
 10
122.7149668256
 20
287.6863749566
 30
0.0
 10
123.0250517262
 20
287.0909767059
 30
0.0
 10
123.2215904797
 20
286.6252654821
 30
0.0
  0
SPLINE
  5
4B3
100
AcDbEntity
  8
0
100
AcDbSpline
 62
7
  6
CONTINUOUS
 70
0
 71
3
 72
13
 73
9
 74
0
 42
0.0000001
 43
0.0000001
 44
0.0000000001
 40
0.0
 40
0.0
 40
0.0
 40
0.0
 40
0.1923518775
 40
0.305143815
 40
0.4282611663
 40
0.5606529142
 40
0.700980858
 40
1.0
 40
1.0
 40
1.0
 40
1.0
 10
123.2215904797
 20
286.6252654821
 30
0.0
 10
123.7712741739
 20
285.3227545959
 30
0.0
 10
124.1854029493
 20
283.0664437838
 30
0.0
 10
124.2197091072
 20
279.9215523272
 30
0.0
 10
123.9889913576
 20
277.2190885587
 30
0.0
 10
123.5181414732
 20
274.3463210185
 30
0.0
 10
122.5778215159
 20
270.2483927434
 30
0.0
 10
121.6055509015
 20
267.1632361536
 30
0.0
 10
120.8747242925
 20
265.0905753442
 30
0.0
  0
SPLINE
  5
4B4
100
AcDbEntity
  8
0
100
AcDbSpline
 62
7
  6
CONTINUOUS
 70
0
 71
3
 72
11
 73
7
 74
0
 42
0.0000001
 43
0.0000001
 44
0.0000000001
 40
0.0
 40
0.0
 40
0.0
 40
0.0
 40
0.2817979762
 40
0.5461030789
 40
0.7872074301
 40
1.0
 40
1.0
 40
1.0
 40
1.0
 10
121.7913058261
 20
265.4099467212
 30
0.0
 10
122.3457663098
 20
267.0195649834
 30
0.0
 10
123.2969979435
 20
270.1822978844
 30
0.0
 10
124.3137879364
 20
274.835163084
 30
0.0
 10
124.7700997335
 20
279.1595356317
 30
0.0
 10
124.6529971769
 20
281.9175045435
 30
0.0
 10
124.4529533199
 20
283.1873980613
 30
0.0
  0
SPLINE
  5
4B5
100
AcDbEntity
  8
0
100
AcDbSpline
 62
7
  6
CONTINUOUS
 70
0
 71
3
 72
9
 73
5
 74
0
 42
0.0000001
 43
0.0000001
 44
0.0000000001
 40
0.0
 40
0.0
 40
0.0
 40
0.0
 40
0.2396293766
 40
1.0
 40
1.0
 40
1.0
 40
1.0
 10
124.6283012709
 20
282.399824824
 30
0.0
 10
124.8284579705
 20
281.5943755414
 30
0.0
 10
125.5097041164
 20
278.1946966534
 30
0.0
 10
125.6302328723
 20
274.6996804607
 30
0.0
 10
125.5140329593
 20
272.0687327621
 30
0.0
  0
SPLINE
  5
4B6
100
AcDbEntity
  8
0
100
AcDbSpline
 62
7
  6
CONTINUOUS
 70
0
 71
3
 72
9
 73
5
 74
0
 42
0.0000001
 43
0.0000001
 44
0.0000000001
 40
0.0
 40
0.0
 40
0.0
 40
0.0
 40
0.4971284861
 40
1.0
 40
1.0
 40
1.0
 40
1.0
 10
32.2232001363
 20
205.3554459873
 30
0.0
 10
31.9881637568
 20
205.3883689206
 30
0.0
 10
31.507339999
 20
205.4060303051
 30
0.0
 10
31.032992186
 20
205.3268072965
 30
0.0
 10
30.8011058541
 20
205.2646488939
 30
0.0
  0
SPLINE
  5
4B7
100
AcDbEntity
  8
0
100
AcDbSpline
 62
7
  6
CONTINUOUS
 70
0
 71
3
 72
9
 73
5
 74
0
 42
0.0000001
 43
0.0000001
 44
0.0000000001
 40
0.0
 40
0.0
 40
0.0
 40
0.0
 40
0.4918581213
 40
1.0
 40
1.0
 40
1.0
 40
1.0
 10
97.6704147113
 20
256.656826803
 30
0.0
 10
99.0368252448
 20
254.4432827364
 30
0.0
 10
101.3238105879
 20
249.6258736562
 30
0.0
 10
102.6013353068
 20
244.4555912112
 30
0.0
 10
102.9997053404
 20
241.7978424409
 30
0.0
  0
SPLINE
  5
4B8
100
AcDbEntity
  8
0
100
AcDbSpline
 62
7
  6
CONTINUOUS
 70
0
 71
3
 72
15
 73
11
 74
0
 42
0.0000001
 43
0.0000001
 44
0.0000000001
 40
0.0
 40
0.0
 40
0.0
 40
0.0
 40
0.1300482411
 40
0.2611913022
 40
0.3919362061
 40
0.5208213963
 40
0.6466182885
 40
0.7684962554
 40
0.8861669866
 40
1.0
 40
1.0
 40
1.0
 40
1.0
 10
102.9997053404
 20
241.7978424409
 30
0.0
 10
103.3621843056
 20
239.3795430141
 30
0.0
 10
103.6756697418
 20
234.4512409617
 30
0.0
 10
102.9297469182
 20
227.088114421
 30
0.0
 10
101.0016060251
 20
219.9629974506
 30
0.0
 10
97.9613663951
 20
213.346164541
 30
0.0
 10
93.9206717611
 20
207.4865306212
 30
0.0
 10
89.0249795398
 20
202.6078256376
 30
0.0
 10
83.457485639
 20
198.9016205524
 30
0.0
 10
79.3696843751
 20
197.2895821384
 30
0.0
 10
77.3022548566
 20
196.7353963209
 30
0.0
  0
SPLINE
  5
4B9
100
AcDbEntity
  8
0
100
AcDbSpline
 62
7
  6
CONTINUOUS
 70
0
 71
3
 72
13
 73
9
 74
0
 42
0.0000001
 43
0.0000001
 44
0.0000000001
 40
0.0
 40
0.0
 40
0.0
 40
0.0
 40
0.2577878894
 40
0.5153335316
 40
0.6415568843
 40
0.7646721263
 40
0.8841776441
 40
1.0
 40
1.0
 40
1.0
 40
1.0
 10
98.7154668294
 20
240.2055438756
 30
0.0
 10
99.2503511713
 20
236.6370319847
 30
0.0
 10
99.2351107753
 20
229.3040861509
 30
0.0
 10
96.6179779316
 20
220.571937266
 30
0.0
 10
93.0945602667
 20
214.3850074595
 30
0.0
 10
89.850884464
 20
210.3379092112
 30
0.0
 10
86.0886282342
 20
206.9833298469
 30
0.0
 10
83.2613808249
 20
205.2502337332
 30
0.0
 10
81.8042714642
 20
204.5394712019
 30
0.0
  0
SPLINE
  5
4BA
100
AcDbEntity
  8
0
100
AcDbSpline
 62
7
  6
CONTINUOUS
 70
0
 71
3
 72
14
 73
10
 74
0
 42
0.0000001
 43
0.0000001
 44
0.0000000001
 40
0.0
 40
0.0
 40
0.0
 40
0.0
 40
0.2686496087
 40
0.4005844841
 40
0.5287092091
 40
0.6522797597
 40
0.7713205464
 40
0.8866907972
 40
1.0
 40
1.0
 40
1.0
 40
1.0
 10
81.8042714642
 20
204.5394712019
 30
0.0
 10
81.7706105244
 20
203.7749068071
 30
0.0
 10
81.5170431758
 20
202.6299014461
 30
0.0
 10
80.8077449383
 20
201.294324251
 30
0.0
 10
80.1188341352
 20
200.4364422986
 30
0.0
 10
79.2993305375
 20
199.7581251213
 30
0.0
 10
78.3833202333
 20
199.2899120745
 30
0.0
 10
77.4113869573
 20
199.0551688538
 30
0.0
 10
76.7518441192
 20
199.0633371231
 30
0.0
 10
76.4321782376
 20
199.1081028581
 30
0.0
  0
SPLINE
  5
4BB
100
AcDbEntity
  8
0
100
AcDbSpline
 62
7
  6
CONTINUOUS
 70
0
 71
3
 72
11
 73
7
 74
0
 42
0.0000001
 43
0.0000001
 44
0.0000000001
 40
0.0
 40
0.0
 40
0.0
 40
0.0
 40
0.2685863187
 40
0.5241478096
 40
0.7663609521
 40
1.0
 40
1.0
 40
1.0
 40
1.0
 10
74.280600419
 20
203.9253486908
 30
0.0
 10
74.3317551242
 20
203.5840671102
 30
0.0
 10
74.519188951
 20
202.926906939
 30
0.0
 10
75.0544826207
 20
202.0829107688
 30
0.0
 10
75.795772544
 20
201.4770341056
 30
0.0
 10
76.3904362815
 20
201.2762780259
 30
0.0
 10
76.6877200697
 20
201.2345940091
 30
0.0
  0
SPLINE
  5
4BC
100
AcDbEntity
  8
0
100
AcDbSpline
 62
7
  6
CONTINUOUS
 70
0
 71
3
 72
15
 73
11
 74
0
 42
0.0000001
 43
0.0000001
 44
0.0000000001
 40
0.0
 40
0.0
 40
0.0
 40
0.0
 40
0.135558988
 40
0.2683335859
 40
0.3978337368
 40
0.5238390836
 40
0.646459233
 40
0.7661408126
 40
0.8836512196
 40
1.0
 40
1.0
 40
1.0
 40
1.0
 10
49.0873659483
 20
226.9024593394
 30
0.0
 10
49.30050209
 20
225.4805092164
 30
0.0
 10
49.908643559
 20
222.6896672188
 30
0.0
 10
51.3687451796
 20
218.7164205356
 30
0.0
 10
53.3367060768
 20
215.0813914134
 30
0.0
 10
55.7683198802
 20
211.8713836591
 30
0.0
 10
58.6083008143
 20
209.1631359283
 30
0.0
 10
61.7917006128
 20
207.0229724029
 30
0.0
 10
65.2418787036
 20
205.5050359688
 30
0.0
 10
67.6723142306
 20
204.9321683239
 30
0.0
 10
68.8944629998
 20
204.7609948228
 30
0.0
  0
SPLINE
  5
4BD
100
AcDbEntity
  8
0
100
AcDbSpline
 62
7
  6
CONTINUOUS
 70
0
 71
3
 72
10
 73
6
 74
0
 42
0.0000001
 43
0.0000001
 44
0.0000000001
 40
0.0
 40
0.0
 40
0.0
 40
0.0
 40
0.5153356293
 40
0.7619024795
 40
1.0
 40
1.0
 40
1.0
 40
1.0
 10
22.3402823792
 20
199.1611897018
 30
0.0
 10
22.4790583493
 20
198.235337773
 30
0.0
 10
22.9172522681
 20
196.8807291844
 30
0.0
 10
23.9471917576
 20
195.3739065088
 30
0.0
 10
24.5862099145
 20
194.7564283858
 30
0.0
 10
24.9285769003
 20
194.4920807421
 30
0.0
  0
SPLINE
  5
4BE
100
AcDbEntity
  8
0
100
AcDbSpline
 62
7
  6
CONTINUOUS
 70
0
 71
3
 72
9
 73
5
 74
0
 42
0.0000001
 43
0.0000001
 44
0.0000000001
 40
0.0
 40
0.0
 40
0.0
 40
0.0
 40
0.5049019063
 40
1.0
 40
1.0
 40
1.0
 40
1.0
 10
24.9536855685
 20
194.4728019635
 30
0.0
 10
25.3264318377
 20
194.1882009564
 30
0.0
 10
26.1363842989
 20
193.7113356676
 30
0.0
 10
27.0429563781
 20
193.4589652711
 30
0.0
 10
27.498381046
 20
193.395187213
 30
0.0
  0
SPLINE
  5
4BF
100
AcDbEntity
  8
0
100
AcDbSpline
 62
7
  6
CONTINUOUS
 70
0
 71
3
 72
13
 73
9
 74
0
 42
0.0000001
 43
0.0000001
 44
0.0000000001
 40
0.0
 40
0.0
 40
0.0
 40
0.0
 40
0.1140354166
 40
0.2319219367
 40
0.3540191309
 40
0.4800422958
 40
0.7392299027
 40
1.0
 40
1.0
 40
1.0
 40
1.0
 10
18.7025874601
 20
266.444416623
 30
0.0
 10
18.2918499431
 20
266.3343161796
 30
0.0
 10
17.4796979683
 20
266.0140292705
 30
0.0
 10
16.3735885478
 20
265.2777539689
 30
0.0
 10
15.4008407844
 20
264.3082775103
 30
0.0
 10
14.321767701
 20
262.7436557682
 30
0.0
 10
13.4927889129
 20
260.4320417443
 30
0.0
 10
13.4529891622
 20
258.453281542
 30
0.0
 10
13.5971337217
 20
257.4916127581
 30
0.0
  0
SPLINE
  5
4C0
100
AcDbEntity
  8
0
100
AcDbSpline
 62
7
  6
CONTINUOUS
 70
0
 71
3
 72
13
 73
9
 74
0
 42
0.0000001
 43
0.0000001
 44
0.0000000001
 40
0.0
 40
0.0
 40
0.0
 40
0.0
 40
0.1177902977
 40
0.2387911423
 40
0.3626931603
 40
0.4889408728
 40
0.7448354833
 40
1.0
 40
1.0
 40
1.0
 40
1.0
 10
61.1610016601
 20
257.670788712
 30
0.0
 10
60.0560980829
 20
256.8781676668
 30
0.0
 10
57.942448536
 20
255.088234575
 30
0.0
 10
55.1782593342
 20
251.9248137869
 30
0.0
 10
52.8371493889
 20
248.3189997322
 30
0.0
 10
50.3447242765
 20
243.0186642609
 30
0.0
 10
48.5619518074
 20
235.7920534572
 30
0.0
 10
48.6507150583
 20
229.8156010626
 30
0.0
 10
49.0873659483
 20
226.9024593394
 30
0.0
  0
SPLINE
  5
4C1
100
AcDbEntity
  8
0
100
AcDbSpline
 62
7
  6
CONTINUOUS
 70
0
 71
3
 72
11
 73
7
 74
0
 42
0.0000001
 43
0.0000001
 44
0.0000000001
 40
0.0
 40
0.0
 40
0.0
 40
0.0
 40
0.2408986095
 40
0.4882317047
 40
0.7415702305
 40
1.0
 40
1.0
 40
1.0
 40
1.0
 10
91.7167623282
 20
256.0536251112
 30
0.0
 10
92.6339506802
 20
254.9850074991
 30
0.0
 10
94.3253870995
 20
252.6701941256
 30
0.0
 10
96.3510213476
 20
248.821597196
 30
0.0
 10
97.8585328685
 20
244.6337878379
 30
0.0
 10
98.4915239875
 20
241.6995915258
 30
0.0
 10
98.7154668294
 20
240.2055438756
 30
0.0
  0
SPLINE
  5
4C2
100
AcDbEntity
  8
0
100
AcDbSpline
 62
7
  6
CONTINUOUS
 70
0
 71
3
 72
11
 73
7
 74
0
 42
0.0000001
 43
0.0000001
 44
0.0000000001
 40
0.0
 40
0.0
 40
0.0
 40
0.0
 40
0.2585970846
 40
0.5121143088
 40
0.7594271249
 40
1.0
 40
1.0
 40
1.0
 40
1.0
 10
38.9757730806
 20
225.2962508143
 30
0.0
 10
39.3099991003
 20
223.3136197606
 30
0.0
 10
40.2472147235
 20
219.427486825
 30
0.0
 10
42.4544547879
 20
213.928323205
 30
0.0
 10
45.3955537796
 20
208.9448222814
 30
0.0
 10
47.8330120929
 20
206.0116142444
 30
0.0
 10
49.1475412786
 20
204.6809542358
 30
0.0
  0
SPLINE
  5
4C3
100
AcDbEntity
  8
0
100
AcDbSpline
 62
7
  6
CONTINUOUS
 70
0
 71
3
 72
13
 73
9
 74
0
 42
0.0000001
 43
0.0000001
 44
0.0000000001
 40
0.0
 40
0.0
 40
0.0
 40
0.0
 40
0.1199386747
 40
0.2422526023
 40
0.3665989684
 40
0.4925309625
 40
0.7465749992
 40
1.0
 40
1.0
 40
1.0
 40
1.0
 10
48.8391458215
 20
260.9529420864
 30
0.0
 10
47.8143098187
 20
259.8208579022
 30
0.0
 10
45.8871390686
 20
257.4009160906
 30
0.0
 10
43.4321459055
 20
253.4192991941
 30
0.0
 10
41.4203699507
 20
249.1112804049
 30
0.0
 10
39.3688052323
 20
243.0148438144
 30
0.0
 10
38.073576723
 20
234.9879755623
 30
0.0
 10
38.4394098897
 20
228.4779609622
 30
0.0
 10
38.9757730806
 20
225.2962508143
 30
0.0
  0
SPLINE
  5
4C4
100
AcDbEntity
  8
0
100
AcDbSpline
 62
7
  6
CONTINUOUS
 70
0
 71
3
 72
10
 73
6
 74
0
 42
0.0000001
 43
0.0000001
 44
0.0000000001
 40
0.0
 40
0.0
 40
0.0
 40
0.0
 40
0.2792110327
 40
0.5387056645
 40
1.0
 40
1.0
 40
1.0
 40
1.0
 10
33.2639076679
 20
269.1269747455
 30
0.0
 10
33.5023562402
 20
270.0645519238
 30
0.0
 10
34.0456283822
 20
271.8553595656
 30
0.0
 10
35.4019034208
 20
275.0448092213
 30
0.0
 10
36.8027614233
 20
277.1695922709
 30
0.0
 10
37.9085904084
 20
278.3236078874
 30
0.0
  0
SPLINE
  5
4C5
100
AcDbEntity
  8
0
100
AcDbSpline
 62
7
  6
CONTINUOUS
 70
0
 71
3
 72
9
 73
5
 74
0
 42
0.0000001
 43
0.0000001
 44
0.0000000001
 40
0.0
 40
0.0
 40
0.0
 40
0.0
 40
0.5029601385
 40
1.0
 40
1.0
 40
1.0
 40
1.0
 10
31.8068482827
 20
193.226725709
 30
0.0
 10
31.458955554
 20
193.1334711557
 30
0.0
 10
30.747437084
 20
193.0145336855
 30
0.0
 10
30.0262014184
 20
193.0411613712
 30
0.0
 10
29.6737060472
 20
193.0905251243
 30
0.0
  0
SPLINE
  5
4C6
100
AcDbEntity
  8
0
100
AcDbSpline
 62
7
  6
CONTINUOUS
 70
0
 71
3
 72
14
 73
10
 74
0
 42
0.0000001
 43
0.0000001
 44
0.0000000001
 40
0.0
 40
0.0
 40
0.0
 40
0.0
 40
0.1124445437
 40
0.2274830372
 40
0.3469930647
 40
0.4717110303
 40
0.601197547
 40
0.7340251568
 40
1.0
 40
1.0
 40
1.0
 40
1.0
 10
76.6877200697
 20
201.2345940091
 30
0.0
 10
76.9185607737
 20
201.2022263922
 30
0.0
 10
77.3977308602
 20
201.2046754265
 30
0.0
 10
78.0958328111
 20
201.4106775861
 30
0.0
 10
78.7378224844
 20
201.8037464785
 30
0.0
 10
79.2879600482
 20
202.3587455003
 30
0.0
 10
79.7174089766
 20
203.0441699475
 30
0.0
 10
80.0989825245
 20
204.0760678509
 30
0.0
 10
80.1474562724
 20
204.9308052511
 30
0.0
 10
80.065724585
 20
205.4760829414
 30
0.0
  0
SPLINE
  5
4C7
100
AcDbEntity
  8
0
100
AcDbSpline
 62
7
  6
CONTINUOUS
 70
0
 71
3
 72
13
 73
9
 74
0
 42
0.0000001
 43
0.0000001
 44
0.0000000001
 40
0.0
 40
0.0
 40
0.0
 40
0.0
 40
0.1152506671
 40
0.2342760494
 40
0.3571105486
 40
0.4832962807
 40
0.7413463937
 40
1.0
 40
1.0
 40
1.0
 40
1.0
 10
79.9471872038
 20
206.2669119507
 30
0.0
 10
81.3620043329
 20
206.8627932461
 30
0.0
 10
84.1212811652
 20
208.3697367681
 30
0.0
 10
87.8160450891
 20
211.4044896819
 30
0.0
 10
91.0197779829
 20
215.1478928686
 30
0.0
 10
94.5214062521
 20
220.9538394455
 30
0.0
 10
97.1496162232
 20
229.2507725423
 30
0.0
 10
97.2013933897
 20
236.2554886818
 30
0.0
 10
96.6906733713
 20
239.6627868878
 30
0.0
  0
SPLINE
  5
4C8
100
AcDbEntity
  8
0
100
AcDbSpline
 62
7
  6
CONTINUOUS
 70
0
 71
3
 72
15
 73
11
 74
0
 42
0.0000001
 43
0.0000001
 44
0.0000000001
 40
0.0
 40
0.0
 40
0.0
 40
0.0
 40
0.1163495362
 40
0.2338600404
 40
0.3535415366
 40
0.4761616405
 40
0.6021668362
 40
0.7316670576
 40
0.8644406423
 40
1.0
 40
1.0
 40
1.0
 40
1.0
 10
68.5546467902
 20
202.3346650936
 30
0.0
 10
67.2285217239
 20
202.520400701
 30
0.0
 10
64.5913176345
 20
203.1419950518
 30
0.0
 10
60.8476349956
 20
204.7890871543
 30
0.0
 10
57.3934324775
 20
207.1113220784
 30
0.0
 10
54.3118634317
 20
210.0499620855
 30
0.0
 10
51.6733950787
 20
213.5330431021
 30
0.0
 10
49.5380333957
 20
217.4772943121
 30
0.0
 10
47.9537105912
 20
221.7885316914
 30
0.0
 10
47.2938406466
 20
224.8167834416
 30
0.0
 10
47.0625724902
 20
226.3597023517
 30
0.0
  0
SPLINE
  5
4C9
100
AcDbEntity
  8
0
100
AcDbSpline
 62
7
  6
CONTINUOUS
 70
0
 71
3
 72
11
 73
7
 74
0
 42
0.0000001
 43
0.0000001
 44
0.0000000001
 40
0.0
 40
0.0
 40
0.0
 40
0.0
 40
0.2598917427
 40
0.5137647734
 40
0.7605773581
 40
1.0
 40
1.0
 40
1.0
 40
1.0
 10
96.6906733713
 20
239.6627868878
 30
0.0
 10
96.456058468
 20
241.2280338143
 30
0.0
 10
95.7668140458
 20
244.2939124647
 30
0.0
 10
94.0703202547
 20
248.6236414326
 30
0.0
 10
91.7675990085
 20
252.5210073685
 30
0.0
 10
89.838390314
 20
254.7913764836
 30
0.0
 10
88.7963056668
 20
255.8112029834
 30
0.0
  0
SPLINE
  5
4CA
100
AcDbEntity
  8
0
100
AcDbSpline
 62
7
  6
CONTINUOUS
 70
0
 71
3
 72
11
 73
7
 74
0
 42
0.0000001
 43
0.0000001
 44
0.0000000001
 40
0.0
 40
0.0
 40
0.0
 40
0.0
 40
0.2375147714
 40
0.4810408937
 40
0.7347308287
 40
1.0
 40
1.0
 40
1.0
 40
1.0
 10
76.4321782376
 20
199.1081028581
 30
0.0
 10
76.0512820935
 20
199.1614432263
 30
0.0
 10
75.2917412165
 20
199.3885500161
 30
0.0
 10
74.2877258434
 20
200.0554685594
 30
0.0
 10
73.4724244608
 20
201.0009600828
 30
0.0
 10
73.0936992962
 20
201.7615690342
 30
0.0
 10
72.9462947193
 20
202.16504197
 30
0.0
  0
SPLINE
  5
4CB
100
AcDbEntity
  8
0
100
AcDbSpline
 62
7
  6
CONTINUOUS
 70
0
 71
3
 72
12
 73
8
 74
0
 42
0.0000001
 43
0.0000001
 44
0.0000000001
 40
0.0
 40
0.0
 40
0.0
 40
0.0
 40
0.1166077285
 40
0.2343841738
 40
0.4763598884
 40
0.7316895257
 40
1.0
 40
1.0
 40
1.0
 40
1.0
 10
29.6737060472
 20
193.0905251243
 30
0.0
 10
29.3554462856
 20
193.1350944933
 30
0.0
 10
28.7224682135
 20
193.2844863559
 30
0.0
 10
27.5149955581
 20
193.8149201926
 30
0.0
 10
26.1723167924
 20
194.9085714586
 30
0.0
 10
25.0273873535
 20
196.7170060167
 30
0.0
 10
24.6252192168
 20
198.1252458833
 30
0.0
 10
24.5156073797
 20
198.8565276081
 30
0.0
  0
SPLINE
  5
4CC
100
AcDbEntity
  8
0
100
AcDbSpline
 62
7
  6
CONTINUOUS
 70
0
 71
3
 72
9
 73
5
 74
0
 42
0.0000001
 43
0.0000001
 44
0.0000000001
 40
0.0
 40
0.0
 40
0.0
 40
0.0
 40
0.253132258
 40
1.0
 40
1.0
 40
1.0
 40
1.0
 10
63.051683392
 20
211.3905990083
 30
0.0
 10
62.7294632803
 20
211.1739410487
 30
0.0
 10
61.4368045861
 20
210.3478486645
 30
0.0
 10
60.0655023982
 20
209.6439656698
 30
0.0
 10
59.0096840737
 20
209.1992846026
 30
0.0
  0
SPLINE
  5
4CD
100
AcDbEntity
  8
0
100
AcDbSpline
 62
7
  6
CONTINUOUS
 70
0
 71
3
 72
11
 73
7
 74
0
 42
0.0000001
 43
0.0000001
 44
0.0000000001
 40
0.0
 40
0.0
 40
0.0
 40
0.0
 40
0.2624613996
 40
0.5171963252
 40
0.7629726616
 40
1.0
 40
1.0
 40
1.0
 40
1.0
 10
45.97490999
 20
226.5120333986
 30
0.0
 10
46.2831926276
 20
224.4553079122
 30
0.0
 10
47.2488580187
 20
220.445347589
 30
0.0
 10
49.7455741933
 20
214.8991798461
 30
0.0
 10
53.1754395049
 20
210.1181155988
 30
0.0
 10
56.0477555419
 20
207.534124771
 30
0.0
 10
57.5813402388
 20
206.4498620502
 30
0.0
  0
SPLINE
  5
4CE
100
AcDbEntity
  8
0
100
AcDbSpline
 62
7
  6
CONTINUOUS
 70
0
 71
3
 72
11
 73
7
 74
0
 42
0.0000001
 43
0.0000001
 44
0.0000000001
 40
0.0
 40
0.0
 40
0.0
 40
0.0
 40
0.2412219819
 40
0.49160612
 40
0.7464608521
 40
1.0
 40
1.0
 40
1.0
 40
1.0
 10
56.3108626852
 20
257.6355898872
 30
0.0
 10
54.3069768641
 20
255.776967667
 30
0.0
 10
50.7385598015
 20
251.4031146915
 30
0.0
 10
47.1337046793
 20
243.666882289
 30
0.0
 10
45.3852234056
 20
235.1737139787
 30
0.0
 10
45.5490787258
 20
229.3529913601
 30
0.0
 10
45.97490999
 20
226.5120333986
 30
0.0
  0
SPLINE
  5
4CF
100
AcDbEntity
  8
0
100
AcDbSpline
 62
7
  6
CONTINUOUS
 70
0
 71
3
 72
11
 73
7
 74
0
 42
0.0000001
 43
0.0000001
 44
0.0000000001
 40
0.0
 40
0.0
 40
0.0
 40
0.0
 40
0.2522666069
 40
0.5061756315
 40
0.7568319434
 40
1.0
 40
1.0
 40
1.0
 40
1.0
 10
40.6063979797
 20
225.0729743204
 30
0.0
 10
40.1345221546
 20
228.2211212395
 30
0.0
 10
39.8895852842
 20
234.6625932881
 30
0.0
 10
41.5605040518
 20
244.1358956662
 30
0.0
 10
45.1547012138
 20
252.9370668538
 30
0.0
 10
48.7711209256
 20
258.0937350571
 30
0.0
 10
50.8277026388
 20
260.3710527587
 30
0.0
  0
SPLINE
  5
4D0
100
AcDbEntity
  8
0
100
AcDbSpline
 62
7
  6
CONTINUOUS
 70
0
 71
3
 72
11
 73
7
 74
0
 42
0.0000001
 43
0.0000001
 44
0.0000000001
 40
0.0
 40
0.0
 40
0.0
 40
0.0
 40
0.239879218
 40
0.4868504276
 40
0.7405596382
 40
1.0
 40
1.0
 40
1.0
 40
1.0
 10
50.352556182
 20
204.5121468507
 30
0.0
 10
49.0681408014
 20
205.8391451581
 30
0.0
 10
46.6937479368
 20
208.7663977498
 30
0.0
 10
43.8576223459
 20
213.7385300021
 30
0.0
 10
41.7621451779
 20
219.2253906186
 30
0.0
 10
40.9024795731
 20
223.0976488082
 30
0.0
 10
40.6063979797
 20
225.0729743204
 30
0.0
  0
SPLINE
  5
4D1
100
AcDbEntity
  8
0
100
AcDbSpline
 62
7
  6
CONTINUOUS
 70
0
 71
3
 72
11
 73
7
 74
0
 42
0.0000001
 43
0.0000001
 44
0.0000000001
 40
0.0
 40
0.0
 40
0.0
 40
0.0
 40
0.2685847685
 40
0.5241532458
 40
0.766366416
 40
1.0
 40
1.0
 40
1.0
 40
1.0
 10
35.6619331228
 20
201.5114476278
 30
0.0
 10
35.5888549016
 20
201.9989932163
 30
0.0
 10
35.3210489813
 20
202.9377880886
 30
0.0
 10
34.5564188548
 20
204.1435807297
 30
0.0
 10
33.4973827139
 20
205.0090536433
 30
0.0
 10
32.6478923862
 20
205.2959568364
 30
0.0
 10
32.2232001363
 20
205.3554459873
 30
0.0
  0
SPLINE
  5
4D2
100
AcDbEntity
  8
0
100
AcDbSpline
 62
7
  6
CONTINUOUS
 70
0
 71
3
 72
12
 73
8
 74
0
 42
0.0000001
 43
0.0000001
 44
0.0000000001
 40
0.0
 40
0.0
 40
0.0
 40
0.0
 40
0.1141465032
 40
0.2321738583
 40
0.4794960043
 40
0.7389461754
 40
1.0
 40
1.0
 40
1.0
 40
1.0
 10
23.5151486395
 20
253.8733347741
 30
0.0
 10
23.7889521798
 20
253.9467293142
 30
0.0
 10
24.3304416058
 20
254.1604134833
 30
0.0
 10
25.3278566863
 20
254.8237479627
 30
0.0
 10
26.3353312649
 20
256.0551435332
 30
0.0
 10
26.98740191
 20
257.8805637549
 30
0.0
 10
27.0148842368
 20
259.2007354868
 30
0.0
 10
26.9187844656
 20
259.8418706816
 30
0.0
  0
SPLINE
  5
4D3
100
AcDbEntity
  8
0
100
AcDbSpline
 62
7
  6
CONTINUOUS
 70
0
 71
3
 72
9
 73
5
 74
0
 42
0.0000001
 43
0.0000001
 44
0.0000000001
 40
0.0
 40
0.0
 40
0.0
 40
0.0
 40
0.5016286861
 40
1.0
 40
1.0
 40
1.0
 40
1.0
 10
33.4129963872
 20
268.132320713
 30
0.0
 10
33.8005857817
 20
265.5464956011
 30
0.0
 10
33.6875364222
 20
260.2277046458
 30
0.0
 10
31.8689117855
 20
255.2242083396
 30
0.0
 10
30.5689273035
 20
252.9751516558
 30
0.0
  0
SPLINE
  5
4D4
100
AcDbEntity
  8
0
100
AcDbSpline
 62
7
  6
CONTINUOUS
 70
0
 71
3
 72
9
 73
5
 74
0
 42
0.0000001
 43
0.0000001
 44
0.0000000001
 40
0.0
 40
0.0
 40
0.0
 40
0.0
 40
0.4983712462
 40
1.0
 40
1.0
 40
1.0
 40
1.0
 10
30.5689273035
 20
252.9751516558
 30
0.0
 10
28.5376993794
 20
249.4609968333
 30
0.0
 10
25.6959275779
 20
241.6430708982
 30
0.0
 10
25.5194601202
 20
233.3324321511
 30
0.0
 10
26.1250693601
 20
229.2920750035
 30
0.0
  0
SPLINE
  5
4D5
100
AcDbEntity
  8
0
100
AcDbSpline
 62
7
  6
CONTINUOUS
 70
0
 71
3
 72
15
 73
11
 74
0
 42
0.0000001
 43
0.0000001
 44
0.0000000001
 40
0.0
 40
0.0
 40
0.0
 40
0.0
 40
0.1355593577
 40
0.2683329424
 40
0.3978331638
 40
0.5238383595
 40
0.6464584634
 40
0.7661399596
 40
0.8836504638
 40
1.0
 40
1.0
 40
1.0
 40
1.0
 10
26.1250693601
 20
229.2920750035
 30
0.0
 10
26.3563375164
 20
227.7491560934
 30
0.0
 10
27.0162074611
 20
224.7209043432
 30
0.0
 10
28.6005302655
 20
220.4096669639
 30
0.0
 10
30.7358919486
 20
216.4654157539
 30
0.0
 10
33.3743603015
 20
212.9823347373
 30
0.0
 10
36.4559293473
 20
210.0436947302
 30
0.0
 10
39.9101318654
 20
207.7214598061
 30
0.0
 10
43.6538145043
 20
206.0743677036
 30
0.0
 10
46.2910185938
 20
205.4527733528
 30
0.0
 10
47.6171436601
 20
205.2670377454
 30
0.0
  0
SPLINE
  5
4D6
100
AcDbEntity
  8
0
100
AcDbSpline
 62
7
  6
CONTINUOUS
 70
0
 71
3
 72
10
 73
6
 74
0
 42
0.0000001
 43
0.0000001
 44
0.0000000001
 40
0.0
 40
0.0
 40
0.0
 40
0.0
 40
0.5170963233
 40
0.7630523697
 40
1.0
 40
1.0
 40
1.0
 40
1.0
 10
25.5993444247
 20
256.5613946105
 30
0.0
 10
25.30452106
 20
255.9416278417
 30
0.0
 10
24.6902169824
 20
255.0909742862
 30
0.0
 10
23.6034577574
 20
254.3147124922
 30
0.0
 10
23.0031670961
 20
254.0690090219
 30
0.0
 10
22.6994017644
 20
253.9875830592
 30
0.0
  0
SPLINE
  5
4D7
100
AcDbEntity
  8
0
100
AcDbSpline
 62
7
  6
CONTINUOUS
 70
0
 71
3
 72
13
 73
9
 74
0
 42
0.0000001
 43
0.0000001
 44
0.0000000001
 40
0.0
 40
0.0
 40
0.0
 40
0.0
 40
0.2607701243
 40
0.5199577384
 40
0.6459808999
 40
0.7680780881
 40
0.8859645952
 40
1.0
 40
1.0
 40
1.0
 40
1.0
 10
15.7724587222
 20
257.1869506644
 30
0.0
 10
15.6283141478
 20
258.1486195481
 30
0.0
 10
15.6681139351
 20
260.1273798896
 30
0.0
 10
16.4970928583
 20
262.4389939897
 30
0.0
 10
17.5761659986
 20
264.0036156832
 30
0.0
 10
18.5489137532
 20
264.9730920297
 30
0.0
 10
19.6550230907
 20
265.709367244
 30
0.0
 10
20.4671749862
 20
266.0296540973
 30
0.0
 10
20.8779124607
 20
266.1397545293
 30
0.0
  0
SPLINE
  5
4D8
100
AcDbEntity
  8
0
100
AcDbSpline
 62
7
  6
CONTINUOUS
 70
0
 71
3
 72
11
 73
7
 74
0
 42
0.0000001
 43
0.0000001
 44
0.0000000001
 40
0.0
 40
0.0
 40
0.0
 40
0.0
 40
0.2344249651
 40
0.4784322237
 40
0.7339769556
 40
1.0
 40
1.0
 40
1.0
 40
1.0
 10
32.1831255326
 20
205.2685404002
 30
0.0
 10
32.526863686
 20
205.1362440288
 30
0.0
 10
33.1896792558
 20
204.7543018018
 30
0.0
 10
33.9925848744
 20
203.9071893708
 30
0.0
 10
34.5726029154
 20
202.8395124231
 30
0.0
 10
34.7842297894
 20
202.0390420152
 30
0.0
 10
34.8461862476
 20
201.6256959129
 30
0.0
  0
SPLINE
  5
4D9
100
AcDbEntity
  8
0
100
AcDbSpline
 62
7
  6
CONTINUOUS
 70
0
 71
3
 72
11
 73
7
 74
0
 42
0.0000001
 43
0.0000001
 44
0.0000000001
 40
0.0
 40
0.0
 40
0.0
 40
0.0
 40
0.2634331609
 40
0.5163453331
 40
0.7606450558
 40
1.0
 40
1.0
 40
1.0
 40
1.0
 10
52.2174669569
 20
204.6011833212
 30
0.0
 10
52.381381327
 20
204.2587602427
 30
0.0
 10
52.7740512006
 20
203.6183680045
 30
0.0
 10
53.5529364034
 20
202.8324788637
 30
0.0
 10
54.4726342221
 20
202.2800683483
 30
0.0
 10
55.1530741537
 20
202.0883130261
 30
0.0
 10
55.4946751067
 20
202.0404755037
 30
0.0
  0
SPLINE
  5
4DA
100
AcDbEntity
  8
0
100
AcDbSpline
 62
7
  6
CONTINUOUS
 70
0
 71
3
 72
13
 73
9
 74
0
 42
0.0000001
 43
0.0000001
 44
0.0000000001
 40
0.0
 40
0.0
 40
0.0
 40
0.0
 40
0.2538813682
 40
0.3818804023
 40
0.509371062
 40
0.7593542619
 40
0.8811128501
 40
1.0
 40
1.0
 40
1.0
 40
1.0
 10
47.0625724902
 20
226.3597023517
 30
0.0
 10
46.6213070599
 20
229.3036302476
 30
0.0
 10
46.5139676887
 20
233.8382696044
 30
0.0
 10
47.4437391682
 20
239.7484721796
 30
0.0
 10
49.0622065071
 20
245.4616368876
 30
0.0
 10
51.6830336595
 20
250.7785759338
 30
0.0
 10
55.1915450804
 20
255.3538247774
 30
0.0
 10
57.2044308138
 20
257.34740103
 30
0.0
 10
58.2633083897
 20
258.2540171819
 30
0.0
  0
SPLINE
  5
4DB
100
AcDbEntity
  8
0
100
AcDbSpline
 62
7
  6
CONTINUOUS
 70
0
 71
3
 72
10
 73
6
 74
0
 42
0.0000001
 43
0.0000001
 44
0.0000000001
 40
0.0
 40
0.0
 40
0.0
 40
0.0
 40
0.4867889011
 40
0.7418713421
 40
1.0
 40
1.0
 40
1.0
 40
1.0
 10
-8.366348845
 20
266.7066943668
 30
0.0
 10
-11.9595797752
 20
264.8666768742
 30
0.0
 10
-16.9735654612
 20
261.0781470661
 30
0.0
 10
-22.3873676899
 20
254.7792925586
 30
0.0
 10
-24.6946216416
 20
251.1806618801
 30
0.0
 10
-25.7217994957
 20
249.302535413
 30
0.0
  0
SPLINE
  5
4DC
100
AcDbEntity
  8
0
100
AcDbSpline
 62
7
  6
CONTINUOUS
 70
0
 71
3
 72
17
 73
13
 74
0
 42
0.0000001
 43
0.0000001
 44
0.0000000001
 40
0.0
 40
0.0
 40
0.0
 40
0.0
 40
0.1179824722
 40
0.260576598
 40
0.4170373008
 40
0.5742978923
 40
0.719183279
 40
0.8405142201
 40
0.8902234175
 40
0.9324220067
 40
0.9681667655
 40
1.0
 40
1.0
 40
1.0
 40
1.0
 10
-25.5513580489
 20
221.4884970124
 30
0.0
 10
-25.3711780072
 20
221.3844283665
 30
0.0
 10
-24.9379356408
 20
221.2171382349
 30
0.0
 10
-24.2153325542
 20
221.0709094377
 30
0.0
 10
-23.4101456304
 20
221.016294984
 30
0.0
 10
-22.6003038374
 20
221.0593292259
 30
0.0
 10
-21.8640934342
 20
221.1955450707
 30
0.0
 10
-21.3349277816
 20
221.3852058083
 30
0.0
 10
-21.0132682324
 20
221.582845049
 30
0.0
 10
-20.8448870175
 20
221.7348686596
 30
0.0
 10
-20.7373547438
 20
221.8993844253
 30
0.0
 10
-20.71132912
 20
222.0194193604
 30
0.0
 10
-20.7112963015
 20
222.0755606946
 30
0.0
  0
SPLINE
  5
4DD
100
AcDbEntity
  8
0
100
AcDbSpline
 62
7
  6
CONTINUOUS
 70
0
 71
3
 72
17
 73
13
 74
0
 42
0.0000001
 43
0.0000001
 44
0.0000000001
 40
0.0
 40
0.0
 40
0.0
 40
0.0
 40
0.1179824722
 40
0.260576598
 40
0.4170373008
 40
0.5742978923
 40
0.719183279
 40
0.8405142201
 40
0.8902234175
 40
0.9324220067
 40
0.9681667655
 40
1.0
 40
1.0
 40
1.0
 40
1.0
 10
0.9103723041
 20
206.2046930001
 30
0.0
 10
1.0905523459
 20
206.1006243542
 30
0.0
 10
1.5237947122
 20
205.9333342226
 30
0.0
 10
2.2463977989
 20
205.7871054253
 30
0.0
 10
3.0515847226
 20
205.7324909716
 30
0.0
 10
3.8614265157
 20
205.7755252136
 30
0.0
 10
4.5976369188
 20
205.9117410583
 30
0.0
 10
5.1268025714
 20
206.101401796
 30
0.0
 10
5.4484621206
 20
206.2990410367
 30
0.0
 10
5.6168433355
 20
206.4510646473
 30
0.0
 10
5.7243756093
 20
206.615580413
 30
0.0
 10
5.7504012331
 20
206.7356153481
 30
0.0
 10
5.7504340515
 20
206.7917566823
 30
0.0
  0
SPLINE
  5
4DE
100
AcDbEntity
  8
0
100
AcDbSpline
 62
7
  6
CONTINUOUS
 70
0
 71
3
 72
11
 73
7
 74
0
 42
0.0000001
 43
0.0000001
 44
0.0000000001
 40
0.0
 40
0.0
 40
0.0
 40
0.0
 40
0.2032237194
 40
0.4289289409
 40
0.6925283262
 40
1.0
 40
1.0
 40
1.0
 40
1.0
 10
0.4504759966
 20
206.7917566791
 30
0.0
 10
0.4504451983
 20
206.7390710102
 30
0.0
 10
0.4731028227
 20
206.6270946062
 30
0.0
 10
0.5679258477
 20
206.4716227866
 30
0.0
 10
0.7175516615
 20
206.3269897708
 30
0.0
 10
0.8413466634
 20
206.2445609282
 30
0.0
 10
0.9103723041
 20
206.2046930001
 30
0.0
  0
SPLINE
  5
4DF
100
AcDbEntity
  8
0
100
AcDbSpline
 62
7
  6
CONTINUOUS
 70
0
 71
3
 72
11
 73
7
 74
0
 42
0.0000001
 43
0.0000001
 44
0.0000000001
 40
0.0
 40
0.0
 40
0.0
 40
0.0
 40
0.2032237194
 40
0.4289289409
 40
0.6925283262
 40
1.0
 40
1.0
 40
1.0
 40
1.0
 10
-26.0112543564
 20
222.0755606915
 30
0.0
 10
-26.0112851547
 20
222.0228750225
 30
0.0
 10
-25.9886275303
 20
221.9108986185
 30
0.0
 10
-25.8938045054
 20
221.755426799
 30
0.0
 10
-25.7441786915
 20
221.6107937832
 30
0.0
 10
-25.6203836896
 20
221.5283649405
 30
0.0
 10
-25.5513580489
 20
221.4884970124
 30
0.0
  0
SPLINE
  5
4E0
100
AcDbEntity
  8
0
100
AcDbSpline
 62
7
  6
CONTINUOUS
 70
0
 71
3
 72
11
 73
7
 74
0
 42
0.0000001
 43
0.0000001
 44
0.0000000001
 40
0.0
 40
0.0
 40
0.0
 40
0.0
 40
0.2032665715
 40
0.4289015617
 40
0.692283341
 40
1.0
 40
1.0
 40
1.0
 40
1.0
 10
-33.278571014
 20
217.4465190804
 30
0.0
 10
-33.2785479168
 20
217.3470899246
 30
0.0
 10
-33.2359578089
 20
217.1358081806
 30
0.0
 10
-33.0569796192
 20
216.842621953
 30
0.0
 10
-32.7748984523
 20
216.5695403911
 30
0.0
 10
-32.5411968224
 20
216.4141351175
 30
0.0
 10
-32.4108543462
 20
216.338851724
 30
0.0
  0
SPLINE
  5
4E1
100
AcDbEntity
  8
0
100
AcDbSpline
 62
7
  6
CONTINUOUS
 70
0
 71
3
 72
13
 73
9
 74
0
 42
0.0000001
 43
0.0000001
 44
0.0000000001
 40
0.0
 40
0.0
 40
0.0
 40
0.0
 40
0.083672979
 40
0.1736474593
 40
0.2747441703
 40
0.3898444162
 40
0.6656232473
 40
1.0
 40
1.0
 40
1.0
 40
1.0
 10
-33.278571014
 20
224.5662925506
 30
0.0
 10
-33.2785897117
 20
224.6467830691
 30
0.0
 10
-33.2515766795
 20
224.8147634569
 30
0.0
 10
-33.1347348979
 20
225.0550707145
 30
0.0
 10
-32.9467666519
 20
225.2845257999
 30
0.0
 10
-32.5845188918
 20
225.5920255687
 30
0.0
 10
-31.9630735592
 20
225.9235108904
 30
0.0
 10
-31.4043908836
 20
226.1089468514
 30
0.0
 10
-31.0937004962
 20
226.1922291132
 30
0.0
  0
SPLINE
  5
4E2
100
AcDbEntity
  8
0
100
AcDbSpline
 62
7
  6
CONTINUOUS
 70
0
 71
3
 72
13
 73
9
 74
0
 42
0.0000001
 43
0.0000001
 44
0.0000000001
 40
0.0
 40
0.0
 40
0.0
 40
0.0
 40
0.1140354166
 40
0.2319219367
 40
0.3540191309
 40
0.4800422958
 40
0.7392299027
 40
1.0
 40
1.0
 40
1.0
 40
1.0
 10
16.1629645987
 20
269.1795130106
 30
0.0
 10
15.615314576
 20
269.0327124194
 30
0.0
 10
14.5324452762
 20
268.6056632073
 30
0.0
 10
13.0576327157
 20
267.6239628052
 30
0.0
 10
11.7606356979
 20
266.3313275271
 30
0.0
 10
10.3218715866
 20
264.2451652042
 30
0.0
 10
9.2165665359
 20
261.1630131724
 30
0.0
 10
9.1635002016
 20
258.5246662361
 30
0.0
 10
9.3556929476
 20
257.2424411908
 30
0.0
  0
SPLINE
  5
4E3
100
AcDbEntity
  8
0
100
AcDbSpline
 62
7
  6
CONTINUOUS
 70
0
 71
3
 72
12
 73
8
 74
0
 42
0.0000001
 43
0.0000001
 44
0.0000000001
 40
0.0
 40
0.0
 40
0.0
 40
0.0
 40
0.1142372862
 40
0.2323070729
 40
0.4796608302
 40
0.7390117088
 40
1.0
 40
1.0
 40
1.0
 40
1.0
 10
18.6144356756
 20
266.6733382475
 30
0.0
 10
18.1942151677
 20
266.5565105734
 30
0.0
 10
17.3640242909
 20
266.2213148288
 30
0.0
 10
15.8361804127
 20
265.1924194694
 30
0.0
 10
14.2928876527
 20
263.2963182647
 30
0.0
 10
13.289789774
 20
260.4914587164
 30
0.0
 10
13.2414292014
 20
258.4633605572
 30
0.0
 10
13.3844760206
 20
257.4772277549
 30
0.0
  0
SPLINE
  5
4E4
100
AcDbEntity
  8
0
100
AcDbSpline
 62
7
  6
CONTINUOUS
 70
0
 71
3
 72
10
 73
6
 74
0
 42
0.0000001
 43
0.0000001
 44
0.0000000001
 40
0.0
 40
0.0
 40
0.0
 40
0.0
 40
0.515408323
 40
0.7619545271
 40
1.0
 40
1.0
 40
1.0
 40
1.0
 10
22.1336708018
 20
199.1058063357
 30
0.0
 10
22.2777081968
 20
198.1448525064
 30
0.0
 10
22.7336340393
 20
196.7389354623
 30
0.0
 10
23.8060187463
 20
195.1775097466
 30
0.0
 10
24.4712985995
 20
194.5389822176
 30
0.0
 10
24.8276200308
 20
194.2661442642
 30
0.0
  0
SPLINE
  5
4E5
100
AcDbEntity
  8
0
100
AcDbSpline
 62
7
  6
CONTINUOUS
 70
0
 71
3
 72
9
 73
5
 74
0
 42
0.0000001
 43
0.0000001
 44
0.0000000001
 40
0.0
 40
0.0
 40
0.0
 40
0.0
 40
0.489337343
 40
1.0
 40
1.0
 40
1.0
 40
1.0
 10
0.5598523674
 20
269.7033216872
 30
0.0
 10
-0.9606682287
 20
269.4560254172
 30
0.0
 10
-4.0281773745
 20
268.6800688933
 30
0.0
 10
-6.9354181695
 20
267.439446368
 30
0.0
 10
-8.366348845
 20
266.7066943668
 30
0.0
  0
SPLINE
  5
4E6
100
AcDbEntity
  8
0
100
AcDbSpline
 62
7
  6
CONTINUOUS
 70
0
 71
3
 72
11
 73
7
 74
0
 42
0.0000001
 43
0.0000001
 44
0.0000000001
 40
0.0
 40
0.0
 40
0.0
 40
0.0
 40
0.2032237194
 40
0.4289289409
 40
0.6925283262
 40
1.0
 40
1.0
 40
1.0
 40
1.0
 10
5.7504340515
 20
206.7917566823
 30
0.0
 10
5.7504648498
 20
206.8444423512
 30
0.0
 10
5.7278072254
 20
206.9564187552
 30
0.0
 10
5.6329842004
 20
207.1118905748
 30
0.0
 10
5.4833583866
 20
207.2565235906
 30
0.0
 10
5.3595633847
 20
207.3389524332
 30
0.0
 10
5.290537744
 20
207.3788203613
 30
0.0
  0
SPLINE
  5
4E7
100
AcDbEntity
  8
0
100
AcDbSpline
 62
7
  6
CONTINUOUS
 70
0
 71
3
 72
11
 73
7
 74
0
 42
0.0000001
 43
0.0000001
 44
0.0000000001
 40
0.0
 40
0.0
 40
0.0
 40
0.0
 40
0.2032237194
 40
0.4289289409
 40
0.6925283262
 40
1.0
 40
1.0
 40
1.0
 40
1.0
 10
-20.7112963015
 20
222.0755606946
 30
0.0
 10
-20.7112655032
 20
222.1282463636
 30
0.0
 10
-20.7339231276
 20
222.2402227676
 30
0.0
 10
-20.8287461526
 20
222.3956945871
 30
0.0
 10
-20.9783719665
 20
222.5403276029
 30
0.0
 10
-21.1021669683
 20
222.6227564455
 30
0.0
 10
-21.171192609
 20
222.6626243736
 30
0.0
  0
SPLINE
  5
4E8
100
AcDbEntity
  8
0
100
AcDbSpline
 62
7
  6
CONTINUOUS
 70
0
 71
3
 72
17
 73
13
 74
0
 42
0.0000001
 43
0.0000001
 44
0.0000000001
 40
0.0
 40
0.0
 40
0.0
 40
0.0
 40
0.1179824722
 40
0.260576598
 40
0.4170373008
 40
0.5742978923
 40
0.719183279
 40
0.8405142201
 40
0.8902234175
 40
0.9324220067
 40
0.9681667655
 40
1.0
 40
1.0
 40
1.0
 40
1.0
 10
-21.171192609
 20
222.6626243736
 30
0.0
 10
-21.3513726508
 20
222.7666930195
 30
0.0
 10
-21.7846150171
 20
222.9339831512
 30
0.0
 10
-22.5072181038
 20
223.0802119484
 30
0.0
 10
-23.3124050275
 20
223.1348264021
 30
0.0
 10
-24.1222468206
 20
223.0917921602
 30
0.0
 10
-24.8584572237
 20
222.9555763154
 30
0.0
 10
-25.3876228763
 20
222.7659155778
 30
0.0
 10
-25.7092824256
 20
222.568276337
 30
0.0
 10
-25.8776636404
 20
222.4162527264
 30
0.0
 10
-25.9851959142
 20
222.2517369607
 30
0.0
 10
-26.011221538
 20
222.1317020257
 30
0.0
 10
-26.0112543564
 20
222.0755606915
 30
0.0
  0
SPLINE
  5
4E9
100
AcDbEntity
  8
0
100
AcDbSpline
 62
7
  6
CONTINUOUS
 70
0
 71
3
 72
17
 73
13
 74
0
 42
0.0000001
 43
0.0000001
 44
0.0000000001
 40
0.0
 40
0.0
 40
0.0
 40
0.0
 40
0.1179824722
 40
0.260576598
 40
0.4170373008
 40
0.5742978923
 40
0.719183279
 40
0.8405142201
 40
0.8902234175
 40
0.9324220067
 40
0.9681667655
 40
1.0
 40
1.0
 40
1.0
 40
1.0
 10
5.290537744
 20
207.3788203613
 30
0.0
 10
5.1103577022
 20
207.4828890072
 30
0.0
 10
4.6771153359
 20
207.6501791388
 30
0.0
 10
3.9545122493
 20
207.7964079361
 30
0.0
 10
3.1493253255
 20
207.8510223898
 30
0.0
 10
2.3394835324
 20
207.8079881478
 30
0.0
 10
1.6032731293
 20
207.6717723031
 30
0.0
 10
1.0741074767
 20
207.4821115654
 30
0.0
 10
0.7524479275
 20
207.2844723247
 30
0.0
 10
0.5840667126
 20
207.1324487141
 30
0.0
 10
0.4765344388
 20
206.9679329484
 30
0.0
 10
0.450508815
 20
206.8478980133
 30
0.0
 10
0.4504759966
 20
206.7917566791
 30
0.0
  0
SPLINE
  5
4EA
100
AcDbEntity
  8
0
100
AcDbSpline
 62
7
  6
CONTINUOUS
 70
0
 71
3
 72
11
 73
7
 74
0
 42
0.0000001
 43
0.0000001
 44
0.0000000001
 40
0.0
 40
0.0
 40
0.0
 40
0.0
 40
0.307716659
 40
0.5710984383
 40
0.7967334285
 40
1.0
 40
1.0
 40
1.0
 40
1.0
 10
-32.4108543462
 20
223.4586251942
 30
0.0
 10
-32.5411968224
 20
223.5339085878
 30
0.0
 10
-32.7748984523
 20
223.6893138613
 30
0.0
 10
-33.0569796192
 20
223.9623954232
 30
0.0
 10
-33.2359578089
 20
224.2555816509
 30
0.0
 10
-33.2785479168
 20
224.4668633948
 30
0.0
 10
-33.278571014
 20
224.5662925506
 30
0.0
  0
SPLINE
  5
4EB
100
AcDbEntity
  8
0
100
AcDbSpline
 62
7
  6
CONTINUOUS
 70
0
 71
3
 72
13
 73
9
 74
0
 42
0.0000001
 43
0.0000001
 44
0.0000000001
 40
0.0
 40
0.0
 40
0.0
 40
0.0
 40
0.2607701243
 40
0.5199577384
 40
0.6459808999
 40
0.7680780881
 40
0.8859645952
 40
1.0
 40
1.0
 40
1.0
 40
1.0
 10
11.5310179481
 20
256.9377790971
 30
0.0
 10
11.3388251822
 20
258.2200042753
 30
0.0
 10
11.3918915653
 20
260.8583513973
 30
0.0
 10
12.4971967961
 20
263.9405035307
 30
0.0
 10
13.9359609832
 20
266.0266657887
 30
0.0
 10
15.2329579893
 20
267.3193009174
 30
0.0
 10
16.7077704393
 20
268.3010012032
 30
0.0
 10
17.7906396332
 20
268.7280503409
 30
0.0
 10
18.3382895992
 20
268.8748509169
 30
0.0
  0
ELLIPSE
  5
4EC
100
AcDbEntity
  8
0
100
AcDbEllipse
 62
7
  6
CONTINUOUS
 10
29.3400849935
 20
200.710443987
 30
0.0
 11
3.5632876605
 21
7.0844674323
 31
0.0
 40
0.7512579716
 41
2.9498023987
 42
3.626540475
  0
ENDSEC
  0
SECTION
  2
OBJECTS
  0
DICTIONARY
  5
C
100
AcDbDictionary
280
0
281
1
  3
ACAD_GROUP
350
D
  3
ACAD_MLINESTYLE
350
17
  3
ACAD_LAYOUT
350
1A
  3
ACAD_PLOTSETTINGS
350
19
  3
ACAD_PLOTSTYLENAME
350
E
  0
DICTIONARY
  5
D
102
{ACAD_REACTORS
330
C
102
}
100
AcDbDictionary
280
0
281
1
  0
ACDBDICTIONARYWDFLT
  5
E
102
{ACAD_REACTORS
330
C
102
}
100
AcDbDictionary
281
1
  3
Normal
350
F
100
AcDbDictionaryWithDefault
340
F
  0
DICTIONARY
  5
17
102
{ACAD_REACTORS
330
C
102
}
100
AcDbDictionary
280
0
281
1
  3
Standard
350
18
  0
DICTIONARY
  5
19
102
{ACAD_REACTORS
330
C
102
}
100
AcDbDictionary
281
1
  0
DICTIONARY
  5
1A
102
{ACAD_REACTORS
330
C
102
}
100
AcDbDictionary
281
1
  3
Model
350
4ED
  3
Layout1
350
4EE
  0
ACDBPLACEHOLDER
  5
F
102
{ACAD_REACTORS
330
E
102
}
  0
MLINESTYLE
  5
18
102
{ACAD_REACTORS
330
17
102
}
100
AcDbMlineStyle
  2
STANDARD
 70
0
  3

 62
256
 51
90.0
 52
90.0
 71
2
 49
0.5
 62
256
  6
BYLAYER
 49
-0.5
 62
256
  6
BYLAYER
  0
LAYOUT
  5
4ED
102
{ACAD_REACTORS
330
1A
102
}
100
AcDbPlotSettings
  1

  2
none_device
  4
ANSI_C_(22.00_x_17.00_Inches)
  6

 40
0.0
 41
0.0
 42
0.0
 43
0.0
 44
558.8
 45
431.8
 46
0.0
 47
0.0
 48
0.0
 49
0.0
140
0.0
141
0.0
142
1.0
143
1.0
 70
1024
 72
1
 73
0
 74
0
  7

 75
0
147
1.0
148
0.0
149
0.0
100
AcDbLayout
  1
Model
 70
0
 71
0
 10
0.0
 20
0.0
 11
558.8
 21
431.8
 12
0.0
 22
0.0
 32
0.0
 14
0.0
 24
0.0
 34
0.0
 15
0.0
 25
0.0
 35
0.0
146
0.0
 13
0.0
 23
0.0
 33
0.0
 16
1.0
 26
0.0
 36
0.0
 17
0.0
 27
1.0
 37
0.0
 76
0
330
216
345
0
346
0
  0
LAYOUT
  5
4EE
102
{ACAD_REACTORS
330
1A
102
}
100
AcDbPlotSettings
  1

  2
none_device
  4
ANSI_C_(22.00_x_17.00_Inches)
  6

 40
0.0
 41
0.0
 42
0.0
 43
0.0
 44
558.8
 45
431.8
 46
0.0
 47
0.0
 48
0.0
 49
0.0
140
0.0
141
0.0
142
1.0
143
1.0
 70
0
 72
1
 73
0
 74
0
  7

 75
0
147
1.0
148
0.0
149
0.0
100
AcDbLayout
  1
Layout1
 70
0
 71
1
 10
0.0
 20
0.0
 11
558.8
 21
431.8
 12
0.0
 22
0.0
 32
0.0
 14
0.0
 24
0.0
 34
0.0
 15
0.0
 25
0.0
 35
0.0
146
0.0
 13
0.0
 23
0.0
 33
0.0
 16
1.0
 26
0.0
 36
0.0
 17
0.0
 27
1.0
 37
0.0
 76
0
330
217
345
0
346
0
  0
ENDSEC
  0
EOF
