999
DXF file: Y:\3D PRATIKA-KAEDRA_OLGA\TRAVAIL_PHASE_5\CAD3D\PKF32F423_3D-Simplified\PKF32F423_2D-isometric.dxf
999
Pro/ENGINEER 2018260 by Parametric Technology Corporation
  0
SECTION
  2
HEADER
  9
$ACADVER
  1
AC1027
  9
$DWGCODEPAGE
  3
ANSI_1252
  9
$EXTMAX
 10
558.8
 20
431.8
 30
0.0
  9
$EXTMIN
 10
0.0
 20
0.0
 30
0.0
  9
$LIMMIN
 10
0.0
 20
0.0
  9
$LIMMAX
 10
558.8
 20
431.8
  9
$VIEWCTR
 10
279.4
 20
215.9
  9
$VIEWSIZE
 40
431.8
  9
$CLAYER
  8
0
  9
$LTSCALE
 40
30.734
  9
$CELTYPE
  6
BYLAYER
  9
$DIMSCALE
 40
1.0
  9
$DIMASZ
 40
0.1875
  9
$DIMEXO
 40
0.0625
  9
$DIMDLI
 40
21.2344
  9
$DIMEXE
 40
0.125
  9
$DIMCEN
 40
5.0292
  9
$DIMLFAC
 40
1.0
  9
$DIMBLK
  1
_CLOSED
  9
$DIMALT
 70
0
  9
$DIMALTF
 40
0.0393700787
  9
$DIMTXT
 40
0.15625
  9
$DIMTOL
 70
0
  9
$DIMLIM
 70
0
  9
$DIMTFAC
 40
1.0
  9
$DIMGAP
 40
0.625
  9
$DIMDSEP
 70
46
  9
$AUNITS
 70
0
  9
$PDMODE
 70
3
  9
$PDSIZE
 40
0.3125
  9
$HANDSEED
  5
2FC
  9
$TILEMODE
 70
1
  9
$MEASUREMENT
 70
1
  9
$INSUNITS
 70
4
  0
ENDSEC
  0
SECTION
  2
CLASSES
  0
CLASS
  1
ACDBDICTIONARYWDFLT
  2
AcDbDictionaryWithDefault
  3
AutoCAD 2000
 90
0
 91
1
280
0
281
0
  0
CLASS
  1
ACDBPLACEHOLDER
  2
AcDbPlaceHolder
  3
AutoCAD 2000
 90
0
 91
1
280
0
281
0
  0
CLASS
  1
LAYOUT
  2
AcDbLayout
  3
AutoCAD 2000
 90
0
 91
0
280
0
281
0
  0
ENDSEC
  0
SECTION
  2
TABLES
  0
TABLE
  2
VPORT
  5
8
100
AcDbSymbolTable
 70
2
  0
VPORT
  5
1F4
100
AcDbSymbolTableRecord
100
AcDbViewportTableRecord
  2
*ACTIVE
 70
0
 10
0.0
 20
0.0
 11
1.0
 21
1.0
 12
279.4
 22
215.9
 13
0.0
 23
0.0
 14
1.0
 24
1.0
 15
0.0
 25
0.0
 16
0.0
 26
0.0
 36
1.0
 17
0.0
 27
0.0
 37
0.0
 40
431.8
 41
1.2941176471
 42
50.0
 43
0.0
 44
0.0
 50
0.0
 51
0.0
 71
0
 72
100
 73
1
 74
1
 75
0
 76
0
 77
0
 78
0
  0
ENDTAB
  0
TABLE
  2
LTYPE
  5
5
100
AcDbSymbolTable
 70
6
  0
LTYPE
  5
14
100
AcDbSymbolTableRecord
100
AcDbLinetypeTableRecord
  2
BYBLOCK
 70
0
  3

 72
65
 73
0
 40
0.0
  0
LTYPE
  5
15
100
AcDbSymbolTableRecord
100
AcDbLinetypeTableRecord
  2
BYLAYER
 70
0
  3

 72
65
 73
0
 40
0.0
  0
LTYPE
  5
16
100
AcDbSymbolTableRecord
100
AcDbLinetypeTableRecord
  2
CONTINUOUS
 70
64
  3
Solid line
 72
65
 73
0
 40
0.0
  0
LTYPE
  5
1F5
100
AcDbSymbolTableRecord
100
AcDbLinetypeTableRecord
  2
CENTER
 70
64
  3
____ _ ____ _ ____ _ ____ _ ____ _ ____ _ ____
 72
65
 73
4
 40
0.6
 49
0.375
 74
0
 49
-0.075
 74
0
 49
0.075
 74
0
 49
-0.075
 74
0
  0
LTYPE
  5
1F6
100
AcDbSymbolTableRecord
100
AcDbLinetypeTableRecord
  2
HIDDEN
 70
64
  3
- - - - - - - - - - - - - - - - - - - -
 72
65
 73
2
 40
0.2
 49
0.1
 74
0
 49
-0.1
 74
0
  0
LTYPE
  5
1F7
100
AcDbSymbolTableRecord
100
AcDbLinetypeTableRecord
  2
PHANTOM
 70
64
  3
_____ _ _ _____ _ _ _____ _ _ _____
 72
65
 73
6
 40
0.8
 49
0.45
 74
0
 49
-0.05
 74
0
 49
0.1
 74
0
 49
-0.05
 74
0
 49
0.1
 74
0
 49
-0.05
 74
0
  0
LTYPE
  5
1F8
100
AcDbSymbolTableRecord
100
AcDbLinetypeTableRecord
  2
DOT
 70
64
  3
. . . . . . . . . . . . . . . . . . . .
 72
65
 73
2
 40
0.2
 49
0.1
 74
0
 49
-0.1
 74
0
  0
LTYPE
  5
1F9
100
AcDbSymbolTableRecord
100
AcDbLinetypeTableRecord
  2
DASHED
 70
64
  3
- - - - - - - - - - - - - - - - - - - -
 72
65
 73
2
 40
0.2
 49
0.1
 74
0
 49
-0.1
 74
0
  0
ENDTAB
  0
TABLE
  2
LAYER
  5
2
100
AcDbSymbolTable
 70
36
  0
LAYER
  5
10
100
AcDbSymbolTableRecord
100
AcDbLayerTableRecord
  2
0
 70
0
 62
7
  6
CONTINUOUS
370
-3
390
F
  0
LAYER
  5
1FA
100
AcDbSymbolTableRecord
100
AcDbLayerTableRecord
  2
DEFAULT_1
 70
0
 62
7
  6
CENTER
370
-3
390
F
  0
LAYER
  5
1FB
100
AcDbSymbolTableRecord
100
AcDbLayerTableRecord
  2
DEFAULT_2
 70
0
 62
8
  6
HIDDEN
370
-3
390
F
  0
LAYER
  5
1FC
100
AcDbSymbolTableRecord
100
AcDbLayerTableRecord
  2
DEFAULT_3
 70
0
 62
7
  6
PHANTOM
370
-3
390
F
  0
LAYER
  5
1FD
100
AcDbSymbolTableRecord
100
AcDbLayerTableRecord
  2
01_ALL_DTM_PLN
 70
0
 62
7
  6
CONTINUOUS
370
-3
390
F
  0
LAYER
  5
1FE
100
AcDbSymbolTableRecord
100
AcDbLayerTableRecord
  2
01__ASM_ALL_DTM_PLN
 70
0
 62
7
  6
CONTINUOUS
370
-3
390
F
  0
LAYER
  5
1FF
100
AcDbSymbolTableRecord
100
AcDbLayerTableRecord
  2
01__ASM_DEF_DTM_PLN
 70
0
 62
7
  6
CONTINUOUS
370
-3
390
F
  0
LAYER
  5
200
100
AcDbSymbolTableRecord
100
AcDbLayerTableRecord
  2
01___PRT_ALL_DTM_PLN
 70
0
 62
7
  6
CONTINUOUS
370
-3
390
F
  0
LAYER
  5
201
100
AcDbSymbolTableRecord
100
AcDbLayerTableRecord
  2
01___PRT_DEF_DTM_PLN
 70
0
 62
7
  6
CONTINUOUS
370
-3
390
F
  0
LAYER
  5
202
100
AcDbSymbolTableRecord
100
AcDbLayerTableRecord
  2
02_ALL_AXES
 70
0
 62
7
  6
CONTINUOUS
370
-3
390
F
  0
LAYER
  5
203
100
AcDbSymbolTableRecord
100
AcDbLayerTableRecord
  2
02__ASM_ALL_AXES
 70
0
 62
7
  6
CONTINUOUS
370
-3
390
F
  0
LAYER
  5
204
100
AcDbSymbolTableRecord
100
AcDbLayerTableRecord
  2
02___PRT_ALL_AXES
 70
0
 62
7
  6
CONTINUOUS
370
-3
390
F
  0
LAYER
  5
205
100
AcDbSymbolTableRecord
100
AcDbLayerTableRecord
  2
03_ALL_CURVES
 70
0
 62
7
  6
CONTINUOUS
370
-3
390
F
  0
LAYER
  5
206
100
AcDbSymbolTableRecord
100
AcDbLayerTableRecord
  2
03__ASM_ALL_CURVES
 70
0
 62
7
  6
CONTINUOUS
370
-3
390
F
  0
LAYER
  5
207
100
AcDbSymbolTableRecord
100
AcDbLayerTableRecord
  2
03___PRT_ALL_CURVES
 70
0
 62
7
  6
CONTINUOUS
370
-3
390
F
  0
LAYER
  5
208
100
AcDbSymbolTableRecord
100
AcDbLayerTableRecord
  2
04_ALL_DTM_PNT
 70
0
 62
7
  6
CONTINUOUS
370
-3
390
F
  0
LAYER
  5
209
100
AcDbSymbolTableRecord
100
AcDbLayerTableRecord
  2
04__ASM_ALL_DTM_PNT
 70
0
 62
7
  6
CONTINUOUS
370
-3
390
F
  0
LAYER
  5
20A
100
AcDbSymbolTableRecord
100
AcDbLayerTableRecord
  2
04___PRT_ALL_DTM_PNT
 70
0
 62
7
  6
CONTINUOUS
370
-3
390
F
  0
LAYER
  5
20B
100
AcDbSymbolTableRecord
100
AcDbLayerTableRecord
  2
05_ALL_DTM_CSYS
 70
0
 62
7
  6
CONTINUOUS
370
-3
390
F
  0
LAYER
  5
20C
100
AcDbSymbolTableRecord
100
AcDbLayerTableRecord
  2
05__ASM_ALL_DTM_CSYS
 70
0
 62
7
  6
CONTINUOUS
370
-3
390
F
  0
LAYER
  5
20D
100
AcDbSymbolTableRecord
100
AcDbLayerTableRecord
  2
05__ASM_DEF_DTM_CSYS
 70
0
 62
7
  6
CONTINUOUS
370
-3
390
F
  0
LAYER
  5
20E
100
AcDbSymbolTableRecord
100
AcDbLayerTableRecord
  2
05___PRT_ALL_DTM_CSYS
 70
0
 62
7
  6
CONTINUOUS
370
-3
390
F
  0
LAYER
  5
20F
100
AcDbSymbolTableRecord
100
AcDbLayerTableRecord
  2
05___PRT_DEF_DTM_CSYS
 70
0
 62
7
  6
CONTINUOUS
370
-3
390
F
  0
LAYER
  5
210
100
AcDbSymbolTableRecord
100
AcDbLayerTableRecord
  2
06_ALL_SURFS
 70
0
 62
7
  6
CONTINUOUS
370
-3
390
F
  0
LAYER
  5
211
100
AcDbSymbolTableRecord
100
AcDbLayerTableRecord
  2
06__ASM_ALL_SURFS
 70
0
 62
7
  6
CONTINUOUS
370
-3
390
F
  0
LAYER
  5
212
100
AcDbSymbolTableRecord
100
AcDbLayerTableRecord
  2
06___PRT_ALL_SURFS
 70
0
 62
7
  6
CONTINUOUS
370
-3
390
F
  0
LAYER
  5
213
100
AcDbSymbolTableRecord
100
AcDbLayerTableRecord
  2
07__ASM_ALL_SKELETONS
 70
0
 62
7
  6
CONTINUOUS
370
-3
390
F
  0
ENDTAB
  0
TABLE
  2
STYLE
  5
3
100
AcDbSymbolTable
 70
1
  0
STYLE
  5
11
100
AcDbSymbolTableRecord
100
AcDbTextStyleTableRecord
  2
STANDARD
 70
0
 40
0.0
 41
0.8
 50
0.0
 71
0
 42
0.2
  3
txt
  4

  0
STYLE
  5
214
100
AcDbSymbolTableRecord
100
AcDbTextStyleTableRecord
  2
TEXTSTYLE_1
 70
0
 40
0.0
 41
0.8
 50
0.0
 71
0
 42
0.2
  3
gdt
  4

  0
ENDTAB
  0
TABLE
  2
VIEW
  5
6
100
AcDbSymbolTable
 70
0
  0
ENDTAB
  0
TABLE
  2
UCS
  5
7
100
AcDbSymbolTable
 70
0
  0
ENDTAB
  0
TABLE
  2
APPID
  5
9
100
AcDbSymbolTable
 70
1
  0
APPID
  5
215
100
AcDbSymbolTableRecord
100
AcDbRegAppTableRecord
  2
ACAD
 70
0
  0
ENDTAB
  0
TABLE
  2
BLOCK_RECORD
  5
1
100
AcDbSymbolTable
 70
0
  0
BLOCK_RECORD
  5
216
100
AcDbSymbolTableRecord
100
AcDbBlockTableRecord
  2
*Model_Space
  0
BLOCK_RECORD
  5
217
100
AcDbSymbolTableRecord
100
AcDbBlockTableRecord
  2
*Paper_Space
  0
BLOCK_RECORD
  5
218
100
AcDbSymbolTableRecord
100
AcDbBlockTableRecord
  2
_CLOSED
  0
ENDTAB
  0
TABLE
  2
DIMSTYLE
  5
A
100
AcDbSymbolTable
 70
1
100
AcDbDimStyleTable
 71
0
  0
DIMSTYLE
105
219
100
AcDbSymbolTableRecord
100
AcDbDimStyleTableRecord
  2
STANDARD
 70
0
  3

  4

 40
1.0
 41
0.1875
 42
0.0625
 43
0.38
 44
0.125
 45
0.0
 46
0.0
 47
0.01
 48
0.01
140
0.15625
141
0.09
142
0.0
143
25.4
144
1.0
145
0.0
146
1.0
147
0.625
 71
0.0
 72
0.0
 73
1
 74
1
 75
0
 76
0
 77
0
 78
8
 79
2
170
0
171
1
172
0
173
0
174
0
175
0
176
0
177
0
178
0
270
2
179
2
271
2
272
2
273
2
274
2
275
0
280
0
281
0
282
0
283
1
284
8
285
0
286
0
287
3
288
0
340
11
278
46
341
218
342
218
343
218
344
218
  0
ENDTAB
  0
ENDSEC
  0
SECTION
  2
BLOCKS
  0
BLOCK
  5
20
100
AcDbEntity
  8
0
100
AcDbBlockBegin
  2
*Model_Space
 70
0
 10
0.0
 20
0.0
 30
0.0
  3
*Model_Space
  1

  0
ENDBLK
  5
21
100
AcDbEntity
  8
0
100
AcDbBlockEnd
  0
BLOCK
  5
1C
100
AcDbEntity
  8
0
100
AcDbBlockBegin
  2
*Paper_Space
 70
0
 10
0.0
 20
0.0
 30
0.0
  3
*Paper_Space
  1

  0
ENDBLK
  5
1D
100
AcDbEntity
  8
0
100
AcDbBlockEnd
  0
BLOCK
  5
21A
100
AcDbEntity
  8
0
100
AcDbBlockBegin
  2
_CLOSED
 70
64
 10
0.0
 20
0.0
  3
_CLOSED
  1

  0
LINE
  5
21B
100
AcDbEntity
  8
0
  6
BYBLOCK
 62
0
100
AcDbLine
 10
0.0
 20
0.0
 11
-1.0
 21
0.1666666667
  0
LINE
  5
21C
100
AcDbEntity
  8
0
  6
BYBLOCK
 62
0
100
AcDbLine
 10
-1.0
 20
0.1666666667
 11
-1.0
 21
-0.1666666667
  0
LINE
  5
21D
100
AcDbEntity
  8
0
  6
BYBLOCK
 62
0
100
AcDbLine
 10
-1.0
 20
-0.1666666667
 11
0.0
 21
0.0
  0
LINE
  5
21E
100
AcDbEntity
  8
0
  6
BYBLOCK
 62
0
100
AcDbLine
 10
-1.0
 20
0.0
 11
0.0
 21
0.0
  0
ENDBLK
  5
21F
100
AcDbEntity
  8
0
  6
BYBLOCK
 62
0
100
AcDbBlockEnd
  0
ENDSEC
  0
SECTION
  2
ENTITIES
  0
LINE
  5
220
100
AcDbEntity
  8
0
100
AcDbLine
 62
7
  6
CONTINUOUS
 10
-76.4186413485
 20
154.9548207082
 11
-73.7413433608
 21
154.8289132079
  0
LINE
  5
221
100
AcDbEntity
  8
0
100
AcDbLine
 62
7
  6
CONTINUOUS
 10
-67.9751891507
 20
155.8577881144
 11
-68.7783785471
 21
155.8955603645
  0
LINE
  5
222
100
AcDbEntity
  8
0
100
AcDbLine
 62
7
  6
CONTINUOUS
 10
-82.2646693665
 20
160.7850398956
 11
-79.5873713788
 21
160.6591323952
  0
LINE
  5
223
100
AcDbEntity
  8
0
100
AcDbLine
 62
7
  6
CONTINUOUS
 10
-69.2800494238
 20
163.1689949837
 11
-70.0832388203
 21
163.2067672349
  0
LINE
  5
224
100
AcDbEntity
  8
0
100
AcDbLine
 62
7
  6
CONTINUOUS
 10
-79.6540888314
 20
165.4954980592
 11
-80.4572782277
 21
165.5332703093
  0
LINE
  5
225
100
AcDbEntity
  8
0
100
AcDbLine
 62
7
  6
CONTINUOUS
 10
-97.0530857978
 20
243.6453844346
 11
-82.2646693666
 21
160.7850398957
  0
LINE
  5
226
100
AcDbEntity
  8
0
100
AcDbLine
 62
7
  6
CONTINUOUS
 10
-94.3757878101
 20
243.5194769342
 11
-93.5058809612
 21
238.6453390203
  0
LINE
  5
227
100
AcDbEntity
  8
0
100
AcDbLine
 62
7
  6
CONTINUOUS
 10
-80.4572782277
 20
165.5332703093
 11
-79.5873713788
 21
160.6591323952
  0
LINE
  5
228
100
AcDbEntity
  8
0
100
AcDbLine
 62
7
  6
CONTINUOUS
 10
-92.7026915649
 20
238.6075667701
 11
-79.6540888314
 21
165.4954980592
  0
LINE
  5
229
100
AcDbEntity
  8
0
100
AcDbLine
 62
7
  6
CONTINUOUS
 10
-67.9751891507
 20
155.8577881144
 11
-12.6032864192
 21
170.700530228
  0
LINE
  5
22A
100
AcDbEntity
  8
0
100
AcDbLine
 62
7
  6
CONTINUOUS
 10
-72.0841637847
 20
155.009426507
 11
-68.7783785471
 21
155.8955603645
  0
LINE
  5
22B
100
AcDbEntity
  8
0
100
AcDbLine
 62
7
  6
CONTINUOUS
 10
-12.6463909516
 20
170.9420473932
 11
-10.1006905778
 21
171.6244363356
  0
LINE
  5
22C
100
AcDbEntity
  8
0
100
AcDbLine
 62
7
  6
CONTINUOUS
 10
-62.6921197833
 20
174.2445275826
 11
-60.326732329
 21
172.8782597505
  0
LINE
  5
22D
100
AcDbEntity
  8
0
100
AcDbLine
 62
7
  6
CONTINUOUS
 10
-33.5562624495
 20
165.3214492019
 11
-37.112421221
 21
167.3745900563
  0
LINE
  5
22E
100
AcDbEntity
  8
0
100
AcDbLine
 62
7
  6
CONTINUOUS
 10
-48.435035201
 20
174.4239211872
 11
-50.3569419558
 21
175.5339788357
  0
LINE
  5
22F
100
AcDbEntity
  8
0
100
AcDbLine
 62
7
  6
CONTINUOUS
 10
-44.5526330973
 20
172.7880297225
 11
-35.4311320888
 21
167.5196201419
  0
LINE
  5
230
100
AcDbEntity
  8
0
100
AcDbLine
 62
7
  6
CONTINUOUS
 10
-68.7783785471
 20
155.8955603645
 11
-70.0832388203
 21
163.2067672349
  0
LINE
  5
231
100
AcDbEntity
  8
0
100
AcDbLine
 62
7
  6
CONTINUOUS
 10
-84.8716552517
 20
246.0671117747
 11
-86.176515525
 21
253.3783186458
  0
LINE
  5
232
100
AcDbEntity
  8
0
100
AcDbLine
 62
7
  6
CONTINUOUS
 10
-85.3733261287
 20
253.3405463957
 11
-84.0684658554
 21
246.0293395246
  0
LINE
  5
233
100
AcDbEntity
  8
0
100
AcDbLine
 62
7
  6
CONTINUOUS
 10
-67.9751891507
 20
155.8577881144
 11
-69.2800494237
 21
163.1689949831
  0
LINE
  5
234
100
AcDbEntity
  8
0
100
AcDbLine
 62
7
  6
CONTINUOUS
 10
-5.273920983
 20
185.4335098535
 11
-8.4629538729
 21
184.578672103
  0
LINE
  5
235
100
AcDbEntity
  8
0
100
AcDbLine
 62
7
  6
CONTINUOUS
 10
-79.6540888314
 20
165.4954980592
 11
-74.2821878201
 21
166.9354655776
  0
LINE
  5
236
100
AcDbEntity
  8
0
100
AcDbLine
 62
7
  6
CONTINUOUS
 10
-60.326732329
 20
172.8782597505
 11
-50.3455035213
 21
175.5537828563
  0
LINE
  5
237
100
AcDbEntity
  8
0
100
AcDbLine
 62
7
  6
CONTINUOUS
 10
-38.3510935651
 20
171.9417914496
 11
-37.3889092272
 21
171.3860516455
  0
LINE
  5
238
100
AcDbEntity
  8
0
100
AcDbLine
 62
7
  6
CONTINUOUS
 10
-54.8718824784
 20
185.7209678884
 11
-35.3227934536
 21
174.4297771277
  0
LINE
  5
239
100
AcDbEntity
  8
0
100
AcDbLine
 62
7
  6
CONTINUOUS
 10
-55.8687182086
 20
188.6989444001
 11
-29.5376692876
 21
173.4906195559
  0
LINE
  5
23A
100
AcDbEntity
  8
0
100
AcDbLine
 62
7
  6
CONTINUOUS
 10
-43.9336552083
 20
182.2174196832
 11
-55.9920126142
 21
189.1821029765
  0
LINE
  5
23B
100
AcDbEntity
  8
0
100
AcDbLine
 62
7
  6
CONTINUOUS
 10
-29.5376692876
 20
175.9805113784
 11
-37.2553601458
 21
180.4381062874
  0
LINE
  5
23C
100
AcDbEntity
  8
0
100
AcDbLine
 62
7
  6
CONTINUOUS
 10
-53.5231330302
 20
264.2381366521
 11
-53.0751215748
 21
266.646466028
  0
LINE
  5
23D
100
AcDbEntity
  8
0
100
AcDbLine
 62
7
  6
CONTINUOUS
 10
-69.3910363173
 20
248.7036519081
 11
-69.7301705436
 21
250.6038404084
  0
LINE
  5
23E
100
AcDbEntity
  8
0
100
AcDbLine
 62
7
  6
CONTINUOUS
 10
-53.2540821037
 20
243.5053526456
 11
-53.2540821037
 21
239.3832468452
  0
LINE
  5
23F
100
AcDbEntity
  8
0
100
AcDbLine
 62
7
  6
CONTINUOUS
 10
-50.1892092781
 20
238.7851054935
 11
-50.1809062741
 21
241.6683717942
  0
LINE
  5
240
100
AcDbEntity
  8
0
100
AcDbLine
 62
7
  6
CONTINUOUS
 10
-37.3889092272
 20
171.9078041079
 11
-37.3889092272
 21
171.3860516455
  0
LINE
  5
241
100
AcDbEntity
  8
0
100
AcDbLine
 62
7
  6
CONTINUOUS
 10
-37.112421221
 20
167.3745900563
 11
-37.0903336045
 21
168.4779441231
  0
LINE
  5
242
100
AcDbEntity
  8
0
100
AcDbLine
 62
7
  6
CONTINUOUS
 10
-61.6282978988
 20
223.3490868518
 11
-72.0135323399
 21
229.3474053934
  0
LINE
  5
243
100
AcDbEntity
  8
0
100
AcDbLine
 62
7
  6
CONTINUOUS
 10
-35.3227934536
 20
171.9398853058
 11
-35.3227934536
 21
174.4297771277
  0
LINE
  5
244
100
AcDbEntity
  8
0
100
AcDbLine
 62
7
  6
CONTINUOUS
 10
-33.5562624495
 20
167.0460823732
 11
-33.5562624495
 21
165.3214492019
  0
LINE
  5
245
100
AcDbEntity
  8
0
100
AcDbLine
 62
7
  6
CONTINUOUS
 10
-29.5376692876
 20
175.9805113784
 11
-29.5376692876
 21
173.4906195559
  0
LINE
  5
246
100
AcDbEntity
  8
0
100
AcDbLine
 62
7
  6
CONTINUOUS
 10
-27.4715535141
 20
174.0444532196
 11
-27.4715535141
 21
174.5662056805
  0
LINE
  5
247
100
AcDbEntity
  8
0
100
AcDbLine
 62
7
  6
CONTINUOUS
 10
-6.7858360752
 20
232.6903979861
 11
-16.7357897136
 21
230.0232583609
  0
LINE
  5
248
100
AcDbEntity
  8
0
100
AcDbLine
 62
7
  6
CONTINUOUS
 10
1.8930594121
 20
236.1388288666
 11
-2.6523952897
 21
234.9203948125
  0
LINE
  5
249
100
AcDbEntity
  8
0
100
AcDbLine
 62
7
  6
CONTINUOUS
 10
-9.1514255299
 20
234.0566864499
 11
-19.1013129467
 21
231.3895406485
  0
LINE
  5
24A
100
AcDbEntity
  8
0
100
AcDbLine
 62
7
  6
CONTINUOUS
 10
-69.3910363173
 20
248.7036519081
 11
-53.2540821037
 21
239.3832468452
  0
LINE
  5
24B
100
AcDbEntity
  8
0
100
AcDbLine
 62
7
  6
CONTINUOUS
 10
-20.926807533
 20
222.0505004376
 11
-33.0293027981
 21
229.0406769387
  0
LINE
  5
24C
100
AcDbEntity
  8
0
100
AcDbLine
 62
7
  6
CONTINUOUS
 10
-47.2097161165
 20
237.8297622081
 11
-43.6879133766
 21
235.7956343514
  0
LINE
  5
24D
100
AcDbEntity
  8
0
100
AcDbLine
 62
7
  6
CONTINUOUS
 10
-12.6032864192
 20
170.700530228
 11
-13.8668248808
 21
177.7802086205
  0
LINE
  5
24E
100
AcDbEntity
  8
0
100
AcDbLine
 62
7
  6
CONTINUOUS
 10
-92.7026915649
 20
238.6075667701
 11
-93.5058809612
 21
238.6453390203
  0
LINE
  5
24F
100
AcDbEntity
  8
0
100
AcDbLine
 62
7
  6
CONTINUOUS
 10
-87.3307905536
 20
240.0475342886
 11
-88.1339799499
 21
240.0853065388
  0
LINE
  5
250
100
AcDbEntity
  8
0
100
AcDbLine
 62
7
  6
CONTINUOUS
 10
-94.3757878101
 20
243.5194769342
 11
-97.0530857978
 21
243.6453844347
  0
LINE
  5
251
100
AcDbEntity
  8
0
100
AcDbLine
 62
7
  6
CONTINUOUS
 10
-16.4254275403
 20
229.8439989335
 11
-24.0261373225
 21
234.2340277456
  0
LINE
  5
252
100
AcDbEntity
  8
0
100
AcDbLine
 62
7
  6
CONTINUOUS
 10
-5.2072035304
 20
180.5971441896
 11
-6.0340058468
 21
185.2297649385
  0
LINE
  5
253
100
AcDbEntity
  8
0
100
AcDbLine
 62
7
  6
CONTINUOUS
 10
-5.273920983
 20
185.4335098535
 11
-5.8997967094
 21
188.9403274071
  0
LINE
  5
254
100
AcDbEntity
  8
0
100
AcDbLine
 62
7
  6
CONTINUOUS
 10
-13.7327181188
 20
232.8286348367
 11
-14.1825761261
 21
235.3492150248
  0
LINE
  5
255
100
AcDbEntity
  8
0
100
AcDbLine
 62
7
  6
CONTINUOUS
 10
-3.0507339059
 20
239.2582359401
 11
-3.0507339059
 21
240.6876830125
  0
LINE
  5
256
100
AcDbEntity
  8
0
100
AcDbLine
 62
7
  6
CONTINUOUS
 10
-2.6523952897
 20
234.9203948125
 11
-2.65239509
 21
236.394393489
  0
LINE
  5
257
100
AcDbEntity
  8
0
100
AcDbLine
 62
7
  6
CONTINUOUS
 10
-55.7043241474
 20
244.7003571176
 11
-55.832837906
 21
244.6659083
  0
LINE
  5
258
100
AcDbEntity
  8
0
100
AcDbLine
 62
7
  6
CONTINUOUS
 10
-84.8716552517
 20
246.0671117747
 11
-84.0684658554
 21
246.0293395246
  0
LINE
  5
259
100
AcDbEntity
  8
0
100
AcDbLine
 62
7
  6
CONTINUOUS
 10
-9.1515563323
 20
234.0565785335
 11
-6.7858360752
 21
232.6903979861
  0
LINE
  5
25A
100
AcDbEntity
  8
0
100
AcDbLine
 62
7
  6
CONTINUOUS
 10
1.8930594121
 20
236.1388288666
 11
1.893059435
 21
237.2277217037
  0
LINE
  5
25B
100
AcDbEntity
  8
0
100
AcDbLine
 62
7
  6
CONTINUOUS
 10
-92.7026915649
 20
238.6075667701
 11
-87.3307905536
 21
240.0475342886
  0
LINE
  5
25C
100
AcDbEntity
  8
0
100
AcDbLine
 62
7
  6
CONTINUOUS
 10
-93.5058809612
 20
238.6453390203
 11
-88.1339799499
 21
240.0853065388
  0
LINE
  5
25D
100
AcDbEntity
  8
0
100
AcDbLine
 62
7
  6
CONTINUOUS
 10
-92.1595987505
 20
252.6180922887
 11
-89.4823007628
 21
252.4921847883
  0
LINE
  5
25E
100
AcDbEntity
  8
0
100
AcDbLine
 62
7
  6
CONTINUOUS
 10
-85.3733261287
 20
253.3405463957
 11
-86.176515525
 21
253.3783186458
  0
LINE
  5
25F
100
AcDbEntity
  8
0
100
AcDbLine
 62
7
  6
CONTINUOUS
 10
-2.6523952897
 20
234.9203948125
 11
-3.7784263686
 21
235.5707694514
  0
LINE
  5
260
100
AcDbEntity
  8
0
100
AcDbLine
 62
7
  6
CONTINUOUS
 10
-5.6937939925
 20
240.784805373
 11
-3.0507339059
 21
239.2582359401
  0
LINE
  5
261
100
AcDbEntity
  8
0
100
AcDbLine
 62
7
  6
CONTINUOUS
 10
-3.7784263686
 20
235.5707694514
 11
-3.8765032395
 21
236.2250949804
  0
LINE
  5
262
100
AcDbEntity
  8
0
100
AcDbLine
 62
7
  6
CONTINUOUS
 10
-58.2873270498
 20
255.070020475
 11
-65.2650035452
 21
253.1996160341
  0
LINE
  5
263
100
AcDbEntity
  8
0
100
AcDbLine
 62
7
  6
CONTINUOUS
 10
-47.7358626214
 20
267.68618121
 11
-47.9870182365
 21
267.8312381508
  0
LINE
  5
264
100
AcDbEntity
  8
0
100
AcDbLine
 62
7
  6
CONTINUOUS
 10
-85.3733261287
 20
253.3405463957
 11
-56.3256255112
 21
261.1269418054
  0
LINE
  5
265
100
AcDbEntity
  8
0
100
AcDbLine
 62
7
  6
CONTINUOUS
 10
-86.176515525
 20
253.3783186458
 11
-89.4823007628
 21
252.4921847883
  0
LINE
  5
266
100
AcDbEntity
  8
0
100
AcDbLine
 62
7
  6
CONTINUOUS
 10
-55.276673832
 20
262.5047625303
 11
-92.1595987504
 21
252.6180922887
  0
LINE
  5
267
100
AcDbEntity
  8
0
100
AcDbLine
 62
7
  6
CONTINUOUS
 10
-50.8637040537
 20
268.683674897
 11
-47.9870182365
 21
267.8312381508
  0
LINE
  5
268
100
AcDbEntity
  8
0
100
AcDbLine
 62
7
  6
CONTINUOUS
 10
16.7839775204
 20
246.0044861577
 11
16.7839775204
 21
244.5750390853
  0
LINE
  5
269
100
AcDbEntity
  8
0
100
AcDbLine
 62
7
  6
CONTINUOUS
 10
-28.1523068102
 20
273.148041296
 11
-29.3352669262
 21
272.8309390227
  0
LINE
  5
26A
100
AcDbEntity
  8
0
100
AcDbLine
 62
7
  6
CONTINUOUS
 10
-47.9870182365
 20
267.8312381508
 11
-46.8036731266
 21
268.1484408961
  0
LINE
  5
26B
100
AcDbEntity
  8
0
100
AcDbLine
 62
7
  6
CONTINUOUS
 10
-31.0289926275
 20
274.0004780422
 11
-50.8637040538
 21
268.683674897
  0
LINE
  5
26C
100
AcDbEntity
  8
0
100
AcDbLine
 62
7
  6
CONTINUOUS
 10
-31.8126946392
 20
274.0132721662
 11
-51.6474060654
 21
268.696469021
  0
LINE
  5
26D
100
AcDbEntity
  8
0
100
AcDbLine
 62
7
  6
CONTINUOUS
 10
-28.3210664634
 20
272.9551097173
 11
-28.3810934286
 21
272.9480974028
  0
LINE
  5
26E
100
AcDbEntity
  8
0
100
AcDbLine
 62
7
  6
CONTINUOUS
 10
-28.1523068102
 20
273.148041296
 11
-27.9011607223
 21
273.0029811074
  0
LINE
  5
26F
100
AcDbEntity
  8
0
100
AcDbLine
 62
7
  6
CONTINUOUS
 10
-28.1523068102
 20
273.148041296
 11
-31.0289926275
 21
274.0004780422
  0
ARC
  5
270
100
AcDbEntity
  8
0
100
AcDbCircle
 62
7
  6
CONTINUOUS
 10
-100.0898225201
 20
114.9368047803
 40
175.60814969
100
AcDbArc
 50
48.276429736
 51
50.0664978405
  0
ARC
  5
271
100
AcDbEntity
  8
0
100
AcDbCircle
 62
7
  6
CONTINUOUS
 10
-118.7013155376
 20
111.0356865389
 40
173.7374375929
100
AcDbArc
 50
48.2667919464
 51
50.0761361348
  0
ARC
  5
272
100
AcDbEntity
  8
0
100
AcDbCircle
 62
7
  6
CONTINUOUS
 10
-16.1737176136
 20
324.4042675873
 40
89.0426541898
100
AcDbArc
 50
276.9519925115
 51
279.8543153757
  0
ARC
  5
273
100
AcDbEntity
  8
0
100
AcDbCircle
 62
7
  6
CONTINUOUS
 10
-18.2235093383
 20
186.2478231517
 40
87.2932664542
100
AcDbArc
 50
96.3651044113
 51
96.5181880391
  0
ARC
  5
274
100
AcDbEntity
  8
0
100
AcDbCircle
 62
7
  6
CONTINUOUS
 10
-18.2658491748
 20
186.6186383582
 40
86.920041886
100
AcDbArc
 50
96.5182066806
 51
96.6430515819
  0
ARC
  5
275
100
AcDbEntity
  8
0
100
AcDbCircle
 62
7
  6
CONTINUOUS
 10
-18.3956898228
 20
187.7155294749
 40
85.8154934773
100
AcDbArc
 50
96.682015351
 51
97.3240998505
  0
ARC
  5
276
100
AcDbEntity
  8
0
100
AcDbCircle
 62
7
  6
CONTINUOUS
 10
-18.9308717974
 20
191.7324222167
 40
81.7631775869
100
AcDbArc
 50
97.3106932191
 51
99.1874972023
  0
ARC
  5
277
100
AcDbEntity
  8
0
100
AcDbCircle
 62
7
  6
CONTINUOUS
 10
-48.4654121567
 20
235.5773213392
 40
43.0874640134
100
AcDbArc
 50
6.9416755401
 51
7.6822905639
  0
ARC
  5
278
100
AcDbEntity
  8
0
100
AcDbCircle
 62
7
  6
CONTINUOUS
 10
-32.8424494286
 20
238.8232864294
 40
32.478923191
100
AcDbArc
 50
115.4583509482
 51
117.2939840682
  0
ARC
  5
279
100
AcDbEntity
  8
0
100
AcDbCircle
 62
7
  6
CONTINUOUS
 10
-81.7449642044
 20
240.3035742525
 40
31.5922683
100
AcDbArc
 50
351.1373566413
 51
357.2450416061
  0
ARC
  5
27A
100
AcDbEntity
  8
0
100
AcDbCircle
 62
7
  6
CONTINUOUS
 10
-34.2760736092
 20
241.6156327763
 40
29.3401116601
100
AcDbArc
 50
117.3066172819
 51
118.6221865414
  0
ARC
  5
27B
100
AcDbEntity
  8
0
100
AcDbCircle
 62
7
  6
CONTINUOUS
 10
-31.0323946283
 20
251.4222496677
 40
27.5192472921
100
AcDbArc
 50
165.996252655
 51
179.9973811688
  0
ARC
  5
27C
100
AcDbEntity
  8
0
100
AcDbCircle
 62
7
  6
CONTINUOUS
 10
-4.0708795331
 20
251.4222508433
 40
27.5192376701
100
AcDbArc
 50
0.0026163883
 51
14.0037498308
  0
ARC
  5
27D
100
AcDbEntity
  8
0
100
AcDbCircle
 62
7
  6
CONTINUOUS
 10
-33.3190345458
 20
218.1390158636
 40
18.5851462412
100
AcDbArc
 50
59.9988311698
 51
72.0419629535
  0
ARC
  5
27E
100
AcDbEntity
  8
0
100
AcDbCircle
 62
7
  6
CONTINUOUS
 10
-37.2607741252
 20
194.5400954896
 40
3.8795777238
100
AcDbArc
 50
12.2972923098
 51
15.5939067179
  0
ARC
  5
27F
100
AcDbEntity
  8
0
100
AcDbCircle
 62
7
  6
CONTINUOUS
 10
-74.1548373512
 20
163.4904832317
 40
3.6075788839
100
AcDbArc
 50
74.6818951244
 51
80.6616708633
  0
ARC
  5
280
100
AcDbEntity
  8
0
100
AcDbCircle
 62
7
  6
CONTINUOUS
 10
-55.8138447301
 20
245.6654364412
 40
1.0732784974
100
AcDbArc
 50
239.2914905159
 51
239.9886823157
  0
ARC
  5
281
100
AcDbEntity
  8
0
100
AcDbCircle
 62
7
  6
CONTINUOUS
 10
-55.9770942586
 20
245.189620725
 40
0.5685051852
100
AcDbArc
 50
295.3698509107
 51
298.9870970161
  0
ARC
  5
282
100
AcDbEntity
  8
0
100
AcDbCircle
 62
7
  6
CONTINUOUS
 10
-55.9688778872
 20
245.1722003398
 40
0.5492444238
100
AcDbArc
 50
285.0385109945
 51
295.3740175536
  0
ARC
  5
283
100
AcDbEntity
  8
0
100
AcDbCircle
 62
7
  6
CONTINUOUS
 10
-55.9722175897
 20
245.1857431549
 40
0.5381837878
100
AcDbArc
 50
278.7822746362
 51
285.0092876957
  0
SPLINE
  5
284
100
AcDbEntity
  8
0
100
AcDbSpline
 62
7
  6
CONTINUOUS
 70
0
 71
3
 72
15
 73
11
 74
0
 42
0.0000001
 43
0.0000001
 44
0.0000000001
 40
0.0
 40
0.0
 40
0.0
 40
0.0
 40
0.0980180984
 40
0.2111224324
 40
0.337105748
 40
0.472022955
 40
0.610968284
 40
0.7486260771
 40
0.8798102336
 40
1.0
 40
1.0
 40
1.0
 40
1.0
 10
-56.3506675705
 20
244.7590393834
 30
0.0
 10
-56.4438627521
 20
244.8128671894
 30
0.0
 10
-56.6274020779
 20
244.9588211309
 30
0.0
 10
-56.866443755
 20
245.2434858857
 30
0.0
 10
-57.0794345825
 20
245.596283339
 30
0.0
 10
-57.2555316456
 20
245.9996580589
 30
0.0
 10
-57.3859851738
 20
246.4333453567
 30
0.0
 10
-57.4640938505
 20
246.8753476287
 30
0.0
 10
-57.4859712765
 20
247.3030350076
 30
0.0
 10
-57.460980519
 20
247.5793171817
 30
0.0
 10
-57.4369907769
 20
247.7090860373
 30
0.0
  0
SPLINE
  5
285
100
AcDbEntity
  8
0
100
AcDbSpline
 62
7
  6
CONTINUOUS
 70
0
 71
3
 72
9
 73
5
 74
0
 42
0.0000001
 43
0.0000001
 44
0.0000000001
 40
0.0
 40
0.0
 40
0.0
 40
0.0
 40
0.4699861662
 40
1.0
 40
1.0
 40
1.0
 40
1.0
 10
-55.8900476326
 20
244.6538692153
 30
0.0
 10
-55.9642716156
 20
244.642399387
 30
0.0
 10
-56.1283187917
 20
244.6521746588
 30
0.0
 10
-56.2773246892
 20
244.7166778972
 30
0.0
 10
-56.3506675705
 20
244.7590393834
 30
0.0
  0
SPLINE
  5
286
100
AcDbEntity
  8
0
100
AcDbSpline
 62
7
  6
CONTINUOUS
 70
0
 71
3
 72
9
 73
5
 74
0
 42
0.0000001
 43
0.0000001
 44
0.0000000001
 40
0.0
 40
0.0
 40
0.0
 40
0.0
 40
0.5393080632
 40
1.0
 40
1.0
 40
1.0
 40
1.0
 10
-55.3475820856
 20
245.1829351114
 30
0.0
 10
-55.3842434138
 20
245.0867198713
 30
0.0
 10
-55.4711092964
 20
244.9140403887
 30
0.0
 10
-55.6107506281
 20
244.776104891
 30
0.0
 10
-55.6855843934
 20
244.7298899366
 30
0.0
  0
SPLINE
  5
287
100
AcDbEntity
  8
0
100
AcDbSpline
 62
7
  6
CONTINUOUS
 70
0
 71
3
 72
9
 73
5
 74
0
 42
0.0000001
 43
0.0000001
 44
0.0000000001
 40
0.0
 40
0.0
 40
0.0
 40
0.0
 40
0.253769065
 40
1.0
 40
1.0
 40
1.0
 40
1.0
 10
-55.6855843934
 20
244.7298899366
 30
0.0
 10
-55.6971624466
 20
244.7227396991
 30
0.0
 10
-55.7437451736
 20
244.6961513324
 30
0.0
 10
-55.7941919993
 20
244.6762877224
 30
0.0
 10
-55.83284111
 20
244.6659201211
 30
0.0
  0
SPLINE
  5
288
100
AcDbEntity
  8
0
100
AcDbSpline
 62
7
  6
CONTINUOUS
 70
0
 71
3
 72
11
 73
7
 74
0
 42
0.0000001
 43
0.0000001
 44
0.0000000001
 40
0.0
 40
0.0
 40
0.0
 40
0.0
 40
0.2754425525
 40
0.5361770052
 40
0.778666023
 40
1.0
 40
1.0
 40
1.0
 40
1.0
 10
-3.0507339059
 20
239.2582359401
 30
0.0
 10
-1.1757144092
 20
239.5093752465
 30
0.0
 10
2.4614516641
 20
240.1017735602
 30
0.0
 10
7.6788082367
 20
241.2944742109
 30
0.0
 10
12.4423869882
 20
242.7493045163
 30
0.0
 10
15.4052953966
 20
243.9346763337
 30
0.0
 10
16.7839775204
 20
244.5750390853
 30
0.0
  0
SPLINE
  5
289
100
AcDbEntity
  8
0
100
AcDbSpline
 62
7
  6
CONTINUOUS
 70
0
 71
3
 72
9
 73
5
 74
0
 42
0.0000001
 43
0.0000001
 44
0.0000000001
 40
0.0
 40
0.0
 40
0.0
 40
0.0
 40
0.5132620111
 40
1.0
 40
1.0
 40
1.0
 40
1.0
 10
-31.0289926275
 20
274.0004780422
 30
0.0
 10
-31.1595087182
 20
274.0361351784
 30
0.0
 10
-31.4229576329
 20
274.0775614218
 30
0.0
 10
-31.6887649522
 20
274.0465019161
 30
0.0
 10
-31.8126949779
 20
274.0132736482
 30
0.0
  0
SPLINE
  5
28A
100
AcDbEntity
  8
0
100
AcDbSpline
 62
7
  6
CONTINUOUS
 70
0
 71
3
 72
9
 73
5
 74
0
 42
0.0000001
 43
0.0000001
 44
0.0000000001
 40
0.0
 40
0.0
 40
0.0
 40
0.0
 40
0.520257747
 40
1.0
 40
1.0
 40
1.0
 40
1.0
 10
-31.9729283222
 20
272.5564504565
 30
0.0
 10
-34.0716281446
 20
272.2248945064
 30
0.0
 10
-38.0830710158
 20
271.4320037986
 30
0.0
 10
-42.0085848142
 20
270.2753404674
 30
0.0
 10
-43.8519398766
 20
269.6114466655
 30
0.0
  0
SPLINE
  5
28B
100
AcDbEntity
  8
0
100
AcDbSpline
 62
7
  6
CONTINUOUS
 70
0
 71
3
 72
12
 73
8
 74
0
 42
0.0000001
 43
0.0000001
 44
0.0000000001
 40
0.0
 40
0.0
 40
0.0
 40
0.0
 40
0.2816735293
 40
0.5373322833
 40
0.773613292
 40
0.8872411664
 40
1.0
 40
1.0
 40
1.0
 40
1.0
 10
-48.4584662465
 20
267.6466131775
 30
0.0
 10
-49.6077004958
 20
267.065556595
 30
0.0
 10
-51.7421444328
 20
265.8321549919
 30
0.0
 10
-54.5135576162
 20
263.6087771943
 30
0.0
 10
-56.2909306916
 20
261.4469979777
 30
0.0
 10
-57.2745534681
 20
259.566883714
 30
0.0
 10
-57.6091426392
 20
258.5817252421
 30
0.0
 10
-57.7337690297
 20
258.081497106
 30
0.0
  0
SPLINE
  5
28C
100
AcDbEntity
  8
0
100
AcDbSpline
 62
7
  6
CONTINUOUS
 70
0
 71
3
 72
19
 73
15
 74
0
 42
0.0000001
 43
0.0000001
 44
0.0000000001
 40
0.0
 40
0.0
 40
0.0
 40
0.0
 40
0.0419864224
 40
0.0850468045
 40
0.1303183436
 40
0.1786034047
 40
0.2305931385
 40
0.2866053674
 40
0.3466813674
 40
0.4106477609
 40
0.5486713303
 40
0.6965584975
 40
0.8489419152
 40
1.0
 40
1.0
 40
1.0
 40
1.0
 10
22.6304146738
 20
258.0817803551
 30
0.0
 10
22.4414868064
 20
258.8400003372
 30
0.0
 10
21.8602383884
 20
260.331593872
 30
0.0
 10
20.4959804561
 20
262.354813182
 30
0.0
 10
18.7150159518
 20
264.1849300552
 30
0.0
 10
16.5595769649
 20
265.8375840652
 30
0.0
 10
14.0593879004
 20
267.3339839231
 30
0.0
 10
11.2321918247
 20
268.6815255998
 30
0.0
 10
8.1001791914
 20
269.8813423779
 30
0.0
 10
3.4350019826
 20
271.314252304
 30
0.0
 10
-2.9506877055
 20
272.6582862613
 30
0.0
 10
-11.068287414
 20
273.5614255336
 30
0.0
 10
-19.4755857323
 20
273.7565310903
 30
0.0
 10
-25.1205575124
 20
273.4031275676
 30
0.0
 10
-27.9151917035
 20
273.0972775151
 30
0.0
  0
LINE
  5
28D
100
AcDbEntity
  8
0
100
AcDbLine
 62
7
  6
CONTINUOUS
 10
-27.9151917035
 20
273.0972775151
 11
-28.0338785366
 21
273.0842080859
  0
SPLINE
  5
28E
100
AcDbEntity
  8
0
100
AcDbSpline
 62
7
  6
CONTINUOUS
 70
0
 71
3
 72
17
 73
13
 74
0
 42
0.0000001
 43
0.0000001
 44
0.0000000001
 40
0.0
 40
0.0
 40
0.0
 40
0.0
 40
0.1757676597
 40
0.3392781217
 40
0.4882099908
 40
0.6208956257
 40
0.7366014509
 40
0.7882846025
 40
0.8361282992
 40
0.9219208372
 40
0.9614930776
 40
1.0
 40
1.0
 40
1.0
 40
1.0
 10
-0.9346397478
 20
236.6753397985
 30
0.0
 10
0.8144408799
 20
236.9804548137
 30
0.0
 10
4.1733978152
 20
237.6768414033
 30
0.0
 10
8.9202023344
 20
239.0320913417
 30
0.0
 10
13.1274942888
 20
240.6383893371
 30
0.0
 10
16.7115348454
 20
242.4635816085
 30
0.0
 10
19.2129874884
 20
244.2011511656
 30
0.0
 10
20.8063253276
 20
245.6867031319
 30
0.0
 10
22.0305256168
 20
247.104955501
 30
0.0
 10
22.9271627379
 20
248.6426158578
 30
0.0
 10
23.374846368
 20
250.2439651341
 30
0.0
 10
23.4483413565
 20
251.034534958
 30
0.0
 10
23.4483507145
 20
251.4235075479
 30
0.0
  0
SPLINE
  5
28F
100
AcDbEntity
  8
0
100
AcDbSpline
 62
7
  6
CONTINUOUS
 70
0
 71
3
 72
20
 73
16
 74
0
 42
0.0000001
 43
0.0000001
 44
0.0000000001
 40
0.0
 40
0.0
 40
0.0
 40
0.0
 40
0.0321729393
 40
0.0665998375
 40
0.1050349794
 40
0.1485701427
 40
0.1977289049
 40
0.2526168426
 40
0.3130415264
 40
0.3785942701
 40
0.4487049339
 40
0.5226811807
 40
0.6789750513
 40
0.8405547583
 40
1.0
 40
1.0
 40
1.0
 40
1.0
 10
-58.5516291778
 20
251.4235074124
 30
0.0
 10
-58.5516202148
 20
250.7889280717
 30
0.0
 10
-58.3478269872
 20
249.4683972956
 30
0.0
 10
-57.4632869956
 20
247.5710829613
 30
0.0
 10
-56.0355368756
 20
245.753033249
 30
0.0
 10
-54.0944179898
 20
244.0281240456
 30
0.0
 10
-51.6662710195
 20
242.4095329504
 30
0.0
 10
-48.7813465479
 20
240.9145855376
 30
0.0
 10
-45.476267345
 20
239.5614748688
 30
0.0
 10
-41.7941382803
 20
238.3679540856
 30
0.0
 10
-37.7837705464
 20
237.3499648837
 30
0.0
 10
-31.9641078036
 20
236.2253315114
 30
0.0
 10
-24.2692808296
 20
235.3639335515
 30
0.0
 10
-14.8449802269
 20
235.1824269997
 30
0.0
 10
-8.5179006714
 20
235.634951853
 30
0.0
 10
-5.3962033348
 20
236.0162624557
 30
0.0
  0
SPLINE
  5
290
100
AcDbEntity
  8
0
100
AcDbSpline
 62
7
  6
CONTINUOUS
 70
0
 71
3
 72
11
 73
7
 74
0
 42
0.0000001
 43
0.0000001
 44
0.0000000001
 40
0.0
 40
0.0
 40
0.0
 40
0.0
 40
0.3018048983
 40
0.5648054422
 40
0.7930857525
 40
1.0
 40
1.0
 40
1.0
 40
1.0
 10
-53.0751215748
 20
266.646466028
 30
0.0
 10
-53.0264340884
 20
266.9057550727
 30
0.0
 10
-52.8989822491
 20
267.3858242421
 30
0.0
 10
-52.5870421969
 20
268.0118161233
 30
0.0
 10
-52.1714606081
 20
268.4721609292
 30
0.0
 10
-51.822108382
 20
268.6496291973
 30
0.0
 10
-51.647406404
 20
268.6964705025
 30
0.0
  0
SPLINE
  5
291
100
AcDbEntity
  8
0
100
AcDbSpline
 62
7
  6
CONTINUOUS
 70
0
 71
3
 72
24
 73
20
 74
0
 42
0.0000001
 43
0.0000001
 44
0.0000000001
 40
0.0
 40
0.0
 40
0.0
 40
0.0
 40
0.0139529202
 40
0.0213080124
 40
0.0358746556
 40
0.0551812863
 40
0.0775798307
 40
0.1020643572
 40
0.1280789161
 40
0.1552886739
 40
0.1834749128
 40
0.2422114201
 40
0.303498877
 40
0.366868873
 40
0.4320171692
 40
0.5668542016
 40
0.7068852849
 40
0.8514224568
 40
1.0
 40
1.0
 40
1.0
 40
1.0
 10
-46.8040144885
 20
268.1483493691
 30
0.0
 10
-46.8198171307
 20
268.150645746
 30
0.0
 10
-46.8459321619
 20
268.1540914177
 30
0.0
 10
-46.8723436089
 20
268.1916275366
 30
0.0
 10
-46.8425932919
 20
268.2389190177
 30
0.0
 10
-46.7987566227
 20
268.2818474835
 30
0.0
 10
-46.7384479536
 20
268.3296110063
 30
0.0
 10
-46.670015758
 20
268.3767990185
 30
0.0
 10
-46.594776938
 20
268.4244328994
 30
0.0
 10
-46.5146350661
 20
268.4719182089
 30
0.0
 10
-46.4007952361
 20
268.5360028904
 30
0.0
 10
-46.2507864586
 20
268.6152295855
 30
0.0
 10
-46.0628101097
 20
268.7086340887
 30
0.0
 10
-45.8664337663
 20
268.8015225472
 30
0.0
 10
-45.5919597298
 20
268.9260709053
 30
0.0
 10
-45.2343777329
 20
269.0796757099
 30
0.0
 10
-44.7894882366
 20
269.2599342094
 30
0.0
 10
-44.3268513701
 20
269.4380541109
 30
0.0
 10
-44.0119885916
 20
269.5538265541
 30
0.0
 10
-43.8520036346
 20
269.6114372954
 30
0.0
  0
SPLINE
  5
292
100
AcDbEntity
  8
0
100
AcDbSpline
 62
7
  6
CONTINUOUS
 70
0
 71
3
 72
9
 73
5
 74
0
 42
0.0000001
 43
0.0000001
 44
0.0000000001
 40
0.0
 40
0.0
 40
0.0
 40
0.0
 40
0.4751810316
 40
1.0
 40
1.0
 40
1.0
 40
1.0
 10
16.7839775204
 20
246.0044861577
 30
0.0
 10
15.2363812207
 20
245.2856670712
 30
0.0
 10
11.8867138054
 20
243.9704707096
 30
0.0
 10
8.4338091316
 20
242.9685422782
 30
0.0
 10
6.6055958494
 20
242.510835873
 30
0.0
  0
SPLINE
  5
293
100
AcDbEntity
  8
0
100
AcDbSpline
 62
7
  6
CONTINUOUS
 70
0
 71
3
 72
9
 73
5
 74
0
 42
0.0000001
 43
0.0000001
 44
0.0000000001
 40
0.0
 40
0.0
 40
0.0
 40
0.0
 40
0.2409317612
 40
1.0
 40
1.0
 40
1.0
 40
1.0
 10
6.6055958494
 20
242.510835873
 30
0.0
 10
5.839788139
 20
242.3191103792
 30
0.0
 10
2.6488115663
 20
241.5734173528
 30
0.0
 10
-0.5855663349
 20
241.0178664987
 30
0.0
 10
-3.0507339059
 20
240.6876830126
 30
0.0
  0
SPLINE
  5
294
100
AcDbEntity
  8
0
100
AcDbSpline
 62
7
  6
CONTINUOUS
 70
0
 71
3
 72
15
 73
11
 74
0
 42
0.0000001
 43
0.0000001
 44
0.0000000001
 40
0.0
 40
0.0
 40
0.0
 40
0.0
 40
0.0965787181
 40
0.2054137914
 40
0.3249581583
 40
0.4531213488
 40
0.5874515365
 40
0.7252593369
 40
0.8637193355
 40
1.0
 40
1.0
 40
1.0
 40
1.0
 10
-48.9109025109
 20
250.2327898871
 30
0.0
 10
-47.7202715247
 20
249.5451035416
 30
0.0
 10
-45.0756484365
 20
248.2748960182
 30
0.0
 10
-40.7063374787
 20
246.7352791066
 30
0.0
 10
-35.7828606931
 20
245.4765301571
 30
0.0
 10
-30.4223686842
 20
244.529980508
 30
0.0
 10
-24.7522733381
 20
243.9187143259
 30
0.0
 10
-18.9087838168
 20
243.6580477868
 30
0.0
 10
-13.0328189668
 20
243.7543201759
 30
0.0
 10
-9.130220757
 20
244.0594686208
 30
0.0
 10
-7.2019974958
 20
244.2745673679
 30
0.0
  0
SPLINE
  5
295
100
AcDbEntity
  8
0
100
AcDbSpline
 62
7
  6
CONTINUOUS
 70
0
 71
3
 72
10
 73
6
 74
0
 42
0.0000001
 43
0.0000001
 44
0.0000000001
 40
0.0
 40
0.0
 40
0.0
 40
0.0
 40
0.5373775197
 40
0.7844933136
 40
1.0
 40
1.0
 40
1.0
 40
1.0
 10
-5.7646768373
 20
241.3372482736
 30
0.0
 10
-5.8443228006
 20
241.9278240574
 30
0.0
 10
-6.1028335355
 20
242.7799254048
 30
0.0
 10
-6.6718183642
 20
243.7354966911
 30
0.0
 10
-7.0187060416
 20
244.1212081909
 30
0.0
 10
-7.2019961386
 20
244.2745659808
 30
0.0
  0
SPLINE
  5
296
100
AcDbEntity
  8
0
100
AcDbSpline
 62
7
  6
CONTINUOUS
 70
0
 71
3
 72
15
 73
11
 74
0
 42
0.0000001
 43
0.0000001
 44
0.0000000001
 40
0.0
 40
0.0
 40
0.0
 40
0.0
 40
0.0965634521
 40
0.2055465671
 40
0.3253375041
 40
0.4537656997
 40
0.5882838321
 40
0.7261106237
 40
0.8643231587
 40
1.0
 40
1.0
 40
1.0
 40
1.0
 10
-50.9193126184
 20
247.5872483
 30
0.0
 10
-49.6309214423
 20
246.8430915212
 30
0.0
 10
-46.7646607446
 20
245.4713636435
 30
0.0
 10
-42.0261909571
 20
243.8146008505
 30
0.0
 10
-36.6831150505
 20
242.4674241234
 30
0.0
 10
-30.866754981
 20
241.4645781356
 30
0.0
 10
-24.7197867099
 20
240.8307227961
 30
0.0
 10
-18.3945619817
 20
240.5829137233
 30
0.0
 10
-12.0486086445
 20
240.727039592
 30
0.0
 10
-7.8404328674
 20
241.0880314781
 30
0.0
 10
-5.7648286711
 20
241.3373154436
 30
0.0
  0
SPLINE
  5
297
100
AcDbEntity
  8
0
100
AcDbSpline
 62
7
  6
CONTINUOUS
 70
0
 71
3
 72
17
 73
13
 74
0
 42
0.0000001
 43
0.0000001
 44
0.0000000001
 40
0.0
 40
0.0
 40
0.0
 40
0.0
 40
0.1472347172
 40
0.2738236567
 40
0.3841283235
 40
0.4357453227
 40
0.4865805104
 40
0.5380173919
 40
0.5913803202
 40
0.7079939383
 40
0.8432098508
 40
1.0
 40
1.0
 40
1.0
 40
1.0
 10
15.0632226789
 20
251.0082943452
 30
0.0
 10
15.9153992993
 20
251.5722294486
 30
0.0
 10
17.4342554608
 20
252.7317022566
 30
0.0
 10
19.2149979508
 20
254.7440829963
 30
0.0
 10
20.1104674843
 20
256.5747325815
 30
0.0
 10
20.3939043665
 20
258.0313990576
 30
0.0
 10
20.4070007098
 20
259.1053239365
 30
0.0
 10
20.2238753448
 20
260.175666314
 30
0.0
 10
19.7074223647
 20
261.630114241
 30
0.0
 10
18.5267695923
 20
263.4250198718
 30
0.0
 10
16.4480417904
 20
265.3783239291
 30
0.0
 10
14.7499277032
 20
266.5005732071
 30
0.0
 10
13.8076187283
 20
267.0448333708
 30
0.0
  0
SPLINE
  5
298
100
AcDbEntity
  8
0
100
AcDbSpline
 62
7
  6
CONTINUOUS
 70
0
 71
3
 72
9
 73
5
 74
0
 42
0.0000001
 43
0.0000001
 44
0.0000000001
 40
0.0
 40
0.0
 40
0.0
 40
0.0
 40
0.2600618676
 40
1.0
 40
1.0
 40
1.0
 40
1.0
 10
12.6327134406
 20
249.5913703666
 30
0.0
 10
12.8494551941
 20
249.703323597
 30
0.0
 10
13.6776538798
 20
250.1437578174
 30
0.0
 10
14.4843972906
 20
250.6252517371
 30
0.0
 10
15.0632226789
 20
251.0082943452
 30
0.0
  0
SPLINE
  5
299
100
AcDbEntity
  8
0
100
AcDbSpline
 62
7
  6
CONTINUOUS
 70
0
 71
3
 72
9
 73
5
 74
0
 42
0.0000001
 43
0.0000001
 44
0.0000000001
 40
0.0
 40
0.0
 40
0.0
 40
0.0
 40
0.2414583185
 40
1.0
 40
1.0
 40
1.0
 40
1.0
 10
-46.8039098251
 20
268.1483771011
 30
0.0
 10
-46.5671347099
 20
268.2611422403
 30
0.0
 10
-45.5810968665
 20
268.7167170926
 30
0.0
 10
-44.5749212751
 20
269.1282612602
 30
0.0
 10
-43.8040283491
 20
269.4189511977
 30
0.0
  0
SPLINE
  5
29A
100
AcDbEntity
  8
0
100
AcDbSpline
 62
7
  6
CONTINUOUS
 70
0
 71
3
 72
9
 73
5
 74
0
 42
0.0000001
 43
0.0000001
 44
0.0000000001
 40
0.0
 40
0.0
 40
0.0
 40
0.0
 40
0.4758330352
 40
1.0
 40
1.0
 40
1.0
 40
1.0
 10
-43.8040283491
 20
269.4189511977
 30
0.0
 10
-41.9912133062
 20
270.1025313339
 30
0.0
 10
-38.0880255729
 20
271.2945683286
 30
0.0
 10
-34.0924553213
 20
272.1057130145
 30
0.0
 10
-31.9856529919
 20
272.4466706309
 30
0.0
  0
SPLINE
  5
29B
100
AcDbEntity
  8
0
100
AcDbSpline
 62
7
  6
CONTINUOUS
 70
0
 71
3
 72
19
 73
15
 74
0
 42
0.0000001
 43
0.0000001
 44
0.0000000001
 40
0.0
 40
0.0
 40
0.0
 40
0.0
 40
0.1523494269
 40
0.2200062144
 40
0.2823392195
 40
0.3933521999
 40
0.4443900859
 40
0.4941436189
 40
0.5441713669
 40
0.5960009814
 40
0.7098320163
 40
0.7739642422
 40
0.8435622221
 40
1.0
 40
1.0
 40
1.0
 40
1.0
 10
-48.9108976617
 20
250.2327589386
 30
0.0
 10
-49.9207757922
 20
250.8160457916
 30
0.0
 10
-51.3311927412
 20
251.7550998682
 30
0.0
 10
-52.9368425068
 20
253.2082587699
 30
0.0
 10
-54.1580473408
 20
254.5932097744
 30
0.0
 10
-55.042452124
 20
256.1044057968
 30
0.0
 10
-55.4559506451
 20
257.6812765098
 30
0.0
 10
-55.5305757716
 20
258.8408445528
 30
0.0
 10
-55.3764376867
 20
259.9985205109
 30
0.0
 10
-54.853792923
 20
261.5736026572
 30
0.0
 10
-53.8690544077
 20
263.0684219768
 30
0.0
 10
-52.5571826427
 20
264.437807189
 30
0.0
 10
-50.8558079203
 20
265.8719957375
 30
0.0
 10
-49.3820623211
 20
266.7965919616
 30
0.0
 10
-48.330920163
 20
267.3703108091
 30
0.0
  0
SPLINE
  5
29C
100
AcDbEntity
  8
0
100
AcDbSpline
 62
7
  6
CONTINUOUS
 70
0
 71
3
 72
15
 73
11
 74
0
 42
0.0000001
 43
0.0000001
 44
0.0000000001
 40
0.0
 40
0.0
 40
0.0
 40
0.0
 40
0.1362802687
 40
0.2747404041
 40
0.4125482449
 40
0.5468784883
 40
0.6750417178
 40
0.7945861229
 40
0.9034212361
 40
1.0
 40
1.0
 40
1.0
 40
1.0
 10
-27.9012105252
 20
273.0030025951
 30
0.0
 10
-25.9729964097
 20
273.2181001501
 30
0.0
 10
-22.0704120689
 20
273.5232867962
 30
0.0
 10
-16.1944598274
 20
273.619534544
 30
0.0
 10
-10.3509781734
 20
273.3588735829
 30
0.0
 10
-4.6808915895
 20
272.7476040235
 30
0.0
 10
0.6795921082
 20
271.8010549505
 30
0.0
 10
5.6030610909
 20
270.5423065485
 30
0.0
 10
9.9723653577
 20
269.0026911643
 30
0.0
 10
12.6169845294
 20
267.7324852229
 30
0.0
 10
13.8076138791
 20
267.0447998225
 30
0.0
  0
SPLINE
  5
29D
100
AcDbEntity
  8
0
100
AcDbSpline
 62
7
  6
CONTINUOUS
 70
0
 71
3
 72
11
 73
7
 74
0
 42
0.0000001
 43
0.0000001
 44
0.0000000001
 40
0.0
 40
0.0
 40
0.0
 40
0.0
 40
0.2346478694
 40
0.4706804781
 40
0.7221108044
 40
1.0
 40
1.0
 40
1.0
 40
1.0
 10
-57.7337552519
 20
258.081436758
 30
0.0
 10
-57.8725796304
 20
257.5242515831
 30
0.0
 10
-58.0060854039
 20
256.3630112835
 30
0.0
 10
-57.7082289021
 20
254.5994680802
 30
0.0
 10
-56.9263000291
 20
252.8783694419
 30
0.0
 10
-56.145080338
 20
251.8336635603
 30
0.0
 10
-55.6953024651
 20
251.3236141378
 30
0.0
  0
SPLINE
  5
29E
100
AcDbEntity
  8
0
100
AcDbSpline
 62
7
  6
CONTINUOUS
 70
0
 71
3
 72
9
 73
5
 74
0
 42
0.0000001
 43
0.0000001
 44
0.0000000001
 40
0.0
 40
0.0
 40
0.0
 40
0.0
 40
0.4657460935
 40
1.0
 40
1.0
 40
1.0
 40
1.0
 10
-55.6953024651
 20
251.3236141378
 30
0.0
 10
-55.0706607492
 20
250.6152686062
 30
0.0
 10
-53.5586458468
 20
249.2438589614
 30
0.0
 10
-51.8574151749
 20
248.1290832563
 30
0.0
 10
-50.9193126184
 20
247.5872483
 30
0.0
  0
SPLINE
  5
29F
100
AcDbEntity
  8
0
100
AcDbSpline
 62
7
  6
CONTINUOUS
 70
0
 71
3
 72
9
 73
5
 74
0
 42
0.0000001
 43
0.0000001
 44
0.0000000001
 40
0.0
 40
0.0
 40
0.0
 40
0.0
 40
0.5367767892
 40
1.0
 40
1.0
 40
1.0
 40
1.0
 10
15.3383933339
 20
247.3175760647
 30
0.0
 10
16.3780425189
 20
247.8921809031
 30
0.0
 10
18.2558338308
 20
249.0767693102
 30
0.0
 10
19.9201332042
 20
250.5608999024
 30
0.0
 10
20.597628574
 20
251.3302054032
 30
0.0
  0
SPLINE
  5
2A0
100
AcDbEntity
  8
0
100
AcDbSpline
 62
7
  6
CONTINUOUS
 70
0
 71
3
 72
11
 73
7
 74
0
 42
0.0000001
 43
0.0000001
 44
0.0000000001
 40
0.0
 40
0.0
 40
0.0
 40
0.0
 40
0.2778146533
 40
0.5292241561
 40
0.7652935318
 40
1.0
 40
1.0
 40
1.0
 40
1.0
 10
20.597628574
 20
251.3302054032
 30
0.0
 10
21.0464346386
 20
251.8398309884
 30
0.0
 10
21.8259027898
 20
252.8836835832
 30
0.0
 10
22.6058658171
 20
254.6031212976
 30
0.0
 10
22.9026409544
 20
256.3649195723
 30
0.0
 10
22.769137382
 20
257.5250152265
 30
0.0
 10
22.6304330512
 20
258.0817006516
 30
0.0
  0
SPLINE
  5
2A1
100
AcDbEntity
  8
0
100
AcDbSpline
 62
7
  6
CONTINUOUS
 70
0
 71
3
 72
9
 73
5
 74
0
 42
0.0000001
 43
0.0000001
 44
0.0000000001
 40
0.0
 40
0.0
 40
0.0
 40
0.0
 40
0.4852931626
 40
1.0
 40
1.0
 40
1.0
 40
1.0
 10
-48.4584627168
 20
267.6466352717
 30
0.0
 10
-48.351883553
 20
267.7004509745
 30
0.0
 10
-48.1056554462
 20
267.7650182115
 30
0.0
 10
-47.8565989139
 20
267.7246398375
 30
0.0
 10
-47.7359381013
 20
267.6862131711
 30
0.0
  0
SPLINE
  5
2A2
100
AcDbEntity
  8
0
100
AcDbSpline
 62
7
  6
CONTINUOUS
 70
0
 71
3
 72
19
 73
15
 74
0
 42
0.0000001
 43
0.0000001
 44
0.0000000001
 40
0.0
 40
0.0
 40
0.0
 40
0.0
 40
0.2527302125
 40
0.3799563254
 40
0.5077476318
 40
0.6360574131
 40
0.7003585965
 40
0.764681759
 40
0.8288682469
 40
0.8924626506
 40
0.9236210278
 40
0.9536612687
 40
0.9808488757
 40
1.0
 40
1.0
 40
1.0
 40
1.0
 10
-31.9729320742
 20
272.5564781084
 30
0.0
 10
-31.751719853
 20
272.5914203315
 30
0.0
 10
-31.4188330635
 20
272.6420062486
 30
0.0
 10
-30.9732721617
 20
272.7046350065
 30
0.0
 10
-30.6364808425
 20
272.7488954459
 30
0.0
 10
-30.3545681987
 20
272.7827055115
 30
0.0
 10
-30.1281954886
 20
272.8070796098
 30
0.0
 10
-29.9581301886
 20
272.8236196873
 30
0.0
 10
-29.7884951403
 20
272.8376878681
 30
0.0
 10
-29.6478450265
 20
272.846471009
 30
0.0
 10
-29.5374186323
 20
272.8499918343
 30
0.0
 10
-29.4587661806
 20
272.8503219783
 30
0.0
 10
-29.3920722011
 20
272.8459353111
 30
0.0
 10
-29.3496827248
 20
272.8398937258
 30
0.0
 10
-29.3352669262
 20
272.8309390227
 30
0.0
  0
SPLINE
  5
2A3
100
AcDbEntity
  8
0
100
AcDbSpline
 62
7
  6
CONTINUOUS
 70
0
 71
3
 72
9
 73
5
 74
0
 42
0.0000001
 43
0.0000001
 44
0.0000000001
 40
0.0
 40
0.0
 40
0.0
 40
0.0
 40
0.4867379406
 40
1.0
 40
1.0
 40
1.0
 40
1.0
 10
-51.647406404
 20
268.6964705025
 30
0.0
 10
-51.5234763895
 20
268.7296987676
 30
0.0
 10
-51.2576690723
 20
268.7607583292
 30
0.0
 10
-50.9942201579
 20
268.7193320369
 30
0.0
 10
-50.8637040537
 20
268.683674897
 30
0.0
  0
SPLINE
  5
2A4
100
AcDbEntity
  8
0
100
AcDbSpline
 62
7
  6
CONTINUOUS
 70
0
 71
3
 72
11
 73
7
 74
0
 42
0.0000001
 43
0.0000001
 44
0.0000000001
 40
0.0
 40
0.0
 40
0.0
 40
0.0
 40
0.2634102167
 40
0.5159328321
 40
0.7602045539
 40
1.0
 40
1.0
 40
1.0
 40
1.0
 10
-32.4302313706
 20
180.9893171014
 30
0.0
 10
-33.4358439041
 20
180.7197571483
 30
0.0
 10
-35.4543202217
 20
180.3530569194
 30
0.0
 10
-38.4770848959
 20
180.3679035497
 30
0.0
 10
-41.3471891976
 20
180.9630984815
 30
0.0
 10
-43.1129334598
 20
181.7433948022
 30
0.0
 10
-43.9336384969
 20
182.2174485262
 30
0.0
  0
SPLINE
  5
2A5
100
AcDbEntity
  8
0
100
AcDbSpline
 62
7
  6
CONTINUOUS
 70
0
 71
3
 72
10
 73
6
 74
0
 42
0.0000001
 43
0.0000001
 44
0.0000000001
 40
0.0
 40
0.0
 40
0.0
 40
0.0
 40
0.5353605469
 40
0.7749745723
 40
1.0
 40
1.0
 40
1.0
 40
1.0
 10
-32.4302313706
 20
202.1435329787
 30
0.0
 10
-32.434953409
 20
202.1422672104
 30
0.0
 10
-32.4406309451
 20
202.1344931454
 30
0.0
 10
-32.4372397753
 20
202.1248087591
 30
0.0
 10
-32.4322161615
 20
202.123855108
 30
0.0
 10
-32.4302313706
 20
202.1243871421
 30
0.0
  0
SPLINE
  5
2A6
100
AcDbEntity
  8
0
100
AcDbSpline
 62
7
  6
CONTINUOUS
 70
0
 71
3
 72
11
 73
7
 74
0
 42
0.0000001
 43
0.0000001
 44
0.0000000001
 40
0.0
 40
0.0
 40
0.0
 40
0.0
 40
0.2717748112
 40
0.526869873
 40
0.7676346335
 40
1.0
 40
1.0
 40
1.0
 40
1.0
 10
-29.0208779084
 20
208.7936972823
 30
0.0
 10
-29.0208779084
 20
208.3356555741
 30
0.0
 10
-28.9318229455
 20
207.4439040617
 30
0.0
 10
-28.5052974941
 20
206.2086325377
 30
0.0
 10
-27.8063401299
 20
205.1808622925
 30
0.0
 10
-27.1738019279
 20
204.6720734116
 30
0.0
 10
-26.8346708183
 20
204.4762214773
 30
0.0
  0
SPLINE
  5
2A7
100
AcDbEntity
  8
0
100
AcDbSpline
 62
7
  6
CONTINUOUS
 70
0
 71
3
 72
11
 73
7
 74
0
 42
0.0000001
 43
0.0000001
 44
0.0000000001
 40
0.0
 40
0.0
 40
0.0
 40
0.0
 40
0.2717748112
 40
0.526869873
 40
0.7676346335
 40
1.0
 40
1.0
 40
1.0
 40
1.0
 10
-46.9139653791
 20
203.9973570837
 30
0.0
 10
-46.9139653791
 20
203.5393153756
 30
0.0
 10
-46.8249104162
 20
202.6475638631
 30
0.0
 10
-46.3983849648
 20
201.4122923391
 30
0.0
 10
-45.6994276006
 20
200.3845220939
 30
0.0
 10
-45.0668893986
 20
199.875733213
 30
0.0
 10
-44.727758289
 20
199.6798812788
 30
0.0
  0
SPLINE
  5
2A8
100
AcDbEntity
  8
0
100
AcDbSpline
 62
7
  6
CONTINUOUS
 70
0
 71
3
 72
9
 73
5
 74
0
 42
0.0000001
 43
0.0000001
 44
0.0000000001
 40
0.0
 40
0.0
 40
0.0
 40
0.0
 40
0.2484591562
 40
1.0
 40
1.0
 40
1.0
 40
1.0
 10
-42.6478222031
 20
210.4308212975
 30
0.0
 10
-42.7015206095
 20
210.461844997
 30
0.0
 10
-42.9230700908
 20
210.5771634033
 30
0.0
 10
-43.1650697994
 20
210.6524650508
 30
0.0
 10
-43.349736678
 20
210.6854323123
 30
0.0
  0
SPLINE
  5
2A9
100
AcDbEntity
  8
0
100
AcDbSpline
 62
7
  6
CONTINUOUS
 70
0
 71
3
 72
15
 73
11
 74
0
 42
0.0000001
 43
0.0000001
 44
0.0000000001
 40
0.0
 40
0.0
 40
0.0
 40
0.0
 40
0.0524624705
 40
0.1056459648
 40
0.2162146438
 40
0.335328798
 40
0.4632709066
 40
0.5978578637
 40
0.7353252348
 40
1.0
 40
1.0
 40
1.0
 40
1.0
 10
-38.0257919229
 20
211.2833813113
 30
0.0
 10
-38.2299402803
 20
211.4012792261
 30
0.0
 10
-38.6639570788
 20
211.6013566483
 30
0.0
 10
-39.6094046202
 20
211.8438145594
 30
0.0
 10
-40.9057516059
 20
211.825997837
 30
0.0
 10
-42.4511191204
 20
211.3160789695
 30
0.0
 10
-43.9032965276
 20
210.373364462
 30
0.0
 10
-45.1618380814
 20
209.06812719
 30
0.0
 10
-46.4429544971
 20
207.0139021801
 30
0.0
 10
-46.9139653791
 20
205.1867059911
 30
0.0
 10
-46.9139653791
 20
203.9973570837
 30
0.0
  0
SPLINE
  5
2AA
100
AcDbEntity
  8
0
100
AcDbSpline
 62
7
  6
CONTINUOUS
 70
0
 71
3
 72
9
 73
5
 74
0
 42
0.0000001
 43
0.0000001
 44
0.0000000001
 40
0.0
 40
0.0
 40
0.0
 40
0.0
 40
0.2484591562
 40
1.0
 40
1.0
 40
1.0
 40
1.0
 10
-24.7547347324
 20
215.2271614961
 30
0.0
 10
-24.8084331388
 20
215.2581851956
 30
0.0
 10
-25.0299826201
 20
215.3735036019
 30
0.0
 10
-25.2719823287
 20
215.4488052494
 30
0.0
 10
-25.4566492073
 20
215.4817725109
 30
0.0
  0
SPLINE
  5
2AB
100
AcDbEntity
  8
0
100
AcDbSpline
 62
7
  6
CONTINUOUS
 70
0
 71
3
 72
15
 73
11
 74
0
 42
0.0000001
 43
0.0000001
 44
0.0000000001
 40
0.0
 40
0.0
 40
0.0
 40
0.0
 40
0.0524624705
 40
0.1056459648
 40
0.2162146438
 40
0.335328798
 40
0.4632709066
 40
0.5978578637
 40
0.7353252348
 40
1.0
 40
1.0
 40
1.0
 40
1.0
 10
-20.1327044522
 20
216.0797215099
 30
0.0
 10
-20.3368528096
 20
216.1976194247
 30
0.0
 10
-20.7708696081
 20
216.3976968469
 30
0.0
 10
-21.7163171495
 20
216.6401547579
 30
0.0
 10
-23.0126641352
 20
216.6223380356
 30
0.0
 10
-24.5580316497
 20
216.112419168
 30
0.0
 10
-26.0102090569
 20
215.1697046605
 30
0.0
 10
-27.2687506107
 20
213.8644673886
 30
0.0
 10
-28.5498670264
 20
211.8102423787
 30
0.0
 10
-29.0208779084
 20
209.9830461897
 30
0.0
 10
-29.0208779084
 20
208.7936972823
 30
0.0
  0
SPLINE
  5
2AC
100
AcDbEntity
  8
0
100
AcDbSpline
 62
7
  6
CONTINUOUS
 70
0
 71
3
 72
10
 73
6
 74
0
 42
0.0000001
 43
0.0000001
 44
0.0000000001
 40
0.0
 40
0.0
 40
0.0
 40
0.0
 40
0.2403281524
 40
0.485096085
 40
1.0
 40
1.0
 40
1.0
 40
1.0
 10
-31.2305684121
 20
195.3192600951
 30
0.0
 10
-31.3965146718
 20
195.4150767722
 30
0.0
 10
-31.7536480544
 20
195.572773633
 30
0.0
 10
-32.5385525054
 20
195.7362036131
 30
0.0
 10
-33.1597113256
 20
195.6738556867
 30
0.0
 10
-33.5562624495
 20
195.5675579838
 30
0.0
  0
SPLINE
  5
2AD
100
AcDbEntity
  8
0
100
AcDbSpline
 62
7
  6
CONTINUOUS
 70
0
 71
3
 72
12
 73
8
 74
0
 42
0.0000001
 43
0.0000001
 44
0.0000000001
 40
0.0
 40
0.0
 40
0.0
 40
0.0
 40
0.2349899833
 40
0.4894752595
 40
0.6202667695
 40
0.7503904793
 40
1.0
 40
1.0
 40
1.0
 40
1.0
 10
-33.5562624495
 20
195.5675579838
 30
0.0
 10
-34.0834224263
 20
195.4262498618
 30
0.0
 10
-35.1225640523
 20
194.8953602851
 30
0.0
 10
-36.1411904808
 20
193.8454786968
 30
0.0
 10
-36.7708816465
 20
192.8226501992
 30
0.0
 10
-37.2377990041
 20
191.7299939648
 30
0.0
 10
-37.3992377875
 20
190.8422463769
 30
0.0
 10
-37.3992377883
 20
190.2625214287
 30
0.0
  0
SPLINE
  5
2AE
100
AcDbEntity
  8
0
100
AcDbSpline
 62
7
  6
CONTINUOUS
 70
0
 71
3
 72
11
 73
7
 74
0
 42
0.0000001
 43
0.0000001
 44
0.0000000001
 40
0.0
 40
0.0
 40
0.0
 40
0.0
 40
0.2717668072
 40
0.5268680782
 40
0.7676307415
 40
1.0
 40
1.0
 40
1.0
 40
1.0
 10
-37.3992377883
 20
190.2625214287
 30
0.0
 10
-37.3992377888
 20
189.9446350951
 30
0.0
 10
-37.3374230524
 20
189.3257367701
 30
0.0
 10
-37.0414354448
 20
188.4684074079
 30
0.0
 10
-36.5563188657
 20
187.7551094715
 30
0.0
 10
-36.1173400768
 20
187.4019534691
 30
0.0
 10
-35.8819564869
 20
187.2660439675
 30
0.0
  0
SPLINE
  5
2AF
100
AcDbEntity
  8
0
100
AcDbSpline
 62
7
  6
CONTINUOUS
 70
0
 71
3
 72
9
 73
5
 74
0
 42
0.0000001
 43
0.0000001
 44
0.0000000001
 40
0.0
 40
0.0
 40
0.0
 40
0.0
 40
0.2532875435
 40
1.0
 40
1.0
 40
1.0
 40
1.0
 10
-28.9790390107
 20
209.3889527831
 30
0.0
 10
-28.9382291719
 20
209.3403370366
 30
0.0
 10
-28.7692315278
 20
209.1551634386
 30
0.0
 10
-28.5678401982
 20
208.9994524273
 30
0.0
 10
-28.4058114719
 20
208.9058420047
 30
0.0
  0
SPLINE
  5
2B0
100
AcDbEntity
  8
0
100
AcDbSpline
 62
7
  6
CONTINUOUS
 70
0
 71
3
 72
9
 73
5
 74
0
 42
0.0000001
 43
0.0000001
 44
0.0000000001
 40
0.0
 40
0.0
 40
0.0
 40
0.0
 40
0.2532875435
 40
1.0
 40
1.0
 40
1.0
 40
1.0
 10
-46.8721264814
 20
204.5926125845
 30
0.0
 10
-46.8313166426
 20
204.543996838
 30
0.0
 10
-46.6623189985
 20
204.35882324
 30
0.0
 10
-46.4609276689
 20
204.2031122287
 30
0.0
 10
-46.2988989426
 20
204.1095018061
 30
0.0
  0
SPLINE
  5
2B1
100
AcDbEntity
  8
0
100
AcDbSpline
 62
7
  6
CONTINUOUS
 70
0
 71
3
 72
20
 73
16
 74
0
 42
0.0000001
 43
0.0000001
 44
0.0000000001
 40
0.0
 40
0.0
 40
0.0
 40
0.0
 40
0.0524886411
 40
0.1058788268
 40
0.1609446315
 40
0.2182401334
 40
0.3400761484
 40
0.4047856415
 40
0.4714397679
 40
0.6080573063
 40
0.7449175043
 40
0.8118575954
 40
0.8769396555
 40
0.9397340308
 40
1.0
 40
1.0
 40
1.0
 40
1.0
 10
-20.9268242444
 20
222.0504715946
 30
0.0
 10
-20.1404062578
 20
221.5962226764
 30
0.0
 10
-18.6444872342
 20
220.5126313444
 30
0.0
 10
-16.7531243099
 20
218.4452219881
 30
0.0
 10
-15.2489025901
 20
215.9833449414
 30
0.0
 10
-13.777320163
 20
212.1890591886
 30
0.0
 10
-13.261993949
 20
207.9241637073
 30
0.0
 10
-13.6258906887
 20
203.5506902788
 30
0.0
 10
-14.6047478584
 20
199.0059407574
 30
0.0
 10
-16.9037334455
 20
193.5244635418
 30
0.0
 10
-20.4091891436
 20
188.7175100661
 30
0.0
 10
-23.7975317254
 20
185.5142368407
 30
0.0
 10
-26.5314494075
 20
183.5248542226
 30
0.0
 10
-29.4091330351
 20
181.9813103747
 30
0.0
 10
-31.4230396463
 20
181.2593003652
 30
0.0
 10
-32.4302313706
 20
180.9893171014
 30
0.0
  0
SPLINE
  5
2B2
100
AcDbEntity
  8
0
100
AcDbSpline
 62
7
  6
CONTINUOUS
 70
0
 71
3
 72
14
 73
10
 74
0
 42
0.0000001
 43
0.0000001
 44
0.0000000001
 40
0.0
 40
0.0
 40
0.0
 40
0.0
 40
0.2346073929
 40
0.3603379301
 40
0.4894684284
 40
0.6200482101
 40
0.7499714674
 40
0.8772023527
 40
1.0
 40
1.0
 40
1.0
 40
1.0
 10
-32.4302313706
 20
196.7558525718
 30
0.0
 10
-33.1841091076
 20
196.5537715112
 30
0.0
 10
-34.2828368815
 20
195.9921758294
 30
0.0
 10
-35.5144424068
 20
194.9224001336
 30
0.0
 10
-36.3456142866
 20
193.9384516795
 30
0.0
 10
-37.0274452106
 20
192.8306982887
 30
0.0
 10
-37.5357958778
 20
191.6397729564
 30
0.0
 10
-37.8511390172
 20
190.4107435014
 30
0.0
 10
-37.9260993277
 20
189.5776033459
 30
0.0
 10
-37.9260993283
 20
189.1690798544
 30
0.0
  0
SPLINE
  5
2B3
100
AcDbEntity
  8
0
100
AcDbSpline
 62
7
  6
CONTINUOUS
 70
0
 71
3
 72
14
 73
10
 74
0
 42
0.0000001
 43
0.0000001
 44
0.0000000001
 40
0.0
 40
0.0
 40
0.0
 40
0.0
 40
0.2686164723
 40
0.3932530389
 40
0.5129262831
 40
0.6303784462
 40
0.7488454196
 40
0.8713344666
 40
1.0
 40
1.0
 40
1.0
 40
1.0
 10
-37.9260993283
 20
189.1690798544
 30
0.0
 10
-37.9260993294
 20
188.4136220211
 30
0.0
 10
-37.7375420346
 20
187.2847973811
 30
0.0
 10
-37.0421893764
 20
186.0085517955
 30
0.0
 10
-36.3492671591
 20
185.2486149909
 30
0.0
 10
-35.4996436936
 20
184.6999245762
 30
0.0
 10
-34.5299112159
 20
184.3864309119
 30
0.0
 10
-33.4830021671
 20
184.3192560618
 30
0.0
 10
-32.7797513838
 20
184.4350114573
 30
0.0
 10
-32.4302313706
 20
184.5287022132
 30
0.0
  0
SPLINE
  5
2B4
100
AcDbEntity
  8
0
100
AcDbSpline
 62
7
  6
CONTINUOUS
 70
0
 71
3
 72
9
 73
5
 74
0
 42
0.0000001
 43
0.0000001
 44
0.0000000001
 40
0.0
 40
0.0
 40
0.0
 40
0.0
 40
0.4829031774
 40
1.0
 40
1.0
 40
1.0
 40
1.0
 10
-43.511626172
 20
210.5578032498
 30
0.0
 10
-43.3886049848
 20
210.3388913926
 30
0.0
 10
-43.2018683972
 20
209.8454995169
 30
0.0
 10
-43.1458781617
 20
209.3232121889
 30
0.0
 10
-43.1458781617
 20
209.054320655
 30
0.0
  0
SPLINE
  5
2B5
100
AcDbEntity
  8
0
100
AcDbSpline
 62
7
  6
CONTINUOUS
 70
0
 71
3
 72
14
 73
10
 74
0
 42
0.0000001
 43
0.0000001
 44
0.0000000001
 40
0.0
 40
0.0
 40
0.0
 40
0.0
 40
0.2346073929
 40
0.3603379301
 40
0.4894684284
 40
0.6200482101
 40
0.7499714674
 40
0.8772023527
 40
1.0
 40
1.0
 40
1.0
 40
1.0
 10
-32.4302313706
 20
184.5287022132
 30
0.0
 10
-31.6763536337
 20
184.7307832739
 30
0.0
 10
-30.5776258597
 20
185.2923789556
 30
0.0
 10
-29.3460203345
 20
186.3621546514
 30
0.0
 10
-28.5148484547
 20
187.3461031055
 30
0.0
 10
-27.8330175306
 20
188.4538564964
 30
0.0
 10
-27.3246668635
 20
189.6447818286
 30
0.0
 10
-27.0093237242
 20
190.8738112836
 30
0.0
 10
-26.9343634133
 20
191.7069514391
 30
0.0
 10
-26.9343634129
 20
192.1154749306
 30
0.0
  0
SPLINE
  5
2B6
100
AcDbEntity
  8
0
100
AcDbSpline
 62
7
  6
CONTINUOUS
 70
0
 71
3
 72
11
 73
7
 74
0
 42
0.0000001
 43
0.0000001
 44
0.0000000001
 40
0.0
 40
0.0
 40
0.0
 40
0.0
 40
0.2634102167
 40
0.5159328321
 40
0.7602045539
 40
1.0
 40
1.0
 40
1.0
 40
1.0
 10
-32.4302313706
 20
223.2786030194
 30
0.0
 10
-31.4246188371
 20
223.5481629725
 30
0.0
 10
-29.4061425195
 20
223.9148632014
 30
0.0
 10
-26.3833778454
 20
223.900016571
 30
0.0
 10
-23.5132735436
 20
223.3048216393
 30
0.0
 10
-21.7475292814
 20
222.5245253186
 30
0.0
 10
-20.9268242444
 20
222.0504715946
 30
0.0
  0
SPLINE
  5
2B7
100
AcDbEntity
  8
0
100
AcDbSpline
 62
7
  6
CONTINUOUS
 70
0
 71
3
 72
9
 73
5
 74
0
 42
0.0000001
 43
0.0000001
 44
0.0000000001
 40
0.0
 40
0.0
 40
0.0
 40
0.0
 40
0.4806659377
 40
1.0
 40
1.0
 40
1.0
 40
1.0
 10
-39.7926898996
 20
211.8156084285
 30
0.0
 10
-39.506075988
 20
211.3878888753
 30
0.0
 10
-39.0658574754
 20
210.3883244035
 30
0.0
 10
-38.9361702997
 20
209.3107259563
 30
0.0
 10
-38.9361702997
 20
208.7544357632
 30
0.0
  0
SPLINE
  5
2B8
100
AcDbEntity
  8
0
100
AcDbSpline
 62
7
  6
CONTINUOUS
 70
0
 71
3
 72
15
 73
11
 74
0
 42
0.0000001
 43
0.0000001
 44
0.0000000001
 40
0.0
 40
0.0
 40
0.0
 40
0.0
 40
0.0524624705
 40
0.1056459648
 40
0.2162146438
 40
0.335328798
 40
0.4632709066
 40
0.5978578637
 40
0.7353252348
 40
1.0
 40
1.0
 40
1.0
 40
1.0
 10
-44.727758289
 20
199.6798812788
 30
0.0
 10
-44.5236099317
 20
199.561983364
 30
0.0
 10
-44.0895931332
 20
199.3619059418
 30
0.0
 10
-43.1441455918
 20
199.1194480307
 30
0.0
 10
-41.8477986061
 20
199.1372647531
 30
0.0
 10
-40.3024310915
 20
199.6471836206
 30
0.0
 10
-38.8502536844
 20
200.5898981281
 30
0.0
 10
-37.5917121305
 20
201.8951354001
 30
0.0
 10
-36.3105957149
 20
203.94936041
 30
0.0
 10
-35.8395848328
 20
205.776556599
 30
0.0
 10
-35.8395848328
 20
206.9659055064
 30
0.0
  0
SPLINE
  5
2B9
100
AcDbEntity
  8
0
100
AcDbSpline
 62
7
  6
CONTINUOUS
 70
0
 71
3
 72
14
 73
10
 74
0
 42
0.0000001
 43
0.0000001
 44
0.0000000001
 40
0.0
 40
0.0
 40
0.0
 40
0.0
 40
0.1052606084
 40
0.2158761655
 40
0.3350397352
 40
0.4630361372
 40
0.5976782612
 40
0.7352099669
 40
1.0
 40
1.0
 40
1.0
 40
1.0
 10
-28.4058114719
 20
208.9058420047
 30
0.0
 10
-28.1827876351
 20
208.7769922872
 30
0.0
 10
-27.6712790851
 20
208.5976829092
 30
0.0
 10
-26.8374259825
 20
208.6105701155
 30
0.0
 10
-25.9948756392
 20
208.8879265698
 30
0.0
 10
-25.2039806094
 20
209.4016225307
 30
0.0
 10
-24.5182906554
 20
210.1126426156
 30
0.0
 10
-23.8203593089
 20
211.2317411975
 30
0.0
 10
-23.5637440727
 20
212.2271665662
 30
0.0
 10
-23.5637440727
 20
212.8750988954
 30
0.0
  0
SPLINE
  5
2BA
100
AcDbEntity
  8
0
100
AcDbSpline
 62
7
  6
CONTINUOUS
 70
0
 71
3
 72
11
 73
7
 74
0
 42
0.0000001
 43
0.0000001
 44
0.0000000001
 40
0.0
 40
0.0
 40
0.0
 40
0.0
 40
0.2717668071
 40
0.5268680781
 40
0.7676307415
 40
1.0
 40
1.0
 40
1.0
 40
1.0
 10
-29.7132871107
 20
192.3227826407
 30
0.0
 10
-29.7132871108
 20
192.6406689736
 30
0.0
 10
-29.7751018477
 20
193.2595672973
 30
0.0
 10
-30.0710894557
 20
194.1168966575
 30
0.0
 10
-30.5562060344
 20
194.8301945922
 30
0.0
 10
-30.9951848226
 20
195.1833505938
 30
0.0
 10
-31.2305684121
 20
195.3192600951
 30
0.0
  0
SPLINE
  5
2BB
100
AcDbEntity
  8
0
100
AcDbSpline
 62
7
  6
CONTINUOUS
 70
0
 71
3
 72
11
 73
7
 74
0
 42
0.0000001
 43
0.0000001
 44
0.0000000001
 40
0.0
 40
0.0
 40
0.0
 40
0.0
 40
0.2717748112
 40
0.526869873
 40
0.7676346335
 40
1.0
 40
1.0
 40
1.0
 40
1.0
 10
-17.9464973621
 20
211.762245705
 30
0.0
 10
-17.9464973621
 20
212.2202874131
 30
0.0
 10
-18.0355523251
 20
213.1120389256
 30
0.0
 10
-18.4620777765
 20
214.3473104496
 30
0.0
 10
-19.1610351407
 20
215.3750806948
 30
0.0
 10
-19.7935733427
 20
215.8838695757
 30
0.0
 10
-20.1327044522
 20
216.0797215099
 30
0.0
  0
SPLINE
  5
2BC
100
AcDbEntity
  8
0
100
AcDbSpline
 62
7
  6
CONTINUOUS
 70
0
 71
3
 72
10
 73
6
 74
0
 42
0.0000001
 43
0.0000001
 44
0.0000000001
 40
0.0
 40
0.0
 40
0.0
 40
0.0
 40
0.5353254329
 40
0.7749483618
 40
1.0
 40
1.0
 40
1.0
 40
1.0
 10
-32.4302313706
 20
202.1243871421
 30
0.0
 10
-32.425507613
 20
202.1256533712
 30
0.0
 10
-32.4198245256
 20
202.1334263131
 30
0.0
 10
-32.423217863
 20
202.1431195382
 30
0.0
 10
-32.4282454956
 20
202.1440653034
 30
0.0
 10
-32.4302313706
 20
202.1435329787
 30
0.0
  0
SPLINE
  5
2BD
100
AcDbEntity
  8
0
100
AcDbSpline
 62
7
  6
CONTINUOUS
 70
0
 71
3
 72
12
 73
8
 74
0
 42
0.0000001
 43
0.0000001
 44
0.0000000001
 40
0.0
 40
0.0
 40
0.0
 40
0.0
 40
0.2349899832
 40
0.4894752595
 40
0.6202667695
 40
0.7503904793
 40
1.0
 40
1.0
 40
1.0
 40
1.0
 10
-33.5562624557
 20
187.0177460772
 30
0.0
 10
-33.0291024777
 20
187.1590541981
 30
0.0
 10
-31.9899608493
 20
187.6899437755
 30
0.0
 10
-30.9713344184
 20
188.7398253652
 30
0.0
 10
-30.3416432516
 20
189.7626538649
 30
0.0
 10
-29.8747258937
 20
190.8553101017
 30
0.0
 10
-29.7132871104
 20
191.7430576915
 30
0.0
 10
-29.7132871107
 20
192.3227826407
 30
0.0
  0
SPLINE
  5
2BE
100
AcDbEntity
  8
0
100
AcDbSpline
 62
7
  6
CONTINUOUS
 70
0
 71
3
 72
9
 73
5
 74
0
 42
0.0000001
 43
0.0000001
 44
0.0000000001
 40
0.0
 40
0.0
 40
0.0
 40
0.0
 40
0.4829031774
 40
1.0
 40
1.0
 40
1.0
 40
1.0
 10
-25.6185387013
 20
215.3541434484
 30
0.0
 10
-25.4955175141
 20
215.1352315912
 30
0.0
 10
-25.3087809265
 20
214.6418397155
 30
0.0
 10
-25.252790691
 20
214.1195523875
 30
0.0
 10
-25.252790691
 20
213.8506608536
 30
0.0
  0
SPLINE
  5
2BF
100
AcDbEntity
  8
0
100
AcDbSpline
 62
7
  6
CONTINUOUS
 70
0
 71
3
 72
12
 73
8
 74
0
 42
0.0000001
 43
0.0000001
 44
0.0000000001
 40
0.0
 40
0.0
 40
0.0
 40
0.0
 40
0.2497031857
 40
0.3798777046
 40
0.510702578
 40
0.765170184
 40
1.0
 40
1.0
 40
1.0
 40
1.0
 10
-33.3728881169
 20
194.4365002169
 30
0.0
 10
-33.3728881169
 20
193.8552053752
 30
0.0
 10
-33.5352056708
 20
192.965026674
 30
0.0
 10
-34.0044721437
 20
191.8698972431
 30
0.0
 10
-34.6371320864
 20
190.8454018925
 30
0.0
 10
-35.6600501367
 20
189.7952290852
 30
0.0
 10
-36.703174721
 20
189.2664885908
 30
0.0
 10
-37.2318128146
 20
189.1272392419
 30
0.0
  0
SPLINE
  5
2C0
100
AcDbEntity
  8
0
100
AcDbSpline
 62
7
  6
CONTINUOUS
 70
0
 71
3
 72
14
 73
10
 74
0
 42
0.0000001
 43
0.0000001
 44
0.0000000001
 40
0.0
 40
0.0
 40
0.0
 40
0.0
 40
0.255849667
 40
0.3892373421
 40
0.5220152326
 40
0.6512958811
 40
0.774721374
 40
0.8909354277
 40
1.0
 40
1.0
 40
1.0
 40
1.0
 10
-21.043082829
 20
213.5507759617
 30
0.0
 10
-21.043082829
 20
212.5594209178
 30
0.0
 10
-21.3708290881
 20
211.0383456728
 30
0.0
 10
-22.2930310942
 20
209.2321333164
 30
0.0
 10
-23.2210308316
 20
208.0015895696
 30
0.0
 10
-24.3263344471
 20
206.984492081
 30
0.0
 10
-25.5541674989
 20
206.2326943089
 30
0.0
 10
-26.8419157093
 20
205.7877327057
 30
0.0
 10
-27.7238882739
 20
205.7134396052
 30
0.0
 10
-28.1457348231
 20
205.7386402954
 30
0.0
  0
SPLINE
  5
2C1
100
AcDbEntity
  8
0
100
AcDbSpline
 62
7
  6
CONTINUOUS
 70
0
 71
3
 72
11
 73
7
 74
0
 42
0.0000001
 43
0.0000001
 44
0.0000000001
 40
0.0
 40
0.0
 40
0.0
 40
0.0
 40
0.2717572078
 40
0.5268814843
 40
0.7676360802
 40
1.0
 40
1.0
 40
1.0
 40
1.0
 10
-23.5637440727
 20
212.8750988954
 30
0.0
 10
-23.5637440727
 20
213.1246129106
 30
0.0
 10
-23.6122855226
 20
213.610421903
 30
0.0
 10
-23.8445883959
 20
214.2833907305
 30
0.0
 10
-24.2254138569
 20
214.843293179
 30
0.0
 10
-24.570003657
 20
215.1204350258
 30
0.0
 10
-24.7547347324
 20
215.2271614961
 30
0.0
  0
SPLINE
  5
2C2
100
AcDbEntity
  8
0
100
AcDbSpline
 62
7
  6
CONTINUOUS
 70
0
 71
3
 72
11
 73
7
 74
0
 42
0.0000001
 43
0.0000001
 44
0.0000000001
 40
0.0
 40
0.0
 40
0.0
 40
0.0
 40
0.2717748112
 40
0.526869873
 40
0.7676346335
 40
1.0
 40
1.0
 40
1.0
 40
1.0
 10
-35.8395848328
 20
206.9659055064
 30
0.0
 10
-35.8395848328
 20
207.4239472145
 30
0.0
 10
-35.9286397958
 20
208.315698727
 30
0.0
 10
-36.3551652472
 20
209.550970251
 30
0.0
 10
-37.0541226114
 20
210.5787404962
 30
0.0
 10
-37.6866608133
 20
211.0875293771
 30
0.0
 10
-38.0257919229
 20
211.2833813113
 30
0.0
  0
SPLINE
  5
2C3
100
AcDbEntity
  8
0
100
AcDbSpline
 62
7
  6
CONTINUOUS
 70
0
 71
3
 72
9
 73
5
 74
0
 42
0.0000001
 43
0.0000001
 44
0.0000000001
 40
0.0
 40
0.0
 40
0.0
 40
0.0
 40
0.4806659377
 40
1.0
 40
1.0
 40
1.0
 40
1.0
 10
-21.8996024289
 20
216.6119486271
 30
0.0
 10
-21.6129885173
 20
216.1842290739
 30
0.0
 10
-21.1727700047
 20
215.1846646021
 30
0.0
 10
-21.043082829
 20
214.1070661549
 30
0.0
 10
-21.043082829
 20
213.5507759617
 30
0.0
  0
SPLINE
  5
2C4
100
AcDbEntity
  8
0
100
AcDbSpline
 62
7
  6
CONTINUOUS
 70
0
 71
3
 72
13
 73
9
 74
0
 42
0.0000001
 43
0.0000001
 44
0.0000000001
 40
0.0
 40
0.0
 40
0.0
 40
0.0
 40
0.2546480988
 40
0.5189332819
 40
0.648366291
 40
0.7724620891
 40
0.8897549228
 40
1.0
 40
1.0
 40
1.0
 40
1.0
 10
-25.252790691
 20
213.8506608536
 30
0.0
 10
-25.252790691
 20
213.3281307319
 30
0.0
 10
-25.4752459624
 20
212.2583554773
 30
0.0
 10
-26.1757395823
 20
211.0970073746
 30
0.0
 10
-26.9418107244
 20
210.3535363787
 30
0.0
 10
-27.5806106538
 20
209.9309123116
 30
0.0
 10
-28.2557948084
 20
209.6617282032
 30
0.0
 10
-28.7234455205
 20
209.5930022963
 30
0.0
 10
-28.9496525668
 20
209.5906256083
 30
0.0
  0
SPLINE
  5
2C5
100
AcDbEntity
  8
0
100
AcDbSpline
 62
7
  6
CONTINUOUS
 70
0
 71
3
 72
14
 73
10
 74
0
 42
0.0000001
 43
0.0000001
 44
0.0000000001
 40
0.0
 40
0.0
 40
0.0
 40
0.0
 40
0.255849667
 40
0.3892373421
 40
0.5220152326
 40
0.6512958811
 40
0.774721374
 40
0.8909354277
 40
1.0
 40
1.0
 40
1.0
 40
1.0
 10
-38.9361702997
 20
208.7544357632
 30
0.0
 10
-38.9361702997
 20
207.7630807192
 30
0.0
 10
-39.2639165588
 20
206.2420054742
 30
0.0
 10
-40.1861185649
 20
204.4357931179
 30
0.0
 10
-41.1141183023
 20
203.205249371
 30
0.0
 10
-42.2194219178
 20
202.1881518825
 30
0.0
 10
-43.4472549695
 20
201.4363541103
 30
0.0
 10
-44.73500318
 20
200.9913925071
 30
0.0
 10
-45.6169757446
 20
200.9170994066
 30
0.0
 10
-46.0388222938
 20
200.9423000968
 30
0.0
  0
SPLINE
  5
2C6
100
AcDbEntity
  8
0
100
AcDbSpline
 62
7
  6
CONTINUOUS
 70
0
 71
3
 72
15
 73
11
 74
0
 42
0.0000001
 43
0.0000001
 44
0.0000000001
 40
0.0
 40
0.0
 40
0.0
 40
0.0
 40
0.0524624705
 40
0.1056459648
 40
0.2162146438
 40
0.335328798
 40
0.4632709066
 40
0.5978578637
 40
0.7353252348
 40
1.0
 40
1.0
 40
1.0
 40
1.0
 10
-26.8346708183
 20
204.4762214773
 30
0.0
 10
-26.630522461
 20
204.3583235625
 30
0.0
 10
-26.1965056625
 20
204.1582461404
 30
0.0
 10
-25.2510581211
 20
203.9157882293
 30
0.0
 10
-23.9547111354
 20
203.9336049517
 30
0.0
 10
-22.4093436208
 20
204.4435238192
 30
0.0
 10
-20.9571662137
 20
205.3862383267
 30
0.0
 10
-19.6986246598
 20
206.6914755987
 30
0.0
 10
-18.4175082442
 20
208.7457006086
 30
0.0
 10
-17.9464973621
 20
210.5728967976
 30
0.0
 10
-17.9464973621
 20
211.762245705
 30
0.0
  0
SPLINE
  5
2C7
100
AcDbEntity
  8
0
100
AcDbSpline
 62
7
  6
CONTINUOUS
 70
0
 71
3
 72
11
 73
7
 74
0
 42
0.0000001
 43
0.0000001
 44
0.0000000001
 40
0.0
 40
0.0
 40
0.0
 40
0.0
 40
0.2717572078
 40
0.5268814843
 40
0.7676360802
 40
1.0
 40
1.0
 40
1.0
 40
1.0
 10
-41.4568315434
 20
208.0787586968
 30
0.0
 10
-41.4568315434
 20
208.3282727121
 30
0.0
 10
-41.5053729933
 20
208.8140817045
 30
0.0
 10
-41.7376758666
 20
209.4870505319
 30
0.0
 10
-42.1185013276
 20
210.0469529804
 30
0.0
 10
-42.4630911276
 20
210.3240948272
 30
0.0
 10
-42.6478222031
 20
210.4308212975
 30
0.0
  0
SPLINE
  5
2C8
100
AcDbEntity
  8
0
100
AcDbSpline
 62
7
  6
CONTINUOUS
 70
0
 71
3
 72
9
 73
5
 74
0
 42
0.0000001
 43
0.0000001
 44
0.0000000001
 40
0.0
 40
0.0
 40
0.0
 40
0.0
 40
0.2447494379
 40
1.0
 40
1.0
 40
1.0
 40
1.0
 10
-33.4702108264
 20
195.3663842968
 30
0.0
 10
-33.4539324717
 20
195.2917788888
 30
0.0
 10
-33.3962382685
 20
194.9850694592
 30
0.0
 10
-33.3728881169
 20
194.6721348255
 30
0.0
 10
-33.3728881169
 20
194.4365002169
 30
0.0
  0
SPLINE
  5
2C9
100
AcDbEntity
  8
0
100
AcDbSpline
 62
7
  6
CONTINUOUS
 70
0
 71
3
 72
13
 73
9
 74
0
 42
0.0000001
 43
0.0000001
 44
0.0000000001
 40
0.0
 40
0.0
 40
0.0
 40
0.0
 40
0.2546480988
 40
0.5189332819
 40
0.648366291
 40
0.7724620891
 40
0.8897549228
 40
1.0
 40
1.0
 40
1.0
 40
1.0
 10
-43.1458781617
 20
209.054320655
 30
0.0
 10
-43.1458781617
 20
208.5317905333
 30
0.0
 10
-43.3683334331
 20
207.4620152787
 30
0.0
 10
-44.068827053
 20
206.300667176
 30
0.0
 10
-44.8348981951
 20
205.5571961801
 30
0.0
 10
-45.4736981244
 20
205.1345721131
 30
0.0
 10
-46.1488822791
 20
204.8653880046
 30
0.0
 10
-46.6165329912
 20
204.7966620978
 30
0.0
 10
-46.8427400374
 20
204.7942854097
 30
0.0
  0
SPLINE
  5
2CA
100
AcDbEntity
  8
0
100
AcDbSpline
 62
7
  6
CONTINUOUS
 70
0
 71
3
 72
10
 73
6
 74
0
 42
0.0000001
 43
0.0000001
 44
0.0000000001
 40
0.0
 40
0.0
 40
0.0
 40
0.0
 40
0.2403281525
 40
0.4850960851
 40
1.0
 40
1.0
 40
1.0
 40
1.0
 10
-35.8819564869
 20
187.2660439675
 30
0.0
 10
-35.7160102276
 20
187.1702272907
 30
0.0
 10
-35.358876846
 20
187.0125304302
 30
0.0
 10
-34.5739723971
 20
186.8491004499
 30
0.0
 10
-33.9528135788
 20
186.9114483756
 30
0.0
 10
-33.5562624557
 20
187.0177460772
 30
0.0
  0
SPLINE
  5
2CB
100
AcDbEntity
  8
0
100
AcDbSpline
 62
7
  6
CONTINUOUS
 70
0
 71
3
 72
20
 73
16
 74
0
 42
0.0000001
 43
0.0000001
 44
0.0000000001
 40
0.0
 40
0.0
 40
0.0
 40
0.0
 40
0.0524886411
 40
0.1058788268
 40
0.1609446315
 40
0.2182401334
 40
0.3400761484
 40
0.4047856415
 40
0.4714397679
 40
0.6080573063
 40
0.7449175043
 40
0.8118575954
 40
0.8769396555
 40
0.9397340308
 40
1.0
 40
1.0
 40
1.0
 40
1.0
 10
-43.9336384969
 20
182.2174485262
 30
0.0
 10
-44.7200564835
 20
182.6716974444
 30
0.0
 10
-46.215975507
 20
183.7552887764
 30
0.0
 10
-48.1073384314
 20
185.8226981327
 30
0.0
 10
-49.6115601512
 20
188.2845751794
 30
0.0
 10
-51.0831425783
 20
192.0788609322
 30
0.0
 10
-51.5984687923
 20
196.3437564135
 30
0.0
 10
-51.2345720525
 20
200.717229842
 30
0.0
 10
-50.2557148829
 20
205.2619793634
 30
0.0
 10
-47.9567292957
 20
210.743456579
 30
0.0
 10
-44.4512735977
 20
215.5504100547
 30
0.0
 10
-41.0629310159
 20
218.7536832801
 30
0.0
 10
-38.3290133338
 20
220.7430658982
 30
0.0
 10
-35.4513297062
 20
222.2866097461
 30
0.0
 10
-33.437423095
 20
223.0086197556
 30
0.0
 10
-32.4302313706
 20
223.2786030194
 30
0.0
  0
SPLINE
  5
2CC
100
AcDbEntity
  8
0
100
AcDbSpline
 62
7
  6
CONTINUOUS
 70
0
 71
3
 72
14
 73
10
 74
0
 42
0.0000001
 43
0.0000001
 44
0.0000000001
 40
0.0
 40
0.0
 40
0.0
 40
0.0
 40
0.2686164723
 40
0.3932530389
 40
0.5129262831
 40
0.6303784462
 40
0.7488454196
 40
0.8713344666
 40
1.0
 40
1.0
 40
1.0
 40
1.0
 10
-26.9343634129
 20
192.1154749306
 30
0.0
 10
-26.9343634124
 20
192.8709327639
 30
0.0
 10
-27.1229207066
 20
193.9997574039
 30
0.0
 10
-27.8182733649
 20
195.2760029895
 30
0.0
 10
-28.5111955822
 20
196.0359397941
 30
0.0
 10
-29.3608190477
 20
196.5846302088
 30
0.0
 10
-30.3305515253
 20
196.8981238731
 30
0.0
 10
-31.3774605742
 20
196.9652987232
 30
0.0
 10
-32.0807113575
 20
196.8495433277
 30
0.0
 10
-32.4302313706
 20
196.7558525718
 30
0.0
  0
SPLINE
  5
2CD
100
AcDbEntity
  8
0
100
AcDbSpline
 62
7
  6
CONTINUOUS
 70
0
 71
3
 72
14
 73
10
 74
0
 42
0.0000001
 43
0.0000001
 44
0.0000000001
 40
0.0
 40
0.0
 40
0.0
 40
0.0
 40
0.1052606084
 40
0.2158761655
 40
0.3350397352
 40
0.4630361372
 40
0.5976782612
 40
0.7352099669
 40
1.0
 40
1.0
 40
1.0
 40
1.0
 10
-46.2988989426
 20
204.1095018061
 30
0.0
 10
-46.0758751058
 20
203.9806520886
 30
0.0
 10
-45.5643665558
 20
203.8013427106
 30
0.0
 10
-44.7305134532
 20
203.8142299169
 30
0.0
 10
-43.8879631099
 20
204.0915863712
 30
0.0
 10
-43.0970680801
 20
204.6052823321
 30
0.0
 10
-42.4113781261
 20
205.316302417
 30
0.0
 10
-41.7134467796
 20
206.4354009989
 30
0.0
 10
-41.4568315434
 20
207.4308263676
 30
0.0
 10
-41.4568315434
 20
208.0787586968
 30
0.0
  0
SPLINE
  5
2CE
100
AcDbEntity
  8
0
100
AcDbSpline
 62
7
  6
CONTINUOUS
 70
0
 71
3
 72
14
 73
10
 74
0
 42
0.0000001
 43
0.0000001
 44
0.0000000001
 40
0.0
 40
0.0
 40
0.0
 40
0.0
 40
0.2622991254
 40
0.3931837643
 40
0.5218008882
 40
0.6470978931
 40
0.768470162
 40
0.8859214785
 40
1.0
 40
1.0
 40
1.0
 40
1.0
 10
-5.2072035304
 20
180.5971441895
 30
0.0
 10
-5.0359233517
 20
179.6374515352
 30
0.0
 10
-5.0234448256
 20
178.1405807503
 30
0.0
 10
-5.4852511786
 20
176.2507414456
 30
0.0
 10
-6.0570091888
 20
174.9314197971
 30
0.0
 10
-6.8339399617
 20
173.7638674875
 30
0.0
 10
-7.7878088442
 20
172.7915693841
 30
0.0
 10
-8.883177347
 20
172.053782716
 30
0.0
 10
-9.691165637
 20
171.7342117413
 30
0.0
 10
-10.1006905778
 20
171.6244363356
 30
0.0
  0
SPLINE
  5
2CF
100
AcDbEntity
  8
0
100
AcDbSpline
 62
7
  6
CONTINUOUS
 70
0
 71
3
 72
9
 73
5
 74
0
 42
0.0000001
 43
0.0000001
 44
0.0000000001
 40
0.0
 40
0.0
 40
0.0
 40
0.0
 40
0.2515482121
 40
1.0
 40
1.0
 40
1.0
 40
1.0
 10
-72.0841637845
 20
155.0094265071
 30
0.0
 10
-72.2194742511
 20
154.9731557946
 30
0.0
 10
-72.7626388602
 20
154.8493919454
 30
0.0
 10
-73.3249900986
 20
154.8093301685
 30
0.0
 10
-73.7413434048
 20
154.8289107071
 30
0.0
  0
SPLINE
  5
2D0
100
AcDbEntity
  8
0
100
AcDbSpline
 62
7
  6
CONTINUOUS
 70
0
 71
3
 72
14
 73
10
 74
0
 42
0.0000001
 43
0.0000001
 44
0.0000000001
 40
0.0
 40
0.0
 40
0.0
 40
0.0
 40
0.114078535
 40
0.2315298708
 40
0.3529021462
 40
0.4781991557
 40
0.6068162768
 40
0.7377009109
 40
1.0
 40
1.0
 40
1.0
 40
1.0
 10
-92.1595987504
 20
252.6180922887
 30
0.0
 10
-92.5691237399
 20
252.5083168699
 30
0.0
 10
-93.3771121269
 20
252.188745807
 30
0.0
 10
-94.4724807527
 20
251.4509590538
 30
0.0
 10
-95.4263496264
 20
250.4786607782
 30
0.0
 10
-96.2032803651
 20
249.311108414
 30
0.0
 10
-96.7750383135
 20
247.9917867483
 30
0.0
 10
-97.2368444939
 20
246.1019475705
 30
0.0
 10
-97.2243659528
 20
244.6050769563
 30
0.0
 10
-97.0530857978
 20
243.6453844346
 30
0.0
  0
SPLINE
  5
2D1
100
AcDbEntity
  8
0
100
AcDbSpline
 62
7
  6
CONTINUOUS
 70
0
 71
3
 72
13
 73
9
 74
0
 42
0.0000001
 43
0.0000001
 44
0.0000000001
 40
0.0
 40
0.0
 40
0.0
 40
0.0
 40
0.2677119729
 40
0.5230960123
 40
0.6460400319
 40
0.7659508074
 40
0.8835849436
 40
1.0
 40
1.0
 40
1.0
 40
1.0
 10
-82.2646693666
 20
160.7850398957
 30
0.0
 10
-82.1252629565
 20
160.0039377932
 30
0.0
 10
-81.6402324058
 20
158.5056782564
 30
0.0
 10
-80.5153594036
 20
156.913275808
 30
0.0
 10
-79.3815436969
 20
155.9567215697
 30
0.0
 10
-78.4506387717
 20
155.4200297339
 30
0.0
 10
-77.4548627162
 20
155.0713800367
 30
0.0
 10
-76.7632914374
 20
154.9710266505
 30
0.0
 10
-76.4186413922
 20
154.9548182105
 30
0.0
  0
SPLINE
  5
2D2
100
AcDbEntity
  8
0
100
AcDbSpline
 62
7
  6
CONTINUOUS
 70
0
 71
3
 72
9
 73
5
 74
0
 42
0.0000001
 43
0.0000001
 44
0.0000000001
 40
0.0
 40
0.0
 40
0.0
 40
0.0
 40
0.4586903795
 40
1.0
 40
1.0
 40
1.0
 40
1.0
 10
-55.7015894577
 20
244.6923328303
 30
0.0
 10
-55.6196493863
 20
244.737710663
 30
0.0
 10
-55.4654022563
 20
244.8816148966
 30
0.0
 10
-55.3722451087
 20
245.0666282676
 30
0.0
 10
-55.3332301505
 20
245.1700511353
 30
0.0
  0
SPLINE
  5
2D3
100
AcDbEntity
  8
0
100
AcDbSpline
 62
7
  6
CONTINUOUS
 70
0
 71
3
 72
19
 73
15
 74
0
 42
0.0000001
 43
0.0000001
 44
0.0000000001
 40
0.0
 40
0.0
 40
0.0
 40
0.0
 40
0.0523397793
 40
0.1054511383
 40
0.1600119613
 40
0.2165344156
 40
0.2753272311
 40
0.3364889862
 40
0.465116293
 40
0.6001129899
 40
0.7372659518
 40
0.8052732169
 40
0.8720779275
 40
1.0
 40
1.0
 40
1.0
 40
1.0
 10
-16.4254444011
 20
229.8439705564
 30
0.0
 10
-15.4142958752
 20
229.2598893438
 30
0.0
 10
-13.4845564379
 20
227.8852392609
 30
0.0
 10
-11.0017625049
 20
225.2933624822
 30
0.0
 10
-8.9702026775
 20
222.2224994669
 30
0.0
 10
-7.431113467
 20
218.7411113755
 30
0.0
 10
-6.4124728837
 20
214.9223857173
 30
0.0
 10
-5.7616354296
 20
209.3988377654
 30
0.0
 10
-6.3768877277
 20
202.095192172
 30
0.0
 10
-9.1781807234
 20
193.5309989822
 30
0.0
 10
-13.0680313952
 20
186.938511501
 30
0.0
 10
-16.9749374596
 20
182.2804885482
 30
0.0
 10
-21.2289051731
 20
178.237033718
 30
0.0
 10
-24.8990114064
 20
175.8020432029
 30
0.0
 10
-27.4715535141
 20
174.5662056805
 30
0.0
  0
SPLINE
  5
2D4
100
AcDbEntity
  8
0
100
AcDbSpline
 62
7
  6
CONTINUOUS
 70
0
 71
3
 72
11
 73
7
 74
0
 42
0.0000001
 43
0.0000001
 44
0.0000000001
 40
0.0
 40
0.0
 40
0.0
 40
0.0
 40
0.2397931308
 40
0.4840625837
 40
0.7365908156
 40
1.0
 40
1.0
 40
1.0
 40
1.0
 10
-17.6758121002
 20
227.6791364858
 30
0.0
 10
-18.728443242
 20
228.2871670325
 30
0.0
 10
-20.9932005845
 20
229.2879458649
 30
0.0
 10
-24.6744275654
 20
230.0513921094
 30
0.0
 10
-28.5514784751
 20
230.0703905124
 30
0.0
 10
-31.1404251538
 20
229.6000707846
 30
0.0
 10
-32.4302313706
 20
229.2543311566
 30
0.0
  0
SPLINE
  5
2D5
100
AcDbEntity
  8
0
100
AcDbSpline
 62
7
  6
CONTINUOUS
 70
0
 71
3
 72
11
 73
7
 74
0
 42
0.0000001
 43
0.0000001
 44
0.0000000001
 40
0.0
 40
0.0
 40
0.0
 40
0.0
 40
0.2575230999
 40
0.5088224588
 40
0.7555701369
 40
1.0
 40
1.0
 40
1.0
 40
1.0
 10
-37.3889092272
 20
171.9078041079
 30
0.0
 10
-38.3729084963
 20
171.8529800811
 30
0.0
 10
-40.3271133517
 20
171.8720013986
 30
0.0
 10
-43.1957680604
 20
172.3054090008
 30
0.0
 10
-45.9227843026
 20
173.1388956881
 30
0.0
 10
-47.625003909
 20
173.9560999226
 30
0.0
 10
-48.4350305818
 20
174.4239292158
 30
0.0
  0
SPLINE
  5
2D6
100
AcDbEntity
  8
0
100
AcDbSpline
 62
7
  6
CONTINUOUS
 70
0
 71
3
 72
14
 73
10
 74
0
 42
0.0000001
 43
0.0000001
 44
0.0000000001
 40
0.0
 40
0.0
 40
0.0
 40
0.0
 40
0.2647836295
 40
0.4023089476
 40
0.5369530529
 40
0.6649530914
 40
0.7841200342
 40
0.8947373298
 40
1.0
 40
1.0
 40
1.0
 40
1.0
 10
-27.4715535141
 20
174.0444532222
 30
0.0
 10
-27.4715535141
 20
172.9793837907
 30
0.0
 10
-27.8933662576
 20
171.3431206504
 30
0.0
 10
-29.0405833582
 20
169.5035192984
 30
0.0
 10
-30.1676878359
 20
168.3346645843
 30
0.0
 10
-31.4678340224
 20
167.4902138318
 30
0.0
 10
-32.852883827
 20
167.0343149441
 30
0.0
 10
-34.2236504668
 20
167.0130766159
 30
0.0
 10
-35.064454199
 20
167.3079048354
 30
0.0
 10
-35.4311220446
 20
167.5196376142
 30
0.0
  0
SPLINE
  5
2D7
100
AcDbEntity
  8
0
100
AcDbSpline
 62
7
  6
CONTINUOUS
 70
0
 71
3
 72
11
 73
7
 74
0
 42
0.0000001
 43
0.0000001
 44
0.0000000001
 40
0.0
 40
0.0
 40
0.0
 40
0.0
 40
0.2717350397
 40
0.5268969419
 40
0.7676331593
 40
1.0
 40
1.0
 40
1.0
 40
1.0
 10
-35.3227934536
 20
171.9398853052
 30
0.0
 10
-35.3227934536
 20
171.70064685
 30
0.0
 10
-35.2762083907
 20
171.2348035564
 30
0.0
 10
-35.0535197652
 20
170.5894661004
 30
0.0
 10
-34.6882557445
 20
170.0526256771
 30
0.0
 10
-34.3578846587
 20
169.7868289759
 30
0.0
 10
-34.1807326958
 20
169.6845086449
 30
0.0
  0
SPLINE
  5
2D8
100
AcDbEntity
  8
0
100
AcDbSpline
 62
7
  6
CONTINUOUS
 70
0
 71
3
 72
20
 73
16
 74
0
 42
0.0000001
 43
0.0000001
 44
0.0000000001
 40
0.0
 40
0.0
 40
0.0
 40
0.0
 40
0.1227242173
 40
0.1878070348
 40
0.2547485989
 40
0.391614168
 40
0.4604262318
 40
0.5284820262
 40
0.6595707351
 40
0.7219379231
 40
0.7817554985
 40
0.8390522063
 40
0.8941192321
 40
0.9475109364
 40
1.0
 40
1.0
 40
1.0
 40
1.0
 10
-32.4302313706
 20
229.2543311566
 30
0.0
 10
-35.0608307848
 20
228.5491845609
 30
0.0
 10
-38.9244949556
 20
226.784260055
 30
0.0
 10
-43.5012683217
 20
223.4510690409
 30
0.0
 10
-47.8488688677
 20
219.3426673508
 30
0.0
 10
-51.452422514
 20
214.3988771771
 30
0.0
 10
-54.1243128824
 20
208.9304053765
 30
0.0
 10
-56.0854064979
 20
203.3061122005
 30
0.0
 10
-56.9879828341
 20
197.4936782625
 30
0.0
 10
-56.6730111012
 20
191.8653145723
 30
0.0
 10
-55.8549995346
 20
187.9499838132
 30
0.0
 10
-54.4671393109
 20
184.3701064927
 30
0.0
 10
-52.5378616301
 20
181.2129982239
 30
0.0
 10
-50.1119475951
 20
178.5612194638
 30
0.0
 10
-48.1932921962
 20
177.171417266
 30
0.0
 10
-47.1846415891
 20
176.588799511
 30
0.0
  0
SPLINE
  5
2D9
100
AcDbEntity
  8
0
100
AcDbSpline
 62
7
  6
CONTINUOUS
 70
0
 71
3
 72
11
 73
7
 74
0
 42
0.0000001
 43
0.0000001
 44
0.0000000001
 40
0.0
 40
0.0
 40
0.0
 40
0.0
 40
0.2343782473
 40
0.478297659
 40
0.7333924044
 40
1.0
 40
1.0
 40
1.0
 40
1.0
 10
-6.7858215461
 20
232.6904793453
 30
0.0
 10
-5.6587876375
 20
231.3500874792
 30
0.0
 10
-3.6391083246
 20
228.3681519751
 30
0.0
 10
-1.471127798
 20
223.3040140411
 30
0.0
 10
-0.1580981847
 20
217.7095402857
 30
0.0
 10
0.1214246597
 20
213.8038809793
 30
0.0
 10
0.1214246597
 20
211.8118233728
 30
0.0
  0
SPLINE
  5
2DA
100
AcDbEntity
  8
0
100
AcDbSpline
 62
7
  6
CONTINUOUS
 70
0
 71
3
 72
15
 73
11
 74
0
 42
0.0000001
 43
0.0000001
 44
0.0000000001
 40
0.0
 40
0.0
 40
0.0
 40
0.0
 40
0.1226793102
 40
0.2497804871
 40
0.3795759387
 40
0.5100271139
 40
0.6390304753
 40
0.7646372387
 40
0.8852762652
 40
1.0
 40
1.0
 40
1.0
 40
1.0
 10
0.1214246597
 20
211.8118233728
 30
0.0
 10
0.1214246597
 20
209.3084033826
 30
0.0
 10
-0.3378773635
 20
204.2030940539
 30
0.0
 10
-2.2704063062
 20
196.6718060499
 30
0.0
 10
-5.3850134625
 20
189.3742239498
 30
0.0
 10
-9.5646127547
 20
182.5854674476
 30
0.0
 10
-14.6527661814
 20
176.5583305575
 30
0.0
 10
-20.4626831732
 20
171.5192056997
 30
0.0
 10
-26.7771446984
 20
167.659735477
 30
0.0
 10
-31.2950159717
 20
165.9275887179
 30
0.0
 10
-33.5562624495
 20
165.3214492019
 30
0.0
  0
SPLINE
  5
2DB
100
AcDbEntity
  8
0
100
AcDbSpline
 62
7
  6
CONTINUOUS
 70
0
 71
3
 72
9
 73
5
 74
0
 42
0.0000001
 43
0.0000001
 44
0.0000000001
 40
0.0
 40
0.0
 40
0.0
 40
0.0
 40
0.748453333
 40
1.0
 40
1.0
 40
1.0
 40
1.0
 10
-73.1774012023
 20
167.0558130647
 30
0.0
 10
-73.4549706865
 20
167.0688687628
 30
0.0
 10
-73.8298717557
 20
167.0421558014
 30
0.0
 10
-74.1919813533
 20
166.9596459157
 30
0.0
 10
-74.2821878202
 20
166.9354655776
 30
0.0
  0
SPLINE
  5
2DC
100
AcDbEntity
  8
0
100
AcDbSpline
 62
7
  6
CONTINUOUS
 70
0
 71
3
 72
9
 73
5
 74
0
 42
0.0000001
 43
0.0000001
 44
0.0000000001
 40
0.0
 40
0.0
 40
0.0
 40
0.0
 40
0.512250521
 40
1.0
 40
1.0
 40
1.0
 40
1.0
 10
-69.7301705436
 20
250.6038404084
 30
0.0
 10
-69.0900290799
 20
251.2208792715
 30
0.0
 10
-67.7038656501
 20
252.2964273648
 30
0.0
 10
-66.0827202135
 20
252.9804250031
 30
0.0
 10
-65.265002105
 20
253.1996107076
 30
0.0
  0
SPLINE
  5
2DD
100
AcDbEntity
  8
0
100
AcDbSpline
 62
7
  6
CONTINUOUS
 70
0
 71
3
 72
9
 73
5
 74
0
 42
0.0000001
 43
0.0000001
 44
0.0000000001
 40
0.0
 40
0.0
 40
0.0
 40
0.0
 40
0.2531671564
 40
1.0
 40
1.0
 40
1.0
 40
1.0
 10
-23.8661524467
 20
235.4410371731
 30
0.0
 10
-23.7231607275
 20
235.2141041713
 30
0.0
 10
-23.1369077488
 20
234.3314648893
 30
0.0
 10
-22.4634001412
 20
233.5064153389
 30
0.0
 10
-21.9166723517
 20
232.9344234007
 30
0.0
  0
SPLINE
  5
2DE
100
AcDbEntity
  8
0
100
AcDbSpline
 62
7
  6
CONTINUOUS
 70
0
 71
3
 72
9
 73
5
 74
0
 42
0.0000001
 43
0.0000001
 44
0.0000000001
 40
0.0
 40
0.0
 40
0.0
 40
0.0
 40
0.2439345699
 40
1.0
 40
1.0
 40
1.0
 40
1.0
 10
-43.6880180823
 20
235.7955695422
 30
0.0
 10
-43.7069033498
 20
234.9699492206
 30
0.0
 10
-43.9241321233
 20
231.5892971697
 30
0.0
 10
-44.681254434
 20
228.2490830394
 30
0.0
 10
-45.5055333509
 20
225.8257889138
 30
0.0
  0
SPLINE
  5
2DF
100
AcDbEntity
  8
0
100
AcDbSpline
 62
7
  6
CONTINUOUS
 70
0
 71
3
 72
14
 73
10
 74
0
 42
0.0000001
 43
0.0000001
 44
0.0000000001
 40
0.0
 40
0.0
 40
0.0
 40
0.0
 40
0.2441745415
 40
0.3708654299
 40
0.4989357752
 40
0.6271142713
 40
0.7541214473
 40
0.878754376
 40
1.0
 40
1.0
 40
1.0
 40
1.0
 10
-47.2097228905
 20
237.8305002649
 30
0.0
 10
-50.6714255939
 20
235.6588805827
 30
0.0
 10
-55.4674592684
 20
231.5665288957
 30
0.0
 10
-60.7068649592
 20
225.049684262
 30
0.0
 10
-64.0901041003
 20
219.5854943496
 30
0.0
 10
-66.7860238961
 20
213.7485558195
 30
0.0
 10
-68.730574526
 20
207.6791257299
 30
0.0
 10
-69.8754213291
 20
201.5278950932
 30
0.0
 10
-70.0883761536
 20
197.4031757944
 30
0.0
 10
-70.0485270085
 20
195.3744128993
 30
0.0
  0
SPLINE
  5
2E0
100
AcDbEntity
  8
0
100
AcDbSpline
 62
7
  6
CONTINUOUS
 70
0
 71
3
 72
11
 73
7
 74
0
 42
0.0000001
 43
0.0000001
 44
0.0000000001
 40
0.0
 40
0.0
 40
0.0
 40
0.0
 40
0.2655984567
 40
0.5205169018
 40
0.7648799165
 40
1.0
 40
1.0
 40
1.0
 40
1.0
 10
-70.0485270085
 20
195.3744128993
 30
0.0
 10
-70.0089045382
 20
193.3571902614
 30
0.0
 10
-69.6488109684
 20
189.401956922
 30
0.0
 10
-68.2170613136
 20
183.7444932289
 30
0.0
 10
-65.9381546849
 20
178.6214929806
 30
0.0
 10
-63.8514107394
 20
175.6032758915
 30
0.0
 10
-62.6922033831
 20
174.2444775912
 30
0.0
  0
SPLINE
  5
2E1
100
AcDbEntity
  8
0
100
AcDbSpline
 62
7
  6
CONTINUOUS
 70
0
 71
3
 72
11
 73
7
 74
0
 42
0.0000001
 43
0.0000001
 44
0.0000000001
 40
0.0
 40
0.0
 40
0.0
 40
0.0
 40
0.2634081474
 40
0.5159332418
 40
0.760204416
 40
1.0
 40
1.0
 40
1.0
 40
1.0
 10
-32.4302313706
 20
231.5526676902
 30
0.0
 10
-31.031125324
 20
231.9277057368
 30
0.0
 10
-28.2228009586
 20
232.4378912055
 30
0.0
 10
-24.0172013784
 20
232.4172660761
 30
0.0
 10
-20.0239984184
 20
231.5891431199
 30
0.0
 10
-17.5672870439
 20
230.5035460969
 30
0.0
 10
-16.4254444011
 20
229.8439705564
 30
0.0
  0
SPLINE
  5
2E2
100
AcDbEntity
  8
0
100
AcDbSpline
 62
7
  6
CONTINUOUS
 70
0
 71
3
 72
19
 73
15
 74
0
 42
0.0000001
 43
0.0000001
 44
0.0000000001
 40
0.0
 40
0.0
 40
0.0
 40
0.0
 40
0.1260433888
 40
0.1922534643
 40
0.2599104303
 40
0.3970267704
 40
0.5326511518
 40
0.6621737559
 40
0.7237631877
 40
0.7829134642
 40
0.8396999023
 40
0.8944267038
 40
0.9476224027
 40
1.0
 40
1.0
 40
1.0
 40
1.0
 10
-29.5376692876
 20
175.9805113784
 30
0.0
 10
-27.0603576864
 20
176.9738473126
 30
0.0
 10
-23.4915346592
 20
179.0612162392
 30
0.0
 10
-19.3215386054
 20
182.6644118471
 30
0.0
 10
-15.44299439
 20
186.9102480171
 30
0.0
 10
-11.5248028832
 20
193.0392856998
 30
0.0
 10
-8.609538644
 20
201.1160883232
 30
0.0
 10
-7.8394559968
 20
208.0747790378
 30
0.0
 10
-8.3401794892
 20
213.3661938461
 30
0.0
 10
-9.23831321
 20
217.0318371803
 30
0.0
 10
-10.6486237234
 20
220.3769389046
 30
0.0
 10
-12.5442671007
 20
223.3270095487
 30
0.0
 10
-14.8847284725
 20
225.8122080387
 30
0.0
 10
-16.715396543
 20
227.1243723589
 30
0.0
 10
-17.6758121002
 20
227.6791364858
 30
0.0
  0
SPLINE
  5
2E3
100
AcDbEntity
  8
0
100
AcDbSpline
 62
7
  6
CONTINUOUS
 70
0
 71
3
 72
14
 73
10
 74
0
 42
0.0000001
 43
0.0000001
 44
0.0000000001
 40
0.0
 40
0.0
 40
0.0
 40
0.0
 40
0.2622991254
 40
0.3931837643
 40
0.5218008882
 40
0.6470978931
 40
0.768470162
 40
0.8859214785
 40
1.0
 40
1.0
 40
1.0
 40
1.0
 10
-94.3757878101
 20
243.5194769341
 30
0.0
 10
-94.5470679887
 20
244.4791695885
 30
0.0
 10
-94.5595465149
 20
245.9760403733
 30
0.0
 10
-94.097740162
 20
247.8658796781
 30
0.0
 10
-93.5259821518
 20
249.1852013266
 30
0.0
 10
-92.749051379
 20
250.3527536362
 30
0.0
 10
-91.7951824965
 20
251.3250517397
 30
0.0
 10
-90.6998139938
 20
252.0628384078
 30
0.0
 10
-89.8918257038
 20
252.3824093825
 30
0.0
 10
-89.4823007629
 20
252.4921847882
 30
0.0
  0
SPLINE
  5
2E4
100
AcDbEntity
  8
0
100
AcDbSpline
 62
7
  6
CONTINUOUS
 70
0
 71
3
 72
12
 73
8
 74
0
 42
0.0000001
 43
0.0000001
 44
0.0000000001
 40
0.0
 40
0.0
 40
0.0
 40
0.0
 40
0.2628401161
 40
0.5219246848
 40
0.7679923073
 40
0.8856858454
 40
1.0
 40
1.0
 40
1.0
 40
1.0
 10
-84.8716552517
 20
246.0671117747
 30
0.0
 10
-84.757467689
 20
245.4273123186
 30
0.0
 10
-84.7462674573
 20
244.1088206051
 30
0.0
 10
-85.3513824292
 20
242.2739401263
 30
0.0
 10
-86.3353659511
 20
241.0358003424
 30
0.0
 10
-87.3222391919
 20
240.3716663876
 30
0.0
 10
-87.860960637
 20
240.1584908624
 30
0.0
 10
-88.1339799498
 20
240.0853065388
 30
0.0
  0
SPLINE
  5
2E5
100
AcDbEntity
  8
0
100
AcDbSpline
 62
7
  6
CONTINUOUS
 70
0
 71
3
 72
11
 73
7
 74
0
 42
0.0000001
 43
0.0000001
 44
0.0000000001
 40
0.0
 40
0.0
 40
0.0
 40
0.0
 40
0.250751239
 40
0.5272107035
 40
0.7884597121
 40
1.0
 40
1.0
 40
1.0
 40
1.0
 10
-57.4497753775
 20
247.7271035868
 30
0.0
 10
-57.5007493577
 20
247.4545861179
 30
0.0
 10
-57.501521119
 20
246.8619793352
 30
0.0
 10
-57.2982040087
 20
246.0071564661
 30
0.0
 10
-56.9298318746
 20
245.2592306599
 30
0.0
 10
-56.5630325868
 20
244.8620928369
 30
0.0
 10
-56.3619365217
 20
244.7426568787
 30
0.0
  0
SPLINE
  5
2E6
100
AcDbEntity
  8
0
100
AcDbSpline
 62
7
  6
CONTINUOUS
 70
0
 71
3
 72
11
 73
7
 74
0
 42
0.0000001
 43
0.0000001
 44
0.0000000001
 40
0.0
 40
0.0
 40
0.0
 40
0.0
 40
0.2682595766
 40
0.5241619233
 40
0.7665488161
 40
1.0
 40
1.0
 40
1.0
 40
1.0
 10
-69.2800494237
 20
163.1689949831
 30
0.0
 10
-69.3729880306
 20
163.6897353231
 30
0.0
 10
-69.6968928885
 20
164.6889728793
 30
0.0
 10
-70.5825561066
 20
165.9443602761
 30
0.0
 10
-71.7802113227
 20
166.8012861727
 30
0.0
 10
-72.7175777707
 20
167.0341849094
 30
0.0
 10
-73.1774012023
 20
167.0558130647
 30
0.0
  0
SPLINE
  5
2E7
100
AcDbEntity
  8
0
100
AcDbSpline
 62
7
  6
CONTINUOUS
 70
0
 71
3
 72
10
 73
6
 74
0
 42
0.0000001
 43
0.0000001
 44
0.0000000001
 40
0.0
 40
0.0
 40
0.0
 40
0.0
 40
0.2380961303
 40
0.4813573424
 40
1.0
 40
1.0
 40
1.0
 40
1.0
 10
-65.265002105
 20
253.1996107076
 30
0.0
 10
-64.7379526372
 20
253.3408839749
 30
0.0
 10
-63.644702683
 20
253.5328034696
 30
0.0
 10
-61.3445176962
 20
253.5388176876
 30
0.0
 10
-59.6176633866
 20
253.1077295787
 30
0.0
 10
-58.5085439868
 20
252.6803975746
 30
0.0
  0
SPLINE
  5
2E8
100
AcDbEntity
  8
0
100
AcDbSpline
 62
7
  6
CONTINUOUS
 70
0
 71
3
 72
13
 73
9
 74
0
 42
0.0000001
 43
0.0000001
 44
0.0000000001
 40
0.0
 40
0.0
 40
0.0
 40
0.0
 40
0.1164150736
 40
0.234049218
 40
0.3539600012
 40
0.4769040233
 40
0.732288058
 40
1.0
 40
1.0
 40
1.0
 40
1.0
 10
-73.7413434048
 20
154.8289107071
 30
0.0
 10
-74.0859935016
 20
154.8451191397
 30
0.0
 10
-74.7775648594
 20
154.9454725475
 30
0.0
 10
-75.7733409812
 20
155.2941223508
 30
0.0
 10
-76.7042459467
 20
155.8308142235
 30
0.0
 10
-77.8380616335
 20
156.787368518
 30
0.0
 10
-78.9629344753
 20
158.3797709551
 30
0.0
 10
-79.4479649848
 20
159.8780303825
 30
0.0
 10
-79.5873713788
 20
160.6591323952
 30
0.0
  0
SPLINE
  5
2E9
100
AcDbEntity
  8
0
100
AcDbSpline
 62
7
  6
CONTINUOUS
 70
0
 71
3
 72
11
 73
7
 74
0
 42
0.0000001
 43
0.0000001
 44
0.0000000001
 40
0.0
 40
0.0
 40
0.0
 40
0.0
 40
0.2323607738
 40
0.473124485
 40
0.7282307521
 40
1.0
 40
1.0
 40
1.0
 40
1.0
 10
-35.4311220446
 20
167.5196376142
 30
0.0
 10
-35.7348240135
 20
167.6950106734
 30
0.0
 10
-36.301248284
 20
168.1506681675
 30
0.0
 10
-36.9272152989
 20
169.0710441708
 30
0.0
 10
-37.309143686
 20
170.1772839686
 30
0.0
 10
-37.3889092272
 20
170.9758726182
 30
0.0
 10
-37.3889092272
 20
171.3860516457
 30
0.0
  0
SPLINE
  5
2EA
100
AcDbEntity
  8
0
100
AcDbSpline
 62
7
  6
CONTINUOUS
 70
0
 71
3
 72
12
 73
8
 74
0
 42
0.0000001
 43
0.0000001
 44
0.0000000001
 40
0.0
 40
0.0
 40
0.0
 40
0.0
 40
0.1143141546
 40
0.2320076927
 40
0.4780753152
 40
0.7371598839
 40
1.0
 40
1.0
 40
1.0
 40
1.0
 10
-87.3307905536
 20
240.0475342886
 30
0.0
 10
-87.0577712408
 20
240.1207186123
 30
0.0
 10
-86.5190497957
 20
240.3338941374
 30
0.0
 10
-85.5321765549
 20
240.9980280922
 30
0.0
 10
-84.5481930329
 20
242.2361678761
 30
0.0
 10
-83.943078061
 20
244.071048355
 30
0.0
 10
-83.9542782926
 20
245.3895400684
 30
0.0
 10
-84.0684658554
 20
246.0293395246
 30
0.0
  0
SPLINE
  5
2EB
100
AcDbEntity
  8
0
100
AcDbSpline
 62
7
  6
CONTINUOUS
 70
0
 71
3
 72
11
 73
7
 74
0
 42
0.0000001
 43
0.0000001
 44
0.0000000001
 40
0.0
 40
0.0
 40
0.0
 40
0.0
 40
0.2342429697
 40
0.4783622923
 40
0.7341736475
 40
1.0
 40
1.0
 40
1.0
 40
1.0
 10
-73.201795001
 20
166.969899229
 30
0.0
 10
-72.8149777637
 20
166.8639704433
 30
0.0
 10
-72.0567268473
 20
166.5127938146
 30
0.0
 10
-71.118399065
 20
165.6504901961
 30
0.0
 10
-70.4256035304
 20
164.5196388568
 30
0.0
 10
-70.1632049319
 20
163.6548219405
 30
0.0
 10
-70.0832388203
 20
163.2067672349
 30
0.0
  0
SPLINE
  5
2EC
100
AcDbEntity
  8
0
100
AcDbSpline
 62
7
  6
CONTINUOUS
 70
0
 71
3
 72
9
 73
5
 74
0
 42
0.0000001
 43
0.0000001
 44
0.0000000001
 40
0.0
 40
0.0
 40
0.0
 40
0.0
 40
0.268272445
 40
1.0
 40
1.0
 40
1.0
 40
1.0
 10
-56.3506675705
 20
244.736056018
 30
0.0
 10
-56.324182683
 20
244.7207588388
 30
0.0
 10
-56.223188776
 20
244.6680386596
 30
0.0
 10
-56.1113904869
 20
244.6338739557
 30
0.0
 10
-56.0283556887
 20
244.6258383069
 30
0.0
  0
SPLINE
  5
2ED
100
AcDbEntity
  8
0
100
AcDbSpline
 62
7
  6
CONTINUOUS
 70
0
 71
3
 72
9
 73
5
 74
0
 42
0.0000001
 43
0.0000001
 44
0.0000000001
 40
0.0
 40
0.0
 40
0.0
 40
0.0
 40
0.2558559529
 40
1.0
 40
1.0
 40
1.0
 40
1.0
 10
-56.0283556887
 20
244.6258383069
 30
0.0
 10
-56.011103987
 20
244.6241687826
 30
0.0
 10
-55.9434431827
 20
244.6204422951
 30
0.0
 10
-55.8750582384
 20
244.628717318
 30
0.0
 10
-55.8263664101
 20
244.6417666343
 30
0.0
  0
SPLINE
  5
2EE
100
AcDbEntity
  8
0
100
AcDbSpline
 62
7
  6
CONTINUOUS
 70
0
 71
3
 72
20
 73
16
 74
0
 42
0.0000001
 43
0.0000001
 44
0.0000000001
 40
0.0
 40
0.0
 40
0.0
 40
0.0
 40
0.0524881745
 40
0.1058790195
 40
0.1609455536
 40
0.2182416625
 40
0.3400781058
 40
0.4047874938
 40
0.4714414103
 40
0.6080584994
 40
0.7449187365
 40
0.8118580897
 40
0.8769393137
 40
0.9397343602
 40
1.0
 40
1.0
 40
1.0
 40
1.0
 10
-48.4350305818
 20
174.4239292158
 30
0.0
 10
-49.529204174
 20
175.0558669971
 30
0.0
 10
-51.6104476334
 20
176.5635592532
 30
0.0
 10
-54.2419546816
 20
179.4399457194
 30
0.0
 10
-56.3348051927
 20
182.8652321924
 30
0.0
 10
-58.3822292346
 20
188.1442997865
 30
0.0
 10
-59.0991838239
 20
194.0781139594
 30
0.0
 10
-58.5928663389
 20
200.162966497
 30
0.0
 10
-57.2309556354
 20
206.4860941982
 30
0.0
 10
-54.0323397152
 20
214.1124962182
 30
0.0
 10
-49.1551757444
 20
220.8004274891
 30
0.0
 10
-44.4409512902
 20
225.2571206057
 30
0.0
 10
-40.6372574337
 20
228.0249711617
 30
0.0
 10
-36.6335070073
 20
230.172486184
 30
0.0
 10
-33.8315384809
 20
231.1770396364
 30
0.0
 10
-32.4302313706
 20
231.5526676902
 30
0.0
  0
SPLINE
  5
2EF
100
AcDbEntity
  8
0
100
AcDbSpline
 62
7
  6
CONTINUOUS
 70
0
 71
3
 72
13
 73
9
 74
0
 42
0.0000001
 43
0.0000001
 44
0.0000000001
 40
0.0
 40
0.0
 40
0.0
 40
0.0
 40
0.1054228116
 40
0.2162092768
 40
0.3355568365
 40
0.4637520711
 40
0.7347891091
 40
1.0
 40
1.0
 40
1.0
 40
1.0
 10
-34.1807326958
 20
169.6845086449
 30
0.0
 10
-33.9668661196
 20
169.560982501
 30
0.0
 10
-33.4763968071
 20
169.3890331296
 30
0.0
 10
-32.6768701294
 20
169.4013830217
 30
0.0
 10
-31.868788159
 20
169.667271845
 30
0.0
 10
-30.8412394322
 20
170.3354409126
 30
0.0
 10
-29.8615244914
 20
171.6062082062
 30
0.0
 10
-29.5376692876
 20
172.8693025979
 30
0.0
 10
-29.5376692876
 20
173.4906195559
 30
0.0
  0
SPLINE
  5
2F0
100
AcDbEntity
  8
0
100
AcDbSpline
 62
7
  6
CONTINUOUS
 70
0
 71
3
 72
9
 73
5
 74
0
 42
0.0000001
 43
0.0000001
 44
0.0000000001
 40
0.0
 40
0.0
 40
0.0
 40
0.0
 40
0.2555826091
 40
1.0
 40
1.0
 40
1.0
 40
1.0
 10
-54.1930466771
 20
232.2816742173
 30
0.0
 10
-54.0386630795
 20
232.8730491311
 30
0.0
 10
-53.5042142273
 20
235.2041560391
 30
0.0
 10
-53.2540821037
 20
237.6030641649
 30
0.0
 10
-53.2540821037
 20
239.3832468452
 30
0.0
  0
SPLINE
  5
2F1
100
AcDbEntity
  8
0
100
AcDbSpline
 62
7
  6
CONTINUOUS
 70
0
 71
3
 72
18
 73
14
 74
0
 42
0.0000001
 43
0.0000001
 44
0.0000000001
 40
0.0
 40
0.0
 40
0.0
 40
0.0
 40
0.1342377718
 40
0.2713291546
 40
0.3399366159
 40
0.4079463171
 40
0.540391938
 40
0.6661513698
 40
0.7838752847
 40
0.8399431298
 40
0.8943706532
 40
0.9475626725
 40
1.0
 40
1.0
 40
1.0
 40
1.0
 10
-45.5055333509
 20
225.8257889138
 30
0.0
 10
-47.4904361984
 20
224.175450234
 30
0.0
 10
-51.1634953974
 20
220.414686796
 30
0.0
 10
-54.7867808117
 20
214.926537356
 30
0.0
 10
-57.0467729713
 20
210.1651313073
 30
0.0
 10
-58.8135755867
 20
205.2953959609
 30
0.0
 10
-60.0921934789
 20
199.1070672723
 30
0.0
 10
-60.0479382449
 20
191.8219231092
 30
0.0
 10
-58.6375531353
 20
186.163926134
 30
0.0
 10
-56.7100476459
 20
182.2064516398
 30
0.0
 10
-54.9270746747
 20
179.5974739299
 30
0.0
 10
-52.8110581973
 20
177.3456606724
 30
0.0
 10
-51.1925210513
 20
176.1009148385
 30
0.0
 10
-50.3455029186
 20
175.55378578
 30
0.0
  0
SPLINE
  5
2F2
100
AcDbEntity
  8
0
100
AcDbSpline
 62
7
  6
CONTINUOUS
 70
0
 71
3
 72
11
 73
7
 74
0
 42
0.0000001
 43
0.0000001
 44
0.0000000001
 40
0.0
 40
0.0
 40
0.0
 40
0.0
 40
0.2343782627
 40
0.4782977062
 40
0.733392442
 40
1.0
 40
1.0
 40
1.0
 40
1.0
 10
-60.326737466
 20
172.8782320112
 30
0.0
 10
-61.4537578008
 20
174.2186195475
 30
0.0
 10
-63.4734241806
 20
177.2005331252
 30
0.0
 10
-65.6413802786
 20
182.2646409401
 30
0.0
 10
-66.9543984613
 20
187.8590756266
 30
0.0
 10
-67.2339183198
 20
191.7647075873
 30
0.0
 10
-67.2339183198
 20
193.756751075
 30
0.0
  0
SPLINE
  5
2F3
100
AcDbEntity
  8
0
100
AcDbSpline
 62
7
  6
CONTINUOUS
 70
0
 71
3
 72
13
 73
9
 74
0
 42
0.0000001
 43
0.0000001
 44
0.0000000001
 40
0.0
 40
0.0
 40
0.0
 40
0.0
 40
0.2438556079
 40
0.3706401696
 40
0.4989059948
 40
0.6273207335
 40
0.7545418454
 40
1.0
 40
1.0
 40
1.0
 40
1.0
 10
-67.2339183198
 20
193.756751075
 30
0.0
 10
-67.2339183198
 20
197.8286288865
 30
0.0
 10
-66.3256726895
 20
204.0471175553
 30
0.0
 10
-63.6241712684
 20
211.9396405862
 30
0.0
 10
-60.8278988132
 20
217.7186503808
 30
0.0
 10
-57.356715417
 20
223.1277929687
 30
0.0
 10
-52.0177641085
 20
229.5852274513
 30
0.0
 10
-47.1730773869
 20
233.6384448878
 30
0.0
 10
-43.6880180823
 20
235.7955695422
 30
0.0
  0
SPLINE
  5
2F4
100
AcDbEntity
  8
0
100
AcDbSpline
 62
7
  6
CONTINUOUS
 70
0
 71
3
 72
11
 73
7
 74
0
 42
0.0000001
 43
0.0000001
 44
0.0000000001
 40
0.0
 40
0.0
 40
0.0
 40
0.0
 40
0.2428150626
 40
0.4886753198
 40
0.7403772572
 40
1.0
 40
1.0
 40
1.0
 40
1.0
 10
-47.1846415891
 20
176.588799511
 30
0.0
 10
-46.3249544355
 20
176.0922261722
 30
0.0
 10
-44.5029016304
 20
175.2434593285
 30
0.0
 10
-41.5658166544
 20
174.4541566605
 30
0.0
 10
-38.4708026538
 20
174.1573319579
 30
0.0
 10
-36.3747505424
 20
174.2876181563
 30
0.0
 10
-35.3227934536
 20
174.4297771277
 30
0.0
  0
ELLIPSE
  5
2F5
100
AcDbEntity
  8
0
100
AcDbEllipse
 62
7
  6
CONTINUOUS
 10
-88.9360508302
 20
244.5793556343
 30
0.0
 11
-0.0199613341
 21
1.730216158
 31
0.0
 40
0.8071250907
 41
0.0
 42
6.2831853072
  0
ELLIPSE
  5
2F6
100
AcDbEntity
  8
0
100
AcDbEllipse
 62
7
  6
CONTINUOUS
 10
-10.5112685731
 20
178.7770878526
 30
0.0
 11
-0.0189843569
 21
1.6455333516
 31
0.0
 40
0.8071250907
 41
0.0
 42
6.2831853072
  0
ELLIPSE
  5
2F7
100
AcDbEntity
  8
0
100
AcDbEllipse
 62
7
  6
CONTINUOUS
 10
-90.0521940529
 20
243.1653152986
 30
0.0
 11
-0.3024444566
 21
26.2153963331
 31
0.0
 40
0.8071250907
 41
-2.1352551554
 42
-1.367250466
  0
ELLIPSE
  5
2F8
100
AcDbEntity
  8
0
100
AcDbEllipse
 62
7
  6
CONTINUOUS
 10
-74.147634399
 20
161.7190110952
 30
0.0
 11
-0.0199613341
 21
1.730216158
 31
0.0
 40
0.8071250907
 41
0.0
 42
6.2831853072
  0
ELLIPSE
  5
2F9
100
AcDbEntity
  8
0
100
AcDbEllipse
 62
7
  6
CONTINUOUS
 10
-48.9240453546
 20
211.6604806992
 30
0.0
 11
-0.3871289045
 21
33.5557073063
 31
0.0
 40
0.8071250907
 41
1.0063374982
 42
2.2598176821
  0
ENDSEC
  0
SECTION
  2
OBJECTS
  0
DICTIONARY
  5
C
100
AcDbDictionary
280
0
281
1
  3
ACAD_GROUP
350
D
  3
ACAD_MLINESTYLE
350
17
  3
ACAD_LAYOUT
350
1A
  3
ACAD_PLOTSETTINGS
350
19
  3
ACAD_PLOTSTYLENAME
350
E
  0
DICTIONARY
  5
D
102
{ACAD_REACTORS
330
C
102
}
100
AcDbDictionary
280
0
281
1
  0
ACDBDICTIONARYWDFLT
  5
E
102
{ACAD_REACTORS
330
C
102
}
100
AcDbDictionary
281
1
  3
Normal
350
F
100
AcDbDictionaryWithDefault
340
F
  0
DICTIONARY
  5
17
102
{ACAD_REACTORS
330
C
102
}
100
AcDbDictionary
280
0
281
1
  3
Standard
350
18
  0
DICTIONARY
  5
19
102
{ACAD_REACTORS
330
C
102
}
100
AcDbDictionary
281
1
  0
DICTIONARY
  5
1A
102
{ACAD_REACTORS
330
C
102
}
100
AcDbDictionary
281
1
  3
Model
350
2FA
  3
Layout1
350
2FB
  0
ACDBPLACEHOLDER
  5
F
102
{ACAD_REACTORS
330
E
102
}
  0
MLINESTYLE
  5
18
102
{ACAD_REACTORS
330
17
102
}
100
AcDbMlineStyle
  2
STANDARD
 70
0
  3

 62
256
 51
90.0
 52
90.0
 71
2
 49
0.5
 62
256
  6
BYLAYER
 49
-0.5
 62
256
  6
BYLAYER
  0
LAYOUT
  5
2FA
102
{ACAD_REACTORS
330
1A
102
}
100
AcDbPlotSettings
  1

  2
none_device
  4
ANSI_C_(22.00_x_17.00_Inches)
  6

 40
0.0
 41
0.0
 42
0.0
 43
0.0
 44
558.8
 45
431.8
 46
0.0
 47
0.0
 48
0.0
 49
0.0
140
0.0
141
0.0
142
1.0
143
1.0
 70
1024
 72
1
 73
0
 74
0
  7

 75
0
147
1.0
148
0.0
149
0.0
100
AcDbLayout
  1
Model
 70
0
 71
0
 10
0.0
 20
0.0
 11
558.8
 21
431.8
 12
0.0
 22
0.0
 32
0.0
 14
0.0
 24
0.0
 34
0.0
 15
0.0
 25
0.0
 35
0.0
146
0.0
 13
0.0
 23
0.0
 33
0.0
 16
1.0
 26
0.0
 36
0.0
 17
0.0
 27
1.0
 37
0.0
 76
0
330
216
345
0
346
0
  0
LAYOUT
  5
2FB
102
{ACAD_REACTORS
330
1A
102
}
100
AcDbPlotSettings
  1

  2
none_device
  4
ANSI_C_(22.00_x_17.00_Inches)
  6

 40
0.0
 41
0.0
 42
0.0
 43
0.0
 44
558.8
 45
431.8
 46
0.0
 47
0.0
 48
0.0
 49
0.0
140
0.0
141
0.0
142
1.0
143
1.0
 70
0
 72
1
 73
0
 74
0
  7

 75
0
147
1.0
148
0.0
149
0.0
100
AcDbLayout
  1
Layout1
 70
0
 71
1
 10
0.0
 20
0.0
 11
558.8
 21
431.8
 12
0.0
 22
0.0
 32
0.0
 14
0.0
 24
0.0
 34
0.0
 15
0.0
 25
0.0
 35
0.0
146
0.0
 13
0.0
 23
0.0
 33
0.0
 16
1.0
 26
0.0
 36
0.0
 17
0.0
 27
1.0
 37
0.0
 76
0
330
217
345
0
346
0
  0
ENDSEC
  0
EOF
