999
DXF file: Y:\3D PRATIKA-KAEDRA_OLGA\TRAVAIL_PHASE_5\CAD3D\PKF32F434_3D-Simplified\PKF32F434_2D-isometric.dxf
999
Pro/ENGINEER 2018260 by Parametric Technology Corporation
  0
SECTION
  2
HEADER
  9
$ACADVER
  1
AC1027
  9
$DWGCODEPAGE
  3
ANSI_1252
  9
$EXTMAX
 10
558.8
 20
431.8
 30
0.0
  9
$EXTMIN
 10
0.0
 20
0.0
 30
0.0
  9
$LIMMIN
 10
0.0
 20
0.0
  9
$LIMMAX
 10
558.8
 20
431.8
  9
$VIEWCTR
 10
279.4
 20
215.9
  9
$VIEWSIZE
 40
431.8
  9
$CLAYER
  8
0
  9
$LTSCALE
 40
30.734
  9
$CELTYPE
  6
BYLAYER
  9
$DIMSCALE
 40
1.0
  9
$DIMASZ
 40
0.1875
  9
$DIMEXO
 40
0.0625
  9
$DIMDLI
 40
21.2344
  9
$DIMEXE
 40
0.125
  9
$DIMCEN
 40
5.0292
  9
$DIMLFAC
 40
1.0
  9
$DIMBLK
  1
_CLOSED
  9
$DIMALT
 70
0
  9
$DIMALTF
 40
0.0393700787
  9
$DIMTXT
 40
0.15625
  9
$DIMTOL
 70
0
  9
$DIMLIM
 70
0
  9
$DIMTFAC
 40
1.0
  9
$DIMGAP
 40
0.625
  9
$DIMDSEP
 70
46
  9
$AUNITS
 70
0
  9
$PDMODE
 70
3
  9
$PDSIZE
 40
0.3125
  9
$HANDSEED
  5
2FD
  9
$TILEMODE
 70
1
  9
$MEASUREMENT
 70
1
  9
$INSUNITS
 70
4
  0
ENDSEC
  0
SECTION
  2
CLASSES
  0
CLASS
  1
ACDBDICTIONARYWDFLT
  2
AcDbDictionaryWithDefault
  3
AutoCAD 2000
 90
0
 91
1
280
0
281
0
  0
CLASS
  1
ACDBPLACEHOLDER
  2
AcDbPlaceHolder
  3
AutoCAD 2000
 90
0
 91
1
280
0
281
0
  0
CLASS
  1
LAYOUT
  2
AcDbLayout
  3
AutoCAD 2000
 90
0
 91
0
280
0
281
0
  0
ENDSEC
  0
SECTION
  2
TABLES
  0
TABLE
  2
VPORT
  5
8
100
AcDbSymbolTable
 70
2
  0
VPORT
  5
1F4
100
AcDbSymbolTableRecord
100
AcDbViewportTableRecord
  2
*ACTIVE
 70
0
 10
0.0
 20
0.0
 11
1.0
 21
1.0
 12
279.4
 22
215.9
 13
0.0
 23
0.0
 14
1.0
 24
1.0
 15
0.0
 25
0.0
 16
0.0
 26
0.0
 36
1.0
 17
0.0
 27
0.0
 37
0.0
 40
431.8
 41
1.2941176471
 42
50.0
 43
0.0
 44
0.0
 50
0.0
 51
0.0
 71
0
 72
100
 73
1
 74
1
 75
0
 76
0
 77
0
 78
0
  0
ENDTAB
  0
TABLE
  2
LTYPE
  5
5
100
AcDbSymbolTable
 70
6
  0
LTYPE
  5
14
100
AcDbSymbolTableRecord
100
AcDbLinetypeTableRecord
  2
BYBLOCK
 70
0
  3

 72
65
 73
0
 40
0.0
  0
LTYPE
  5
15
100
AcDbSymbolTableRecord
100
AcDbLinetypeTableRecord
  2
BYLAYER
 70
0
  3

 72
65
 73
0
 40
0.0
  0
LTYPE
  5
16
100
AcDbSymbolTableRecord
100
AcDbLinetypeTableRecord
  2
CONTINUOUS
 70
64
  3
Solid line
 72
65
 73
0
 40
0.0
  0
LTYPE
  5
1F5
100
AcDbSymbolTableRecord
100
AcDbLinetypeTableRecord
  2
CENTER
 70
64
  3
____ _ ____ _ ____ _ ____ _ ____ _ ____ _ ____
 72
65
 73
4
 40
0.6
 49
0.375
 74
0
 49
-0.075
 74
0
 49
0.075
 74
0
 49
-0.075
 74
0
  0
LTYPE
  5
1F6
100
AcDbSymbolTableRecord
100
AcDbLinetypeTableRecord
  2
HIDDEN
 70
64
  3
- - - - - - - - - - - - - - - - - - - -
 72
65
 73
2
 40
0.2
 49
0.1
 74
0
 49
-0.1
 74
0
  0
LTYPE
  5
1F7
100
AcDbSymbolTableRecord
100
AcDbLinetypeTableRecord
  2
PHANTOM
 70
64
  3
_____ _ _ _____ _ _ _____ _ _ _____
 72
65
 73
6
 40
0.8
 49
0.45
 74
0
 49
-0.05
 74
0
 49
0.1
 74
0
 49
-0.05
 74
0
 49
0.1
 74
0
 49
-0.05
 74
0
  0
LTYPE
  5
1F8
100
AcDbSymbolTableRecord
100
AcDbLinetypeTableRecord
  2
DOT
 70
64
  3
. . . . . . . . . . . . . . . . . . . .
 72
65
 73
2
 40
0.2
 49
0.1
 74
0
 49
-0.1
 74
0
  0
LTYPE
  5
1F9
100
AcDbSymbolTableRecord
100
AcDbLinetypeTableRecord
  2
DASHED
 70
64
  3
- - - - - - - - - - - - - - - - - - - -
 72
65
 73
2
 40
0.2
 49
0.1
 74
0
 49
-0.1
 74
0
  0
ENDTAB
  0
TABLE
  2
LAYER
  5
2
100
AcDbSymbolTable
 70
36
  0
LAYER
  5
10
100
AcDbSymbolTableRecord
100
AcDbLayerTableRecord
  2
0
 70
0
 62
7
  6
CONTINUOUS
370
-3
390
F
  0
LAYER
  5
1FA
100
AcDbSymbolTableRecord
100
AcDbLayerTableRecord
  2
DEFAULT_1
 70
0
 62
7
  6
CENTER
370
-3
390
F
  0
LAYER
  5
1FB
100
AcDbSymbolTableRecord
100
AcDbLayerTableRecord
  2
DEFAULT_2
 70
0
 62
8
  6
HIDDEN
370
-3
390
F
  0
LAYER
  5
1FC
100
AcDbSymbolTableRecord
100
AcDbLayerTableRecord
  2
DEFAULT_3
 70
0
 62
7
  6
PHANTOM
370
-3
390
F
  0
LAYER
  5
1FD
100
AcDbSymbolTableRecord
100
AcDbLayerTableRecord
  2
01_ALL_DTM_PLN
 70
0
 62
7
  6
CONTINUOUS
370
-3
390
F
  0
LAYER
  5
1FE
100
AcDbSymbolTableRecord
100
AcDbLayerTableRecord
  2
01__ASM_ALL_DTM_PLN
 70
0
 62
7
  6
CONTINUOUS
370
-3
390
F
  0
LAYER
  5
1FF
100
AcDbSymbolTableRecord
100
AcDbLayerTableRecord
  2
01__ASM_DEF_DTM_PLN
 70
0
 62
7
  6
CONTINUOUS
370
-3
390
F
  0
LAYER
  5
200
100
AcDbSymbolTableRecord
100
AcDbLayerTableRecord
  2
01___PRT_ALL_DTM_PLN
 70
0
 62
7
  6
CONTINUOUS
370
-3
390
F
  0
LAYER
  5
201
100
AcDbSymbolTableRecord
100
AcDbLayerTableRecord
  2
01___PRT_DEF_DTM_PLN
 70
0
 62
7
  6
CONTINUOUS
370
-3
390
F
  0
LAYER
  5
202
100
AcDbSymbolTableRecord
100
AcDbLayerTableRecord
  2
02_ALL_AXES
 70
0
 62
7
  6
CONTINUOUS
370
-3
390
F
  0
LAYER
  5
203
100
AcDbSymbolTableRecord
100
AcDbLayerTableRecord
  2
02__ASM_ALL_AXES
 70
0
 62
7
  6
CONTINUOUS
370
-3
390
F
  0
LAYER
  5
204
100
AcDbSymbolTableRecord
100
AcDbLayerTableRecord
  2
02___PRT_ALL_AXES
 70
0
 62
7
  6
CONTINUOUS
370
-3
390
F
  0
LAYER
  5
205
100
AcDbSymbolTableRecord
100
AcDbLayerTableRecord
  2
03_ALL_CURVES
 70
0
 62
7
  6
CONTINUOUS
370
-3
390
F
  0
LAYER
  5
206
100
AcDbSymbolTableRecord
100
AcDbLayerTableRecord
  2
03__ASM_ALL_CURVES
 70
0
 62
7
  6
CONTINUOUS
370
-3
390
F
  0
LAYER
  5
207
100
AcDbSymbolTableRecord
100
AcDbLayerTableRecord
  2
03___PRT_ALL_CURVES
 70
0
 62
7
  6
CONTINUOUS
370
-3
390
F
  0
LAYER
  5
208
100
AcDbSymbolTableRecord
100
AcDbLayerTableRecord
  2
04_ALL_DTM_PNT
 70
0
 62
7
  6
CONTINUOUS
370
-3
390
F
  0
LAYER
  5
209
100
AcDbSymbolTableRecord
100
AcDbLayerTableRecord
  2
04__ASM_ALL_DTM_PNT
 70
0
 62
7
  6
CONTINUOUS
370
-3
390
F
  0
LAYER
  5
20A
100
AcDbSymbolTableRecord
100
AcDbLayerTableRecord
  2
04___PRT_ALL_DTM_PNT
 70
0
 62
7
  6
CONTINUOUS
370
-3
390
F
  0
LAYER
  5
20B
100
AcDbSymbolTableRecord
100
AcDbLayerTableRecord
  2
05_ALL_DTM_CSYS
 70
0
 62
7
  6
CONTINUOUS
370
-3
390
F
  0
LAYER
  5
20C
100
AcDbSymbolTableRecord
100
AcDbLayerTableRecord
  2
05__ASM_ALL_DTM_CSYS
 70
0
 62
7
  6
CONTINUOUS
370
-3
390
F
  0
LAYER
  5
20D
100
AcDbSymbolTableRecord
100
AcDbLayerTableRecord
  2
05__ASM_DEF_DTM_CSYS
 70
0
 62
7
  6
CONTINUOUS
370
-3
390
F
  0
LAYER
  5
20E
100
AcDbSymbolTableRecord
100
AcDbLayerTableRecord
  2
05___PRT_ALL_DTM_CSYS
 70
0
 62
7
  6
CONTINUOUS
370
-3
390
F
  0
LAYER
  5
20F
100
AcDbSymbolTableRecord
100
AcDbLayerTableRecord
  2
05___PRT_DEF_DTM_CSYS
 70
0
 62
7
  6
CONTINUOUS
370
-3
390
F
  0
LAYER
  5
210
100
AcDbSymbolTableRecord
100
AcDbLayerTableRecord
  2
06_ALL_SURFS
 70
0
 62
7
  6
CONTINUOUS
370
-3
390
F
  0
LAYER
  5
211
100
AcDbSymbolTableRecord
100
AcDbLayerTableRecord
  2
06__ASM_ALL_SURFS
 70
0
 62
7
  6
CONTINUOUS
370
-3
390
F
  0
LAYER
  5
212
100
AcDbSymbolTableRecord
100
AcDbLayerTableRecord
  2
06___PRT_ALL_SURFS
 70
0
 62
7
  6
CONTINUOUS
370
-3
390
F
  0
LAYER
  5
213
100
AcDbSymbolTableRecord
100
AcDbLayerTableRecord
  2
07__ASM_ALL_SKELETONS
 70
0
 62
7
  6
CONTINUOUS
370
-3
390
F
  0
ENDTAB
  0
TABLE
  2
STYLE
  5
3
100
AcDbSymbolTable
 70
1
  0
STYLE
  5
11
100
AcDbSymbolTableRecord
100
AcDbTextStyleTableRecord
  2
STANDARD
 70
0
 40
0.0
 41
0.8
 50
0.0
 71
0
 42
0.2
  3
txt
  4

  0
STYLE
  5
214
100
AcDbSymbolTableRecord
100
AcDbTextStyleTableRecord
  2
TEXTSTYLE_1
 70
0
 40
0.0
 41
0.8
 50
0.0
 71
0
 42
0.2
  3
gdt
  4

  0
ENDTAB
  0
TABLE
  2
VIEW
  5
6
100
AcDbSymbolTable
 70
0
  0
ENDTAB
  0
TABLE
  2
UCS
  5
7
100
AcDbSymbolTable
 70
0
  0
ENDTAB
  0
TABLE
  2
APPID
  5
9
100
AcDbSymbolTable
 70
1
  0
APPID
  5
215
100
AcDbSymbolTableRecord
100
AcDbRegAppTableRecord
  2
ACAD
 70
0
  0
ENDTAB
  0
TABLE
  2
BLOCK_RECORD
  5
1
100
AcDbSymbolTable
 70
0
  0
BLOCK_RECORD
  5
216
100
AcDbSymbolTableRecord
100
AcDbBlockTableRecord
  2
*Model_Space
  0
BLOCK_RECORD
  5
217
100
AcDbSymbolTableRecord
100
AcDbBlockTableRecord
  2
*Paper_Space
  0
BLOCK_RECORD
  5
218
100
AcDbSymbolTableRecord
100
AcDbBlockTableRecord
  2
_CLOSED
  0
ENDTAB
  0
TABLE
  2
DIMSTYLE
  5
A
100
AcDbSymbolTable
 70
1
100
AcDbDimStyleTable
 71
0
  0
DIMSTYLE
105
219
100
AcDbSymbolTableRecord
100
AcDbDimStyleTableRecord
  2
STANDARD
 70
0
  3

  4

 40
1.0
 41
0.1875
 42
0.0625
 43
0.38
 44
0.125
 45
0.0
 46
0.0
 47
0.01
 48
0.01
140
0.15625
141
0.09
142
0.0
143
25.4
144
1.0
145
0.0
146
1.0
147
0.625
 71
0.0
 72
0.0
 73
1
 74
1
 75
0
 76
0
 77
0
 78
8
 79
2
170
0
171
1
172
0
173
0
174
0
175
0
176
0
177
0
178
0
270
2
179
2
271
2
272
2
273
2
274
2
275
0
280
0
281
0
282
0
283
1
284
8
285
0
286
0
287
3
288
0
340
11
278
46
341
218
342
218
343
218
344
218
  0
ENDTAB
  0
ENDSEC
  0
SECTION
  2
BLOCKS
  0
BLOCK
  5
20
100
AcDbEntity
  8
0
100
AcDbBlockBegin
  2
*Model_Space
 70
0
 10
0.0
 20
0.0
 30
0.0
  3
*Model_Space
  1

  0
ENDBLK
  5
21
100
AcDbEntity
  8
0
100
AcDbBlockEnd
  0
BLOCK
  5
1C
100
AcDbEntity
  8
0
100
AcDbBlockBegin
  2
*Paper_Space
 70
0
 10
0.0
 20
0.0
 30
0.0
  3
*Paper_Space
  1

  0
ENDBLK
  5
1D
100
AcDbEntity
  8
0
100
AcDbBlockEnd
  0
BLOCK
  5
21A
100
AcDbEntity
  8
0
100
AcDbBlockBegin
  2
_CLOSED
 70
64
 10
0.0
 20
0.0
  3
_CLOSED
  1

  0
LINE
  5
21B
100
AcDbEntity
  8
0
  6
BYBLOCK
 62
0
100
AcDbLine
 10
0.0
 20
0.0
 11
-1.0
 21
0.1666666667
  0
LINE
  5
21C
100
AcDbEntity
  8
0
  6
BYBLOCK
 62
0
100
AcDbLine
 10
-1.0
 20
0.1666666667
 11
-1.0
 21
-0.1666666667
  0
LINE
  5
21D
100
AcDbEntity
  8
0
  6
BYBLOCK
 62
0
100
AcDbLine
 10
-1.0
 20
-0.1666666667
 11
0.0
 21
0.0
  0
LINE
  5
21E
100
AcDbEntity
  8
0
  6
BYBLOCK
 62
0
100
AcDbLine
 10
-1.0
 20
0.0
 11
0.0
 21
0.0
  0
ENDBLK
  5
21F
100
AcDbEntity
  8
0
  6
BYBLOCK
 62
0
100
AcDbBlockEnd
  0
ENDSEC
  0
SECTION
  2
ENTITIES
  0
LINE
  5
220
100
AcDbEntity
  8
0
100
AcDbLine
 62
7
  6
CONTINUOUS
 10
-8.7064215358
 20
171.7451062252
 11
46.6654811957
 21
186.5878483388
  0
LINE
  5
221
100
AcDbEntity
  8
0
100
AcDbLine
 62
7
  6
CONTINUOUS
 10
-12.8153961698
 20
170.8967446178
 11
-9.5096109322
 21
171.7828784753
  0
LINE
  5
222
100
AcDbEntity
  8
0
100
AcDbLine
 62
7
  6
CONTINUOUS
 10
46.6223766632
 20
186.829365504
 11
49.1680770371
 21
187.5117544464
  0
LINE
  5
223
100
AcDbEntity
  8
0
100
AcDbLine
 62
7
  6
CONTINUOUS
 10
-17.1498737337
 20
170.8421388191
 11
-14.4725757459
 21
170.7162313187
  0
LINE
  5
224
100
AcDbEntity
  8
0
100
AcDbLine
 62
7
  6
CONTINUOUS
 10
-8.7064215358
 20
171.7451062252
 11
-9.5096109322
 21
171.7828784753
  0
LINE
  5
225
100
AcDbEntity
  8
0
100
AcDbLine
 62
7
  6
CONTINUOUS
 10
-22.9959017517
 20
176.6723580064
 11
-20.3186037639
 21
176.546450506
  0
LINE
  5
226
100
AcDbEntity
  8
0
100
AcDbLine
 62
7
  6
CONTINUOUS
 10
53.9948466319
 20
201.3208279644
 11
50.805813742
 21
200.4659902138
  0
LINE
  5
227
100
AcDbEntity
  8
0
100
AcDbLine
 62
7
  6
CONTINUOUS
 10
-20.3853212165
 20
181.38281617
 11
-15.0134202052
 21
182.8227836885
  0
LINE
  5
228
100
AcDbEntity
  8
0
100
AcDbLine
 62
7
  6
CONTINUOUS
 10
-1.0579647141
 20
188.7655778613
 11
8.9232640936
 21
191.4411009671
  0
LINE
  5
229
100
AcDbEntity
  8
0
100
AcDbLine
 62
7
  6
CONTINUOUS
 10
-10.0112818089
 20
179.0563130945
 11
-10.8144712054
 21
179.0940853457
  0
LINE
  5
22A
100
AcDbEntity
  8
0
100
AcDbLine
 62
7
  6
CONTINUOUS
 10
-20.3853212165
 20
181.38281617
 11
-21.1885106128
 21
181.4205884201
  0
LINE
  5
22B
100
AcDbEntity
  8
0
100
AcDbLine
 62
7
  6
CONTINUOUS
 10
-3.4233521685
 20
190.1318456934
 11
-1.0579647141
 21
188.7655778613
  0
LINE
  5
22C
100
AcDbEntity
  8
0
100
AcDbLine
 62
7
  6
CONTINUOUS
 10
52.4829315397
 20
248.5777160969
 11
42.5329779013
 21
245.9105764717
  0
LINE
  5
22D
100
AcDbEntity
  8
0
100
AcDbLine
 62
7
  6
CONTINUOUS
 10
25.7125051654
 20
181.2087673127
 11
22.1563463939
 21
183.2619081671
  0
LINE
  5
22E
100
AcDbEntity
  8
0
100
AcDbLine
 62
7
  6
CONTINUOUS
 10
10.8337324139
 20
190.311239298
 11
8.9118256591
 21
191.4212969465
  0
LINE
  5
22F
100
AcDbEntity
  8
0
100
AcDbLine
 62
7
  6
CONTINUOUS
 10
14.7161345176
 20
188.6753478333
 11
23.8376355261
 21
183.4069382527
  0
LINE
  5
230
100
AcDbEntity
  8
0
100
AcDbLine
 62
7
  6
CONTINUOUS
 10
20.9176740498
 20
187.8291095604
 11
21.8798583877
 21
187.2733697563
  0
LINE
  5
231
100
AcDbEntity
  8
0
100
AcDbLine
 62
7
  6
CONTINUOUS
 10
4.3968851365
 20
201.6082859992
 11
23.9459741613
 21
190.3170952385
  0
LINE
  5
232
100
AcDbEntity
  8
0
100
AcDbLine
 62
7
  6
CONTINUOUS
 10
-37.7843181829
 20
259.5327025455
 11
-22.9959017517
 21
176.6723580065
  0
LINE
  5
233
100
AcDbEntity
  8
0
100
AcDbLine
 62
7
  6
CONTINUOUS
 10
-35.1070201952
 20
259.4067950451
 11
-34.2371133463
 21
254.5326571311
  0
LINE
  5
234
100
AcDbEntity
  8
0
100
AcDbLine
 62
7
  6
CONTINUOUS
 10
-21.1885106128
 20
181.4205884201
 11
-20.3186037639
 21
176.546450506
  0
LINE
  5
235
100
AcDbEntity
  8
0
100
AcDbLine
 62
7
  6
CONTINUOUS
 10
-33.43392395
 20
254.494884881
 11
-20.3853212165
 21
181.38281617
  0
LINE
  5
236
100
AcDbEntity
  8
0
100
AcDbLine
 62
7
  6
CONTINUOUS
 10
61.161827027
 20
252.0261469774
 11
56.6163723252
 21
250.8077129233
  0
LINE
  5
237
100
AcDbEntity
  8
0
100
AcDbLine
 62
7
  6
CONTINUOUS
 10
50.117342085
 20
249.9440045607
 11
40.1674546682
 21
247.2768587593
  0
LINE
  5
238
100
AcDbEntity
  8
0
100
AcDbLine
 62
7
  6
CONTINUOUS
 10
3.4000494063
 20
204.5862625109
 11
29.7310983273
 21
189.3779376667
  0
LINE
  5
239
100
AcDbEntity
  8
0
100
AcDbLine
 62
7
  6
CONTINUOUS
 10
15.3351124066
 20
198.104737794
 11
3.2767550007
 21
205.0694210873
  0
LINE
  5
23A
100
AcDbEntity
  8
0
100
AcDbLine
 62
7
  6
CONTINUOUS
 10
29.7310983273
 20
191.8678294892
 11
22.0134066548
 21
196.3254248685
  0
LINE
  5
23B
100
AcDbEntity
  8
0
100
AcDbLine
 62
7
  6
CONTINUOUS
 10
-9.5096109322
 20
171.7828784753
 11
-10.8144712054
 21
179.0940853457
  0
LINE
  5
23C
100
AcDbEntity
  8
0
100
AcDbLine
 62
7
  6
CONTINUOUS
 10
-25.6028876368
 20
261.9544298855
 11
-26.9077479101
 21
269.2656367566
  0
LINE
  5
23D
100
AcDbEntity
  8
0
100
AcDbLine
 62
7
  6
CONTINUOUS
 10
-26.1045585138
 20
269.2278645065
 11
-24.7996982405
 21
261.9166576354
  0
LINE
  5
23E
100
AcDbEntity
  8
0
100
AcDbLine
 62
7
  6
CONTINUOUS
 10
-8.7064215358
 20
171.7451062252
 11
-10.0112818088
 21
179.056313094
  0
LINE
  5
23F
100
AcDbEntity
  8
0
100
AcDbLine
 62
7
  6
CONTINUOUS
 10
5.7456345847
 20
280.1254547629
 11
6.19364604
 21
282.5337841388
  0
LINE
  5
240
100
AcDbEntity
  8
0
100
AcDbLine
 62
7
  6
CONTINUOUS
 10
3.5644434675
 20
260.5876752284
 11
3.4359297089
 21
260.5532264108
  0
LINE
  5
241
100
AcDbEntity
  8
0
100
AcDbLine
 62
7
  6
CONTINUOUS
 10
-33.43392395
 20
254.494884881
 11
-28.0620229387
 21
255.9348523994
  0
LINE
  5
242
100
AcDbEntity
  8
0
100
AcDbLine
 62
7
  6
CONTINUOUS
 10
-34.2371133463
 20
254.5326571311
 11
-28.865212335
 21
255.9726246496
  0
LINE
  5
243
100
AcDbEntity
  8
0
100
AcDbLine
 62
7
  6
CONTINUOUS
 10
-2.3595302839
 20
239.2364049626
 11
-12.744764725
 21
245.2347235042
  0
LINE
  5
244
100
AcDbEntity
  8
0
100
AcDbLine
 62
7
  6
CONTINUOUS
 10
-10.1222687024
 20
264.5909700189
 11
-10.4614029287
 21
266.4911585192
  0
LINE
  5
245
100
AcDbEntity
  8
0
100
AcDbLine
 62
7
  6
CONTINUOUS
 10
6.0146855112
 20
259.3926707564
 11
6.0146855112
 21
255.270564956
  0
LINE
  5
246
100
AcDbEntity
  8
0
100
AcDbLine
 62
7
  6
CONTINUOUS
 10
9.0795583368
 20
254.6724236044
 11
9.0878613408
 21
257.555689905
  0
LINE
  5
247
100
AcDbEntity
  8
0
100
AcDbLine
 62
7
  6
CONTINUOUS
 10
0.9814405651
 20
270.9573385858
 11
-5.9962359303
 21
269.0869341449
  0
LINE
  5
248
100
AcDbEntity
  8
0
100
AcDbLine
 62
7
  6
CONTINUOUS
 10
-33.43392395
 20
254.494884881
 11
-34.2371133463
 21
254.5326571311
  0
LINE
  5
249
100
AcDbEntity
  8
0
100
AcDbLine
 62
7
  6
CONTINUOUS
 10
-28.0620229387
 20
255.9348523994
 11
-28.865212335
 21
255.9726246496
  0
LINE
  5
24A
100
AcDbEntity
  8
0
100
AcDbLine
 62
7
  6
CONTINUOUS
 10
-35.1070201952
 20
259.4067950451
 11
-37.7843181829
 21
259.5327025455
  0
LINE
  5
24B
100
AcDbEntity
  8
0
100
AcDbLine
 62
7
  6
CONTINUOUS
 10
-25.6028876368
 20
261.9544298855
 11
-24.7996982405
 21
261.9166576354
  0
LINE
  5
24C
100
AcDbEntity
  8
0
100
AcDbLine
 62
7
  6
CONTINUOUS
 10
-26.1045585138
 20
269.2278645065
 11
2.9431421037
 21
277.0142599163
  0
LINE
  5
24D
100
AcDbEntity
  8
0
100
AcDbLine
 62
7
  6
CONTINUOUS
 10
-26.9077479101
 20
269.2656367566
 11
-30.2135331479
 21
268.3795028991
  0
LINE
  5
24E
100
AcDbEntity
  8
0
100
AcDbLine
 62
7
  6
CONTINUOUS
 10
3.9920937829
 20
278.3920806411
 11
-32.8908311355
 21
268.5054103995
  0
LINE
  5
24F
100
AcDbEntity
  8
0
100
AcDbLine
 62
7
  6
CONTINUOUS
 10
31.1164608046
 20
289.0353594068
 11
29.9335006887
 21
288.7182571335
  0
LINE
  5
250
100
AcDbEntity
  8
0
100
AcDbLine
 62
7
  6
CONTINUOUS
 10
11.2817493784
 20
283.7185562617
 11
12.4650944883
 21
284.035759007
  0
LINE
  5
251
100
AcDbEntity
  8
0
100
AcDbLine
 62
7
  6
CONTINUOUS
 10
28.2397749873
 20
289.887796153
 11
8.4050635611
 21
284.5709930078
  0
LINE
  5
252
100
AcDbEntity
  8
0
100
AcDbLine
 62
7
  6
CONTINUOUS
 10
27.4560729757
 20
289.900590277
 11
7.6213615495
 21
284.5837871318
  0
LINE
  5
253
100
AcDbEntity
  8
0
100
AcDbLine
 62
7
  6
CONTINUOUS
 10
-32.8908311356
 20
268.5054103995
 11
-30.2135331479
 21
268.3795028991
  0
LINE
  5
254
100
AcDbEntity
  8
0
100
AcDbLine
 62
7
  6
CONTINUOUS
 10
-26.1045585138
 20
269.2278645065
 11
-26.9077479101
 21
269.2656367566
  0
LINE
  5
255
100
AcDbEntity
  8
0
100
AcDbLine
 62
7
  6
CONTINUOUS
 10
-10.1222687024
 20
264.5909700189
 11
6.0146855112
 21
255.270564956
  0
LINE
  5
256
100
AcDbEntity
  8
0
100
AcDbLine
 62
7
  6
CONTINUOUS
 10
21.8798583877
 20
187.7951222187
 11
21.8798583877
 21
187.2733697563
  0
LINE
  5
257
100
AcDbEntity
  8
0
100
AcDbLine
 62
7
  6
CONTINUOUS
 10
23.9459741613
 20
187.8272034167
 11
23.9459741613
 21
190.3170952385
  0
LINE
  5
258
100
AcDbEntity
  8
0
100
AcDbLine
 62
7
  6
CONTINUOUS
 10
25.7125051654
 20
182.933400484
 11
25.7125051654
 21
181.2087673127
  0
LINE
  5
259
100
AcDbEntity
  8
0
100
AcDbLine
 62
7
  6
CONTINUOUS
 10
29.7310983273
 20
191.8678294892
 11
29.7310983273
 21
189.3779376667
  0
LINE
  5
25A
100
AcDbEntity
  8
0
100
AcDbLine
 62
7
  6
CONTINUOUS
 10
22.1563463939
 20
183.2619081671
 11
22.1784340104
 21
184.3652622339
  0
LINE
  5
25B
100
AcDbEntity
  8
0
100
AcDbLine
 62
7
  6
CONTINUOUS
 10
30.9477011515
 20
288.8424278281
 11
30.8876741862
 21
288.8354155136
  0
LINE
  5
25C
100
AcDbEntity
  8
0
100
AcDbLine
 62
7
  6
CONTINUOUS
 10
38.3419600819
 20
237.9378185484
 11
26.2394648168
 21
244.9279950495
  0
LINE
  5
25D
100
AcDbEntity
  8
0
100
AcDbLine
 62
7
  6
CONTINUOUS
 10
12.0590514984
 20
253.7170803189
 11
15.5808542383
 21
251.6829524622
  0
LINE
  5
25E
100
AcDbEntity
  8
0
100
AcDbLine
 62
7
  6
CONTINUOUS
 10
42.8433400746
 20
245.7313170444
 11
35.2426302924
 21
250.1213458564
  0
LINE
  5
25F
100
AcDbEntity
  8
0
100
AcDbLine
 62
7
  6
CONTINUOUS
 10
31.7972141008
 20
189.9317713305
 11
31.7972141008
 21
190.4535237913
  0
LINE
  5
260
100
AcDbEntity
  8
0
100
AcDbLine
 62
7
  6
CONTINUOUS
 10
50.1172112826
 20
249.9438966443
 11
52.4829315397
 21
248.5777160969
  0
LINE
  5
261
100
AcDbEntity
  8
0
100
AcDbLine
 62
7
  6
CONTINUOUS
 10
8.4050635612
 20
284.5709930078
 11
11.2817493784
 21
283.7185562617
  0
LINE
  5
262
100
AcDbEntity
  8
0
100
AcDbLine
 62
7
  6
CONTINUOUS
 10
56.6163723251
 20
250.8077129233
 11
55.4903412463
 21
251.4580875622
  0
LINE
  5
263
100
AcDbEntity
  8
0
100
AcDbLine
 62
7
  6
CONTINUOUS
 10
53.5749736224
 20
256.6721234838
 11
56.218033709
 21
255.1455540509
  0
LINE
  5
264
100
AcDbEntity
  8
0
100
AcDbLine
 62
7
  6
CONTINUOUS
 10
11.5329049935
 20
283.5734993208
 11
11.2817493784
 21
283.7185562617
  0
LINE
  5
265
100
AcDbEntity
  8
0
100
AcDbLine
 62
7
  6
CONTINUOUS
 10
46.6654811957
 20
186.5878483388
 11
45.4019427341
 21
193.6675267313
  0
LINE
  5
266
100
AcDbEntity
  8
0
100
AcDbLine
 62
7
  6
CONTINUOUS
 10
56.218033709
 20
255.1455540509
 11
56.218033709
 21
256.5750011234
  0
LINE
  5
267
100
AcDbEntity
  8
0
100
AcDbLine
 62
7
  6
CONTINUOUS
 10
56.6163723252
 20
250.8077129233
 11
56.6163725248
 21
252.2817115999
  0
LINE
  5
268
100
AcDbEntity
  8
0
100
AcDbLine
 62
7
  6
CONTINUOUS
 10
31.1164608046
 20
289.0353594068
 11
28.2397749874
 21
289.887796153
  0
LINE
  5
269
100
AcDbEntity
  8
0
100
AcDbLine
 62
7
  6
CONTINUOUS
 10
54.0615640845
 20
196.4844623004
 11
53.2347617681
 21
201.1170830493
  0
LINE
  5
26A
100
AcDbEntity
  8
0
100
AcDbLine
 62
7
  6
CONTINUOUS
 10
53.9948466319
 20
201.3208279644
 11
53.3689709055
 21
204.8276455179
  0
LINE
  5
26B
100
AcDbEntity
  8
0
100
AcDbLine
 62
7
  6
CONTINUOUS
 10
45.536049496
 20
248.7159529475
 11
45.0861914888
 21
251.2365331357
  0
LINE
  5
26C
100
AcDbEntity
  8
0
100
AcDbLine
 62
7
  6
CONTINUOUS
 10
61.161827027
 20
252.0261469774
 11
61.1618270499
 21
253.1150398145
  0
LINE
  5
26D
100
AcDbEntity
  8
0
100
AcDbLine
 62
7
  6
CONTINUOUS
 10
31.1164608046
 20
289.0353594068
 11
31.3676068926
 21
288.8902992183
  0
LINE
  5
26E
100
AcDbEntity
  8
0
100
AcDbLine
 62
7
  6
CONTINUOUS
 10
55.4903412463
 20
251.4580875622
 11
55.3922643754
 21
252.1124130912
  0
LINE
  5
26F
100
AcDbEntity
  8
0
100
AcDbLine
 62
7
  6
CONTINUOUS
 10
76.0527451352
 20
261.8918042685
 11
76.0527451352
 21
260.4623571961
  0
ARC
  5
270
100
AcDbEntity
  8
0
100
AcDbCircle
 62
7
  6
CONTINUOUS
 10
-40.8210549054
 20
130.824122891
 40
175.6081496902
100
AcDbArc
 50
48.276429736
 51
50.0664978405
  0
ARC
  5
271
100
AcDbEntity
  8
0
100
AcDbCircle
 62
7
  6
CONTINUOUS
 10
-59.4325479225
 20
126.9230046499
 40
173.7374375927
100
AcDbArc
 50
48.2667919464
 51
50.0761361348
  0
ARC
  5
272
100
AcDbEntity
  8
0
100
AcDbCircle
 62
7
  6
CONTINUOUS
 10
43.0950500013
 20
340.2915856979
 40
89.0426541897
100
AcDbArc
 50
276.9519925115
 51
279.8543153757
  0
ARC
  5
273
100
AcDbEntity
  8
0
100
AcDbCircle
 62
7
  6
CONTINUOUS
 10
41.0452582806
 20
202.1351412276
 40
87.2932664893
100
AcDbArc
 50
96.3651044113
 51
96.518188039
  0
ARC
  5
274
100
AcDbEntity
  8
0
100
AcDbCircle
 62
7
  6
CONTINUOUS
 10
41.0029184462
 20
202.5059564158
 40
86.9200419395
100
AcDbArc
 50
96.5182066806
 51
96.6430515818
  0
ARC
  5
275
100
AcDbEntity
  8
0
100
AcDbCircle
 62
7
  6
CONTINUOUS
 10
40.8730777921
 20
203.6028475858
 40
85.8154934773
100
AcDbArc
 50
96.682015351
 51
97.3240998505
  0
ARC
  5
276
100
AcDbEntity
  8
0
100
AcDbCircle
 62
7
  6
CONTINUOUS
 10
40.3378958173
 20
207.6197403287
 40
81.7631775857
100
AcDbArc
 50
97.3106932191
 51
99.1874972023
  0
ARC
  5
277
100
AcDbEntity
  8
0
100
AcDbCircle
 62
7
  6
CONTINUOUS
 10
10.8033554578
 20
251.46463945
 40
43.0874640138
100
AcDbArc
 50
6.9416755401
 51
7.6822905639
  0
ARC
  5
278
100
AcDbEntity
  8
0
100
AcDbCircle
 62
7
  6
CONTINUOUS
 10
26.4263181861
 20
254.7106045406
 40
32.4789231905
100
AcDbArc
 50
115.4583509481
 51
117.2939840682
  0
ARC
  5
279
100
AcDbEntity
  8
0
100
AcDbCircle
 62
7
  6
CONTINUOUS
 10
-22.4761965895
 20
256.1908923634
 40
31.5922683
100
AcDbArc
 50
351.1373566413
 51
357.2450416061
  0
ARC
  5
27A
100
AcDbEntity
  8
0
100
AcDbCircle
 62
7
  6
CONTINUOUS
 10
24.9926940058
 20
257.5029508869
 40
29.3401116603
100
AcDbArc
 50
117.3066172819
 51
118.6221865414
  0
ARC
  5
27B
100
AcDbEntity
  8
0
100
AcDbCircle
 62
7
  6
CONTINUOUS
 10
28.2363729866
 20
267.3095677785
 40
27.5192472921
100
AcDbArc
 50
165.996252655
 51
179.9973811688
  0
ARC
  5
27C
100
AcDbEntity
  8
0
100
AcDbCircle
 62
7
  6
CONTINUOUS
 10
55.1978880818
 20
267.3095689541
 40
27.5192376701
100
AcDbArc
 50
0.0026163883
 51
14.0037498308
  0
ARC
  5
27D
100
AcDbEntity
  8
0
100
AcDbCircle
 62
7
  6
CONTINUOUS
 10
25.9497330691
 20
234.0263339744
 40
18.5851462412
100
AcDbArc
 50
59.9988311698
 51
72.0419629535
  0
ARC
  5
27E
100
AcDbEntity
  8
0
100
AcDbCircle
 62
7
  6
CONTINUOUS
 10
-14.8860697363
 20
179.3778013425
 40
3.6075788839
100
AcDbArc
 50
74.6818951244
 51
80.6616708633
  0
ARC
  5
27F
100
AcDbEntity
  8
0
100
AcDbCircle
 62
7
  6
CONTINUOUS
 10
3.4549228848
 20
261.5527545519
 40
1.0732784974
100
AcDbArc
 50
239.2914905159
 51
239.9886823157
  0
ARC
  5
280
100
AcDbEntity
  8
0
100
AcDbCircle
 62
7
  6
CONTINUOUS
 10
3.2916733563
 20
261.0769388359
 40
0.5685051852
100
AcDbArc
 50
295.3698509107
 51
298.9870970161
  0
ARC
  5
281
100
AcDbEntity
  8
0
100
AcDbCircle
 62
7
  6
CONTINUOUS
 10
3.2998897277
 20
261.0595184506
 40
0.5492444238
100
AcDbArc
 50
285.0385109944
 51
295.3740175537
  0
ARC
  5
282
100
AcDbEntity
  8
0
100
AcDbCircle
 62
7
  6
CONTINUOUS
 10
3.2965500252
 20
261.0730612657
 40
0.5381837878
100
AcDbArc
 50
278.7822746363
 51
285.0092876957
  0
SPLINE
  5
283
100
AcDbEntity
  8
0
100
AcDbSpline
 62
7
  6
CONTINUOUS
 70
0
 71
3
 72
15
 73
11
 74
0
 42
0.0000001
 43
0.0000001
 44
0.0000000001
 40
0.0
 40
0.0
 40
0.0
 40
0.0
 40
0.0980180984
 40
0.2111224324
 40
0.337105748
 40
0.472022955
 40
0.610968284
 40
0.7486260771
 40
0.8798102336
 40
1.0
 40
1.0
 40
1.0
 40
1.0
 10
2.9181000444
 20
260.6463574942
 30
0.0
 10
2.8249048628
 20
260.7001853002
 30
0.0
 10
2.641365537
 20
260.8461392417
 30
0.0
 10
2.4023238599
 20
261.1308039965
 30
0.0
 10
2.1893330324
 20
261.4836014498
 30
0.0
 10
2.0132359693
 20
261.8869761697
 30
0.0
 10
1.882782441
 20
262.3206634676
 30
0.0
 10
1.8046737644
 20
262.7626657395
 30
0.0
 10
1.7827963384
 20
263.1903531184
 30
0.0
 10
1.8077870959
 20
263.4666352925
 30
0.0
 10
1.831776838
 20
263.5964041481
 30
0.0
  0
SPLINE
  5
284
100
AcDbEntity
  8
0
100
AcDbSpline
 62
7
  6
CONTINUOUS
 70
0
 71
3
 72
9
 73
5
 74
0
 42
0.0000001
 43
0.0000001
 44
0.0000000001
 40
0.0
 40
0.0
 40
0.0
 40
0.0
 40
0.4699861662
 40
1.0
 40
1.0
 40
1.0
 40
1.0
 10
3.3787199823
 20
260.5411873261
 30
0.0
 10
3.3044959993
 20
260.5297174978
 30
0.0
 10
3.1404488232
 20
260.5394927697
 30
0.0
 10
2.9914429257
 20
260.603996008
 30
0.0
 10
2.9181000444
 20
260.6463574942
 30
0.0
  0
SPLINE
  5
285
100
AcDbEntity
  8
0
100
AcDbSpline
 62
7
  6
CONTINUOUS
 70
0
 71
3
 72
9
 73
5
 74
0
 42
0.0000001
 43
0.0000001
 44
0.0000000001
 40
0.0
 40
0.0
 40
0.0
 40
0.0
 40
0.5393080632
 40
1.0
 40
1.0
 40
1.0
 40
1.0
 10
3.9211855293
 20
261.0702532222
 30
0.0
 10
3.8845242011
 20
260.9740379821
 30
0.0
 10
3.7976583185
 20
260.8013584995
 30
0.0
 10
3.6580169868
 20
260.6634230018
 30
0.0
 10
3.5831832215
 20
260.6172080474
 30
0.0
  0
SPLINE
  5
286
100
AcDbEntity
  8
0
100
AcDbSpline
 62
7
  6
CONTINUOUS
 70
0
 71
3
 72
9
 73
5
 74
0
 42
0.0000001
 43
0.0000001
 44
0.0000000001
 40
0.0
 40
0.0
 40
0.0
 40
0.0
 40
0.253769065
 40
1.0
 40
1.0
 40
1.0
 40
1.0
 10
3.5831832215
 20
260.6172080474
 30
0.0
 10
3.5716051683
 20
260.6100578099
 30
0.0
 10
3.5250224413
 20
260.5834694432
 30
0.0
 10
3.4745756156
 20
260.5636058332
 30
0.0
 10
3.4359265049
 20
260.553238232
 30
0.0
  0
SPLINE
  5
287
100
AcDbEntity
  8
0
100
AcDbSpline
 62
7
  6
CONTINUOUS
 70
0
 71
3
 72
11
 73
7
 74
0
 42
0.0000001
 43
0.0000001
 44
0.0000000001
 40
0.0
 40
0.0
 40
0.0
 40
0.0
 40
0.2754425525
 40
0.5361770052
 40
0.778666023
 40
1.0
 40
1.0
 40
1.0
 40
1.0
 10
56.218033709
 20
255.1455540509
 30
0.0
 10
58.0930532057
 20
255.3966933573
 30
0.0
 10
61.730219279
 20
255.989091671
 30
0.0
 10
66.9475758516
 20
257.1817923217
 30
0.0
 10
71.7111546031
 20
258.6366226271
 30
0.0
 10
74.6740630114
 20
259.8219944445
 30
0.0
 10
76.0527451352
 20
260.4623571961
 30
0.0
  0
SPLINE
  5
288
100
AcDbEntity
  8
0
100
AcDbSpline
 62
7
  6
CONTINUOUS
 70
0
 71
3
 72
9
 73
5
 74
0
 42
0.0000001
 43
0.0000001
 44
0.0000000001
 40
0.0
 40
0.0
 40
0.0
 40
0.0
 40
0.5132620111
 40
1.0
 40
1.0
 40
1.0
 40
1.0
 10
28.2397749874
 20
289.887796153
 30
0.0
 10
28.1092588967
 20
289.9234532892
 30
0.0
 10
27.845809982
 20
289.9648795326
 30
0.0
 10
27.5800026627
 20
289.9338200269
 30
0.0
 10
27.456072637
 20
289.900591759
 30
0.0
  0
SPLINE
  5
289
100
AcDbEntity
  8
0
100
AcDbSpline
 62
7
  6
CONTINUOUS
 70
0
 71
3
 72
9
 73
5
 74
0
 42
0.0000001
 43
0.0000001
 44
0.0000000001
 40
0.0
 40
0.0
 40
0.0
 40
0.0
 40
0.520257747
 40
1.0
 40
1.0
 40
1.0
 40
1.0
 10
27.2958392927
 20
288.4437685673
 30
0.0
 10
25.1971394703
 20
288.1122126172
 30
0.0
 10
21.1856965991
 20
287.3193219094
 30
0.0
 10
17.2601828007
 20
286.1626585782
 30
0.0
 10
15.4168277382
 20
285.4987647763
 30
0.0
  0
SPLINE
  5
28A
100
AcDbEntity
  8
0
100
AcDbSpline
 62
7
  6
CONTINUOUS
 70
0
 71
3
 72
12
 73
8
 74
0
 42
0.0000001
 43
0.0000001
 44
0.0000000001
 40
0.0
 40
0.0
 40
0.0
 40
0.0
 40
0.2816735293
 40
0.5373322833
 40
0.773613292
 40
0.8872411664
 40
1.0
 40
1.0
 40
1.0
 40
1.0
 10
10.8103013684
 20
283.5339312884
 30
0.0
 10
9.6610671191
 20
282.9528747058
 30
0.0
 10
7.5266231821
 20
281.7194731027
 30
0.0
 10
4.7552099987
 20
279.4960953051
 30
0.0
 10
2.9778369233
 20
277.3343160886
 30
0.0
 10
1.9942141468
 20
275.4542018248
 30
0.0
 10
1.6596249757
 20
274.4690433529
 30
0.0
 10
1.5349985852
 20
273.9688152168
 30
0.0
  0
SPLINE
  5
28B
100
AcDbEntity
  8
0
100
AcDbSpline
 62
7
  6
CONTINUOUS
 70
0
 71
3
 72
19
 73
15
 74
0
 42
0.0000001
 43
0.0000001
 44
0.0000000001
 40
0.0
 40
0.0
 40
0.0
 40
0.0
 40
0.0419864224
 40
0.0850468045
 40
0.1303183436
 40
0.1786034047
 40
0.2305931385
 40
0.2866053674
 40
0.3466813674
 40
0.4106477609
 40
0.5486713303
 40
0.6965584975
 40
0.8489419152
 40
1.0
 40
1.0
 40
1.0
 40
1.0
 10
81.8991822887
 20
273.969098466
 30
0.0
 10
81.7102544213
 20
274.7273184481
 30
0.0
 10
81.1290060033
 20
276.2189119828
 30
0.0
 10
79.764748071
 20
278.2421312928
 30
0.0
 10
77.9837835667
 20
280.072248166
 30
0.0
 10
75.8283445798
 20
281.724902176
 30
0.0
 10
73.3281555153
 20
283.2213020339
 30
0.0
 10
70.5009594396
 20
284.5688437106
 30
0.0
 10
67.3689468063
 20
285.7686604887
 30
0.0
 10
62.7037695975
 20
287.2015704149
 30
0.0
 10
56.3180799094
 20
288.5456043721
 30
0.0
 10
48.2004802009
 20
289.4487436445
 30
0.0
 10
39.7931818826
 20
289.6438492011
 30
0.0
 10
34.1482101025
 20
289.2904456784
 30
0.0
 10
31.3535759114
 20
288.9845956259
 30
0.0
  0
LINE
  5
28C
100
AcDbEntity
  8
0
100
AcDbLine
 62
7
  6
CONTINUOUS
 10
31.3535759114
 20
288.9845956259
 11
31.2348890783
 21
288.9715261968
  0
SPLINE
  5
28D
100
AcDbEntity
  8
0
100
AcDbSpline
 62
7
  6
CONTINUOUS
 70
0
 71
3
 72
17
 73
13
 74
0
 42
0.0000001
 43
0.0000001
 44
0.0000000001
 40
0.0
 40
0.0
 40
0.0
 40
0.0
 40
0.1757676597
 40
0.3392781217
 40
0.4882099908
 40
0.6208956257
 40
0.7366014509
 40
0.7882846025
 40
0.8361282992
 40
0.9219208372
 40
0.9614930776
 40
1.0
 40
1.0
 40
1.0
 40
1.0
 10
58.3341278671
 20
252.5626579093
 30
0.0
 10
60.0832084948
 20
252.8677729245
 30
0.0
 10
63.4421654301
 20
253.5641595141
 30
0.0
 10
68.1889699493
 20
254.9194094526
 30
0.0
 10
72.3962619037
 20
256.5257074479
 30
0.0
 10
75.9803024603
 20
258.3508997193
 30
0.0
 10
78.4817551033
 20
260.0884692764
 30
0.0
 10
80.0750929424
 20
261.5740212427
 30
0.0
 10
81.2992932317
 20
262.9922736118
 30
0.0
 10
82.1959303528
 20
264.5299339686
 30
0.0
 10
82.6436139829
 20
266.1312832449
 30
0.0
 10
82.7171089714
 20
266.9218530688
 30
0.0
 10
82.7171183294
 20
267.3108256587
 30
0.0
  0
SPLINE
  5
28E
100
AcDbEntity
  8
0
100
AcDbSpline
 62
7
  6
CONTINUOUS
 70
0
 71
3
 72
20
 73
16
 74
0
 42
0.0000001
 43
0.0000001
 44
0.0000000001
 40
0.0
 40
0.0
 40
0.0
 40
0.0
 40
0.0321729393
 40
0.0665998375
 40
0.1050349794
 40
0.1485701427
 40
0.1977289049
 40
0.2526168426
 40
0.3130415264
 40
0.3785942701
 40
0.4487049339
 40
0.5226811807
 40
0.6789750513
 40
0.8405547583
 40
1.0
 40
1.0
 40
1.0
 40
1.0
 10
0.7171384371
 20
267.3108255232
 30
0.0
 10
0.7171474001
 20
266.6762461826
 30
0.0
 10
0.9209406277
 20
265.3557154065
 30
0.0
 10
1.8054806193
 20
263.4584010721
 30
0.0
 10
3.2332307393
 20
261.6403513598
 30
0.0
 10
5.1743496251
 20
259.9154421564
 30
0.0
 10
7.6024965953
 20
258.2968510612
 30
0.0
 10
10.487421067
 20
256.8019036484
 30
0.0
 10
13.7925002699
 20
255.4487929796
 30
0.0
 10
17.4746293346
 20
254.2552721964
 30
0.0
 10
21.4849970685
 20
253.2372829945
 30
0.0
 10
27.3046598113
 20
252.1126496223
 30
0.0
 10
34.9994867853
 20
251.2512516623
 30
0.0
 10
44.423787388
 20
251.0697451105
 30
0.0
 10
50.7508669435
 20
251.5222699638
 30
0.0
 10
53.8725642801
 20
251.9035805665
 30
0.0
  0
SPLINE
  5
28F
100
AcDbEntity
  8
0
100
AcDbSpline
 62
7
  6
CONTINUOUS
 70
0
 71
3
 72
11
 73
7
 74
0
 42
0.0000001
 43
0.0000001
 44
0.0000000001
 40
0.0
 40
0.0
 40
0.0
 40
0.0
 40
0.3018048983
 40
0.5648054422
 40
0.7930857525
 40
1.0
 40
1.0
 40
1.0
 40
1.0
 10
6.19364604
 20
282.5337841388
 30
0.0
 10
6.2423335265
 20
282.7930731836
 30
0.0
 10
6.3697853658
 20
283.2731423529
 30
0.0
 10
6.681725418
 20
283.8991342341
 30
0.0
 10
7.0973070068
 20
284.3594790401
 30
0.0
 10
7.4466592329
 20
284.5369473081
 30
0.0
 10
7.6213612109
 20
284.5837886133
 30
0.0
  0
SPLINE
  5
290
100
AcDbEntity
  8
0
100
AcDbSpline
 62
7
  6
CONTINUOUS
 70
0
 71
3
 72
24
 73
20
 74
0
 42
0.0000001
 43
0.0000001
 44
0.0000000001
 40
0.0
 40
0.0
 40
0.0
 40
0.0
 40
0.0139529202
 40
0.0213080124
 40
0.0358746556
 40
0.0551812863
 40
0.0775798307
 40
0.1020643572
 40
0.1280789161
 40
0.1552886739
 40
0.1834749128
 40
0.2422114201
 40
0.303498877
 40
0.366868873
 40
0.4320171692
 40
0.5668542016
 40
0.7068852849
 40
0.8514224568
 40
1.0
 40
1.0
 40
1.0
 40
1.0
 10
12.4647531264
 20
284.0356674799
 30
0.0
 10
12.4489504842
 20
284.0379638568
 30
0.0
 10
12.422835453
 20
284.0414095285
 30
0.0
 10
12.396424006
 20
284.0789456474
 30
0.0
 10
12.426174323
 20
284.1262371285
 30
0.0
 10
12.4700109922
 20
284.1691655943
 30
0.0
 10
12.5303196613
 20
284.2169291171
 30
0.0
 10
12.5987518569
 20
284.2641171293
 30
0.0
 10
12.6739906769
 20
284.3117510102
 30
0.0
 10
12.7541325488
 20
284.3592363197
 30
0.0
 10
12.8679723788
 20
284.4233210012
 30
0.0
 10
13.0179811563
 20
284.5025476963
 30
0.0
 10
13.2059575052
 20
284.5959521996
 30
0.0
 10
13.4023338486
 20
284.688840658
 30
0.0
 10
13.6768078851
 20
284.8133890162
 30
0.0
 10
14.0343898819
 20
284.9669938207
 30
0.0
 10
14.4792793783
 20
285.1472523202
 30
0.0
 10
14.9419162448
 20
285.3253722217
 30
0.0
 10
15.2567790233
 20
285.4411446649
 30
0.0
 10
15.4167639803
 20
285.4987554062
 30
0.0
  0
SPLINE
  5
291
100
AcDbEntity
  8
0
100
AcDbSpline
 62
7
  6
CONTINUOUS
 70
0
 71
3
 72
9
 73
5
 74
0
 42
0.0000001
 43
0.0000001
 44
0.0000000001
 40
0.0
 40
0.0
 40
0.0
 40
0.0
 40
0.4751810316
 40
1.0
 40
1.0
 40
1.0
 40
1.0
 10
76.0527451352
 20
261.8918042686
 30
0.0
 10
74.5051488356
 20
261.172985182
 30
0.0
 10
71.1554814203
 20
259.8577888205
 30
0.0
 10
67.7025767465
 20
258.855860389
 30
0.0
 10
65.8743634643
 20
258.3981539838
 30
0.0
  0
SPLINE
  5
292
100
AcDbEntity
  8
0
100
AcDbSpline
 62
7
  6
CONTINUOUS
 70
0
 71
3
 72
9
 73
5
 74
0
 42
0.0000001
 43
0.0000001
 44
0.0000000001
 40
0.0
 40
0.0
 40
0.0
 40
0.0
 40
0.2409317612
 40
1.0
 40
1.0
 40
1.0
 40
1.0
 10
65.8743634643
 20
258.3981539838
 30
0.0
 10
65.1085557539
 20
258.20642849
 30
0.0
 10
61.9175791812
 20
257.4607354636
 30
0.0
 10
58.68320128
 20
256.9051846095
 30
0.0
 10
56.218033709
 20
256.5750011234
 30
0.0
  0
SPLINE
  5
293
100
AcDbEntity
  8
0
100
AcDbSpline
 62
7
  6
CONTINUOUS
 70
0
 71
3
 72
15
 73
11
 74
0
 42
0.0000001
 43
0.0000001
 44
0.0000000001
 40
0.0
 40
0.0
 40
0.0
 40
0.0
 40
0.0965787181
 40
0.2054137914
 40
0.3249581583
 40
0.4531213488
 40
0.5874515365
 40
0.7252593369
 40
0.8637193355
 40
1.0
 40
1.0
 40
1.0
 40
1.0
 10
10.357865104
 20
266.1201079979
 30
0.0
 10
11.5484960902
 20
265.4324216524
 30
0.0
 10
14.1931191784
 20
264.1622141291
 30
0.0
 10
18.5624301362
 20
262.6225972174
 30
0.0
 10
23.4859069218
 20
261.3638482679
 30
0.0
 10
28.8463989307
 20
260.4172986188
 30
0.0
 10
34.5164942768
 20
259.8060324367
 30
0.0
 10
40.3599837981
 20
259.5453658977
 30
0.0
 10
46.2359486481
 20
259.6416382868
 30
0.0
 10
50.1385468579
 20
259.9467867316
 30
0.0
 10
52.0667701191
 20
260.1618854787
 30
0.0
  0
SPLINE
  5
294
100
AcDbEntity
  8
0
100
AcDbSpline
 62
7
  6
CONTINUOUS
 70
0
 71
3
 72
10
 73
6
 74
0
 42
0.0000001
 43
0.0000001
 44
0.0000000001
 40
0.0
 40
0.0
 40
0.0
 40
0.0
 40
0.5373775197
 40
0.7844933136
 40
1.0
 40
1.0
 40
1.0
 40
1.0
 10
53.5040907776
 20
257.2245663844
 30
0.0
 10
53.4244448143
 20
257.8151421683
 30
0.0
 10
53.1659340794
 20
258.6672435156
 30
0.0
 10
52.5969492507
 20
259.6228148019
 30
0.0
 10
52.2500615733
 20
260.0085263017
 30
0.0
 10
52.0667714763
 20
260.1618840916
 30
0.0
  0
SPLINE
  5
295
100
AcDbEntity
  8
0
100
AcDbSpline
 62
7
  6
CONTINUOUS
 70
0
 71
3
 72
15
 73
11
 74
0
 42
0.0000001
 43
0.0000001
 44
0.0000000001
 40
0.0
 40
0.0
 40
0.0
 40
0.0
 40
0.0965634521
 40
0.2055465671
 40
0.3253375041
 40
0.4537656997
 40
0.5882838321
 40
0.7261106237
 40
0.8643231587
 40
1.0
 40
1.0
 40
1.0
 40
1.0
 10
8.3494549965
 20
263.4745664108
 30
0.0
 10
9.6378461726
 20
262.7304096321
 30
0.0
 10
12.5041068703
 20
261.3586817543
 30
0.0
 10
17.2425766578
 20
259.7019189614
 30
0.0
 10
22.5856525644
 20
258.3547422342
 30
0.0
 10
28.4020126339
 20
257.3518962464
 30
0.0
 10
34.548980905
 20
256.7180409069
 30
0.0
 10
40.8742056332
 20
256.4702318341
 30
0.0
 10
47.2201589704
 20
256.6143577028
 30
0.0
 10
51.4283347475
 20
256.9753495889
 30
0.0
 10
53.5039389438
 20
257.2246335545
 30
0.0
  0
SPLINE
  5
296
100
AcDbEntity
  8
0
100
AcDbSpline
 62
7
  6
CONTINUOUS
 70
0
 71
3
 72
17
 73
13
 74
0
 42
0.0000001
 43
0.0000001
 44
0.0000000001
 40
0.0
 40
0.0
 40
0.0
 40
0.0
 40
0.1472347172
 40
0.2738236567
 40
0.3841283235
 40
0.4357453227
 40
0.4865805104
 40
0.5380173919
 40
0.5913803202
 40
0.7079939383
 40
0.8432098508
 40
1.0
 40
1.0
 40
1.0
 40
1.0
 10
74.3319902938
 20
266.895612456
 30
0.0
 10
75.1841669142
 20
267.4595475594
 30
0.0
 10
76.7030230757
 20
268.6190203674
 30
0.0
 10
78.4837655656
 20
270.6314011072
 30
0.0
 10
79.3792350992
 20
272.4620506923
 30
0.0
 10
79.6626719814
 20
273.9187171685
 30
0.0
 10
79.6757683246
 20
274.9926420473
 30
0.0
 10
79.4926429597
 20
276.0629844248
 30
0.0
 10
78.9761899796
 20
277.5174323518
 30
0.0
 10
77.7955372072
 20
279.3123379826
 30
0.0
 10
75.7168094053
 20
281.2656420399
 30
0.0
 10
74.0186953181
 20
282.3878913179
 30
0.0
 10
73.0763863431
 20
282.9321514816
 30
0.0
  0
SPLINE
  5
297
100
AcDbEntity
  8
0
100
AcDbSpline
 62
7
  6
CONTINUOUS
 70
0
 71
3
 72
9
 73
5
 74
0
 42
0.0000001
 43
0.0000001
 44
0.0000000001
 40
0.0
 40
0.0
 40
0.0
 40
0.0
 40
0.2600618676
 40
1.0
 40
1.0
 40
1.0
 40
1.0
 10
71.9014810555
 20
265.4786884775
 30
0.0
 10
72.118222809
 20
265.5906417078
 30
0.0
 10
72.9464214947
 20
266.0310759282
 30
0.0
 10
73.7531649055
 20
266.5125698479
 30
0.0
 10
74.3319902938
 20
266.895612456
 30
0.0
  0
SPLINE
  5
298
100
AcDbEntity
  8
0
100
AcDbSpline
 62
7
  6
CONTINUOUS
 70
0
 71
3
 72
9
 73
5
 74
0
 42
0.0000001
 43
0.0000001
 44
0.0000000001
 40
0.0
 40
0.0
 40
0.0
 40
0.0
 40
0.2414583185
 40
1.0
 40
1.0
 40
1.0
 40
1.0
 10
12.4648577897
 20
284.0356952119
 30
0.0
 10
12.701632905
 20
284.1484603512
 30
0.0
 10
13.6876707484
 20
284.6040352034
 30
0.0
 10
14.6938463398
 20
285.015579371
 30
0.0
 10
15.4647392658
 20
285.3062693085
 30
0.0
  0
SPLINE
  5
299
100
AcDbEntity
  8
0
100
AcDbSpline
 62
7
  6
CONTINUOUS
 70
0
 71
3
 72
9
 73
5
 74
0
 42
0.0000001
 43
0.0000001
 44
0.0000000001
 40
0.0
 40
0.0
 40
0.0
 40
0.0
 40
0.4758330352
 40
1.0
 40
1.0
 40
1.0
 40
1.0
 10
15.4647392658
 20
285.3062693085
 30
0.0
 10
17.2775543086
 20
285.9898494447
 30
0.0
 10
21.180742042
 20
287.1818864394
 30
0.0
 10
25.1763122936
 20
287.9930311254
 30
0.0
 10
27.283114623
 20
288.3339887417
 30
0.0
  0
SPLINE
  5
29A
100
AcDbEntity
  8
0
100
AcDbSpline
 62
7
  6
CONTINUOUS
 70
0
 71
3
 72
19
 73
15
 74
0
 42
0.0000001
 43
0.0000001
 44
0.0000000001
 40
0.0
 40
0.0
 40
0.0
 40
0.0
 40
0.1523494269
 40
0.2200062144
 40
0.2823392195
 40
0.3933521999
 40
0.4443900859
 40
0.4941436189
 40
0.5441713669
 40
0.5960009814
 40
0.7098320163
 40
0.7739642422
 40
0.8435622221
 40
1.0
 40
1.0
 40
1.0
 40
1.0
 10
10.3578699532
 20
266.1200770494
 30
0.0
 10
9.3479918227
 20
266.7033639024
 30
0.0
 10
7.9375748737
 20
267.642417979
 30
0.0
 10
6.3319251081
 20
269.0955768807
 30
0.0
 10
5.1107202741
 20
270.4805278852
 30
0.0
 10
4.2263154909
 20
271.9917239076
 30
0.0
 10
3.8128169698
 20
273.5685946206
 30
0.0
 10
3.7381918433
 20
274.7281626636
 30
0.0
 10
3.8923299282
 20
275.8858386217
 30
0.0
 10
4.4149746919
 20
277.4609207681
 30
0.0
 10
5.3997132071
 20
278.9557400876
 30
0.0
 10
6.7115849722
 20
280.3251252999
 30
0.0
 10
8.4129596946
 20
281.7593138483
 30
0.0
 10
9.8867052938
 20
282.6839100724
 30
0.0
 10
10.9378474519
 20
283.2576289199
 30
0.0
  0
SPLINE
  5
29B
100
AcDbEntity
  8
0
100
AcDbSpline
 62
7
  6
CONTINUOUS
 70
0
 71
3
 72
15
 73
11
 74
0
 42
0.0000001
 43
0.0000001
 44
0.0000000001
 40
0.0
 40
0.0
 40
0.0
 40
0.0
 40
0.1362802687
 40
0.2747404041
 40
0.4125482449
 40
0.5468784883
 40
0.6750417178
 40
0.7945861229
 40
0.9034212361
 40
1.0
 40
1.0
 40
1.0
 40
1.0
 10
31.3675570897
 20
288.890320706
 30
0.0
 10
33.2957712052
 20
289.105418261
 30
0.0
 10
37.198355546
 20
289.410604907
 30
0.0
 10
43.0743077875
 20
289.5068526549
 30
0.0
 10
48.9177894414
 20
289.2461916937
 30
0.0
 10
54.5878760254
 20
288.6349221343
 30
0.0
 10
59.9483597231
 20
287.6883730613
 30
0.0
 10
64.8718287057
 20
286.4296246593
 30
0.0
 10
69.2411329725
 20
284.8900092752
 30
0.0
 10
71.8857521443
 20
283.6198033337
 30
0.0
 10
73.0763814939
 20
282.9321179334
 30
0.0
  0
SPLINE
  5
29C
100
AcDbEntity
  8
0
100
AcDbSpline
 62
7
  6
CONTINUOUS
 70
0
 71
3
 72
11
 73
7
 74
0
 42
0.0000001
 43
0.0000001
 44
0.0000000001
 40
0.0
 40
0.0
 40
0.0
 40
0.0
 40
0.2346478694
 40
0.4706804781
 40
0.7221108044
 40
1.0
 40
1.0
 40
1.0
 40
1.0
 10
1.535012363
 20
273.9687548688
 30
0.0
 10
1.3961879845
 20
273.4115696939
 30
0.0
 10
1.262682211
 20
272.2503293943
 30
0.0
 10
1.5605387128
 20
270.4867861911
 30
0.0
 10
2.3424675858
 20
268.7656875528
 30
0.0
 10
3.1236872769
 20
267.7209816711
 30
0.0
 10
3.5734651498
 20
267.2109322487
 30
0.0
  0
SPLINE
  5
29D
100
AcDbEntity
  8
0
100
AcDbSpline
 62
7
  6
CONTINUOUS
 70
0
 71
3
 72
9
 73
5
 74
0
 42
0.0000001
 43
0.0000001
 44
0.0000000001
 40
0.0
 40
0.0
 40
0.0
 40
0.0
 40
0.4657460935
 40
1.0
 40
1.0
 40
1.0
 40
1.0
 10
3.5734651498
 20
267.2109322487
 30
0.0
 10
4.1981068657
 20
266.502586717
 30
0.0
 10
5.7101217681
 20
265.1311770722
 30
0.0
 10
7.41135244
 20
264.0164013671
 30
0.0
 10
8.3494549965
 20
263.4745664108
 30
0.0
  0
SPLINE
  5
29E
100
AcDbEntity
  8
0
100
AcDbSpline
 62
7
  6
CONTINUOUS
 70
0
 71
3
 72
9
 73
5
 74
0
 42
0.0000001
 43
0.0000001
 44
0.0000000001
 40
0.0
 40
0.0
 40
0.0
 40
0.0
 40
0.5367767892
 40
1.0
 40
1.0
 40
1.0
 40
1.0
 10
74.6071609487
 20
263.2048941755
 30
0.0
 10
75.6468101338
 20
263.7794990139
 30
0.0
 10
77.5246014457
 20
264.964087421
 30
0.0
 10
79.1889008191
 20
266.4482180132
 30
0.0
 10
79.8663961889
 20
267.217523514
 30
0.0
  0
SPLINE
  5
29F
100
AcDbEntity
  8
0
100
AcDbSpline
 62
7
  6
CONTINUOUS
 70
0
 71
3
 72
11
 73
7
 74
0
 42
0.0000001
 43
0.0000001
 44
0.0000000001
 40
0.0
 40
0.0
 40
0.0
 40
0.0
 40
0.2778146533
 40
0.5292241561
 40
0.7652935318
 40
1.0
 40
1.0
 40
1.0
 40
1.0
 10
79.8663961889
 20
267.217523514
 30
0.0
 10
80.3152022535
 20
267.7271490992
 30
0.0
 10
81.0946704047
 20
268.7710016941
 30
0.0
 10
81.874633432
 20
270.4904394084
 30
0.0
 10
82.1714085693
 20
272.2522376831
 30
0.0
 10
82.0379049969
 20
273.4123333373
 30
0.0
 10
81.8992006661
 20
273.9690187624
 30
0.0
  0
SPLINE
  5
2A0
100
AcDbEntity
  8
0
100
AcDbSpline
 62
7
  6
CONTINUOUS
 70
0
 71
3
 72
9
 73
5
 74
0
 42
0.0000001
 43
0.0000001
 44
0.0000000001
 40
0.0
 40
0.0
 40
0.0
 40
0.0
 40
0.4852931626
 40
1.0
 40
1.0
 40
1.0
 40
1.0
 10
10.810304898
 20
283.5339533826
 30
0.0
 10
10.9168840619
 20
283.5877690853
 30
0.0
 10
11.1631121687
 20
283.6523363223
 30
0.0
 10
11.412168701
 20
283.6119579483
 30
0.0
 10
11.5328295136
 20
283.5735312819
 30
0.0
  0
SPLINE
  5
2A1
100
AcDbEntity
  8
0
100
AcDbSpline
 62
7
  6
CONTINUOUS
 70
0
 71
3
 72
19
 73
15
 74
0
 42
0.0000001
 43
0.0000001
 44
0.0000000001
 40
0.0
 40
0.0
 40
0.0
 40
0.0
 40
0.2527302125
 40
0.3799563254
 40
0.5077476318
 40
0.6360574131
 40
0.7003585965
 40
0.764681759
 40
0.8288682469
 40
0.8924626506
 40
0.9236210278
 40
0.9536612687
 40
0.9808488757
 40
1.0
 40
1.0
 40
1.0
 40
1.0
 10
27.2958355407
 20
288.4437962192
 30
0.0
 10
27.5170477619
 20
288.4787384424
 30
0.0
 10
27.8499345514
 20
288.5293243595
 30
0.0
 10
28.2954954532
 20
288.5919531173
 30
0.0
 10
28.6322867724
 20
288.6362135567
 30
0.0
 10
28.9141994162
 20
288.6700236224
 30
0.0
 10
29.1405721262
 20
288.6943977206
 30
0.0
 10
29.3106374263
 20
288.7109377981
 30
0.0
 10
29.4802724746
 20
288.7250059789
 30
0.0
 10
29.6209225884
 20
288.7337891198
 30
0.0
 10
29.7313489825
 20
288.7373099451
 30
0.0
 10
29.8100014343
 20
288.7376400891
 30
0.0
 10
29.8766954138
 20
288.7332534219
 30
0.0
 10
29.9190848901
 20
288.7272118367
 30
0.0
 10
29.9335006887
 20
288.7182571335
 30
0.0
  0
SPLINE
  5
2A2
100
AcDbEntity
  8
0
100
AcDbSpline
 62
7
  6
CONTINUOUS
 70
0
 71
3
 72
9
 73
5
 74
0
 42
0.0000001
 43
0.0000001
 44
0.0000000001
 40
0.0
 40
0.0
 40
0.0
 40
0.0
 40
0.4867379406
 40
1.0
 40
1.0
 40
1.0
 40
1.0
 10
7.6213612109
 20
284.5837886133
 30
0.0
 10
7.7452912253
 20
284.6170168784
 30
0.0
 10
8.0110985426
 20
284.6480764401
 30
0.0
 10
8.274547457
 20
284.6066501477
 30
0.0
 10
8.4050635612
 20
284.5709930078
 30
0.0
  0
SPLINE
  5
2A3
100
AcDbEntity
  8
0
100
AcDbSpline
 62
7
  6
CONTINUOUS
 70
0
 71
3
 72
11
 73
7
 74
0
 42
0.0000001
 43
0.0000001
 44
0.0000000001
 40
0.0
 40
0.0
 40
0.0
 40
0.0
 40
0.2634102161
 40
0.5159328297
 40
0.7602045476
 40
1.0
 40
1.0
 40
1.0
 40
1.0
 10
26.8385362443
 20
196.8766352122
 30
0.0
 10
25.832923713
 20
196.6070752597
 30
0.0
 10
23.8144474048
 20
196.2403750341
 30
0.0
 10
20.7916827554
 20
196.255221655
 30
0.0
 10
17.9215784528
 20
196.8504165849
 30
0.0
 10
16.1558341759
 20
197.630712899
 30
0.0
 10
15.3351291204
 20
198.1047666406
 30
0.0
  0
SPLINE
  5
2A4
100
AcDbEntity
  8
0
100
AcDbSpline
 62
7
  6
CONTINUOUS
 70
0
 71
3
 72
11
 73
7
 74
0
 42
0.0000001
 43
0.0000001
 44
0.0000000001
 40
0.0
 40
0.0
 40
0.0
 40
0.0
 40
0.271774877
 40
0.5268700653
 40
0.7676346301
 40
1.0
 40
1.0
 40
1.0
 40
1.0
 10
21.0747239285
 20
227.9679393467
 30
0.0
 10
21.0747239285
 20
227.4911511337
 30
0.0
 10
21.1674238343
 20
226.5629023764
 30
0.0
 10
21.6114057113
 20
225.2770744948
 30
0.0
 10
22.338969759
 20
224.2072408614
 30
0.0
 10
22.9973955864
 20
223.6776285778
 30
0.0
 10
23.3504065595
 20
223.473761224
 30
0.0
  0
SPLINE
  5
2A5
100
AcDbEntity
  8
0
100
AcDbSpline
 62
7
  6
CONTINUOUS
 70
0
 71
3
 72
11
 73
7
 74
0
 42
0.0000001
 43
0.0000001
 44
0.0000000001
 40
0.0
 40
0.0
 40
0.0
 40
0.0
 40
0.271774877
 40
0.5268700653
 40
0.7676346301
 40
1.0
 40
1.0
 40
1.0
 40
1.0
 10
31.4053027963
 20
219.2454249836
 30
0.0
 10
31.4053027963
 20
218.7686367706
 30
0.0
 10
31.4980027022
 20
217.8403880133
 30
0.0
 10
31.9419845791
 20
216.5545601317
 30
0.0
 10
32.6695486268
 20
215.4847264982
 30
0.0
 10
33.3279744542
 20
214.9551142147
 30
0.0
 10
33.6809854274
 20
214.7512468609
 30
0.0
  0
SPLINE
  5
2A6
100
AcDbEntity
  8
0
100
AcDbSpline
 62
7
  6
CONTINUOUS
 70
0
 71
3
 72
11
 73
7
 74
0
 42
0.0000001
 43
0.0000001
 44
0.0000000001
 40
0.0
 40
0.0
 40
0.0
 40
0.0
 40
0.271774877
 40
0.5268700653
 40
0.7676346301
 40
1.0
 40
1.0
 40
1.0
 40
1.0
 10
10.7441450606
 20
213.707088374
 30
0.0
 10
10.7441450606
 20
213.230300161
 30
0.0
 10
10.8368449665
 20
212.3020514038
 30
0.0
 10
11.2808268434
 20
211.0162235222
 30
0.0
 10
12.0083908911
 20
209.9463898887
 30
0.0
 10
12.6668167186
 20
209.4167776052
 30
0.0
 10
13.0198276917
 20
209.2129102513
 30
0.0
  0
SPLINE
  5
2A7
100
AcDbEntity
  8
0
100
AcDbSpline
 62
7
  6
CONTINUOUS
 70
0
 71
3
 72
9
 73
5
 74
0
 42
0.0000001
 43
0.0000001
 44
0.0000000001
 40
0.0
 40
0.0
 40
0.0
 40
0.0
 40
0.4936190495
 40
1.0
 40
1.0
 40
1.0
 40
1.0
 10
15.2369102779
 20
220.2012998663
 30
0.0
 10
15.0824052098
 20
220.2905635786
 30
0.0
 10
14.7447801132
 20
220.4315975766
 30
0.0
 10
14.3833012303
 20
220.4847522013
 30
0.0
 10
14.2003523685
 20
220.4908497479
 30
0.0
  0
SPLINE
  5
2A8
100
AcDbEntity
  8
0
100
AcDbSpline
 62
7
  6
CONTINUOUS
 70
0
 71
3
 72
15
 73
11
 74
0
 42
0.0000001
 43
0.0000001
 44
0.0000000001
 40
0.0
 40
0.0
 40
0.0
 40
0.0
 40
0.0524625372
 40
0.1056460033
 40
0.2162145948
 40
0.335328669
 40
0.4632706134
 40
0.5978575783
 40
0.7353249013
 40
1.0
 40
1.0
 40
1.0
 40
1.0
 10
19.9960870612
 20
221.2913094816
 30
0.0
 10
19.7835831094
 20
221.4140326307
 30
0.0
 10
19.3318032286
 20
221.6222991624
 30
0.0
 10
18.3476611341
 20
221.8746795348
 30
0.0
 10
16.9982592815
 20
221.8561340995
 30
0.0
 10
15.3896454747
 20
221.325346382
 30
0.0
 10
13.8780349428
 20
220.3440505256
 30
0.0
 10
12.5679848736
 20
218.9853946291
 30
0.0
 10
11.2344341348
 20
216.8470953526
 30
0.0
 10
10.7441450606
 20
214.9451156298
 30
0.0
 10
10.7441450606
 20
213.707088374
 30
0.0
  0
SPLINE
  5
2A9
100
AcDbEntity
  8
0
100
AcDbSpline
 62
7
  6
CONTINUOUS
 70
0
 71
3
 72
9
 73
5
 74
0
 42
0.0000001
 43
0.0000001
 44
0.0000000001
 40
0.0
 40
0.0
 40
0.0
 40
0.0
 40
0.4936190495
 40
1.0
 40
1.0
 40
1.0
 40
1.0
 10
35.8980680135
 20
225.7396364759
 30
0.0
 10
35.7435629455
 20
225.8289001881
 30
0.0
 10
35.4059378489
 20
225.9699341862
 30
0.0
 10
35.044458966
 20
226.0230888108
 30
0.0
 10
34.8615101041
 20
226.0291863574
 30
0.0
  0
SPLINE
  5
2AA
100
AcDbEntity
  8
0
100
AcDbSpline
 62
7
  6
CONTINUOUS
 70
0
 71
3
 72
15
 73
11
 74
0
 42
0.0000001
 43
0.0000001
 44
0.0000000001
 40
0.0
 40
0.0
 40
0.0
 40
0.0
 40
0.0524625372
 40
0.1056460033
 40
0.2162145948
 40
0.335328669
 40
0.4632706134
 40
0.5978575783
 40
0.7353249013
 40
1.0
 40
1.0
 40
1.0
 40
1.0
 10
40.6572447968
 20
226.8296460911
 30
0.0
 10
40.4447408451
 20
226.9523692403
 30
0.0
 10
39.9929609643
 20
227.160635772
 30
0.0
 10
39.0088188697
 20
227.4130161443
 30
0.0
 10
37.6594170171
 20
227.3944707091
 30
0.0
 10
36.0508032103
 20
226.8636829915
 30
0.0
 10
34.5391926785
 20
225.8823871352
 30
0.0
 10
33.2291426093
 20
224.5237312386
 30
0.0
 10
31.8955918705
 20
222.3854319621
 30
0.0
 10
31.4053027963
 20
220.4834522394
 30
0.0
 10
31.4053027963
 20
219.2454249836
 30
0.0
  0
SPLINE
  5
2AB
100
AcDbEntity
  8
0
100
AcDbSpline
 62
7
  6
CONTINUOUS
 70
0
 71
3
 72
9
 73
5
 74
0
 42
0.0000001
 43
0.0000001
 44
0.0000000001
 40
0.0
 40
0.0
 40
0.0
 40
0.0
 40
0.4936190495
 40
1.0
 40
1.0
 40
1.0
 40
1.0
 10
25.5674891457
 20
234.462150839
 30
0.0
 10
25.4129840777
 20
234.5514145512
 30
0.0
 10
25.0753589811
 20
234.6924485493
 30
0.0
 10
24.7138800981
 20
234.7456031739
 30
0.0
 10
24.5309312363
 20
234.7517007205
 30
0.0
  0
SPLINE
  5
2AC
100
AcDbEntity
  8
0
100
AcDbSpline
 62
7
  6
CONTINUOUS
 70
0
 71
3
 72
15
 73
11
 74
0
 42
0.0000001
 43
0.0000001
 44
0.0000000001
 40
0.0
 40
0.0
 40
0.0
 40
0.0
 40
0.0524625372
 40
0.1056460033
 40
0.2162145948
 40
0.335328669
 40
0.4632706134
 40
0.5978575783
 40
0.7353249013
 40
1.0
 40
1.0
 40
1.0
 40
1.0
 10
30.326665929
 20
235.5521604542
 30
0.0
 10
30.1141619773
 20
235.6748836034
 30
0.0
 10
29.6623820965
 20
235.8831501351
 30
0.0
 10
28.6782400019
 20
236.1355305075
 30
0.0
 10
27.3288381493
 20
236.1169850722
 30
0.0
 10
25.7202243425
 20
235.5861973546
 30
0.0
 10
24.2086138107
 20
234.6049014983
 30
0.0
 10
22.8985637414
 20
233.2462456018
 30
0.0
 10
21.5650130026
 20
231.1079463253
 30
0.0
 10
21.0747239285
 20
229.2059666025
 30
0.0
 10
21.0747239285
 20
227.9679393467
 30
0.0
  0
SPLINE
  5
2AD
100
AcDbEntity
  8
0
100
AcDbSpline
 62
7
  6
CONTINUOUS
 70
0
 71
3
 72
10
 73
6
 74
0
 42
0.0000001
 43
0.0000001
 44
0.0000000001
 40
0.0
 40
0.0
 40
0.0
 40
0.0
 40
0.2403281524
 40
0.485096085
 40
1.0
 40
1.0
 40
1.0
 40
1.0
 10
28.0381992028
 20
211.2065782059
 30
0.0
 10
27.8722529431
 20
211.302394883
 30
0.0
 10
27.5151195605
 20
211.4600917438
 30
0.0
 10
26.7302151095
 20
211.6235217239
 30
0.0
 10
26.1090562893
 20
211.5611737975
 30
0.0
 10
25.7125051654
 20
211.4548760946
 30
0.0
  0
SPLINE
  5
2AE
100
AcDbEntity
  8
0
100
AcDbSpline
 62
7
  6
CONTINUOUS
 70
0
 71
3
 72
11
 73
7
 74
0
 42
0.0000001
 43
0.0000001
 44
0.0000000001
 40
0.0
 40
0.0
 40
0.0
 40
0.0
 40
0.2717668072
 40
0.5268680782
 40
0.7676307415
 40
1.0
 40
1.0
 40
1.0
 40
1.0
 10
21.8695298266
 20
206.1498395395
 30
0.0
 10
21.8695298261
 20
205.8319532059
 30
0.0
 10
21.9313445626
 20
205.2130548808
 30
0.0
 10
22.2273321701
 20
204.3557255187
 30
0.0
 10
22.7124487492
 20
203.6424275823
 30
0.0
 10
23.1514275381
 20
203.2892715799
 30
0.0
 10
23.386811128
 20
203.1533620784
 30
0.0
  0
SPLINE
  5
2AF
100
AcDbEntity
  8
0
100
AcDbSpline
 62
7
  6
CONTINUOUS
 70
0
 71
3
 72
12
 73
8
 74
0
 42
0.0000001
 43
0.0000001
 44
0.0000000001
 40
0.0
 40
0.0
 40
0.0
 40
0.0
 40
0.2349899833
 40
0.4894752595
 40
0.6202667695
 40
0.7503904793
 40
1.0
 40
1.0
 40
1.0
 40
1.0
 10
25.7125051654
 20
211.4548760946
 30
0.0
 10
25.1853451886
 20
211.3135679726
 30
0.0
 10
24.1462035626
 20
210.7826783959
 30
0.0
 10
23.1275771341
 20
209.7327968076
 30
0.0
 10
22.4978859684
 20
208.70996831
 30
0.0
 10
22.0309686108
 20
207.6173120756
 30
0.0
 10
21.8695298274
 20
206.7295644876
 30
0.0
 10
21.8695298266
 20
206.1498395395
 30
0.0
  0
SPLINE
  5
2B0
100
AcDbEntity
  8
0
100
AcDbSpline
 62
7
  6
CONTINUOUS
 70
0
 71
3
 72
9
 73
5
 74
0
 42
0.0000001
 43
0.0000001
 44
0.0000000001
 40
0.0
 40
0.0
 40
0.0
 40
0.0
 40
0.5063725991
 40
1.0
 40
1.0
 40
1.0
 40
1.0
 10
21.1486876896
 20
228.8922988035
 30
0.0
 10
21.2453766355
 20
228.7372658344
 30
0.0
 10
21.4717126963
 20
228.4513083914
 30
0.0
 10
21.7621871668
 20
228.2299333986
 30
0.0
 10
21.9164124092
 20
228.1408313527
 30
0.0
  0
SPLINE
  5
2B1
100
AcDbEntity
  8
0
100
AcDbSpline
 62
7
  6
CONTINUOUS
 70
0
 71
3
 72
9
 73
5
 74
0
 42
0.0000001
 43
0.0000001
 44
0.0000000001
 40
0.0
 40
0.0
 40
0.0
 40
0.0
 40
0.5063725991
 40
1.0
 40
1.0
 40
1.0
 40
1.0
 10
31.4792665574
 20
220.1697844404
 30
0.0
 10
31.5759555033
 20
220.0147514713
 30
0.0
 10
31.8022915642
 20
219.7287940283
 30
0.0
 10
32.0927660346
 20
219.5074190355
 30
0.0
 10
32.246991277
 20
219.4183169896
 30
0.0
  0
SPLINE
  5
2B2
100
AcDbEntity
  8
0
100
AcDbSpline
 62
7
  6
CONTINUOUS
 70
0
 71
3
 72
9
 73
5
 74
0
 42
0.0000001
 43
0.0000001
 44
0.0000000001
 40
0.0
 40
0.0
 40
0.0
 40
0.0
 40
0.5063725991
 40
1.0
 40
1.0
 40
1.0
 40
1.0
 10
10.8181088217
 20
214.6314478309
 30
0.0
 10
10.9147977676
 20
214.4764148618
 30
0.0
 10
11.1411338285
 20
214.1904574187
 30
0.0
 10
11.431608299
 20
213.9690824259
 30
0.0
 10
11.5858335413
 20
213.8799803801
 30
0.0
  0
SPLINE
  5
2B3
100
AcDbEntity
  8
0
100
AcDbSpline
 62
7
  6
CONTINUOUS
 70
0
 71
3
 72
20
 73
16
 74
0
 42
0.0000001
 43
0.0000001
 44
0.0000000001
 40
0.0
 40
0.0
 40
0.0
 40
0.0
 40
0.0524886434
 40
0.1058788304
 40
0.1609446359
 40
0.2182401375
 40
0.340076149
 40
0.4047856399
 40
0.4714397647
 40
0.6080573039
 40
0.7449175056
 40
0.8118575972
 40
0.8769396555
 40
0.9397340303
 40
1.0
 40
1.0
 40
1.0
 40
1.0
 10
38.3419433682
 20
237.9377897019
 30
0.0
 10
39.1283613868
 20
237.4835407586
 30
0.0
 10
40.6242804637
 20
236.3999493919
 30
0.0
 10
42.5156434122
 20
234.3325399526
 30
0.0
 10
44.0198651169
 20
231.8706628599
 30
0.0
 10
45.4914474778
 20
228.0763771373
 30
0.0
 10
46.0067736583
 20
223.8114817642
 30
0.0
 10
45.642876935
 20
219.4380084631
 30
0.0
 10
44.6640197967
 20
214.8932589897
 30
0.0
 10
42.3650342145
 20
209.4117817157
 30
0.0
 10
38.8595784678
 20
204.6048281633
 30
0.0
 10
35.4712358473
 20
201.4015549181
 30
0.0
 10
32.7373181865
 20
199.4121723221
 30
0.0
 10
29.8596345864
 20
197.8686284895
 30
0.0
 10
27.8457279757
 20
197.1466184779
 30
0.0
 10
26.8385362443
 20
196.8766352122
 30
0.0
  0
SPLINE
  5
2B4
100
AcDbEntity
  8
0
100
AcDbSpline
 62
7
  6
CONTINUOUS
 70
0
 71
3
 72
14
 73
10
 74
0
 42
0.0000001
 43
0.0000001
 44
0.0000000001
 40
0.0
 40
0.0
 40
0.0
 40
0.0
 40
0.2346073929
 40
0.3603379301
 40
0.4894684284
 40
0.6200482101
 40
0.7499714674
 40
0.8772023527
 40
1.0
 40
1.0
 40
1.0
 40
1.0
 10
26.8385362443
 20
212.6431706826
 30
0.0
 10
26.0846585073
 20
212.441089622
 30
0.0
 10
24.9859307334
 20
211.8794939402
 30
0.0
 10
23.7543252081
 20
210.8097182444
 30
0.0
 10
22.9231533283
 20
209.8257697903
 30
0.0
 10
22.2413224043
 20
208.7180163995
 30
0.0
 10
21.7329717371
 20
207.5270910672
 30
0.0
 10
21.4176285977
 20
206.2980616122
 30
0.0
 10
21.3426682872
 20
205.4649214567
 30
0.0
 10
21.3426682866
 20
205.0563979652
 30
0.0
  0
SPLINE
  5
2B5
100
AcDbEntity
  8
0
100
AcDbSpline
 62
7
  6
CONTINUOUS
 70
0
 71
3
 72
11
 73
7
 74
0
 42
0.0000001
 43
0.0000001
 44
0.0000000001
 40
0.0
 40
0.0
 40
0.0
 40
0.0
 40
0.271774877
 40
0.5268700653
 40
0.7676346301
 40
1.0
 40
1.0
 40
1.0
 40
1.0
 10
32.6023485601
 20
231.0579823315
 30
0.0
 10
32.6023485601
 20
231.5347705445
 30
0.0
 10
32.5096486542
 20
232.4630193017
 30
0.0
 10
32.0656667773
 20
233.7488471834
 30
0.0
 10
31.3381027296
 20
234.8186808168
 30
0.0
 10
30.6796769021
 20
235.3482931004
 30
0.0
 10
30.326665929
 20
235.5521604542
 30
0.0
  0
SPLINE
  5
2B6
100
AcDbEntity
  8
0
100
AcDbSpline
 62
7
  6
CONTINUOUS
 70
0
 71
3
 72
15
 73
11
 74
0
 42
0.0000001
 43
0.0000001
 44
0.0000000001
 40
0.0
 40
0.0
 40
0.0
 40
0.0
 40
0.0524625372
 40
0.1056460033
 40
0.2162145948
 40
0.335328669
 40
0.4632706134
 40
0.5978575783
 40
0.7353249013
 40
1.0
 40
1.0
 40
1.0
 40
1.0
 10
13.0198276917
 20
209.2129102513
 30
0.0
 10
13.2323316434
 20
209.0901871021
 30
0.0
 10
13.6841115242
 20
208.8819205704
 30
0.0
 10
14.6682536188
 20
208.6295401981
 30
0.0
 10
16.0176554714
 20
208.6480856333
 30
0.0
 10
17.6262692782
 20
209.1788733509
 30
0.0
 10
19.13787981
 20
210.1601692072
 30
0.0
 10
20.4479298793
 20
211.5188251038
 30
0.0
 10
21.7814806181
 20
213.6571243803
 30
0.0
 10
22.2717696922
 20
215.559104103
 30
0.0
 10
22.2717696922
 20
216.7971313588
 30
0.0
  0
SPLINE
  5
2B7
100
AcDbEntity
  8
0
100
AcDbSpline
 62
7
  6
CONTINUOUS
 70
0
 71
3
 72
11
 73
7
 74
0
 42
0.0000001
 43
0.0000001
 44
0.0000000001
 40
0.0
 40
0.0
 40
0.0
 40
0.0
 40
0.2634102161
 40
0.5159328297
 40
0.7602045476
 40
1.0
 40
1.0
 40
1.0
 40
1.0
 10
26.8385362443
 20
239.1659211302
 30
0.0
 10
27.8441487756
 20
239.4354810827
 30
0.0
 10
29.8626250837
 20
239.8021813083
 30
0.0
 10
32.8853897331
 20
239.7873346874
 30
0.0
 10
35.7554940357
 20
239.1921397575
 30
0.0
 10
37.5212383126
 20
238.4118434435
 30
0.0
 10
38.3419433682
 20
237.9377897019
 30
0.0
  0
SPLINE
  5
2B8
100
AcDbEntity
  8
0
100
AcDbSpline
 62
7
  6
CONTINUOUS
 70
0
 71
3
 72
11
 73
7
 74
0
 42
0.0000001
 43
0.0000001
 44
0.0000000001
 40
0.0
 40
0.0
 40
0.0
 40
0.0
 40
0.271774877
 40
0.5268700653
 40
0.7676346301
 40
1.0
 40
1.0
 40
1.0
 40
1.0
 10
42.9329274279
 20
222.3354679684
 30
0.0
 10
42.9329274279
 20
222.8122561814
 30
0.0
 10
42.840227522
 20
223.7405049386
 30
0.0
 10
42.3962456451
 20
225.0263328202
 30
0.0
 10
41.6686815974
 20
226.0961664537
 30
0.0
 10
41.01025577
 20
226.6257787373
 30
0.0
 10
40.6572447968
 20
226.8296460911
 30
0.0
  0
SPLINE
  5
2B9
100
AcDbEntity
  8
0
100
AcDbSpline
 62
7
  6
CONTINUOUS
 70
0
 71
3
 72
9
 73
5
 74
0
 42
0.0000001
 43
0.0000001
 44
0.0000000001
 40
0.0
 40
0.0
 40
0.0
 40
0.0
 40
0.480151452
 40
1.0
 40
1.0
 40
1.0
 40
1.0
 10
18.2337967475
 20
221.8449261862
 30
0.0
 10
18.548349826
 20
221.394602518
 30
0.0
 10
19.0329954464
 20
220.3317799194
 30
0.0
 10
19.1751842254
 20
219.1803801398
 30
0.0
 10
19.1751842254
 20
218.5856616156
 30
0.0
  0
SPLINE
  5
2BA
100
AcDbEntity
  8
0
100
AcDbSpline
 62
7
  6
CONTINUOUS
 70
0
 71
3
 72
14
 73
10
 74
0
 42
0.0000001
 43
0.0000001
 44
0.0000000001
 40
0.0
 40
0.0
 40
0.0
 40
0.0
 40
0.1052606218
 40
0.2158761856
 40
0.3350397663
 40
0.4630361708
 40
0.5976782969
 40
0.7352099851
 40
1.0
 40
1.0
 40
1.0
 40
1.0
 10
32.246991277
 20
219.4183169896
 30
0.0
 10
32.4700151389
 20
219.2894672497
 30
0.0
 10
32.98152375
 20
219.1101578761
 30
0.0
 10
33.8153769274
 20
219.1230451198
 30
0.0
 10
34.6579273057
 20
219.4004016363
 30
0.0
 10
35.4488223362
 20
219.9140976685
 30
0.0
 10
36.1345122184
 20
220.6251177776
 30
0.0
 10
36.8324434924
 20
221.7442163063
 30
0.0
 10
37.0890586747
 20
222.7396415925
 30
0.0
 10
37.0890586747
 20
223.3875738777
 30
0.0
  0
SPLINE
  5
2BB
100
AcDbEntity
  8
0
100
AcDbSpline
 62
7
  6
CONTINUOUS
 70
0
 71
3
 72
14
 73
10
 74
0
 42
0.0000001
 43
0.0000001
 44
0.0000000001
 40
0.0
 40
0.0
 40
0.0
 40
0.0
 40
0.2686164723
 40
0.3932530389
 40
0.5129262831
 40
0.6303784462
 40
0.7488454196
 40
0.8713344666
 40
1.0
 40
1.0
 40
1.0
 40
1.0
 10
21.3426682866
 20
205.0563979652
 30
0.0
 10
21.3426682855
 20
204.300940132
 30
0.0
 10
21.5312255803
 20
203.1721154919
 30
0.0
 10
22.2265782385
 20
201.8958699063
 30
0.0
 10
22.9195004558
 20
201.1359331017
 30
0.0
 10
23.7691239213
 20
200.587242687
 30
0.0
 10
24.738856399
 20
200.2737490227
 30
0.0
 10
25.7857654479
 20
200.2065741726
 30
0.0
 10
26.4890162311
 20
200.3223295682
 30
0.0
 10
26.8385362443
 20
200.416020324
 30
0.0
  0
SPLINE
  5
2BC
100
AcDbEntity
  8
0
100
AcDbSpline
 62
7
  6
CONTINUOUS
 70
0
 71
3
 72
12
 73
8
 74
0
 42
0.0000001
 43
0.0000001
 44
0.0000000001
 40
0.0
 40
0.0
 40
0.0
 40
0.0
 40
0.2349899832
 40
0.4894752595
 40
0.6202667695
 40
0.7503904793
 40
1.0
 40
1.0
 40
1.0
 40
1.0
 10
25.7125051592
 20
202.905064188
 30
0.0
 10
26.2396651373
 20
203.0463723089
 30
0.0
 10
27.2788067657
 20
203.5772618863
 30
0.0
 10
28.2974331965
 20
204.627143476
 30
0.0
 10
28.9271243634
 20
205.6499719757
 30
0.0
 10
29.3940417212
 20
206.7426282125
 30
0.0
 10
29.5554805046
 20
207.6303758023
 30
0.0
 10
29.5554805043
 20
208.2101007515
 30
0.0
  0
SPLINE
  5
2BD
100
AcDbEntity
  8
0
100
AcDbSpline
 62
7
  6
CONTINUOUS
 70
0
 71
3
 72
11
 73
7
 74
0
 42
0.0000001
 43
0.0000001
 44
0.0000000001
 40
0.0
 40
0.0
 40
0.0
 40
0.0
 40
0.2717668071
 40
0.5268680781
 40
0.7676307415
 40
1.0
 40
1.0
 40
1.0
 40
1.0
 10
29.5554805043
 20
208.2101007515
 30
0.0
 10
29.5554805041
 20
208.5279870844
 30
0.0
 10
29.4936657672
 20
209.1468854082
 30
0.0
 10
29.1976781592
 20
210.0042147683
 30
0.0
 10
28.7125615805
 20
210.717512703
 30
0.0
 10
28.2735827924
 20
211.0706687046
 30
0.0
 10
28.0381992028
 20
211.2065782059
 30
0.0
  0
SPLINE
  5
2BE
100
AcDbEntity
  8
0
100
AcDbSpline
 62
7
  6
CONTINUOUS
 70
0
 71
3
 72
15
 73
11
 74
0
 42
0.0000001
 43
0.0000001
 44
0.0000000001
 40
0.0
 40
0.0
 40
0.0
 40
0.0
 40
0.0524625372
 40
0.1056460033
 40
0.2162145948
 40
0.335328669
 40
0.4632706134
 40
0.5978575783
 40
0.7353249013
 40
1.0
 40
1.0
 40
1.0
 40
1.0
 10
33.6809854274
 20
214.7512468609
 30
0.0
 10
33.8934893791
 20
214.6285237117
 30
0.0
 10
34.3452692599
 20
214.42025718
 30
0.0
 10
35.3294113545
 20
214.1678768076
 30
0.0
 10
36.6788132071
 20
214.1864222429
 30
0.0
 10
38.2874270139
 20
214.7172099604
 30
0.0
 10
39.7990375457
 20
215.6985058168
 30
0.0
 10
41.1090876149
 20
217.0571617133
 30
0.0
 10
42.4426383537
 20
219.1954609898
 30
0.0
 10
42.9329274279
 20
221.0974407126
 30
0.0
 10
42.9329274279
 20
222.3354679684
 30
0.0
  0
SPLINE
  5
2BF
100
AcDbEntity
  8
0
100
AcDbSpline
 62
7
  6
CONTINUOUS
 70
0
 71
3
 72
11
 73
7
 74
0
 42
0.0000001
 43
0.0000001
 44
0.0000000001
 40
0.0
 40
0.0
 40
0.0
 40
0.0
 40
0.271774877
 40
0.5268700653
 40
0.7676346301
 40
1.0
 40
1.0
 40
1.0
 40
1.0
 10
22.2717696922
 20
216.7971313588
 30
0.0
 10
22.2717696922
 20
217.2739195718
 30
0.0
 10
22.1790697864
 20
218.2021683291
 30
0.0
 10
21.7350879094
 20
219.4879962107
 30
0.0
 10
21.0075238617
 20
220.5578298442
 30
0.0
 10
20.3490980343
 20
221.0874421277
 30
0.0
 10
19.9960870612
 20
221.2913094816
 30
0.0
  0
SPLINE
  5
2C0
100
AcDbEntity
  8
0
100
AcDbSpline
 62
7
  6
CONTINUOUS
 70
0
 71
3
 72
14
 73
10
 74
0
 42
0.0000001
 43
0.0000001
 44
0.0000000001
 40
0.0
 40
0.0
 40
0.0
 40
0.0
 40
0.2562060773
 40
0.3897701936
 40
0.5226491793
 40
0.6519161974
 40
0.7752021917
 40
0.8911819368
 40
1.0
 40
1.0
 40
1.0
 40
1.0
 10
29.5057630932
 20
232.8465125882
 30
0.0
 10
29.5057630932
 20
231.8064672215
 30
0.0
 10
29.1592244299
 20
230.2105692542
 30
0.0
 10
28.1854542626
 20
228.3191963555
 30
0.0
 10
27.206398195
 20
227.0336397122
 30
0.0
 10
26.0416460556
 20
225.9755262718
 30
0.0
 10
24.7497162701
 20
225.1996544133
 30
0.0
 10
23.3974125389
 20
224.7497136383
 30
0.0
 10
22.4739241713
 20
224.6860720456
 30
0.0
 10
22.0334956214
 20
224.7200475247
 30
0.0
  0
SPLINE
  5
2C1
100
AcDbEntity
  8
0
100
AcDbSpline
 62
7
  6
CONTINUOUS
 70
0
 71
3
 72
11
 73
7
 74
0
 42
0.0000001
 43
0.0000001
 44
0.0000000001
 40
0.0
 40
0.0
 40
0.0
 40
0.0
 40
0.2717571886
 40
0.5268814665
 40
0.7676360547
 40
1.0
 40
1.0
 40
1.0
 40
1.0
 10
26.7584798068
 20
232.1100882409
 30
0.0
 10
26.7584798068
 20
232.3596022388
 30
0.0
 10
26.7099383733
 20
232.8454112177
 30
0.0
 10
26.4776354998
 20
233.5183800181
 30
0.0
 10
26.0968100677
 20
234.0782825105
 30
0.0
 10
25.7522202387
 20
234.355424352
 30
0.0
 10
25.5674891457
 20
234.462150839
 30
0.0
  0
SPLINE
  5
2C2
100
AcDbEntity
  8
0
100
AcDbSpline
 62
7
  6
CONTINUOUS
 70
0
 71
3
 72
9
 73
5
 74
0
 42
0.0000001
 43
0.0000001
 44
0.0000000001
 40
0.0
 40
0.0
 40
0.0
 40
0.0
 40
0.480151452
 40
1.0
 40
1.0
 40
1.0
 40
1.0
 10
38.8949544832
 20
227.3832627957
 30
0.0
 10
39.2095075617
 20
226.9329391275
 30
0.0
 10
39.6941531821
 20
225.870116529
 30
0.0
 10
39.8363419611
 20
224.7187167494
 30
0.0
 10
39.8363419611
 20
224.1239982251
 30
0.0
  0
SPLINE
  5
2C3
100
AcDbEntity
  8
0
100
AcDbSpline
 62
7
  6
CONTINUOUS
 70
0
 71
3
 72
14
 73
10
 74
0
 42
0.0000001
 43
0.0000001
 44
0.0000000001
 40
0.0
 40
0.0
 40
0.0
 40
0.0
 40
0.1052606218
 40
0.2158761856
 40
0.3350397663
 40
0.4630361708
 40
0.5976782969
 40
0.7352099851
 40
1.0
 40
1.0
 40
1.0
 40
1.0
 10
21.9164124092
 20
228.1408313527
 30
0.0
 10
22.1394362711
 20
228.0119816128
 30
0.0
 10
22.6509448821
 20
227.8326722392
 30
0.0
 10
23.4847980596
 20
227.8455594829
 30
0.0
 10
24.3273484379
 20
228.1229159995
 30
0.0
 10
25.1182434683
 20
228.6366120316
 30
0.0
 10
25.8039333506
 20
229.3476321408
 30
0.0
 10
26.5018646246
 20
230.4667306694
 30
0.0
 10
26.7584798068
 20
231.4621559556
 30
0.0
 10
26.7584798068
 20
232.1100882409
 30
0.0
  0
SPLINE
  5
2C4
100
AcDbEntity
  8
0
100
AcDbSpline
 62
7
  6
CONTINUOUS
 70
0
 71
3
 72
14
 73
10
 74
0
 42
0.0000001
 43
0.0000001
 44
0.0000000001
 40
0.0
 40
0.0
 40
0.0
 40
0.0
 40
0.2346073929
 40
0.3603379301
 40
0.4894684284
 40
0.6200482101
 40
0.7499714674
 40
0.8772023527
 40
1.0
 40
1.0
 40
1.0
 40
1.0
 10
26.8385362443
 20
200.416020324
 30
0.0
 10
27.5924139813
 20
200.6181013847
 30
0.0
 10
28.6911417552
 20
201.1796970664
 30
0.0
 10
29.9227472804
 20
202.2494727622
 30
0.0
 10
30.7539191602
 20
203.2334212163
 30
0.0
 10
31.4357500843
 20
204.3411746072
 30
0.0
 10
31.9441007514
 20
205.5320999394
 30
0.0
 10
32.2594438907
 20
206.7611293944
 30
0.0
 10
32.3344042016
 20
207.5942695499
 30
0.0
 10
32.334404202
 20
208.0027930415
 30
0.0
  0
SPLINE
  5
2C5
100
AcDbEntity
  8
0
100
AcDbSpline
 62
7
  6
CONTINUOUS
 70
0
 71
3
 72
14
 73
10
 74
0
 42
0.0000001
 43
0.0000001
 44
0.0000000001
 40
0.0
 40
0.0
 40
0.0
 40
0.0
 40
0.2562060773
 40
0.3897701936
 40
0.5226491793
 40
0.6519161974
 40
0.7752021917
 40
0.8911819368
 40
1.0
 40
1.0
 40
1.0
 40
1.0
 10
39.8363419611
 20
224.1239982251
 30
0.0
 10
39.8363419611
 20
223.0839528584
 30
0.0
 10
39.4898032977
 20
221.4880548911
 30
0.0
 10
38.5160331305
 20
219.5966819924
 30
0.0
 10
37.5369770629
 20
218.3111253491
 30
0.0
 10
36.3722249234
 20
217.2530119087
 30
0.0
 10
35.080295138
 20
216.4771400502
 30
0.0
 10
33.7279914068
 20
216.0271992752
 30
0.0
 10
32.8045030392
 20
215.9635576825
 30
0.0
 10
32.3640744892
 20
215.9975331615
 30
0.0
  0
SPLINE
  5
2C6
100
AcDbEntity
  8
0
100
AcDbSpline
 62
7
  6
CONTINUOUS
 70
0
 71
3
 72
11
 73
7
 74
0
 42
0.0000001
 43
0.0000001
 44
0.0000000001
 40
0.0
 40
0.0
 40
0.0
 40
0.0
 40
0.2717571886
 40
0.5268814665
 40
0.7676360547
 40
1.0
 40
1.0
 40
1.0
 40
1.0
 10
37.0890586747
 20
223.3875738777
 30
0.0
 10
37.0890586747
 20
223.6370878757
 30
0.0
 10
37.0405172412
 20
224.1228968546
 30
0.0
 10
36.8082143676
 20
224.795865655
 30
0.0
 10
36.4273889355
 20
225.3557681474
 30
0.0
 10
36.0827991065
 20
225.6329099889
 30
0.0
 10
35.8980680135
 20
225.7396364759
 30
0.0
  0
SPLINE
  5
2C7
100
AcDbEntity
  8
0
100
AcDbSpline
 62
7
  6
CONTINUOUS
 70
0
 71
3
 72
14
 73
10
 74
0
 42
0.0000001
 43
0.0000001
 44
0.0000000001
 40
0.0
 40
0.0
 40
0.0
 40
0.0
 40
0.2562060773
 40
0.3897701936
 40
0.5226491793
 40
0.6519161974
 40
0.7752021917
 40
0.8911819368
 40
1.0
 40
1.0
 40
1.0
 40
1.0
 10
19.1751842254
 20
218.5856616156
 30
0.0
 10
19.1751842254
 20
217.5456162488
 30
0.0
 10
18.8286455621
 20
215.9497182816
 30
0.0
 10
17.8548753948
 20
214.0583453828
 30
0.0
 10
16.8758193272
 20
212.7727887395
 30
0.0
 10
15.7110671877
 20
211.7146752992
 30
0.0
 10
14.4191374023
 20
210.9388034407
 30
0.0
 10
13.0668336711
 20
210.4888626656
 30
0.0
 10
12.1433453035
 20
210.4252210729
 30
0.0
 10
11.7029167535
 20
210.459196552
 30
0.0
  0
SPLINE
  5
2C8
100
AcDbEntity
  8
0
100
AcDbSpline
 62
7
  6
CONTINUOUS
 70
0
 71
3
 72
11
 73
7
 74
0
 42
0.0000001
 43
0.0000001
 44
0.0000000001
 40
0.0
 40
0.0
 40
0.0
 40
0.0
 40
0.2717571886
 40
0.5268814665
 40
0.7676360547
 40
1.0
 40
1.0
 40
1.0
 40
1.0
 10
16.427900939
 20
217.8492372682
 30
0.0
 10
16.427900939
 20
218.0987512661
 30
0.0
 10
16.3793595055
 20
218.5845602451
 30
0.0
 10
16.147056632
 20
219.2575290454
 30
0.0
 10
15.7662311999
 20
219.8174315379
 30
0.0
 10
15.4216413709
 20
220.0945733794
 30
0.0
 10
15.2369102779
 20
220.2012998663
 30
0.0
  0
SPLINE
  5
2C9
100
AcDbEntity
  8
0
100
AcDbSpline
 62
7
  6
CONTINUOUS
 70
0
 71
3
 72
15
 73
11
 74
0
 42
0.0000001
 43
0.0000001
 44
0.0000000001
 40
0.0
 40
0.0
 40
0.0
 40
0.0
 40
0.0524625372
 40
0.1056460033
 40
0.2162145948
 40
0.335328669
 40
0.4632706134
 40
0.5978575783
 40
0.7353249013
 40
1.0
 40
1.0
 40
1.0
 40
1.0
 10
23.3504065595
 20
223.473761224
 30
0.0
 10
23.5629105113
 20
223.3510380748
 30
0.0
 10
24.0146903921
 20
223.1427715431
 30
0.0
 10
24.9988324866
 20
222.8903911707
 30
0.0
 10
26.3482343392
 20
222.908936606
 30
0.0
 10
27.9568481461
 20
223.4397243236
 30
0.0
 10
29.4684586779
 20
224.4210201799
 30
0.0
 10
30.7785087471
 20
225.7796760764
 30
0.0
 10
32.1120594859
 20
227.9179753529
 30
0.0
 10
32.6023485601
 20
229.8199550757
 30
0.0
 10
32.6023485601
 20
231.0579823315
 30
0.0
  0
SPLINE
  5
2CA
100
AcDbEntity
  8
0
100
AcDbSpline
 62
7
  6
CONTINUOUS
 70
0
 71
3
 72
14
 73
10
 74
0
 42
0.0000001
 43
0.0000001
 44
0.0000000001
 40
0.0
 40
0.0
 40
0.0
 40
0.0
 40
0.2686164723
 40
0.3932530389
 40
0.5129262831
 40
0.6303784462
 40
0.7488454196
 40
0.8713344666
 40
1.0
 40
1.0
 40
1.0
 40
1.0
 10
32.334404202
 20
208.0027930415
 30
0.0
 10
32.3344042025
 20
208.7582508747
 30
0.0
 10
32.1458469083
 20
209.8870755147
 30
0.0
 10
31.45049425
 20
211.1633211003
 30
0.0
 10
30.7575720327
 20
211.9232579049
 30
0.0
 10
29.9079485672
 20
212.4719483196
 30
0.0
 10
28.9382160896
 20
212.7854419839
 30
0.0
 10
27.8913070407
 20
212.852616834
 30
0.0
 10
27.1880562574
 20
212.7368614385
 30
0.0
 10
26.8385362443
 20
212.6431706826
 30
0.0
  0
SPLINE
  5
2CB
100
AcDbEntity
  8
0
100
AcDbSpline
 62
7
  6
CONTINUOUS
 70
0
 71
3
 72
20
 73
16
 74
0
 42
0.0000001
 43
0.0000001
 44
0.0000000001
 40
0.0
 40
0.0
 40
0.0
 40
0.0
 40
0.0524886434
 40
0.1058788304
 40
0.1609446359
 40
0.2182401375
 40
0.340076149
 40
0.4047856399
 40
0.4714397647
 40
0.6080573039
 40
0.7449175056
 40
0.8118575972
 40
0.8769396555
 40
0.9397340303
 40
1.0
 40
1.0
 40
1.0
 40
1.0
 10
15.3351291204
 20
198.1047666406
 30
0.0
 10
14.5487111018
 20
198.5590155838
 30
0.0
 10
13.0527920248
 20
199.6426069505
 30
0.0
 10
11.1614290763
 20
201.7100163898
 30
0.0
 10
9.6572073716
 20
204.1718934825
 30
0.0
 10
8.1856250107
 20
207.9661792051
 30
0.0
 10
7.6702988303
 20
212.2310745782
 30
0.0
 10
8.0341955535
 20
216.6045478794
 30
0.0
 10
9.0130526918
 20
221.1492973527
 30
0.0
 10
11.312038274
 20
226.6307746267
 30
0.0
 10
14.8174940207
 20
231.4377281791
 30
0.0
 10
18.2058366412
 20
234.6410014243
 30
0.0
 10
20.939754302
 20
236.6303840203
 30
0.0
 10
23.8174379022
 20
238.1739278529
 30
0.0
 10
25.8313445129
 20
238.8959378645
 30
0.0
 10
26.8385362443
 20
239.1659211302
 30
0.0
  0
SPLINE
  5
2CC
100
AcDbEntity
  8
0
100
AcDbSpline
 62
7
  6
CONTINUOUS
 70
0
 71
3
 72
9
 73
5
 74
0
 42
0.0000001
 43
0.0000001
 44
0.0000000001
 40
0.0
 40
0.0
 40
0.0
 40
0.0
 40
0.480151452
 40
1.0
 40
1.0
 40
1.0
 40
1.0
 10
28.5643756153
 20
236.1057771588
 30
0.0
 10
28.8789286939
 20
235.6554534906
 30
0.0
 10
29.3635743143
 20
234.5926308921
 30
0.0
 10
29.5057630932
 20
233.4412311125
 30
0.0
 10
29.5057630932
 20
232.8465125882
 30
0.0
  0
SPLINE
  5
2CD
100
AcDbEntity
  8
0
100
AcDbSpline
 62
7
  6
CONTINUOUS
 70
0
 71
3
 72
10
 73
6
 74
0
 42
0.0000001
 43
0.0000001
 44
0.0000000001
 40
0.0
 40
0.0
 40
0.0
 40
0.0
 40
0.2403281525
 40
0.4850960851
 40
1.0
 40
1.0
 40
1.0
 40
1.0
 10
23.386811128
 20
203.1533620784
 30
0.0
 10
23.5527573873
 20
203.0575454015
 30
0.0
 10
23.9098907689
 20
202.899848541
 30
0.0
 10
24.6947952178
 20
202.7364185607
 30
0.0
 10
25.3159540362
 20
202.7987664864
 30
0.0
 10
25.7125051592
 20
202.905064188
 30
0.0
  0
SPLINE
  5
2CE
100
AcDbEntity
  8
0
100
AcDbSpline
 62
7
  6
CONTINUOUS
 70
0
 71
3
 72
14
 73
10
 74
0
 42
0.0000001
 43
0.0000001
 44
0.0000000001
 40
0.0
 40
0.0
 40
0.0
 40
0.0
 40
0.1052606218
 40
0.2158761856
 40
0.3350397663
 40
0.4630361708
 40
0.5976782969
 40
0.7352099851
 40
1.0
 40
1.0
 40
1.0
 40
1.0
 10
11.5858335413
 20
213.8799803801
 30
0.0
 10
11.8088574033
 20
213.7511306401
 30
0.0
 10
12.3203660143
 20
213.5718212665
 30
0.0
 10
13.1542191918
 20
213.5847085102
 30
0.0
 10
13.99676957
 20
213.8620650268
 30
0.0
 10
14.7876646005
 20
214.3757610589
 30
0.0
 10
15.4733544828
 20
215.0867811681
 30
0.0
 10
16.1712857567
 20
216.2058796967
 30
0.0
 10
16.427900939
 20
217.2013049829
 30
0.0
 10
16.427900939
 20
217.8492372682
 30
0.0
  0
SPLINE
  5
2CF
100
AcDbEntity
  8
0
100
AcDbSpline
 62
7
  6
CONTINUOUS
 70
0
 71
3
 72
14
 73
10
 74
0
 42
0.0000001
 43
0.0000001
 44
0.0000000001
 40
0.0
 40
0.0
 40
0.0
 40
0.0
 40
0.2622991254
 40
0.3931837643
 40
0.5218008882
 40
0.6470978931
 40
0.768470162
 40
0.8859214785
 40
1.0
 40
1.0
 40
1.0
 40
1.0
 10
54.0615640845
 20
196.4844623004
 30
0.0
 10
54.2328442632
 20
195.524769646
 30
0.0
 10
54.2453227893
 20
194.0278988611
 30
0.0
 10
53.7835164363
 20
192.1380595564
 30
0.0
 10
53.2117584261
 20
190.8187379079
 30
0.0
 10
52.4348276532
 20
189.6511855983
 30
0.0
 10
51.4809587707
 20
188.6788874949
 30
0.0
 10
50.3855902679
 20
187.9411008268
 30
0.0
 10
49.5776019779
 20
187.6215298521
 30
0.0
 10
49.168077037
 20
187.5117544464
 30
0.0
  0
SPLINE
  5
2D0
100
AcDbEntity
  8
0
100
AcDbSpline
 62
7
  6
CONTINUOUS
 70
0
 71
3
 72
9
 73
5
 74
0
 42
0.0000001
 43
0.0000001
 44
0.0000000001
 40
0.0
 40
0.0
 40
0.0
 40
0.0
 40
0.2515482121
 40
1.0
 40
1.0
 40
1.0
 40
1.0
 10
-12.8153961697
 20
170.8967446179
 30
0.0
 10
-12.9507066362
 20
170.8604739055
 30
0.0
 10
-13.4938712453
 20
170.7367100562
 30
0.0
 10
-14.0562224837
 20
170.6966482794
 30
0.0
 10
-14.4725757899
 20
170.7162288179
 30
0.0
  0
SPLINE
  5
2D1
100
AcDbEntity
  8
0
100
AcDbSpline
 62
7
  6
CONTINUOUS
 70
0
 71
3
 72
14
 73
10
 74
0
 42
0.0000001
 43
0.0000001
 44
0.0000000001
 40
0.0
 40
0.0
 40
0.0
 40
0.0
 40
0.114078535
 40
0.2315298708
 40
0.3529021462
 40
0.4781991557
 40
0.6068162768
 40
0.7377009109
 40
1.0
 40
1.0
 40
1.0
 40
1.0
 10
-32.8908311355
 20
268.5054103995
 30
0.0
 10
-33.300356125
 20
268.3956349808
 30
0.0
 10
-34.108344512
 20
268.0760639178
 30
0.0
 10
-35.2037131378
 20
267.3382771647
 30
0.0
 10
-36.1575820115
 20
266.365978889
 30
0.0
 10
-36.9345127502
 20
265.1984265249
 30
0.0
 10
-37.5062706986
 20
263.8791048591
 30
0.0
 10
-37.968076879
 20
261.9892656813
 30
0.0
 10
-37.9555983379
 20
260.4923950671
 30
0.0
 10
-37.7843181829
 20
259.5327025455
 30
0.0
  0
SPLINE
  5
2D2
100
AcDbEntity
  8
0
100
AcDbSpline
 62
7
  6
CONTINUOUS
 70
0
 71
3
 72
13
 73
9
 74
0
 42
0.0000001
 43
0.0000001
 44
0.0000000001
 40
0.0
 40
0.0
 40
0.0
 40
0.0
 40
0.2677119729
 40
0.5230960123
 40
0.6460400319
 40
0.7659508074
 40
0.8835849436
 40
1.0
 40
1.0
 40
1.0
 40
1.0
 10
-22.9959017517
 20
176.6723580065
 30
0.0
 10
-22.8564953416
 20
175.891255904
 30
0.0
 10
-22.3714647909
 20
174.3929963672
 30
0.0
 10
-21.2465917887
 20
172.8005939188
 30
0.0
 10
-20.112776082
 20
171.8440396806
 30
0.0
 10
-19.1818711568
 20
171.3073478448
 30
0.0
 10
-18.1860951014
 20
170.9586981475
 30
0.0
 10
-17.4945238225
 20
170.8583447613
 30
0.0
 10
-17.1498737773
 20
170.8421363213
 30
0.0
  0
SPLINE
  5
2D3
100
AcDbEntity
  8
0
100
AcDbSpline
 62
7
  6
CONTINUOUS
 70
0
 71
3
 72
9
 73
5
 74
0
 42
0.0000001
 43
0.0000001
 44
0.0000000001
 40
0.0
 40
0.0
 40
0.0
 40
0.0
 40
0.4586903795
 40
1.0
 40
1.0
 40
1.0
 40
1.0
 10
3.5671781572
 20
260.5796509411
 30
0.0
 10
3.6491182286
 20
260.6250287739
 30
0.0
 10
3.8033653585
 20
260.7689330074
 30
0.0
 10
3.8965225062
 20
260.9539463784
 30
0.0
 10
3.9355374644
 20
261.0573692461
 30
0.0
  0
SPLINE
  5
2D4
100
AcDbEntity
  8
0
100
AcDbSpline
 62
7
  6
CONTINUOUS
 70
0
 71
3
 72
19
 73
15
 74
0
 42
0.0000001
 43
0.0000001
 44
0.0000000001
 40
0.0
 40
0.0
 40
0.0
 40
0.0
 40
0.0523397793
 40
0.1054511383
 40
0.1600119613
 40
0.2165344156
 40
0.2753272311
 40
0.3364889862
 40
0.465116293
 40
0.6001129899
 40
0.7372659518
 40
0.8052732169
 40
0.8720779275
 40
1.0
 40
1.0
 40
1.0
 40
1.0
 10
42.8433232138
 20
245.7312886673
 30
0.0
 10
43.8544717397
 20
245.1472074546
 30
0.0
 10
45.784211177
 20
243.7725573717
 30
0.0
 10
48.26700511
 20
241.180680593
 30
0.0
 10
50.2985649374
 20
238.1098175777
 30
0.0
 10
51.8376541479
 20
234.6284294864
 30
0.0
 10
52.8562947312
 20
230.8097038282
 30
0.0
 10
53.5071321852
 20
225.2861558762
 30
0.0
 10
52.8918798872
 20
217.9825102828
 30
0.0
 10
50.0905868915
 20
209.418317093
 30
0.0
 10
46.2007362197
 20
202.8258296118
 30
0.0
 10
42.2938301552
 20
198.167806659
 30
0.0
 10
38.0398624418
 20
194.1243518289
 30
0.0
 10
34.3697562085
 20
191.6893613137
 30
0.0
 10
31.7972141008
 20
190.4535237913
 30
0.0
  0
SPLINE
  5
2D5
100
AcDbEntity
  8
0
100
AcDbSpline
 62
7
  6
CONTINUOUS
 70
0
 71
3
 72
11
 73
7
 74
0
 42
0.0000001
 43
0.0000001
 44
0.0000000001
 40
0.0
 40
0.0
 40
0.0
 40
0.0
 40
0.2397931308
 40
0.4840625837
 40
0.7365908156
 40
1.0
 40
1.0
 40
1.0
 40
1.0
 10
41.5929555147
 20
243.5664545966
 30
0.0
 10
40.5403243729
 20
244.1744851433
 30
0.0
 10
38.2755670304
 20
245.1752639757
 30
0.0
 10
34.5943400495
 20
245.9387102202
 30
0.0
 10
30.7172891398
 20
245.9577086232
 30
0.0
 10
28.1283424611
 20
245.4873888954
 30
0.0
 10
26.8385362443
 20
245.1416492674
 30
0.0
  0
SPLINE
  5
2D6
100
AcDbEntity
  8
0
100
AcDbSpline
 62
7
  6
CONTINUOUS
 70
0
 71
3
 72
11
 73
7
 74
0
 42
0.0000001
 43
0.0000001
 44
0.0000000001
 40
0.0
 40
0.0
 40
0.0
 40
0.0
 40
0.2575230999
 40
0.5088224588
 40
0.7555701369
 40
1.0
 40
1.0
 40
1.0
 40
1.0
 10
21.8798583877
 20
187.7951222187
 30
0.0
 10
20.8958591186
 20
187.7402981919
 30
0.0
 10
18.9416542631
 20
187.7593195094
 30
0.0
 10
16.0729995544
 20
188.1927271117
 30
0.0
 10
13.3459833123
 20
189.0262137989
 30
0.0
 10
11.6437637059
 20
189.8434180334
 30
0.0
 10
10.8337370331
 20
190.3112473266
 30
0.0
  0
SPLINE
  5
2D7
100
AcDbEntity
  8
0
100
AcDbSpline
 62
7
  6
CONTINUOUS
 70
0
 71
3
 72
14
 73
10
 74
0
 42
0.0000001
 43
0.0000001
 44
0.0000000001
 40
0.0
 40
0.0
 40
0.0
 40
0.0
 40
0.2647836295
 40
0.4023089476
 40
0.5369530529
 40
0.6649530914
 40
0.7841200342
 40
0.8947373298
 40
1.0
 40
1.0
 40
1.0
 40
1.0
 10
31.7972141008
 20
189.931771333
 30
0.0
 10
31.7972141008
 20
188.8667019015
 30
0.0
 10
31.3754013573
 20
187.2304387612
 30
0.0
 10
30.2281842567
 20
185.3908374092
 30
0.0
 10
29.1010797789
 20
184.2219826951
 30
0.0
 10
27.8009335925
 20
183.3775319426
 30
0.0
 10
26.4158837879
 20
182.9216330549
 30
0.0
 10
25.0451171481
 20
182.9003947267
 30
0.0
 10
24.2043134159
 20
183.1952229462
 30
0.0
 10
23.8376455703
 20
183.406955725
 30
0.0
  0
SPLINE
  5
2D8
100
AcDbEntity
  8
0
100
AcDbSpline
 62
7
  6
CONTINUOUS
 70
0
 71
3
 72
11
 73
7
 74
0
 42
0.0000001
 43
0.0000001
 44
0.0000000001
 40
0.0
 40
0.0
 40
0.0
 40
0.0
 40
0.2717350397
 40
0.5268969419
 40
0.7676331593
 40
1.0
 40
1.0
 40
1.0
 40
1.0
 10
23.9459741613
 20
187.8272034161
 30
0.0
 10
23.9459741612
 20
187.5879649608
 30
0.0
 10
23.9925592242
 20
187.1221216672
 30
0.0
 10
24.2152478497
 20
186.4767842112
 30
0.0
 10
24.5805118704
 20
185.9399437879
 30
0.0
 10
24.9108829562
 20
185.6741470867
 30
0.0
 10
25.0880349191
 20
185.5718267557
 30
0.0
  0
SPLINE
  5
2D9
100
AcDbEntity
  8
0
100
AcDbSpline
 62
7
  6
CONTINUOUS
 70
0
 71
3
 72
20
 73
16
 74
0
 42
0.0000001
 43
0.0000001
 44
0.0000000001
 40
0.0
 40
0.0
 40
0.0
 40
0.0
 40
0.1227242173
 40
0.1878070348
 40
0.2547485989
 40
0.391614168
 40
0.4604262318
 40
0.5284820262
 40
0.6595707351
 40
0.7219379231
 40
0.7817554985
 40
0.8390522063
 40
0.8941192321
 40
0.9475109364
 40
1.0
 40
1.0
 40
1.0
 40
1.0
 10
26.8385362443
 20
245.1416492674
 30
0.0
 10
24.2079368301
 20
244.4365026717
 30
0.0
 10
20.3442726593
 20
242.6715781658
 30
0.0
 10
15.7674992932
 20
239.3383871518
 30
0.0
 10
11.4198987472
 20
235.2299854617
 30
0.0
 10
7.8163451009
 20
230.286195288
 30
0.0
 10
5.1444547325
 20
224.8177234873
 30
0.0
 10
3.183361117
 20
219.1934303113
 30
0.0
 10
2.2807847808
 20
213.3809963733
 30
0.0
 10
2.5957565137
 20
207.7526326831
 30
0.0
 10
3.4137680803
 20
203.837301924
 30
0.0
 10
4.801628304
 20
200.2574246035
 30
0.0
 10
6.7309059848
 20
197.1003163348
 30
0.0
 10
9.1568200198
 20
194.4485375746
 30
0.0
 10
11.0754754187
 20
193.0587353768
 30
0.0
 10
12.0841260257
 20
192.4761176218
 30
0.0
  0
SPLINE
  5
2DA
100
AcDbEntity
  8
0
100
AcDbSpline
 62
7
  6
CONTINUOUS
 70
0
 71
3
 72
11
 73
7
 74
0
 42
0.0000001
 43
0.0000001
 44
0.0000000001
 40
0.0
 40
0.0
 40
0.0
 40
0.0
 40
0.2343782473
 40
0.478297659
 40
0.7333924044
 40
1.0
 40
1.0
 40
1.0
 40
1.0
 10
52.4829460688
 20
248.5777974561
 30
0.0
 10
53.6099799774
 20
247.23740559
 30
0.0
 10
55.6296592903
 20
244.255470086
 30
0.0
 10
57.7976398169
 20
239.1913321519
 30
0.0
 10
59.1106694302
 20
233.5968583965
 30
0.0
 10
59.3901922746
 20
229.6911990901
 30
0.0
 10
59.3901922746
 20
227.6991414836
 30
0.0
  0
SPLINE
  5
2DB
100
AcDbEntity
  8
0
100
AcDbSpline
 62
7
  6
CONTINUOUS
 70
0
 71
3
 72
15
 73
11
 74
0
 42
0.0000001
 43
0.0000001
 44
0.0000000001
 40
0.0
 40
0.0
 40
0.0
 40
0.0
 40
0.1226793102
 40
0.2497804871
 40
0.3795759387
 40
0.5100271139
 40
0.6390304753
 40
0.7646372387
 40
0.8852762652
 40
1.0
 40
1.0
 40
1.0
 40
1.0
 10
59.3901922746
 20
227.6991414836
 30
0.0
 10
59.3901922746
 20
225.1957214934
 30
0.0
 10
58.9308902514
 20
220.0904121647
 30
0.0
 10
56.9983613086
 20
212.5591241607
 30
0.0
 10
53.8837541523
 20
205.2615420606
 30
0.0
 10
49.7041548602
 20
198.4727855584
 30
0.0
 10
44.6160014334
 20
192.4456486683
 30
0.0
 10
38.8060844416
 20
187.4065238105
 30
0.0
 10
32.4916229165
 20
183.5470535878
 30
0.0
 10
27.9737516431
 20
181.8149068287
 30
0.0
 10
25.7125051654
 20
181.2087673127
 30
0.0
  0
SPLINE
  5
2DC
100
AcDbEntity
  8
0
100
AcDbSpline
 62
7
  6
CONTINUOUS
 70
0
 71
3
 72
9
 73
5
 74
0
 42
0.0000001
 43
0.0000001
 44
0.0000000001
 40
0.0
 40
0.0
 40
0.0
 40
0.0
 40
0.748453333
 40
1.0
 40
1.0
 40
1.0
 40
1.0
 10
-13.9086335874
 20
182.9431311755
 30
0.0
 10
-14.1862030716
 20
182.9561868737
 30
0.0
 10
-14.5611041408
 20
182.9294739123
 30
0.0
 10
-14.9232137384
 20
182.8469640265
 30
0.0
 10
-15.0134202053
 20
182.8227836885
 30
0.0
  0
SPLINE
  5
2DD
100
AcDbEntity
  8
0
100
AcDbSpline
 62
7
  6
CONTINUOUS
 70
0
 71
3
 72
9
 73
5
 74
0
 42
0.0000001
 43
0.0000001
 44
0.0000000001
 40
0.0
 40
0.0
 40
0.0
 40
0.0
 40
0.512250521
 40
1.0
 40
1.0
 40
1.0
 40
1.0
 10
-10.4614029287
 20
266.4911585192
 30
0.0
 10
-9.821261465
 20
267.1081973824
 30
0.0
 10
-8.4350980352
 20
268.1837454757
 30
0.0
 10
-6.8139525986
 20
268.8677431139
 30
0.0
 10
-5.9962344902
 20
269.0869288184
 30
0.0
  0
SPLINE
  5
2DE
100
AcDbEntity
  8
0
100
AcDbSpline
 62
7
  6
CONTINUOUS
 70
0
 71
3
 72
9
 73
5
 74
0
 42
0.0000001
 43
0.0000001
 44
0.0000000001
 40
0.0
 40
0.0
 40
0.0
 40
0.0
 40
0.2531671564
 40
1.0
 40
1.0
 40
1.0
 40
1.0
 10
35.4026151681
 20
251.3283552839
 30
0.0
 10
35.5456068874
 20
251.1014222822
 30
0.0
 10
36.1318598661
 20
250.2187830001
 30
0.0
 10
36.8053674737
 20
249.3937334497
 30
0.0
 10
37.3520952632
 20
248.8217415115
 30
0.0
  0
SPLINE
  5
2DF
100
AcDbEntity
  8
0
100
AcDbSpline
 62
7
  6
CONTINUOUS
 70
0
 71
3
 72
9
 73
5
 74
0
 42
0.0000001
 43
0.0000001
 44
0.0000000001
 40
0.0
 40
0.0
 40
0.0
 40
0.0
 40
0.2439345699
 40
1.0
 40
1.0
 40
1.0
 40
1.0
 10
15.5807495326
 20
251.682887653
 30
0.0
 10
15.5618642651
 20
250.8572673314
 30
0.0
 10
15.3446354916
 20
247.4766152805
 30
0.0
 10
14.5875131809
 20
244.1364011502
 30
0.0
 10
13.763234264
 20
241.7131070247
 30
0.0
  0
SPLINE
  5
2E0
100
AcDbEntity
  8
0
100
AcDbSpline
 62
7
  6
CONTINUOUS
 70
0
 71
3
 72
14
 73
10
 74
0
 42
0.0000001
 43
0.0000001
 44
0.0000000001
 40
0.0
 40
0.0
 40
0.0
 40
0.0
 40
0.2441745415
 40
0.3708654299
 40
0.4989357752
 40
0.6271142713
 40
0.7541214473
 40
0.878754376
 40
1.0
 40
1.0
 40
1.0
 40
1.0
 10
12.0590447244
 20
253.7178183757
 30
0.0
 10
8.597342021
 20
251.5461986935
 30
0.0
 10
3.8013083464
 20
247.4538470065
 30
0.0
 10
-1.4380973443
 20
240.9370023728
 30
0.0
 10
-4.8213364854
 20
235.4728124604
 30
0.0
 10
-7.5172562812
 20
229.6358739303
 30
0.0
 10
-9.4618069111
 20
223.5664438407
 30
0.0
 10
-10.6066537142
 20
217.4152132041
 30
0.0
 10
-10.8196085387
 20
213.2904939052
 30
0.0
 10
-10.7797593936
 20
211.2617310102
 30
0.0
  0
SPLINE
  5
2E1
100
AcDbEntity
  8
0
100
AcDbSpline
 62
7
  6
CONTINUOUS
 70
0
 71
3
 72
11
 73
7
 74
0
 42
0.0000001
 43
0.0000001
 44
0.0000000001
 40
0.0
 40
0.0
 40
0.0
 40
0.0
 40
0.2655984567
 40
0.5205169018
 40
0.7648799165
 40
1.0
 40
1.0
 40
1.0
 40
1.0
 10
-10.7797593936
 20
211.2617310102
 30
0.0
 10
-10.7401369233
 20
209.2445083723
 30
0.0
 10
-10.3800433536
 20
205.2892750328
 30
0.0
 10
-8.9482936987
 20
199.6318113397
 30
0.0
 10
-6.66938707
 20
194.5088110914
 30
0.0
 10
-4.5826431245
 20
191.4905940024
 30
0.0
 10
-3.4234357682
 20
190.131795702
 30
0.0
  0
SPLINE
  5
2E2
100
AcDbEntity
  8
0
100
AcDbSpline
 62
7
  6
CONTINUOUS
 70
0
 71
3
 72
11
 73
7
 74
0
 42
0.0000001
 43
0.0000001
 44
0.0000000001
 40
0.0
 40
0.0
 40
0.0
 40
0.0
 40
0.2634081474
 40
0.5159332418
 40
0.760204416
 40
1.0
 40
1.0
 40
1.0
 40
1.0
 10
26.8385362443
 20
247.439985801
 30
0.0
 10
28.2376422909
 20
247.8150238476
 30
0.0
 10
31.0459666563
 20
248.3252093164
 30
0.0
 10
35.2515662365
 20
248.3045841869
 30
0.0
 10
39.2447691965
 20
247.4764612307
 30
0.0
 10
41.701480571
 20
246.3908642077
 30
0.0
 10
42.8433232138
 20
245.7312886673
 30
0.0
  0
SPLINE
  5
2E3
100
AcDbEntity
  8
0
100
AcDbSpline
 62
7
  6
CONTINUOUS
 70
0
 71
3
 72
19
 73
15
 74
0
 42
0.0000001
 43
0.0000001
 44
0.0000000001
 40
0.0
 40
0.0
 40
0.0
 40
0.0
 40
0.1260433888
 40
0.1922534643
 40
0.2599104303
 40
0.3970267704
 40
0.5326511518
 40
0.6621737559
 40
0.7237631877
 40
0.7829134642
 40
0.8396999023
 40
0.8944267038
 40
0.9476224027
 40
1.0
 40
1.0
 40
1.0
 40
1.0
 10
29.7310983273
 20
191.8678294892
 30
0.0
 10
32.2084099285
 20
192.8611654234
 30
0.0
 10
35.7772329557
 20
194.94853435
 30
0.0
 10
39.9472290095
 20
198.5517299579
 30
0.0
 10
43.8257732249
 20
202.7975661279
 30
0.0
 10
47.7439647317
 20
208.9266038106
 30
0.0
 10
50.6592289709
 20
217.003406434
 30
0.0
 10
51.4293116181
 20
223.9620971487
 30
0.0
 10
50.9285881257
 20
229.2535119569
 30
0.0
 10
50.0304544049
 20
232.9191552911
 30
0.0
 10
48.6201438915
 20
236.2642570154
 30
0.0
 10
46.7245005142
 20
239.2143276596
 30
0.0
 10
44.3840391423
 20
241.6995261495
 30
0.0
 10
42.5533710719
 20
243.0116904697
 30
0.0
 10
41.5929555147
 20
243.5664545966
 30
0.0
  0
SPLINE
  5
2E4
100
AcDbEntity
  8
0
100
AcDbSpline
 62
7
  6
CONTINUOUS
 70
0
 71
3
 72
14
 73
10
 74
0
 42
0.0000001
 43
0.0000001
 44
0.0000000001
 40
0.0
 40
0.0
 40
0.0
 40
0.0
 40
0.2622991254
 40
0.3931837643
 40
0.5218008882
 40
0.6470978931
 40
0.768470162
 40
0.8859214785
 40
1.0
 40
1.0
 40
1.0
 40
1.0
 10
-35.1070201952
 20
259.4067950449
 30
0.0
 10
-35.2783003738
 20
260.3664876993
 30
0.0
 10
-35.2907789
 20
261.8633584842
 30
0.0
 10
-34.8289725471
 20
263.7531977889
 30
0.0
 10
-34.257214537
 20
265.0725194374
 30
0.0
 10
-33.4802837641
 20
266.240071747
 30
0.0
 10
-32.5264148816
 20
267.2123698505
 30
0.0
 10
-31.4310463789
 20
267.9501565186
 30
0.0
 10
-30.6230580889
 20
268.2697274934
 30
0.0
 10
-30.213533148
 20
268.379502899
 30
0.0
  0
SPLINE
  5
2E5
100
AcDbEntity
  8
0
100
AcDbSpline
 62
7
  6
CONTINUOUS
 70
0
 71
3
 72
12
 73
8
 74
0
 42
0.0000001
 43
0.0000001
 44
0.0000000001
 40
0.0
 40
0.0
 40
0.0
 40
0.0
 40
0.2628401161
 40
0.5219246848
 40
0.7679923073
 40
0.8856858454
 40
1.0
 40
1.0
 40
1.0
 40
1.0
 10
-25.6028876368
 20
261.9544298855
 30
0.0
 10
-25.4887000741
 20
261.3146304294
 30
0.0
 10
-25.4774998424
 20
259.9961387159
 30
0.0
 10
-26.0826148143
 20
258.1612582371
 30
0.0
 10
-27.0665983362
 20
256.9231184532
 30
0.0
 10
-28.0534715771
 20
256.2589844984
 30
0.0
 10
-28.5921930221
 20
256.0458089733
 30
0.0
 10
-28.8652123349
 20
255.9726246496
 30
0.0
  0
SPLINE
  5
2E6
100
AcDbEntity
  8
0
100
AcDbSpline
 62
7
  6
CONTINUOUS
 70
0
 71
3
 72
11
 73
7
 74
0
 42
0.0000001
 43
0.0000001
 44
0.0000000001
 40
0.0
 40
0.0
 40
0.0
 40
0.0
 40
0.250751239
 40
0.5272107035
 40
0.7884597121
 40
1.0
 40
1.0
 40
1.0
 40
1.0
 10
1.8189922373
 20
263.6144216976
 30
0.0
 10
1.7680182572
 20
263.3419042287
 30
0.0
 10
1.7672464959
 20
262.749297446
 30
0.0
 10
1.9705636061
 20
261.8944745769
 30
0.0
 10
2.3389357403
 20
261.1465487708
 30
0.0
 10
2.7057350281
 20
260.7494109477
 30
0.0
 10
2.9068310931
 20
260.6299749895
 30
0.0
  0
SPLINE
  5
2E7
100
AcDbEntity
  8
0
100
AcDbSpline
 62
7
  6
CONTINUOUS
 70
0
 71
3
 72
11
 73
7
 74
0
 42
0.0000001
 43
0.0000001
 44
0.0000000001
 40
0.0
 40
0.0
 40
0.0
 40
0.0
 40
0.2682595766
 40
0.5241619233
 40
0.7665488161
 40
1.0
 40
1.0
 40
1.0
 40
1.0
 10
-10.0112818088
 20
179.056313094
 30
0.0
 10
-10.1042204157
 20
179.5770534339
 30
0.0
 10
-10.4281252736
 20
180.5762909901
 30
0.0
 10
-11.3137884917
 20
181.8316783869
 30
0.0
 10
-12.5114437078
 20
182.6886042836
 30
0.0
 10
-13.4488101558
 20
182.9215030202
 30
0.0
 10
-13.9086335874
 20
182.9431311755
 30
0.0
  0
SPLINE
  5
2E8
100
AcDbEntity
  8
0
100
AcDbSpline
 62
7
  6
CONTINUOUS
 70
0
 71
3
 72
10
 73
6
 74
0
 42
0.0000001
 43
0.0000001
 44
0.0000000001
 40
0.0
 40
0.0
 40
0.0
 40
0.0
 40
0.2380961303
 40
0.4813573424
 40
1.0
 40
1.0
 40
1.0
 40
1.0
 10
-5.9962344902
 20
269.0869288184
 30
0.0
 10
-5.4691850223
 20
269.2282020857
 30
0.0
 10
-4.3759350681
 20
269.4201215804
 30
0.0
 10
-2.0757500813
 20
269.4261357985
 30
0.0
 10
-0.3488957717
 20
268.9950476895
 30
0.0
 10
0.7602236281
 20
268.5677156854
 30
0.0
  0
SPLINE
  5
2E9
100
AcDbEntity
  8
0
100
AcDbSpline
 62
7
  6
CONTINUOUS
 70
0
 71
3
 72
13
 73
9
 74
0
 42
0.0000001
 43
0.0000001
 44
0.0000000001
 40
0.0
 40
0.0
 40
0.0
 40
0.0
 40
0.1164150736
 40
0.234049218
 40
0.3539600012
 40
0.4769040233
 40
0.732288058
 40
1.0
 40
1.0
 40
1.0
 40
1.0
 10
-14.4725757899
 20
170.7162288179
 30
0.0
 10
-14.8172258867
 20
170.7324372505
 30
0.0
 10
-15.5087972445
 20
170.8327906583
 30
0.0
 10
-16.5045733663
 20
171.1814404616
 30
0.0
 10
-17.4354783318
 20
171.7181323343
 30
0.0
 10
-18.5692940186
 20
172.6746866289
 30
0.0
 10
-19.6941668604
 20
174.2670890659
 30
0.0
 10
-20.1791973699
 20
175.7653484933
 30
0.0
 10
-20.3186037639
 20
176.546450506
 30
0.0
  0
SPLINE
  5
2EA
100
AcDbEntity
  8
0
100
AcDbSpline
 62
7
  6
CONTINUOUS
 70
0
 71
3
 72
11
 73
7
 74
0
 42
0.0000001
 43
0.0000001
 44
0.0000000001
 40
0.0
 40
0.0
 40
0.0
 40
0.0
 40
0.2323607738
 40
0.473124485
 40
0.7282307521
 40
1.0
 40
1.0
 40
1.0
 40
1.0
 10
23.8376455703
 20
183.406955725
 30
0.0
 10
23.5339436014
 20
183.5823287843
 30
0.0
 10
22.9675193309
 20
184.0379862784
 30
0.0
 10
22.341552316
 20
184.9583622816
 30
0.0
 10
21.9596239289
 20
186.0646020794
 30
0.0
 10
21.8798583877
 20
186.863190729
 30
0.0
 10
21.8798583877
 20
187.2733697566
 30
0.0
  0
SPLINE
  5
2EB
100
AcDbEntity
  8
0
100
AcDbSpline
 62
7
  6
CONTINUOUS
 70
0
 71
3
 72
12
 73
8
 74
0
 42
0.0000001
 43
0.0000001
 44
0.0000000001
 40
0.0
 40
0.0
 40
0.0
 40
0.0
 40
0.1143141546
 40
0.2320076927
 40
0.4780753152
 40
0.7371598839
 40
1.0
 40
1.0
 40
1.0
 40
1.0
 10
-28.0620229387
 20
255.9348523994
 30
0.0
 10
-27.7890036259
 20
256.0080367231
 30
0.0
 10
-27.2502821808
 20
256.2212122483
 30
0.0
 10
-26.26340894
 20
256.8853462031
 30
0.0
 10
-25.279425418
 20
258.1234859869
 30
0.0
 10
-24.6743104461
 20
259.9583664658
 30
0.0
 10
-24.6855106777
 20
261.2768581793
 30
0.0
 10
-24.7996982405
 20
261.9166576354
 30
0.0
  0
SPLINE
  5
2EC
100
AcDbEntity
  8
0
100
AcDbSpline
 62
7
  6
CONTINUOUS
 70
0
 71
3
 72
11
 73
7
 74
0
 42
0.0000001
 43
0.0000001
 44
0.0000000001
 40
0.0
 40
0.0
 40
0.0
 40
0.0
 40
0.2342429697
 40
0.4783622923
 40
0.7341736475
 40
1.0
 40
1.0
 40
1.0
 40
1.0
 10
-13.9330273861
 20
182.8572173398
 30
0.0
 10
-13.5462101489
 20
182.7512885541
 30
0.0
 10
-12.7879592324
 20
182.4001119254
 30
0.0
 10
-11.8496314501
 20
181.5378083069
 30
0.0
 10
-11.1568359155
 20
180.4069569676
 30
0.0
 10
-10.894437317
 20
179.5421400513
 30
0.0
 10
-10.8144712054
 20
179.0940853457
 30
0.0
  0
SPLINE
  5
2ED
100
AcDbEntity
  8
0
100
AcDbSpline
 62
7
  6
CONTINUOUS
 70
0
 71
3
 72
9
 73
5
 74
0
 42
0.0000001
 43
0.0000001
 44
0.0000000001
 40
0.0
 40
0.0
 40
0.0
 40
0.0
 40
0.268272445
 40
1.0
 40
1.0
 40
1.0
 40
1.0
 10
2.9181000444
 20
260.6233741288
 30
0.0
 10
2.9445849319
 20
260.6080769497
 30
0.0
 10
3.0455788389
 20
260.5553567704
 30
0.0
 10
3.157377128
 20
260.5211920666
 30
0.0
 10
3.2404119262
 20
260.5131564178
 30
0.0
  0
SPLINE
  5
2EE
100
AcDbEntity
  8
0
100
AcDbSpline
 62
7
  6
CONTINUOUS
 70
0
 71
3
 72
9
 73
5
 74
0
 42
0.0000001
 43
0.0000001
 44
0.0000000001
 40
0.0
 40
0.0
 40
0.0
 40
0.0
 40
0.2558559529
 40
1.0
 40
1.0
 40
1.0
 40
1.0
 10
3.2404119262
 20
260.5131564178
 30
0.0
 10
3.2576636279
 20
260.5114868934
 30
0.0
 10
3.3253244322
 20
260.5077604059
 30
0.0
 10
3.3937093765
 20
260.5160354288
 30
0.0
 10
3.4424012048
 20
260.5290847451
 30
0.0
  0
SPLINE
  5
2EF
100
AcDbEntity
  8
0
100
AcDbSpline
 62
7
  6
CONTINUOUS
 70
0
 71
3
 72
20
 73
16
 74
0
 42
0.0000001
 43
0.0000001
 44
0.0000000001
 40
0.0
 40
0.0
 40
0.0
 40
0.0
 40
0.0524881745
 40
0.1058790195
 40
0.1609455536
 40
0.2182416625
 40
0.3400781058
 40
0.4047874938
 40
0.4714414103
 40
0.6080584994
 40
0.7449187365
 40
0.8118580897
 40
0.8769393137
 40
0.9397343602
 40
1.0
 40
1.0
 40
1.0
 40
1.0
 10
10.8337370331
 20
190.3112473266
 30
0.0
 10
9.7395634409
 20
190.9431851079
 30
0.0
 10
7.6583199815
 20
192.450877364
 30
0.0
 10
5.0268129333
 20
195.3272638303
 30
0.0
 10
2.9339624221
 20
198.7525503032
 30
0.0
 10
0.8865383803
 20
204.0316178974
 30
0.0
 10
0.169583791
 20
209.9654320702
 30
0.0
 10
0.675901276
 20
216.0502846078
 30
0.0
 10
2.0378119795
 20
222.373412309
 30
0.0
 10
5.2364278997
 20
229.999814329
 30
0.0
 10
10.1135918704
 20
236.6877456
 30
0.0
 10
14.8278163246
 20
241.1444387166
 30
0.0
 10
18.6315101812
 20
243.9122892725
 30
0.0
 10
22.6352606076
 20
246.0598042948
 30
0.0
 10
25.437229134
 20
247.0643577472
 30
0.0
 10
26.8385362443
 20
247.439985801
 30
0.0
  0
SPLINE
  5
2F0
100
AcDbEntity
  8
0
100
AcDbSpline
 62
7
  6
CONTINUOUS
 70
0
 71
3
 72
13
 73
9
 74
0
 42
0.0000001
 43
0.0000001
 44
0.0000000001
 40
0.0
 40
0.0
 40
0.0
 40
0.0
 40
0.1054228116
 40
0.2162092768
 40
0.3355568365
 40
0.4637520711
 40
0.7347891091
 40
1.0
 40
1.0
 40
1.0
 40
1.0
 10
25.0880349191
 20
185.5718267557
 30
0.0
 10
25.3019014953
 20
185.4483006118
 30
0.0
 10
25.7923708078
 20
185.2763512404
 30
0.0
 10
26.5918974855
 20
185.2887011326
 30
0.0
 10
27.3999794558
 20
185.5545899558
 30
0.0
 10
28.4275281827
 20
186.2227590234
 30
0.0
 10
29.4072431234
 20
187.493526317
 30
0.0
 10
29.7310983273
 20
188.7566207087
 30
0.0
 10
29.7310983273
 20
189.3779376667
 30
0.0
  0
SPLINE
  5
2F1
100
AcDbEntity
  8
0
100
AcDbSpline
 62
7
  6
CONTINUOUS
 70
0
 71
3
 72
9
 73
5
 74
0
 42
0.0000001
 43
0.0000001
 44
0.0000000001
 40
0.0
 40
0.0
 40
0.0
 40
0.0
 40
0.2555826091
 40
1.0
 40
1.0
 40
1.0
 40
1.0
 10
5.0757209378
 20
248.1689923281
 30
0.0
 10
5.2301045354
 20
248.7603672419
 30
0.0
 10
5.7645533876
 20
251.0914741499
 30
0.0
 10
6.0146855112
 20
253.4903822757
 30
0.0
 10
6.0146855112
 20
255.270564956
 30
0.0
  0
SPLINE
  5
2F2
100
AcDbEntity
  8
0
100
AcDbSpline
 62
7
  6
CONTINUOUS
 70
0
 71
3
 72
18
 73
14
 74
0
 42
0.0000001
 43
0.0000001
 44
0.0000000001
 40
0.0
 40
0.0
 40
0.0
 40
0.0
 40
0.1342377718
 40
0.2713291546
 40
0.3399366159
 40
0.4079463171
 40
0.540391938
 40
0.6661513698
 40
0.7838752847
 40
0.8399431298
 40
0.8943706532
 40
0.9475626725
 40
1.0
 40
1.0
 40
1.0
 40
1.0
 10
13.763234264
 20
241.7131070247
 30
0.0
 10
11.7783314165
 20
240.0627683448
 30
0.0
 10
8.1052722175
 20
236.3020049068
 30
0.0
 10
4.4819868032
 20
230.8138554668
 30
0.0
 10
2.2219946436
 20
226.0524494181
 30
0.0
 10
0.4551920282
 20
221.1827140718
 30
0.0
 10
-0.823425864
 20
214.9943853831
 30
0.0
 10
-0.77917063
 20
207.70924122
 30
0.0
 10
0.6312144796
 20
202.0512442448
 30
0.0
 10
2.558719969
 20
198.0937697506
 30
0.0
 10
4.3416929402
 20
195.4847920407
 30
0.0
 10
6.4577094176
 20
193.2329787832
 30
0.0
 10
8.0762465636
 20
191.9882329493
 30
0.0
 10
8.9232646962
 20
191.4411038908
 30
0.0
  0
SPLINE
  5
2F3
100
AcDbEntity
  8
0
100
AcDbSpline
 62
7
  6
CONTINUOUS
 70
0
 71
3
 72
11
 73
7
 74
0
 42
0.0000001
 43
0.0000001
 44
0.0000000001
 40
0.0
 40
0.0
 40
0.0
 40
0.0
 40
0.2343782627
 40
0.4782977062
 40
0.733392442
 40
1.0
 40
1.0
 40
1.0
 40
1.0
 10
-1.0579698512
 20
188.765550122
 30
0.0
 10
-2.1849901859
 20
190.1059376583
 30
0.0
 10
-4.2046565657
 20
193.087851236
 30
0.0
 10
-6.3726126637
 20
198.1519590509
 30
0.0
 10
-7.6856308464
 20
203.7463937374
 30
0.0
 10
-7.9651507049
 20
207.6520256981
 30
0.0
 10
-7.9651507049
 20
209.6440691858
 30
0.0
  0
SPLINE
  5
2F4
100
AcDbEntity
  8
0
100
AcDbSpline
 62
7
  6
CONTINUOUS
 70
0
 71
3
 72
13
 73
9
 74
0
 42
0.0000001
 43
0.0000001
 44
0.0000000001
 40
0.0
 40
0.0
 40
0.0
 40
0.0
 40
0.2438556079
 40
0.3706401696
 40
0.4989059948
 40
0.6273207335
 40
0.7545418454
 40
1.0
 40
1.0
 40
1.0
 40
1.0
 10
-7.9651507049
 20
209.6440691858
 30
0.0
 10
-7.9651507049
 20
213.7159469973
 30
0.0
 10
-7.0569050746
 20
219.9344356661
 30
0.0
 10
-4.3554036535
 20
227.826958697
 30
0.0
 10
-1.5591311983
 20
233.6059684917
 30
0.0
 10
1.9120521979
 20
239.0151110795
 30
0.0
 10
7.2510035064
 20
245.4725455621
 30
0.0
 10
12.095690228
 20
249.5257629986
 30
0.0
 10
15.5807495326
 20
251.682887653
 30
0.0
  0
SPLINE
  5
2F5
100
AcDbEntity
  8
0
100
AcDbSpline
 62
7
  6
CONTINUOUS
 70
0
 71
3
 72
11
 73
7
 74
0
 42
0.0000001
 43
0.0000001
 44
0.0000000001
 40
0.0
 40
0.0
 40
0.0
 40
0.0
 40
0.2428150626
 40
0.4886753198
 40
0.7403772572
 40
1.0
 40
1.0
 40
1.0
 40
1.0
 10
12.0841260257
 20
192.4761176218
 30
0.0
 10
12.9438131794
 20
191.9795442831
 30
0.0
 10
14.7658659845
 20
191.1307774393
 30
0.0
 10
17.7029509605
 20
190.3414747713
 30
0.0
 10
20.7979649611
 20
190.0446500687
 30
0.0
 10
22.8940170725
 20
190.1749362671
 30
0.0
 10
23.9459741613
 20
190.3170952385
 30
0.0
  0
ELLIPSE
  5
2F6
100
AcDbEntity
  8
0
100
AcDbEllipse
 62
7
  6
CONTINUOUS
 10
-29.6672832153
 20
260.4666737451
 30
0.0
 11
-0.0199613341
 21
1.730216158
 31
0.0
 40
0.8071250907
 41
0.0
 42
6.2831853072
  0
ELLIPSE
  5
2F7
100
AcDbEntity
  8
0
100
AcDbEllipse
 62
7
  6
CONTINUOUS
 10
48.7574990418
 20
194.6644059634
 30
0.0
 11
-0.0189843569
 21
1.6455333516
 31
0.0
 40
0.8071250907
 41
0.0
 42
6.2831853072
  0
ELLIPSE
  5
2F8
100
AcDbEntity
  8
0
100
AcDbEllipse
 62
7
  6
CONTINUOUS
 10
-30.783426438
 20
259.0526334094
 30
0.0
 11
-0.3024444566
 21
26.2153963331
 31
0.0
 40
0.8071250907
 41
-2.1352551554
 42
-1.367250466
  0
ELLIPSE
  5
2F9
100
AcDbEntity
  8
0
100
AcDbEllipse
 62
7
  6
CONTINUOUS
 10
-14.8788667841
 20
177.606329206
 30
0.0
 11
-0.0199613341
 21
1.730216158
 31
0.0
 40
0.8071250907
 41
0.0
 42
6.2831853072
  0
ELLIPSE
  5
2FA
100
AcDbEntity
  8
0
100
AcDbEllipse
 62
7
  6
CONTINUOUS
 10
10.3447222603
 20
227.54779881
 30
0.0
 11
-0.3871289045
 21
33.5557073063
 31
0.0
 40
0.8071250907
 41
1.0063374982
 42
2.2598176821
  0
ENDSEC
  0
SECTION
  2
OBJECTS
  0
DICTIONARY
  5
C
100
AcDbDictionary
280
0
281
1
  3
ACAD_GROUP
350
D
  3
ACAD_MLINESTYLE
350
17
  3
ACAD_LAYOUT
350
1A
  3
ACAD_PLOTSETTINGS
350
19
  3
ACAD_PLOTSTYLENAME
350
E
  0
DICTIONARY
  5
D
102
{ACAD_REACTORS
330
C
102
}
100
AcDbDictionary
280
0
281
1
  0
ACDBDICTIONARYWDFLT
  5
E
102
{ACAD_REACTORS
330
C
102
}
100
AcDbDictionary
281
1
  3
Normal
350
F
100
AcDbDictionaryWithDefault
340
F
  0
DICTIONARY
  5
17
102
{ACAD_REACTORS
330
C
102
}
100
AcDbDictionary
280
0
281
1
  3
Standard
350
18
  0
DICTIONARY
  5
19
102
{ACAD_REACTORS
330
C
102
}
100
AcDbDictionary
281
1
  0
DICTIONARY
  5
1A
102
{ACAD_REACTORS
330
C
102
}
100
AcDbDictionary
281
1
  3
Model
350
2FB
  3
Layout1
350
2FC
  0
ACDBPLACEHOLDER
  5
F
102
{ACAD_REACTORS
330
E
102
}
  0
MLINESTYLE
  5
18
102
{ACAD_REACTORS
330
17
102
}
100
AcDbMlineStyle
  2
STANDARD
 70
0
  3

 62
256
 51
90.0
 52
90.0
 71
2
 49
0.5
 62
256
  6
BYLAYER
 49
-0.5
 62
256
  6
BYLAYER
  0
LAYOUT
  5
2FB
102
{ACAD_REACTORS
330
1A
102
}
100
AcDbPlotSettings
  1

  2
none_device
  4
ANSI_C_(22.00_x_17.00_Inches)
  6

 40
0.0
 41
0.0
 42
0.0
 43
0.0
 44
558.8
 45
431.8
 46
0.0
 47
0.0
 48
0.0
 49
0.0
140
0.0
141
0.0
142
1.0
143
1.0
 70
1024
 72
1
 73
0
 74
0
  7

 75
0
147
1.0
148
0.0
149
0.0
100
AcDbLayout
  1
Model
 70
0
 71
0
 10
0.0
 20
0.0
 11
558.8
 21
431.8
 12
0.0
 22
0.0
 32
0.0
 14
0.0
 24
0.0
 34
0.0
 15
0.0
 25
0.0
 35
0.0
146
0.0
 13
0.0
 23
0.0
 33
0.0
 16
1.0
 26
0.0
 36
0.0
 17
0.0
 27
1.0
 37
0.0
 76
0
330
216
345
0
346
0
  0
LAYOUT
  5
2FC
102
{ACAD_REACTORS
330
1A
102
}
100
AcDbPlotSettings
  1

  2
none_device
  4
ANSI_C_(22.00_x_17.00_Inches)
  6

 40
0.0
 41
0.0
 42
0.0
 43
0.0
 44
558.8
 45
431.8
 46
0.0
 47
0.0
 48
0.0
 49
0.0
140
0.0
141
0.0
142
1.0
143
1.0
 70
0
 72
1
 73
0
 74
0
  7

 75
0
147
1.0
148
0.0
149
0.0
100
AcDbLayout
  1
Layout1
 70
0
 71
1
 10
0.0
 20
0.0
 11
558.8
 21
431.8
 12
0.0
 22
0.0
 32
0.0
 14
0.0
 24
0.0
 34
0.0
 15
0.0
 25
0.0
 35
0.0
146
0.0
 13
0.0
 23
0.0
 33
0.0
 16
1.0
 26
0.0
 36
0.0
 17
0.0
 27
1.0
 37
0.0
 76
0
330
217
345
0
346
0
  0
ENDSEC
  0
EOF
