999
DXF file: Y:\3D PRATIKA-KAEDRA_OLGA\TRAVAIL_PHASE_5\CAD3D\PKF32F435_3D-Simplified\PKF32F435_2D-isometric.dxf
999
Pro/ENGINEER 2018260 by Parametric Technology Corporation
  0
SECTION
  2
HEADER
  9
$ACADVER
  1
AC1027
  9
$DWGCODEPAGE
  3
ANSI_1252
  9
$EXTMAX
 10
558.8
 20
431.8
 30
0.0
  9
$EXTMIN
 10
0.0
 20
0.0
 30
0.0
  9
$LIMMIN
 10
0.0
 20
0.0
  9
$LIMMAX
 10
558.8
 20
431.8
  9
$VIEWCTR
 10
279.4
 20
215.9
  9
$VIEWSIZE
 40
431.8
  9
$CLAYER
  8
0
  9
$LTSCALE
 40
30.734
  9
$CELTYPE
  6
BYLAYER
  9
$DIMSCALE
 40
1.0
  9
$DIMASZ
 40
0.1875
  9
$DIMEXO
 40
0.0625
  9
$DIMDLI
 40
21.2344
  9
$DIMEXE
 40
0.125
  9
$DIMCEN
 40
5.0292
  9
$DIMLFAC
 40
1.0
  9
$DIMBLK
  1
_CLOSED
  9
$DIMALT
 70
0
  9
$DIMALTF
 40
0.0393700787
  9
$DIMTXT
 40
0.15625
  9
$DIMTOL
 70
0
  9
$DIMLIM
 70
0
  9
$DIMTFAC
 40
1.0
  9
$DIMGAP
 40
0.625
  9
$DIMDSEP
 70
46
  9
$AUNITS
 70
0
  9
$PDMODE
 70
3
  9
$PDSIZE
 40
0.3125
  9
$HANDSEED
  5
2FF
  9
$TILEMODE
 70
1
  9
$MEASUREMENT
 70
1
  9
$INSUNITS
 70
4
  0
ENDSEC
  0
SECTION
  2
CLASSES
  0
CLASS
  1
ACDBDICTIONARYWDFLT
  2
AcDbDictionaryWithDefault
  3
AutoCAD 2000
 90
0
 91
1
280
0
281
0
  0
CLASS
  1
ACDBPLACEHOLDER
  2
AcDbPlaceHolder
  3
AutoCAD 2000
 90
0
 91
1
280
0
281
0
  0
CLASS
  1
LAYOUT
  2
AcDbLayout
  3
AutoCAD 2000
 90
0
 91
0
280
0
281
0
  0
ENDSEC
  0
SECTION
  2
TABLES
  0
TABLE
  2
VPORT
  5
8
100
AcDbSymbolTable
 70
2
  0
VPORT
  5
1F4
100
AcDbSymbolTableRecord
100
AcDbViewportTableRecord
  2
*ACTIVE
 70
0
 10
0.0
 20
0.0
 11
1.0
 21
1.0
 12
279.4
 22
215.9
 13
0.0
 23
0.0
 14
1.0
 24
1.0
 15
0.0
 25
0.0
 16
0.0
 26
0.0
 36
1.0
 17
0.0
 27
0.0
 37
0.0
 40
431.8
 41
1.2941176471
 42
50.0
 43
0.0
 44
0.0
 50
0.0
 51
0.0
 71
0
 72
100
 73
1
 74
1
 75
0
 76
0
 77
0
 78
0
  0
ENDTAB
  0
TABLE
  2
LTYPE
  5
5
100
AcDbSymbolTable
 70
6
  0
LTYPE
  5
14
100
AcDbSymbolTableRecord
100
AcDbLinetypeTableRecord
  2
BYBLOCK
 70
0
  3

 72
65
 73
0
 40
0.0
  0
LTYPE
  5
15
100
AcDbSymbolTableRecord
100
AcDbLinetypeTableRecord
  2
BYLAYER
 70
0
  3

 72
65
 73
0
 40
0.0
  0
LTYPE
  5
16
100
AcDbSymbolTableRecord
100
AcDbLinetypeTableRecord
  2
CONTINUOUS
 70
64
  3
Solid line
 72
65
 73
0
 40
0.0
  0
LTYPE
  5
1F5
100
AcDbSymbolTableRecord
100
AcDbLinetypeTableRecord
  2
CENTER
 70
64
  3
____ _ ____ _ ____ _ ____ _ ____ _ ____ _ ____
 72
65
 73
4
 40
0.6
 49
0.375
 74
0
 49
-0.075
 74
0
 49
0.075
 74
0
 49
-0.075
 74
0
  0
LTYPE
  5
1F6
100
AcDbSymbolTableRecord
100
AcDbLinetypeTableRecord
  2
HIDDEN
 70
64
  3
- - - - - - - - - - - - - - - - - - - -
 72
65
 73
2
 40
0.2
 49
0.1
 74
0
 49
-0.1
 74
0
  0
LTYPE
  5
1F7
100
AcDbSymbolTableRecord
100
AcDbLinetypeTableRecord
  2
PHANTOM
 70
64
  3
_____ _ _ _____ _ _ _____ _ _ _____
 72
65
 73
6
 40
0.8
 49
0.45
 74
0
 49
-0.05
 74
0
 49
0.1
 74
0
 49
-0.05
 74
0
 49
0.1
 74
0
 49
-0.05
 74
0
  0
LTYPE
  5
1F8
100
AcDbSymbolTableRecord
100
AcDbLinetypeTableRecord
  2
DOT
 70
64
  3
. . . . . . . . . . . . . . . . . . . .
 72
65
 73
2
 40
0.2
 49
0.1
 74
0
 49
-0.1
 74
0
  0
LTYPE
  5
1F9
100
AcDbSymbolTableRecord
100
AcDbLinetypeTableRecord
  2
DASHED
 70
64
  3
- - - - - - - - - - - - - - - - - - - -
 72
65
 73
2
 40
0.2
 49
0.1
 74
0
 49
-0.1
 74
0
  0
ENDTAB
  0
TABLE
  2
LAYER
  5
2
100
AcDbSymbolTable
 70
36
  0
LAYER
  5
10
100
AcDbSymbolTableRecord
100
AcDbLayerTableRecord
  2
0
 70
0
 62
7
  6
CONTINUOUS
370
-3
390
F
  0
LAYER
  5
1FA
100
AcDbSymbolTableRecord
100
AcDbLayerTableRecord
  2
DEFAULT_1
 70
0
 62
7
  6
CENTER
370
-3
390
F
  0
LAYER
  5
1FB
100
AcDbSymbolTableRecord
100
AcDbLayerTableRecord
  2
DEFAULT_2
 70
0
 62
8
  6
HIDDEN
370
-3
390
F
  0
LAYER
  5
1FC
100
AcDbSymbolTableRecord
100
AcDbLayerTableRecord
  2
DEFAULT_3
 70
0
 62
7
  6
PHANTOM
370
-3
390
F
  0
LAYER
  5
1FD
100
AcDbSymbolTableRecord
100
AcDbLayerTableRecord
  2
01_ALL_DTM_PLN
 70
0
 62
7
  6
CONTINUOUS
370
-3
390
F
  0
LAYER
  5
1FE
100
AcDbSymbolTableRecord
100
AcDbLayerTableRecord
  2
01__ASM_ALL_DTM_PLN
 70
0
 62
7
  6
CONTINUOUS
370
-3
390
F
  0
LAYER
  5
1FF
100
AcDbSymbolTableRecord
100
AcDbLayerTableRecord
  2
01__ASM_DEF_DTM_PLN
 70
0
 62
7
  6
CONTINUOUS
370
-3
390
F
  0
LAYER
  5
200
100
AcDbSymbolTableRecord
100
AcDbLayerTableRecord
  2
01___PRT_ALL_DTM_PLN
 70
0
 62
7
  6
CONTINUOUS
370
-3
390
F
  0
LAYER
  5
201
100
AcDbSymbolTableRecord
100
AcDbLayerTableRecord
  2
01___PRT_DEF_DTM_PLN
 70
0
 62
7
  6
CONTINUOUS
370
-3
390
F
  0
LAYER
  5
202
100
AcDbSymbolTableRecord
100
AcDbLayerTableRecord
  2
02_ALL_AXES
 70
0
 62
7
  6
CONTINUOUS
370
-3
390
F
  0
LAYER
  5
203
100
AcDbSymbolTableRecord
100
AcDbLayerTableRecord
  2
02__ASM_ALL_AXES
 70
0
 62
7
  6
CONTINUOUS
370
-3
390
F
  0
LAYER
  5
204
100
AcDbSymbolTableRecord
100
AcDbLayerTableRecord
  2
02___PRT_ALL_AXES
 70
0
 62
7
  6
CONTINUOUS
370
-3
390
F
  0
LAYER
  5
205
100
AcDbSymbolTableRecord
100
AcDbLayerTableRecord
  2
03_ALL_CURVES
 70
0
 62
7
  6
CONTINUOUS
370
-3
390
F
  0
LAYER
  5
206
100
AcDbSymbolTableRecord
100
AcDbLayerTableRecord
  2
03__ASM_ALL_CURVES
 70
0
 62
7
  6
CONTINUOUS
370
-3
390
F
  0
LAYER
  5
207
100
AcDbSymbolTableRecord
100
AcDbLayerTableRecord
  2
03___PRT_ALL_CURVES
 70
0
 62
7
  6
CONTINUOUS
370
-3
390
F
  0
LAYER
  5
208
100
AcDbSymbolTableRecord
100
AcDbLayerTableRecord
  2
04_ALL_DTM_PNT
 70
0
 62
7
  6
CONTINUOUS
370
-3
390
F
  0
LAYER
  5
209
100
AcDbSymbolTableRecord
100
AcDbLayerTableRecord
  2
04__ASM_ALL_DTM_PNT
 70
0
 62
7
  6
CONTINUOUS
370
-3
390
F
  0
LAYER
  5
20A
100
AcDbSymbolTableRecord
100
AcDbLayerTableRecord
  2
04___PRT_ALL_DTM_PNT
 70
0
 62
7
  6
CONTINUOUS
370
-3
390
F
  0
LAYER
  5
20B
100
AcDbSymbolTableRecord
100
AcDbLayerTableRecord
  2
05_ALL_DTM_CSYS
 70
0
 62
7
  6
CONTINUOUS
370
-3
390
F
  0
LAYER
  5
20C
100
AcDbSymbolTableRecord
100
AcDbLayerTableRecord
  2
05__ASM_ALL_DTM_CSYS
 70
0
 62
7
  6
CONTINUOUS
370
-3
390
F
  0
LAYER
  5
20D
100
AcDbSymbolTableRecord
100
AcDbLayerTableRecord
  2
05__ASM_DEF_DTM_CSYS
 70
0
 62
7
  6
CONTINUOUS
370
-3
390
F
  0
LAYER
  5
20E
100
AcDbSymbolTableRecord
100
AcDbLayerTableRecord
  2
05___PRT_ALL_DTM_CSYS
 70
0
 62
7
  6
CONTINUOUS
370
-3
390
F
  0
LAYER
  5
20F
100
AcDbSymbolTableRecord
100
AcDbLayerTableRecord
  2
05___PRT_DEF_DTM_CSYS
 70
0
 62
7
  6
CONTINUOUS
370
-3
390
F
  0
LAYER
  5
210
100
AcDbSymbolTableRecord
100
AcDbLayerTableRecord
  2
06_ALL_SURFS
 70
0
 62
7
  6
CONTINUOUS
370
-3
390
F
  0
LAYER
  5
211
100
AcDbSymbolTableRecord
100
AcDbLayerTableRecord
  2
06__ASM_ALL_SURFS
 70
0
 62
7
  6
CONTINUOUS
370
-3
390
F
  0
LAYER
  5
212
100
AcDbSymbolTableRecord
100
AcDbLayerTableRecord
  2
06___PRT_ALL_SURFS
 70
0
 62
7
  6
CONTINUOUS
370
-3
390
F
  0
LAYER
  5
213
100
AcDbSymbolTableRecord
100
AcDbLayerTableRecord
  2
07__ASM_ALL_SKELETONS
 70
0
 62
7
  6
CONTINUOUS
370
-3
390
F
  0
ENDTAB
  0
TABLE
  2
STYLE
  5
3
100
AcDbSymbolTable
 70
1
  0
STYLE
  5
11
100
AcDbSymbolTableRecord
100
AcDbTextStyleTableRecord
  2
STANDARD
 70
0
 40
0.0
 41
0.8
 50
0.0
 71
0
 42
0.2
  3
txt
  4

  0
STYLE
  5
214
100
AcDbSymbolTableRecord
100
AcDbTextStyleTableRecord
  2
TEXTSTYLE_1
 70
0
 40
0.0
 41
0.8
 50
0.0
 71
0
 42
0.2
  3
gdt
  4

  0
ENDTAB
  0
TABLE
  2
VIEW
  5
6
100
AcDbSymbolTable
 70
0
  0
ENDTAB
  0
TABLE
  2
UCS
  5
7
100
AcDbSymbolTable
 70
0
  0
ENDTAB
  0
TABLE
  2
APPID
  5
9
100
AcDbSymbolTable
 70
1
  0
APPID
  5
215
100
AcDbSymbolTableRecord
100
AcDbRegAppTableRecord
  2
ACAD
 70
0
  0
ENDTAB
  0
TABLE
  2
BLOCK_RECORD
  5
1
100
AcDbSymbolTable
 70
0
  0
BLOCK_RECORD
  5
216
100
AcDbSymbolTableRecord
100
AcDbBlockTableRecord
  2
*Model_Space
  0
BLOCK_RECORD
  5
217
100
AcDbSymbolTableRecord
100
AcDbBlockTableRecord
  2
*Paper_Space
  0
BLOCK_RECORD
  5
218
100
AcDbSymbolTableRecord
100
AcDbBlockTableRecord
  2
_CLOSED
  0
ENDTAB
  0
TABLE
  2
DIMSTYLE
  5
A
100
AcDbSymbolTable
 70
1
100
AcDbDimStyleTable
 71
0
  0
DIMSTYLE
105
219
100
AcDbSymbolTableRecord
100
AcDbDimStyleTableRecord
  2
STANDARD
 70
0
  3

  4

 40
1.0
 41
0.1875
 42
0.0625
 43
0.38
 44
0.125
 45
0.0
 46
0.0
 47
0.01
 48
0.01
140
0.15625
141
0.09
142
0.0
143
25.4
144
1.0
145
0.0
146
1.0
147
0.625
 71
0.0
 72
0.0
 73
1
 74
1
 75
0
 76
0
 77
0
 78
8
 79
2
170
0
171
1
172
0
173
0
174
0
175
0
176
0
177
0
178
0
270
2
179
2
271
2
272
2
273
2
274
2
275
0
280
0
281
0
282
0
283
1
284
8
285
0
286
0
287
3
288
0
340
11
278
46
341
218
342
218
343
218
344
218
  0
ENDTAB
  0
ENDSEC
  0
SECTION
  2
BLOCKS
  0
BLOCK
  5
20
100
AcDbEntity
  8
0
100
AcDbBlockBegin
  2
*Model_Space
 70
0
 10
0.0
 20
0.0
 30
0.0
  3
*Model_Space
  1

  0
ENDBLK
  5
21
100
AcDbEntity
  8
0
100
AcDbBlockEnd
  0
BLOCK
  5
1C
100
AcDbEntity
  8
0
100
AcDbBlockBegin
  2
*Paper_Space
 70
0
 10
0.0
 20
0.0
 30
0.0
  3
*Paper_Space
  1

  0
ENDBLK
  5
1D
100
AcDbEntity
  8
0
100
AcDbBlockEnd
  0
BLOCK
  5
21A
100
AcDbEntity
  8
0
100
AcDbBlockBegin
  2
_CLOSED
 70
64
 10
0.0
 20
0.0
  3
_CLOSED
  1

  0
LINE
  5
21B
100
AcDbEntity
  8
0
  6
BYBLOCK
 62
0
100
AcDbLine
 10
0.0
 20
0.0
 11
-1.0
 21
0.1666666667
  0
LINE
  5
21C
100
AcDbEntity
  8
0
  6
BYBLOCK
 62
0
100
AcDbLine
 10
-1.0
 20
0.1666666667
 11
-1.0
 21
-0.1666666667
  0
LINE
  5
21D
100
AcDbEntity
  8
0
  6
BYBLOCK
 62
0
100
AcDbLine
 10
-1.0
 20
-0.1666666667
 11
0.0
 21
0.0
  0
LINE
  5
21E
100
AcDbEntity
  8
0
  6
BYBLOCK
 62
0
100
AcDbLine
 10
-1.0
 20
0.0
 11
0.0
 21
0.0
  0
ENDBLK
  5
21F
100
AcDbEntity
  8
0
  6
BYBLOCK
 62
0
100
AcDbBlockEnd
  0
ENDSEC
  0
SECTION
  2
ENTITIES
  0
LINE
  5
220
100
AcDbEntity
  8
0
100
AcDbLine
 62
7
  6
CONTINUOUS
 10
-7.0341729806
 20
171.7619242163
 11
24.509635684
 21
180.2174150734
  0
LINE
  5
221
100
AcDbEntity
  8
0
100
AcDbLine
 62
7
  6
CONTINUOUS
 10
43.1586128793
 20
185.216375657
 11
48.337729751
 21
186.6046663299
  0
LINE
  5
222
100
AcDbEntity
  8
0
100
AcDbLine
 62
7
  6
CONTINUOUS
 10
-11.1431476147
 20
170.9135626089
 11
-7.837362377
 21
171.7996964664
  0
LINE
  5
223
100
AcDbEntity
  8
0
100
AcDbLine
 62
7
  6
CONTINUOUS
 10
48.2946252185
 20
186.846183495
 11
50.8403255923
 21
187.5285724375
  0
LINE
  5
224
100
AcDbEntity
  8
0
100
AcDbLine
 62
7
  6
CONTINUOUS
 10
-15.4776251784
 20
170.8589568101
 11
-12.8003271907
 21
170.7330493097
  0
LINE
  5
225
100
AcDbEntity
  8
0
100
AcDbLine
 62
7
  6
CONTINUOUS
 10
-7.0341729806
 20
171.7619242163
 11
-7.837362377
 21
171.7996964664
  0
LINE
  5
226
100
AcDbEntity
  8
0
100
AcDbLine
 62
7
  6
CONTINUOUS
 10
-1.0857448982
 20
185.8009246612
 11
9.0733681326
 21
188.5241306083
  0
LINE
  5
227
100
AcDbEntity
  8
0
100
AcDbLine
 62
7
  6
CONTINUOUS
 10
-18.7130726613
 20
181.399634161
 11
-13.34117165
 21
182.8396016795
  0
LINE
  5
228
100
AcDbEntity
  8
0
100
AcDbLine
 62
7
  6
CONTINUOUS
 10
-21.3236531964
 20
176.6891759975
 11
-18.6463552087
 21
176.5632684971
  0
LINE
  5
229
100
AcDbEntity
  8
0
100
AcDbLine
 62
7
  6
CONTINUOUS
 10
-8.339033254
 20
179.0731310874
 11
-9.1422226503
 21
179.1109033375
  0
LINE
  5
22A
100
AcDbEntity
  8
0
100
AcDbLine
 62
7
  6
CONTINUOUS
 10
-18.7130726613
 20
181.3996341611
 11
-19.5162620576
 21
181.4374064112
  0
LINE
  5
22B
100
AcDbEntity
  8
0
100
AcDbLine
 62
7
  6
CONTINUOUS
 10
28.0458829258
 20
177.5212404891
 11
24.4978396686
 21
179.5697777917
  0
LINE
  5
22C
100
AcDbEntity
  8
0
100
AcDbLine
 62
7
  6
CONTINUOUS
 10
-3.4576779231
 20
187.1709751356
 11
-1.0857448982
 21
185.8009246612
  0
LINE
  5
22D
100
AcDbEntity
  8
0
100
AcDbLine
 62
7
  6
CONTINUOUS
 10
8.9888991955
 20
188.5014882466
 11
11.5416222853
 21
187.0270827984
  0
LINE
  5
22E
100
AcDbEntity
  8
0
100
AcDbLine
 62
7
  6
CONTINUOUS
 10
66.9559426549
 20
250.5466553442
 11
62.410487953
 21
249.3282212901
  0
LINE
  5
22F
100
AcDbEntity
  8
0
100
AcDbLine
 62
7
  6
CONTINUOUS
 10
57.1774740306
 20
250.6026597628
 11
47.0743130461
 21
247.8944520685
  0
LINE
  5
230
100
AcDbEntity
  8
0
100
AcDbLine
 62
7
  6
CONTINUOUS
 10
17.2553122121
 20
184.8689547898
 11
26.1710132865
 21
179.7194114291
  0
LINE
  5
231
100
AcDbEntity
  8
0
100
AcDbLine
 62
7
  6
CONTINUOUS
 10
22.9745369109
 20
184.3012926083
 11
24.2132361481
 21
183.5858429338
  0
LINE
  5
232
100
AcDbEntity
  8
0
100
AcDbLine
 62
7
  6
CONTINUOUS
 10
4.2724897048
 20
199.7821998433
 11
26.2793519217
 21
187.0714449319
  0
LINE
  5
233
100
AcDbEntity
  8
0
100
AcDbLine
 62
7
  6
CONTINUOUS
 10
16.0429985022
 20
194.8205747571
 11
3.5198845319
 21
202.0536928107
  0
LINE
  5
234
100
AcDbEntity
  8
0
100
AcDbLine
 62
7
  6
CONTINUOUS
 10
17.3612538286
 20
194.1827189559
 11
32.0644760876
 21
185.6904108431
  0
LINE
  5
235
100
AcDbEntity
  8
0
100
AcDbLine
 62
7
  6
CONTINUOUS
 10
-21.3236531964
 20
176.6891759975
 11
-36.1120696277
 21
259.5495205365
  0
LINE
  5
236
100
AcDbEntity
  8
0
100
AcDbLine
 62
7
  6
CONTINUOUS
 10
-32.0946067361
 20
232.3526176326
 11
-31.9139415355
 21
231.0131562029
  0
LINE
  5
237
100
AcDbEntity
  8
0
100
AcDbLine
 62
7
  6
CONTINUOUS
 10
51.4808784838
 20
251.0815784125
 11
44.7307946309
 21
249.2721707686
  0
LINE
  5
238
100
AcDbEntity
  8
0
100
AcDbLine
 62
7
  6
CONTINUOUS
 10
32.0644760876
 20
188.6221791825
 11
24.820830063
 21
192.8059745995
  0
LINE
  5
239
100
AcDbEntity
  8
0
100
AcDbLine
 62
7
  6
CONTINUOUS
 10
-33.43477164
 20
259.4236130362
 11
-32.5648647911
 21
254.5494751221
  0
LINE
  5
23A
100
AcDbEntity
  8
0
100
AcDbLine
 62
7
  6
CONTINUOUS
 10
-19.5162620576
 20
181.4374064112
 11
-18.6463552087
 21
176.5632684971
  0
LINE
  5
23B
100
AcDbEntity
  8
0
100
AcDbLine
 62
7
  6
CONTINUOUS
 10
-31.7616753948
 20
254.511702872
 11
-18.7130726613
 21
181.3996341611
  0
LINE
  5
23C
100
AcDbEntity
  8
0
100
AcDbLine
 62
7
  6
CONTINUOUS
 10
-7.837362377
 20
171.7996964664
 11
-9.1422226503
 21
179.1109033375
  0
LINE
  5
23D
100
AcDbEntity
  8
0
100
AcDbLine
 62
7
  6
CONTINUOUS
 10
-23.9306390816
 20
261.9712478766
 11
-25.2354993549
 21
269.2824547477
  0
LINE
  5
23E
100
AcDbEntity
  8
0
100
AcDbLine
 62
7
  6
CONTINUOUS
 10
-24.4323099586
 20
269.2446824976
 11
-23.1274496853
 21
261.9334756265
  0
LINE
  5
23F
100
AcDbEntity
  8
0
100
AcDbLine
 62
7
  6
CONTINUOUS
 10
-7.0341729806
 20
171.7619242163
 11
-8.339033254
 21
179.0731310874
  0
LINE
  5
240
100
AcDbEntity
  8
0
100
AcDbLine
 62
7
  6
CONTINUOUS
 10
7.3249692611
 20
282.7026016379
 11
7.4639933109
 21
283.7570107972
  0
LINE
  5
241
100
AcDbEntity
  8
0
100
AcDbLine
 62
7
  6
CONTINUOUS
 10
-31.7616753948
 20
254.511702872
 11
-26.3897743833
 21
255.9516703906
  0
LINE
  5
242
100
AcDbEntity
  8
0
100
AcDbLine
 62
7
  6
CONTINUOUS
 10
-32.5648647911
 20
254.5494751221
 11
-27.1929637798
 21
255.9894426406
  0
LINE
  5
243
100
AcDbEntity
  8
0
100
AcDbLine
 62
7
  6
CONTINUOUS
 10
-31.7616753948
 20
254.511702872
 11
-32.5648647911
 21
254.5494751221
  0
LINE
  5
244
100
AcDbEntity
  8
0
100
AcDbLine
 62
7
  6
CONTINUOUS
 10
-8.8523615966
 20
266.8621302025
 11
-8.9851117273
 21
267.6059367907
  0
LINE
  5
245
100
AcDbEntity
  8
0
100
AcDbLine
 62
7
  6
CONTINUOUS
 10
8.0665555019
 20
258.4385008056
 11
8.0665555019
 21
257.0900778996
  0
LINE
  5
246
100
AcDbEntity
  8
0
100
AcDbLine
 62
7
  6
CONTINUOUS
 10
0.4043908867
 20
271.6552402261
 11
-4.3334979064
 21
270.3852231588
  0
LINE
  5
247
100
AcDbEntity
  8
0
100
AcDbLine
 62
7
  6
CONTINUOUS
 10
-24.4323099586
 20
269.2446824976
 11
1.493083121
 21
276.1941262532
  0
LINE
  5
248
100
AcDbEntity
  8
0
100
AcDbLine
 62
7
  6
CONTINUOUS
 10
-25.2354993549
 20
269.2824547477
 11
-28.5412845927
 21
268.3963208902
  0
LINE
  5
249
100
AcDbEntity
  8
0
100
AcDbLine
 62
7
  6
CONTINUOUS
 10
-26.3897743834
 20
255.9516703905
 11
-27.1929637798
 21
255.9894426406
  0
LINE
  5
24A
100
AcDbEntity
  8
0
100
AcDbLine
 62
7
  6
CONTINUOUS
 10
-33.43477164
 20
259.4236130362
 11
-36.1120696277
 21
259.5495205365
  0
LINE
  5
24B
100
AcDbEntity
  8
0
100
AcDbLine
 62
7
  6
CONTINUOUS
 10
-23.9306390816
 20
261.9712478766
 11
-23.1274496853
 21
261.9334756265
  0
LINE
  5
24C
100
AcDbEntity
  8
0
100
AcDbLine
 62
7
  6
CONTINUOUS
 10
-11.835906473
 20
249.7676749962
 11
-0.2500210132
 21
243.0758827243
  0
LINE
  5
24D
100
AcDbEntity
  8
0
100
AcDbLine
 62
7
  6
CONTINUOUS
 10
17.9154704045
 20
253.4566404552
 11
17.9154704045
 21
254.4013997195
  0
LINE
  5
24E
100
AcDbEntity
  8
0
100
AcDbLine
 62
7
  6
CONTINUOUS
 10
-31.2185825804
 20
268.5222283905
 11
2.1816602585
 21
277.4753466063
  0
LINE
  5
24F
100
AcDbEntity
  8
0
100
AcDbLine
 62
7
  6
CONTINUOUS
 10
30.7613618674
 20
290.4319398616
 11
31.9440540705
 21
290.7489675305
  0
LINE
  5
250
100
AcDbEntity
  8
0
100
AcDbLine
 62
7
  6
CONTINUOUS
 10
12.1093426413
 20
285.432164387
 11
13.292035972
 21
285.7491912475
  0
LINE
  5
251
100
AcDbEntity
  8
0
100
AcDbLine
 62
7
  6
CONTINUOUS
 10
9.6835997206
 20
286.0891171473
 11
29.5183111468
 21
291.4059202925
  0
LINE
  5
252
100
AcDbEntity
  8
0
100
AcDbLine
 62
7
  6
CONTINUOUS
 10
28.7649355696
 20
291.4119394448
 11
8.9302241434
 21
286.0951362996
  0
LINE
  5
253
100
AcDbEntity
  8
0
100
AcDbLine
 62
7
  6
CONTINUOUS
 10
-31.2185825804
 20
268.5222283905
 11
-28.5412845927
 21
268.3963208902
  0
LINE
  5
254
100
AcDbEntity
  8
0
100
AcDbLine
 62
7
  6
CONTINUOUS
 10
-24.4323099586
 20
269.2446824976
 11
-25.2354993549
 21
269.2824547477
  0
LINE
  5
255
100
AcDbEntity
  8
0
100
AcDbLine
 62
7
  6
CONTINUOUS
 10
-8.8523615966
 20
266.8621302025
 11
8.0665555019
 21
257.0900778996
  0
LINE
  5
256
100
AcDbEntity
  8
0
100
AcDbLine
 62
7
  6
CONTINUOUS
 10
24.2132361481
 20
184.2885744674
 11
24.2132361481
 21
183.5858429338
  0
LINE
  5
257
100
AcDbEntity
  8
0
100
AcDbLine
 62
7
  6
CONTINUOUS
 10
26.2793519217
 20
187.0714449319
 11
26.2793519217
 21
184.1396765924
  0
LINE
  5
258
100
AcDbEntity
  8
0
100
AcDbLine
 62
7
  6
CONTINUOUS
 10
28.0458829258
 20
179.2458758729
 11
28.0458829258
 21
177.5212404891
  0
LINE
  5
259
100
AcDbEntity
  8
0
100
AcDbLine
 62
7
  6
CONTINUOUS
 10
32.0644760876
 20
185.6904108431
 11
32.0644760876
 21
188.6221791825
  0
LINE
  5
25A
100
AcDbEntity
  8
0
100
AcDbLine
 62
7
  6
CONTINUOUS
 10
24.4978396686
 20
179.5697777917
 11
24.517955293
 21
180.6741870259
  0
LINE
  5
25B
100
AcDbEntity
  8
0
100
AcDbLine
 62
7
  6
CONTINUOUS
 10
32.1562969815
 20
290.7024011403
 11
32.0538421065
 21
290.6898377365
  0
LINE
  5
25C
100
AcDbEntity
  8
0
100
AcDbLine
 62
7
  6
CONTINUOUS
 10
32.1638297255
 20
290.6923072306
 11
32.059546403
 21
290.6822614214
  0
LINE
  5
25D
100
AcDbEntity
  8
0
100
AcDbLine
 62
7
  6
CONTINUOUS
 10
42.3008295071
 20
240.2822702321
 11
29.744351895
 21
247.5346585056
  0
LINE
  5
25E
100
AcDbEntity
  8
0
100
AcDbLine
 62
7
  6
CONTINUOUS
 10
34.1305918612
 20
186.2442445041
 11
34.1305918612
 21
186.94697604
  0
LINE
  5
25F
100
AcDbEntity
  8
0
100
AcDbLine
 62
7
  6
CONTINUOUS
 10
41.8935029985
 20
250.9109377221
 11
46.802205724
 21
248.0757621908
  0
LINE
  5
260
100
AcDbEntity
  8
0
100
AcDbLine
 62
7
  6
CONTINUOUS
 10
55.7610948765
 20
251.4206181354
 11
57.1774740306
 21
250.6026597628
  0
LINE
  5
261
100
AcDbEntity
  8
0
100
AcDbLine
 62
7
  6
CONTINUOUS
 10
62.410487953
 20
249.3282212901
 11
61.2844568742
 21
249.978595929
  0
LINE
  5
262
100
AcDbEntity
  8
0
100
AcDbLine
 62
7
  6
CONTINUOUS
 10
48.337729751
 20
186.6046663299
 11
47.8534262034
 21
189.318246854
  0
LINE
  5
263
100
AcDbEntity
  8
0
100
AcDbLine
 62
7
  6
CONTINUOUS
 10
58.7165755374
 20
255.5695759512
 11
61.2360457676
 21
254.1143254258
  0
LINE
  5
264
100
AcDbEntity
  8
0
100
AcDbLine
 62
7
  6
CONTINUOUS
 10
12.3362866602
 20
285.3010857516
 11
12.1093426413
 21
285.432164387
  0
LINE
  5
265
100
AcDbEntity
  8
0
100
AcDbLine
 62
7
  6
CONTINUOUS
 10
55.7338126397
 20
196.5012802915
 11
55.3704275767
 21
198.5373476192
  0
LINE
  5
266
100
AcDbEntity
  8
0
100
AcDbLine
 62
7
  6
CONTINUOUS
 10
47.0033093482
 20
249.8813343864
 11
46.8235249252
 21
250.8886768085
  0
LINE
  5
267
100
AcDbEntity
  8
0
100
AcDbLine
 62
7
  6
CONTINUOUS
 10
61.2360457676
 20
254.1143254258
 11
61.2360457676
 21
255.7951152929
  0
LINE
  5
268
100
AcDbEntity
  8
0
100
AcDbLine
 62
7
  6
CONTINUOUS
 10
62.410487953
 20
249.3282212901
 11
62.4105274011
 21
252.3212374457
  0
LINE
  5
269
100
AcDbEntity
  8
0
100
AcDbLine
 62
7
  6
CONTINUOUS
 10
31.9440540309
 20
290.7489676025
 11
31.8050604487
 21
290.7881032998
  0
LINE
  5
26A
100
AcDbEntity
  8
0
100
AcDbLine
 62
7
  6
CONTINUOUS
 10
66.9559426549
 20
250.5466553442
 11
66.9559293158
 21
253.2199971364
  0
LINE
  5
26B
100
AcDbEntity
  8
0
100
AcDbLine
 62
7
  6
CONTINUOUS
 10
32.1709985962
 20
290.6178887703
 11
31.9440540309
 21
290.7489676025
  0
LINE
  5
26C
100
AcDbEntity
  8
0
100
AcDbLine
 62
7
  6
CONTINUOUS
 10
61.2844568742
 20
249.978595929
 11
60.9681238649
 21
252.0890299361
  0
LINE
  5
26D
100
AcDbEntity
  8
0
100
AcDbLine
 62
7
  6
CONTINUOUS
 10
81.0707571939
 20
261.1119184381
 11
81.0707571938
 21
259.4311285709
  0
ARC
  5
26E
100
AcDbEntity
  8
0
100
AcDbCircle
 62
7
  6
CONTINUOUS
 10
-41.6489946488
 20
127.5776087364
 40
181.3602750324
100
AcDbArc
 50
47.4165901935
 51
49.1162736008
  0
ARC
  5
26F
100
AcDbEntity
  8
0
100
AcDbCircle
 62
7
  6
CONTINUOUS
 10
-60.2520504365
 20
123.6415560396
 40
179.5102246186
100
AcDbArc
 50
47.4078309872
 51
49.1250328071
  0
ARC
  5
270
100
AcDbEntity
  8
0
100
AcDbCircle
 62
7
  6
CONTINUOUS
 10
43.713790503
 20
197.6366798312
 40
93.6949374158
100
AcDbArc
 50
97.076558789
 51
97.2042741839
  0
ARC
  5
271
100
AcDbEntity
  8
0
100
AcDbCircle
 62
7
  6
CONTINUOUS
 10
43.6578278129
 20
198.079009802
 40
93.2490813592
100
AcDbArc
 50
97.204243768
 51
97.3680931362
  0
ARC
  5
272
100
AcDbEntity
  8
0
100
AcDbCircle
 62
7
  6
CONTINUOUS
 10
43.5050176059
 20
199.2492251137
 40
92.0689319498
100
AcDbArc
 50
97.3671745399
 51
97.9560983558
  0
ARC
  5
273
100
AcDbEntity
  8
0
100
AcDbCircle
 62
7
  6
CONTINUOUS
 10
43.0387296059
 20
202.5499129535
 40
88.735473877
100
AcDbArc
 50
97.9529116879
 51
99.6730827796
  0
ARC
  5
274
100
AcDbEntity
  8
0
100
AcDbCircle
 62
7
  6
CONTINUOUS
 10
8.8336247598
 20
210.223495951
 40
83.7761438172
100
AcDbArc
 50
74.0856894624
 51
75.705602739
  0
ARC
  5
275
100
AcDbEntity
  8
0
100
AcDbCircle
 62
7
  6
CONTINUOUS
 10
-10.8985590819
 20
205.2843138361
 40
83.3848997069
100
AcDbArc
 50
73.9829091783
 51
75.7098059318
  0
ARC
  5
276
100
AcDbEntity
  8
0
100
AcDbCircle
 62
7
  6
CONTINUOUS
 10
16.5500230859
 20
251.4634851016
 40
42.3659402175
100
AcDbArc
 50
5.5618038877
 51
6.6690764713
  0
ARC
  5
277
100
AcDbEntity
  8
0
100
AcDbCircle
 62
7
  6
CONTINUOUS
 10
28.1333955644
 20
250.8410583221
 40
38.153712769
100
AcDbArc
 50
115.5611981937
 51
117.1174545034
  0
ARC
  5
278
100
AcDbEntity
  8
0
100
AcDbCircle
 62
7
  6
CONTINUOUS
 10
29.0039393244
 20
250.9944993229
 40
38.1412180944
100
AcDbArc
 50
114.3267773989
 51
115.9125258128
  0
ARC
  5
279
100
AcDbEntity
  8
0
100
AcDbCircle
 62
7
  6
CONTINUOUS
 10
27.7899335521
 20
253.5133307389
 40
35.3451059975
100
AcDbArc
 50
115.9267458335
 51
116.8109768085
  0
ARC
  5
27A
100
AcDbEntity
  8
0
100
AcDbCircle
 62
7
  6
CONTINUOUS
 10
27.0273666373
 20
255.0219862344
 40
33.6546771496
100
AcDbArc
 50
116.8107832738
 51
117.7243870666
  0
ARC
  5
27B
100
AcDbEntity
  8
0
100
AcDbCircle
 62
7
  6
CONTINUOUS
 10
26.2622249035
 20
256.4776160102
 40
32.0102015786
100
AcDbArc
 50
117.7241834711
 51
118.668810351
  0
ARC
  5
27C
100
AcDbEntity
  8
0
100
AcDbCircle
 62
7
  6
CONTINUOUS
 10
28.2532399084
 20
268.3756472969
 40
28.0570762701
100
AcDbArc
 50
167.8563673838
 51
179.9980590508
  0
ARC
  5
27D
100
AcDbEntity
  8
0
100
AcDbCircle
 62
7
  6
CONTINUOUS
 10
61.1390927981
 20
268.3756478713
 40
28.0570708723
100
AcDbArc
 50
0.0019397769
 51
12.1436337912
  0
ARC
  5
27E
100
AcDbEntity
  8
0
100
AcDbCircle
 62
7
  6
CONTINUOUS
 10
-14.7944630275
 20
257.9822632292
 40
25.9615246501
100
AcDbArc
 50
351.5782343947
 51
357.6450610259
  0
ARC
  5
27F
100
AcDbEntity
  8
0
100
AcDbCircle
 62
7
  6
CONTINUOUS
 10
-7.2187280911
 20
234.3366955934
 40
24.9178252235
100
AcDbArc
 50
184.5626831756
 51
187.6649252778
  0
ARC
  5
280
100
AcDbEntity
  8
0
100
AcDbCircle
 62
7
  6
CONTINUOUS
 10
21.7759085923
 20
204.7375189422
 40
20.4548118611
100
AcDbArc
 50
231.8963930711
 51
239.9777767345
  0
ARC
  5
281
100
AcDbEntity
  8
0
100
AcDbCircle
 62
7
  6
CONTINUOUS
 10
36.6145984276
 20
230.4382986195
 40
20.3682400845
100
AcDbArc
 50
59.1782825928
 51
59.9887626243
  0
ARC
  5
282
100
AcDbEntity
  8
0
100
AcDbCircle
 62
7
  6
CONTINUOUS
 10
-13.2138211811
 20
179.3946193336
 40
3.6075788839
100
AcDbArc
 50
74.6818951274
 51
80.6616708646
  0
SPLINE
  5
283
100
AcDbEntity
  8
0
100
AcDbSpline
 62
7
  6
CONTINUOUS
 70
0
 71
3
 72
11
 73
7
 74
0
 42
0.0000001
 43
0.0000001
 44
0.0000000001
 40
0.0
 40
0.0
 40
0.0
 40
0.0
 40
0.305994985
 40
0.570941557
 40
0.7976282762
 40
1.0
 40
1.0
 40
1.0
 40
1.0
 10
7.4639933109
 20
283.7570107972
 30
0.0
 10
7.502515454
 20
284.0511776316
 30
0.0
 10
7.6156268884
 20
284.5965286852
 30
0.0
 10
7.9259676031
 20
285.3124673789
 30
0.0
 10
8.3608218795
 20
285.8415142228
 30
0.0
 10
8.740704795
 20
286.0443345069
 30
0.0
 10
8.9302227456
 20
286.0951416901
 30
0.0
  0
SPLINE
  5
284
100
AcDbEntity
  8
0
100
AcDbSpline
 62
7
  6
CONTINUOUS
 70
0
 71
3
 72
17
 73
13
 74
0
 42
0.0000001
 43
0.0000001
 44
0.0000000001
 40
0.0
 40
0.0
 40
0.0
 40
0.0
 40
0.1756587818
 40
0.3401092311
 40
0.4904432539
 40
0.6244287102
 40
0.7408196005
 40
0.8398566086
 40
0.8836558868
 40
0.9243434527
 40
0.962769985
 40
1.0
 40
1.0
 40
1.0
 40
1.0
 10
58.9048614163
 20
251.7834357593
 30
0.0
 10
61.0387024853
 20
252.0663326814
 30
0.0
 10
65.1541992916
 20
252.7483534492
 30
0.0
 10
71.0004682255
 20
254.1671025225
 30
0.0
 10
76.2211729688
 20
255.9199949287
 30
0.0
 10
80.6975793434
 20
257.9669712746
 30
0.0
 10
84.329766265
 20
260.261805499
 30
0.0
 10
86.6842992333
 20
262.4383405699
 30
0.0
 10
88.001690855
 20
264.2699489002
 30
0.0
 10
88.6869348363
 20
265.6190069193
 30
0.0
 10
89.1027005707
 20
266.9908354224
 30
0.0
 10
89.1961411736
 20
267.9203833218
 30
0.0
 10
89.1961470643
 20
268.3765976779
 30
0.0
  0
SPLINE
  5
285
100
AcDbEntity
  8
0
100
AcDbSpline
 62
7
  6
CONTINUOUS
 70
0
 71
3
 72
12
 73
8
 74
0
 42
0.0000001
 43
0.0000001
 44
0.0000000001
 40
0.0
 40
0.0
 40
0.0
 40
0.0
 40
0.2832883931
 40
0.5392235649
 40
0.7748781107
 40
0.888036595
 40
1.0
 40
1.0
 40
1.0
 40
1.0
 10
10.7423198018
 20
284.8006855562
 30
0.0
 10
9.4889963355
 20
284.1584300363
 30
0.0
 10
7.1682361437
 20
282.797351253
 30
0.0
 10
4.1749161656
 20
280.3431492776
 30
0.0
 10
2.2846323425
 20
277.9605547435
 30
0.0
 10
1.2709035412
 20
275.8978661849
 30
0.0
 10
0.9409729925
 20
274.8219856084
 30
0.0
 10
0.8239872984
 20
274.2778189385
 30
0.0
  0
SPLINE
  5
286
100
AcDbEntity
  8
0
100
AcDbSpline
 62
7
  6
CONTINUOUS
 70
0
 71
3
 72
12
 73
8
 74
0
 42
0.0000001
 43
0.0000001
 44
0.0000000001
 40
0.0
 40
0.0
 40
0.0
 40
0.0
 40
0.1129879195
 40
0.2268143346
 40
0.4633119476
 40
0.7188259415
 40
1.0
 40
1.0
 40
1.0
 40
1.0
 10
88.5683399913
 20
274.2778190268
 30
0.0
 10
88.4560247269
 20
274.8002608535
 30
0.0
 10
88.1436999626
 20
275.8322493186
 30
0.0
 10
87.1927299406
 20
277.8139639689
 30
0.0
 10
85.4291396451
 20
280.1122801642
 30
0.0
 10
82.6349450094
 20
282.4982432176
 30
0.0
 10
80.4644714693
 20
283.8320322492
 30
0.0
 10
79.2936696366
 20
284.462617532
 30
0.0
  0
SPLINE
  5
287
100
AcDbEntity
  8
0
100
AcDbSpline
 62
7
  6
CONTINUOUS
 70
0
 71
3
 72
15
 73
11
 74
0
 42
0.0000001
 43
0.0000001
 44
0.0000000001
 40
0.0
 40
0.0
 40
0.0
 40
0.0
 40
0.101149352
 40
0.212510165
 40
0.3330300824
 40
0.4609780222
 40
0.5941695954
 40
0.7301413414
 40
0.8662797519
 40
1.0
 40
1.0
 40
1.0
 40
1.0
 10
79.2936696366
 20
284.462617532
 30
0.0
 10
77.8635921572
 20
285.2328467771
 30
0.0
 10
74.7450532686
 20
286.6421924314
 30
0.0
 10
69.6639434159
 20
288.3319890514
 30
0.0
 10
64.0398091565
 20
289.6845942392
 30
0.0
 10
57.9870242441
 20
290.677630896
 30
0.0
 10
51.635369622
 20
291.2924687153
 30
0.0
 10
45.1265601039
 20
291.5162731833
 30
0.0
 10
38.6079893591
 20
291.3445174082
 30
0.0
 10
34.2878202243
 20
290.9626114349
 30
0.0
 10
32.1562969815
 20
290.7024011403
 30
0.0
  0
SPLINE
  5
288
100
AcDbEntity
  8
0
100
AcDbSpline
 62
7
  6
CONTINUOUS
 70
0
 71
3
 72
9
 73
5
 74
0
 42
0.0000001
 43
0.0000001
 44
0.0000000001
 40
0.0
 40
0.0
 40
0.0
 40
0.0
 40
0.2586663963
 40
1.0
 40
1.0
 40
1.0
 40
1.0
 10
61.2360457676
 20
254.1143254258
 30
0.0
 10
62.1214135015
 20
254.2407061963
 30
0.0
 10
65.5376914041
 20
254.7729509315
 30
0.0
 10
68.9277679659
 20
255.4815578081
 30
0.0
 10
71.4086767461
 20
256.1257106743
 30
0.0
  0
SPLINE
  5
289
100
AcDbEntity
  8
0
100
AcDbSpline
 62
7
  6
CONTINUOUS
 70
0
 71
3
 72
9
 73
5
 74
0
 42
0.0000001
 43
0.0000001
 44
0.0000000001
 40
0.0
 40
0.0
 40
0.0
 40
0.0
 40
0.5217592691
 40
1.0
 40
1.0
 40
1.0
 40
1.0
 10
71.4086767461
 20
256.1257106743
 30
0.0
 10
73.1291641748
 20
256.5724247644
 30
0.0
 10
76.3993650016
 20
257.5391536421
 30
0.0
 10
79.582849283
 20
258.7672996753
 30
0.0
 10
81.0707571939
 20
259.4311285709
 30
0.0
  0
SPLINE
  5
28A
100
AcDbEntity
  8
0
100
AcDbSpline
 62
7
  6
CONTINUOUS
 70
0
 71
3
 72
20
 73
16
 74
0
 42
0.0000001
 43
0.0000001
 44
0.0000000001
 40
0.0
 40
0.0
 40
0.0
 40
0.0
 40
0.0320817256
 40
0.0664652479
 40
0.1049315315
 40
0.1485767118
 40
0.1979143686
 40
0.2530321545
 40
0.3137152599
 40
0.3795301251
 40
0.4498804756
 40
0.5240468577
 40
0.6804617812
 40
0.8416444524
 40
1.0
 40
1.0
 40
1.0
 40
1.0
 10
0.1961745869
 20
268.3765979222
 30
0.0
 10
0.1961690019
 20
267.6788645472
 30
0.0
 10
0.4235941319
 20
266.225587527
 30
0.0
 10
1.4092061107
 20
264.1403868098
 30
0.0
 10
2.9984948481
 20
262.1446555545
 30
0.0
 10
5.1578260891
 20
260.253592808
 30
0.0
 10
7.8574430159
 20
258.4819934487
 30
0.0
 10
11.0629282284
 20
256.849396342
 30
0.0
 10
14.7325201775
 20
255.3762509091
 30
0.0
 10
18.8170877085
 20
254.0824170313
 30
0.0
 10
23.2610713752
 20
252.9856581417
 30
0.0
 10
29.6980021047
 20
251.7861386065
 30
0.0
 10
38.1872322837
 20
250.8942574248
 30
0.0
 10
48.5506485381
 20
250.7725569813
 30
0.0
 10
55.4907198372
 20
251.3308012318
 30
0.0
 10
58.9048614163
 20
251.7834357593
 30
0.0
  0
SPLINE
  5
28B
100
AcDbEntity
  8
0
100
AcDbSpline
 62
7
  6
CONTINUOUS
 70
0
 71
3
 72
9
 73
5
 74
0
 42
0.0000001
 43
0.0000001
 44
0.0000000001
 40
0.0
 40
0.0
 40
0.0
 40
0.0
 40
0.5124228519
 40
1.0
 40
1.0
 40
1.0
 40
1.0
 10
29.5183111471
 20
291.4059202924
 30
0.0
 10
29.3926454713
 20
291.4383132362
 30
0.0
 10
29.1392024689
 20
291.4748735037
 30
0.0
 10
28.8842037832
 20
291.4439193852
 30
0.0
 10
28.7649341719
 20
291.4119448339
 30
0.0
  0
SPLINE
  5
28C
100
AcDbEntity
  8
0
100
AcDbSpline
 62
7
  6
CONTINUOUS
 70
0
 71
3
 72
9
 73
5
 74
0
 42
0.0000001
 43
0.0000001
 44
0.0000000001
 40
0.0
 40
0.0
 40
0.0
 40
0.0
 40
0.5191268523
 40
1.0
 40
1.0
 40
1.0
 40
1.0
 10
28.1407755755
 20
290.1233449296
 30
0.0
 10
26.032672961
 20
289.7710434331
 30
0.0
 10
21.9945483748
 20
288.9453043851
 30
0.0
 10
18.0388161576
 20
287.7779473597
 30
0.0
 10
16.1730404285
 20
287.1156412823
 30
0.0
  0
SPLINE
  5
28D
100
AcDbEntity
  8
0
100
AcDbSpline
 62
7
  6
CONTINUOUS
 70
0
 71
3
 72
15
 73
11
 74
0
 42
0.0000001
 43
0.0000001
 44
0.0000000001
 40
0.0
 40
0.0
 40
0.0
 40
0.0
 40
0.1029651634
 40
0.205971459
 40
0.3129684476
 40
0.4273953824
 40
0.5518623534
 40
0.6881591808
 40
0.8374095349
 40
1.0
 40
1.0
 40
1.0
 40
1.0
 10
0.8240017311
 20
274.2778032315
 30
0.0
 10
0.7199898772
 20
273.7940933238
 30
0.0
 10
0.6124521482
 20
272.8010702501
 30
0.0
 10
0.7827319484
 20
271.2953887012
 30
0.0
 10
1.2820041497
 20
269.807378769
 30
0.0
 10
2.1001856941
 20
268.3510864088
 30
0.0
 10
3.2262967755
 20
266.9350088093
 30
0.0
 10
4.6505897943
 20
265.5667246806
 30
0.0
 10
6.3619078089
 20
264.2538236049
 30
0.0
 10
7.6319368138
 20
263.4546203737
 30
0.0
 10
8.3084720752
 20
263.0638602929
 30
0.0
  0
SPLINE
  5
28E
100
AcDbEntity
  8
0
100
AcDbSpline
 62
7
  6
CONTINUOUS
 70
0
 71
3
 72
15
 73
11
 74
0
 42
0.0000001
 43
0.0000001
 44
0.0000000001
 40
0.0
 40
0.0
 40
0.0
 40
0.0
 40
0.0965695668
 40
0.2057651988
 40
0.3258932298
 40
0.4546734312
 40
0.5894350737
 40
0.7272720644
 40
0.8651370441
 40
1.0
 40
1.0
 40
1.0
 40
1.0
 10
8.3084720752
 20
263.0638602929
 30
0.0
 10
9.7438767548
 20
262.2347847361
 30
0.0
 10
12.943063134
 20
260.7096152953
 30
0.0
 10
18.2370547288
 20
258.87783653
 30
0.0
 10
24.2109487646
 20
257.3985106922
 30
0.0
 10
30.71218044
 20
256.311913113
 30
0.0
 10
37.5747316404
 20
255.6458037818
 30
0.0
 10
44.6215714371
 20
255.4187297319
 30
0.0
 10
51.6700768196
 20
255.6364162461
 30
0.0
 10
56.3343677915
 20
256.0824736938
 30
0.0
 10
58.6296260013
 20
256.3837603552
 30
0.0
  0
SPLINE
  5
28F
100
AcDbEntity
  8
0
100
AcDbSpline
 62
7
  6
CONTINUOUS
 70
0
 71
3
 72
15
 73
11
 74
0
 42
0.0000001
 43
0.0000001
 44
0.0000000001
 40
0.0
 40
0.0
 40
0.0
 40
0.0
 40
0.096570162
 40
0.2056330877
 40
0.3255484566
 40
0.4541038514
 40
0.5887103338
 40
0.7265362571
 40
0.8646179274
 40
1.0
 40
1.0
 40
1.0
 40
1.0
 10
79.0997810985
 20
284.2191824353
 30
0.0
 10
77.7608409601
 20
284.9925293928
 30
0.0
 10
74.7803540834
 20
286.417366658
 30
0.0
 10
69.8509401443
 20
288.1341199492
 30
0.0
 10
64.2912399451
 20
289.5266038091
 30
0.0
 10
58.2397727276
 20
290.5584547165
 30
0.0
 10
51.84717285
 20
291.2032902281
 30
0.0
 10
45.2742663533
 20
291.4441537438
 30
0.0
 10
38.6870494235
 20
291.274936599
 30
0.0
 10
34.3221516505
 20
290.8849368312
 30
0.0
 10
32.1709990311
 20
290.6178885751
 30
0.0
  0
SPLINE
  5
290
100
AcDbEntity
  8
0
100
AcDbSpline
 62
7
  6
CONTINUOUS
 70
0
 71
3
 72
9
 73
5
 74
0
 42
0.0000001
 43
0.0000001
 44
0.0000000001
 40
0.0
 40
0.0
 40
0.0
 40
0.0
 40
0.4866727595
 40
1.0
 40
1.0
 40
1.0
 40
1.0
 10
11.6710267594
 20
285.2604883795
 30
0.0
 10
11.770286166
 20
285.3079249361
 30
0.0
 10
11.995888741
 20
285.3653905654
 30
0.0
 10
12.2248366889
 20
285.3333879242
 30
0.0
 10
12.3362871996
 20
285.301085608
 30
0.0
  0
SPLINE
  5
291
100
AcDbEntity
  8
0
100
AcDbSpline
 62
7
  6
CONTINUOUS
 70
0
 71
3
 72
10
 73
6
 74
0
 42
0.0000001
 43
0.0000001
 44
0.0000000001
 40
0.0
 40
0.0
 40
0.0
 40
0.0
 40
0.5350042313
 40
0.7831467453
 40
1.0
 40
1.0
 40
1.0
 40
1.0
 10
58.629293072
 20
256.3836403785
 30
0.0
 10
58.5596139046
 20
256.9796205419
 30
0.0
 10
58.3111404468
 20
257.8438099184
 30
0.0
 10
57.7512767192
 20
258.8192304829
 30
0.0
 10
57.4052441877
 20
259.2171721247
 30
0.0
 10
57.2213281307
 20
259.3763197173
 30
0.0
  0
SPLINE
  5
292
100
AcDbEntity
  8
0
100
AcDbSpline
 62
7
  6
CONTINUOUS
 70
0
 71
3
 72
23
 73
19
 74
0
 42
0.0000001
 43
0.0000001
 44
0.0000000001
 40
0.0
 40
0.0
 40
0.0
 40
0.0
 40
0.0101589842
 40
0.0165798263
 40
0.0238144614
 40
0.0324185563
 40
0.0527422128
 40
0.0759312686
 40
0.101058996
 40
0.1276152043
 40
0.1552890974
 40
0.1838769335
 40
0.30502495
 40
0.4340856401
 40
0.5008906489
 40
0.5689964482
 40
0.7086837733
 40
1.0
 40
1.0
 40
1.0
 40
1.0
 10
13.2920385241
 20
285.7491923779
 30
0.0
 10
13.2813734432
 20
285.752252389
 30
0.0
 10
13.2616819281
 20
285.7597487615
 30
0.0
 10
13.2568241278
 20
285.7883434223
 30
0.0
 10
13.2687691454
 20
285.8103465972
 30
0.0
 10
13.2934619566
 20
285.8410609231
 30
0.0
 10
13.337014292
 20
285.878392179
 30
0.0
 10
13.3977089711
 20
285.9222667018
 30
0.0
 10
13.4665858955
 20
285.9664670716
 30
0.0
 10
13.541105867
 20
286.010726349
 30
0.0
 10
13.6200434118
 20
286.0549119133
 30
0.0
 10
13.7909746895
 20
286.1461782242
 30
0.0
 10
14.0650783444
 20
286.2790958416
 30
0.0
 10
14.3814267874
 20
286.4198773031
 30
0.0
 10
14.646887867
 20
286.5323622247
 30
0.0
 10
14.9242555918
 20
286.6464478735
 30
0.0
 10
15.4313097102
 20
286.8466315654
 30
0.0
 10
15.8731569803
 20
287.0092100002
 30
0.0
 10
16.172998284
 20
287.1156347933
 30
0.0
  0
SPLINE
  5
293
100
AcDbEntity
  8
0
100
AcDbSpline
 62
7
  6
CONTINUOUS
 70
0
 71
3
 72
19
 73
15
 74
0
 42
0.0000001
 43
0.0000001
 44
0.0000000001
 40
0.0
 40
0.0
 40
0.0
 40
0.0
 40
0.1563252899
 40
0.225887664
 40
0.2899871196
 40
0.403778878
 40
0.4556048374
 40
0.5056398008
 40
0.5554104888
 40
0.6064730471
 40
0.7175474803
 40
0.7799121159
 40
0.8475980342
 40
1.0
 40
1.0
 40
1.0
 40
1.0
 10
10.9054606187
 20
284.5636053252
 30
0.0
 10
9.7548295012
 20
283.9343627085
 30
0.0
 10
8.1417409537
 20
282.920154323
 30
0.0
 10
6.2799265753
 20
281.3474685884
 30
0.0
 10
4.8444774866
 20
279.845792466
 30
0.0
 10
3.7677451671
 20
278.2066930061
 30
0.0
 10
3.197356952
 20
276.4800484727
 30
0.0
 10
3.03003025
 20
275.2109421565
 30
0.0
 10
3.1132673352
 20
273.9398351785
 30
0.0
 10
3.5682715511
 20
272.2113087866
 30
0.0
 10
4.5389137012
 20
270.554916932
 30
0.0
 10
5.8784206836
 20
269.0367698584
 30
0.0
 10
7.6391030123
 20
267.4439276284
 30
0.0
 10
9.1854130498
 20
266.4144854276
 30
0.0
 10
10.2925462102
 20
265.7750258755
 30
0.0
  0
SPLINE
  5
294
100
AcDbEntity
  8
0
100
AcDbSpline
 62
7
  6
CONTINUOUS
 70
0
 71
3
 72
20
 73
16
 74
0
 42
0.0000001
 43
0.0000001
 44
0.0000000001
 40
0.0
 40
0.0
 40
0.0
 40
0.0
 40
0.1492872026
 40
0.2152024098
 40
0.275712656
 40
0.3315043775
 40
0.383568421
 40
0.4332301517
 40
0.4820750708
 40
0.5317869602
 40
0.5839459125
 40
0.6398674464
 40
0.7005384489
 40
0.8383402214
 40
1.0
 40
1.0
 40
1.0
 40
1.0
 10
79.0997810985
 20
284.2191824353
 30
0.0
 10
80.2540417806
 20
283.5525029019
 30
0.0
 10
81.8619733584
 20
282.4760019881
 30
0.0
 10
83.6716309204
 20
280.8005004663
 30
0.0
 10
84.7263557586
 20
279.555429298
 30
0.0
 10
85.5275115142
 20
278.276289232
 30
0.0
 10
86.0670876223
 20
276.9692804404
 30
0.0
 10
86.3375369754
 20
275.6433044663
 30
0.0
 10
86.3332369357
 20
274.3105330353
 30
0.0
 10
86.0547306763
 20
272.9849382417
 30
0.0
 10
85.5069759895
 20
271.6787320602
 30
0.0
 10
84.6981423953
 20
270.4003466677
 30
0.0
 10
83.2182236552
 20
268.6688140709
 30
0.0
 10
80.6948324209
 20
266.6353146897
 30
0.0
 10
78.3541558303
 20
265.3243029587
 30
0.0
 10
77.0560395568
 20
264.6931228626
 30
0.0
  0
SPLINE
  5
295
100
AcDbEntity
  8
0
100
AcDbSpline
 62
7
  6
CONTINUOUS
 70
0
 71
3
 72
11
 73
7
 74
0
 42
0.0000001
 43
0.0000001
 44
0.0000000001
 40
0.0
 40
0.0
 40
0.0
 40
0.0
 40
0.2235393926
 40
0.466481124
 40
0.726306744
 40
1.0
 40
1.0
 40
1.0
 40
1.0
 10
81.0707571939
 20
261.1119184381
 30
0.0
 10
79.6693669482
 20
260.486689328
 30
0.0
 10
76.6807536705
 20
259.3237002276
 30
0.0
 10
71.9051296878
 20
257.8776989556
 30
0.0
 10
66.7089351358
 20
256.6746516142
 30
0.0
 10
63.0960225702
 20
256.0606154828
 30
0.0
 10
61.2360457676
 20
255.7951152929
 30
0.0
  0
SPLINE
  5
296
100
AcDbEntity
  8
0
100
AcDbSpline
 62
7
  6
CONTINUOUS
 70
0
 71
3
 72
12
 73
8
 74
0
 42
0.0000001
 43
0.0000001
 44
0.0000000001
 40
0.0
 40
0.0
 40
0.0
 40
0.0
 40
0.258159359
 40
0.5195410045
 40
0.7708946293
 40
0.8889373606
 40
1.0
 40
1.0
 40
1.0
 40
1.0
 10
57.2213281305
 20
259.3763197174
 30
0.0
 10
53.8889486652
 20
258.9626316799
 30
0.0
 10
47.1346170804
 20
258.4845507596
 30
0.0
 10
37.0970618851
 20
258.7296922117
 30
0.0
 10
28.9360490875
 20
259.7278196703
 30
0.0
 10
22.8172610452
 20
261.0138408226
 30
0.0
 10
19.9425091233
 20
261.8094584997
 30
0.0
 10
18.5655245205
 20
262.2463324134
 30
0.0
  0
SPLINE
  5
297
100
AcDbEntity
  8
0
100
AcDbSpline
 62
7
  6
CONTINUOUS
 70
0
 71
3
 72
9
 73
5
 74
0
 42
0.0000001
 43
0.0000001
 44
0.0000000001
 40
0.0
 40
0.0
 40
0.0
 40
0.0
 40
0.5284683801
 40
1.0
 40
1.0
 40
1.0
 40
1.0
 10
18.5655245205
 20
262.2463324134
 30
0.0
 10
17.0531889842
 20
262.7261489222
 30
0.0
 10
14.2265659282
 20
263.7511931665
 30
0.0
 10
11.5184420979
 20
265.0669711777
 30
0.0
 10
10.2925462102
 20
265.7750258755
 30
0.0
  0
SPLINE
  5
298
100
AcDbEntity
  8
0
100
AcDbSpline
 62
7
  6
CONTINUOUS
 70
0
 71
3
 72
9
 73
5
 74
0
 42
0.0000001
 43
0.0000001
 44
0.0000000001
 40
0.0
 40
0.0
 40
0.0
 40
0.0
 40
0.5224371946
 40
1.0
 40
1.0
 40
1.0
 40
1.0
 10
28.1288377341
 20
290.0237916176
 30
0.0
 10
26.0132371979
 20
289.6626643541
 30
0.0
 10
21.9876242579
 20
288.8198841586
 30
0.0
 10
18.0500339401
 20
287.6207763709
 30
0.0
 10
16.2096543707
 20
286.9411617602
 30
0.0
  0
SPLINE
  5
299
100
AcDbEntity
  8
0
100
AcDbSpline
 62
7
  6
CONTINUOUS
 70
0
 71
3
 72
9
 73
5
 74
0
 42
0.0000001
 43
0.0000001
 44
0.0000000001
 40
0.0
 40
0.0
 40
0.0
 40
0.0
 40
0.2571723816
 40
1.0
 40
1.0
 40
1.0
 40
1.0
 10
16.2096543707
 20
286.9411617602
 30
0.0
 10
15.9561766129
 20
286.8475575981
 30
0.0
 10
14.9735452156
 20
286.4755475472
 30
0.0
 10
14.0031907622
 20
286.0707755016
 30
0.0
 10
13.2920393488
 20
285.749191909
 30
0.0
  0
SPLINE
  5
29A
100
AcDbEntity
  8
0
100
AcDbSpline
 62
7
  6
CONTINUOUS
 70
0
 71
3
 72
9
 73
5
 74
0
 42
0.0000001
 43
0.0000001
 44
0.0000000001
 40
0.0
 40
0.0
 40
0.0
 40
0.0
 40
0.4875770807
 40
1.0
 40
1.0
 40
1.0
 40
1.0
 10
8.9302227456
 20
286.0951416901
 30
0.0
 10
9.0494923397
 20
286.127116245
 30
0.0
 10
9.3044910257
 20
286.1580704229
 30
0.0
 10
9.557934027
 20
286.1215100956
 30
0.0
 10
9.6835997209
 20
286.0891171472
 30
0.0
  0
SPLINE
  5
29B
100
AcDbEntity
  8
0
100
AcDbSpline
 62
7
  6
CONTINUOUS
 70
0
 71
3
 72
17
 73
13
 74
0
 42
0.0000001
 43
0.0000001
 44
0.0000000001
 40
0.0
 40
0.0
 40
0.0
 40
0.0
 40
0.2502743926
 40
0.3763137454
 40
0.5029715194
 40
0.6302411969
 40
0.7580147051
 40
0.8219351356
 40
0.8855326476
 40
0.9475990114
 40
0.9764639352
 40
1.0
 40
1.0
 40
1.0
 40
1.0
 10
28.1407726836
 20
290.1233678668
 30
0.0
 10
28.3582511012
 20
290.1597077428
 30
0.0
 10
28.6855606573
 20
290.2125445557
 30
0.0
 10
29.1237436718
 20
290.2785429873
 30
0.0
 10
29.455177563
 20
290.3256025433
 30
0.0
 10
29.7886161324
 20
290.3693150263
 30
0.0
 10
30.0677578664
 20
290.4017323912
 30
0.0
 10
30.2916404721
 20
290.4235702333
 30
0.0
 10
30.4581099451
 20
290.4365074321
 30
0.0
 10
30.5943159331
 20
290.4432672658
 30
0.0
 10
30.6949371166
 20
290.4415879673
 30
0.0
 10
30.7414274459
 20
290.4376583222
 30
0.0
 10
30.7613586582
 20
290.431939427
 30
0.0
  0
SPLINE
  5
29C
100
AcDbEntity
  8
0
100
AcDbSpline
 62
7
  6
CONTINUOUS
 70
0
 71
3
 72
15
 73
11
 74
0
 42
0.0000001
 43
0.0000001
 44
0.0000000001
 40
0.0
 40
0.0
 40
0.0
 40
0.0
 40
0.1657642907
 40
0.31740248
 40
0.4552241594
 40
0.5801621123
 40
0.6939333143
 40
0.7992448586
 40
0.899804316
 40
1.0
 40
1.0
 40
1.0
 40
1.0
 10
79.7647979523
 20
262.3426151897
 30
0.0
 10
80.5455964332
 20
262.7473443582
 30
0.0
 10
82.0130462372
 20
263.5780471098
 30
0.0
 10
84.0006895224
 20
264.9568669364
 30
0.0
 10
85.6629537512
 20
266.403992492
 30
0.0
 10
86.9862161508
 20
267.9101598248
 30
0.0
 10
87.9575084729
 20
269.4668690008
 30
0.0
 10
88.5626548678
 20
271.0647194493
 30
0.0
 10
88.7874531782
 20
272.6872065795
 30
0.0
 10
88.6800313947
 20
273.7583175443
 30
0.0
 10
88.5682939746
 20
274.278028957
 30
0.0
  0
SPLINE
  5
29D
100
AcDbEntity
  8
0
100
AcDbSpline
 62
7
  6
CONTINUOUS
 70
0
 71
3
 72
11
 73
7
 74
0
 42
0.0000001
 43
0.0000001
 44
0.0000000001
 40
0.0
 40
0.0
 40
0.0
 40
0.0
 40
0.2634102731
 40
0.5159328529
 40
0.7602044305
 40
1.0
 40
1.0
 40
1.0
 40
1.0
 10
29.1719140046
 20
193.4189351015
 30
0.0
 10
28.0242031167
 20
193.1112849055
 30
0.0
 10
25.7205058355
 20
192.6927681913
 30
0.0
 10
22.2706098547
 20
192.7097126043
 30
0.0
 10
18.9949457042
 20
193.3890116322
 30
0.0
 10
16.9796928276
 20
194.2795674532
 30
0.0
 10
16.0430176441
 20
194.8206077783
 30
0.0
  0
SPLINE
  5
29E
100
AcDbEntity
  8
0
100
AcDbSpline
 62
7
  6
CONTINUOUS
 70
0
 71
3
 72
11
 73
7
 74
0
 42
0.0000001
 43
0.0000001
 44
0.0000000001
 40
0.0
 40
0.0
 40
0.0
 40
0.0
 40
0.271774827
 40
0.5268698584
 40
0.7676346552
 40
1.0
 40
1.0
 40
1.0
 40
1.0
 10
11.5022415079
 20
208.5110061158
 30
0.0
 10
11.5022415079
 20
208.034383147
 30
0.0
 10
11.5949091113
 20
207.1064562479
 30
0.0
 10
12.0387373627
 20
205.8210738566
 30
0.0
 10
12.7660490339
 20
204.7516103375
 30
0.0
 10
13.4242472861
 20
204.2221816572
 30
0.0
 10
13.7771357448
 20
204.018384605
 30
0.0
  0
SPLINE
  5
29F
100
AcDbEntity
  8
0
100
AcDbSpline
 62
7
  6
CONTINUOUS
 70
0
 71
3
 72
11
 73
7
 74
0
 42
0.0000001
 43
0.0000001
 44
0.0000000001
 40
0.0
 40
0.0
 40
0.0
 40
0.0
 40
0.271774827
 40
0.5268698584
 40
0.7676346552
 40
1.0
 40
1.0
 40
1.0
 40
1.0
 10
16.0506380691
 20
225.3021160259
 30
0.0
 10
16.0506380691
 20
224.8254930571
 30
0.0
 10
16.1433056724
 20
223.897566158
 30
0.0
 10
16.5871339239
 20
222.6121837667
 30
0.0
 10
17.314445595
 20
221.5427202476
 30
0.0
 10
17.9726438473
 20
221.0132915673
 30
0.0
 10
18.325532306
 20
220.8094945151
 30
0.0
  0
SPLINE
  5
2A0
100
AcDbEntity
  8
0
100
AcDbSpline
 62
7
  6
CONTINUOUS
 70
0
 71
3
 72
11
 73
7
 74
0
 42
0.0000001
 43
0.0000001
 44
0.0000000001
 40
0.0
 40
0.0
 40
0.0
 40
0.0
 40
0.271774827
 40
0.5268698584
 40
0.7676346552
 40
1.0
 40
1.0
 40
1.0
 40
1.0
 10
30.7695585296
 20
229.2476033545
 30
0.0
 10
30.7695585296
 20
228.7709803856
 30
0.0
 10
30.8622261329
 20
227.8430534866
 30
0.0
 10
31.3060543844
 20
226.5576710953
 30
0.0
 10
32.0333660556
 20
225.4882075762
 30
0.0
 10
32.6915643078
 20
224.9587788958
 30
0.0
 10
33.0444527665
 20
224.7549818436
 30
0.0
  0
SPLINE
  5
2A1
100
AcDbEntity
  8
0
100
AcDbSpline
 62
7
  6
CONTINUOUS
 70
0
 71
3
 72
11
 73
7
 74
0
 42
0.0000001
 43
0.0000001
 44
0.0000000001
 40
0.0
 40
0.0
 40
0.0
 40
0.0
 40
0.271774827
 40
0.5268698584
 40
0.7676346552
 40
1.0
 40
1.0
 40
1.0
 40
1.0
 10
35.3188740039
 20
214.8957058693
 30
0.0
 10
35.3188740039
 20
214.4190829005
 30
0.0
 10
35.4115416073
 20
213.4911560014
 30
0.0
 10
35.8553698587
 20
212.2057736101
 30
0.0
 10
36.5826815299
 20
211.136310091
 30
0.0
 10
37.2408797821
 20
210.6068814107
 30
0.0
 10
37.5937682408
 20
210.4030843585
 30
0.0
  0
SPLINE
  5
2A2
100
AcDbEntity
  8
0
100
AcDbSpline
 62
7
  6
CONTINUOUS
 70
0
 71
3
 72
10
 73
6
 74
0
 42
0.0000001
 43
0.0000001
 44
0.0000000001
 40
0.0
 40
0.0
 40
0.0
 40
0.0
 40
0.2403281524
 40
0.485096085
 40
1.0
 40
1.0
 40
1.0
 40
1.0
 10
30.3715769632
 20
208.3004858037
 30
0.0
 10
30.2056307035
 20
208.3963024808
 30
0.0
 10
29.8484973209
 20
208.5539993416
 30
0.0
 10
29.0635928699
 20
208.7174293217
 30
0.0
 10
28.4424340497
 20
208.6550813953
 30
0.0
 10
28.0458829258
 20
208.5487836924
 30
0.0
  0
SPLINE
  5
2A3
100
AcDbEntity
  8
0
100
AcDbSpline
 62
7
  6
CONTINUOUS
 70
0
 71
3
 72
9
 73
5
 74
0
 42
0.0000001
 43
0.0000001
 44
0.0000000001
 40
0.0
 40
0.0
 40
0.0
 40
0.0
 40
0.4872206454
 40
1.0
 40
1.0
 40
1.0
 40
1.0
 10
40.0911504091
 20
221.2267885489
 30
0.0
 10
39.8642559401
 20
221.3578743173
 30
0.0
 10
39.3429067446
 20
221.5389022024
 30
0.0
 10
38.7941764347
 20
221.5253814938
 30
0.0
 10
38.5224333276
 20
221.4783362417
 30
0.0
  0
SPLINE
  5
2A4
100
AcDbEntity
  8
0
100
AcDbSpline
 62
7
  6
CONTINUOUS
 70
0
 71
3
 72
15
 73
11
 74
0
 42
0.0000001
 43
0.0000001
 44
0.0000000001
 40
0.0
 40
0.0
 40
0.0
 40
0.0
 40
0.0524624495
 40
0.1056459492
 40
0.2162146554
 40
0.3353288405
 40
0.4632709937
 40
0.5978579402
 40
0.7353253112
 40
1.0
 40
1.0
 40
1.0
 40
1.0
 10
44.5676111776
 20
222.4772999602
 30
0.0
 10
44.3551813094
 20
222.5999805973
 30
0.0
 10
43.9035579021
 20
222.8081743517
 30
0.0
 10
42.9197567
 20
223.0604681843
 30
0.0
 10
41.5708208765
 20
223.0419285646
 30
0.0
 10
39.9627625037
 20
222.5113237543
 30
0.0
 10
38.4516749471
 20
221.5303660536
 30
0.0
 10
37.1420785786
 20
220.1721793902
 30
0.0
 10
35.8089919996
 20
218.0346214581
 30
0.0
 10
35.3188740039
 20
216.1333023592
 30
0.0
 10
35.3188740039
 20
214.8957058693
 30
0.0
  0
SPLINE
  5
2A5
100
AcDbEntity
  8
0
100
AcDbSpline
 62
7
  6
CONTINUOUS
 70
0
 71
3
 72
9
 73
5
 74
0
 42
0.0000001
 43
0.0000001
 44
0.0000000001
 40
0.0
 40
0.0
 40
0.0
 40
0.0
 40
0.4872206454
 40
1.0
 40
1.0
 40
1.0
 40
1.0
 10
35.5418349348
 20
235.5786860341
 30
0.0
 10
35.3149404658
 20
235.7097718024
 30
0.0
 10
34.7935912703
 20
235.8907996875
 30
0.0
 10
34.2448609604
 20
235.8772789789
 30
0.0
 10
33.9731178533
 20
235.8302337269
 30
0.0
  0
SPLINE
  5
2A6
100
AcDbEntity
  8
0
100
AcDbSpline
 62
7
  6
CONTINUOUS
 70
0
 71
3
 72
15
 73
11
 74
0
 42
0.0000001
 43
0.0000001
 44
0.0000000001
 40
0.0
 40
0.0
 40
0.0
 40
0.0
 40
0.0524624495
 40
0.1056459492
 40
0.2162146554
 40
0.3353288405
 40
0.4632709937
 40
0.5978579402
 40
0.7353253112
 40
1.0
 40
1.0
 40
1.0
 40
1.0
 10
40.0182957033
 20
236.8291974453
 30
0.0
 10
39.8058658351
 20
236.9518780825
 30
0.0
 10
39.3542424278
 20
237.1600718368
 30
0.0
 10
38.3704412257
 20
237.4123656694
 30
0.0
 10
37.0215054022
 20
237.3938260498
 30
0.0
 10
35.4134470293
 20
236.8632212394
 30
0.0
 10
33.9023594728
 20
235.8822635387
 30
0.0
 10
32.5927631042
 20
234.5240768754
 30
0.0
 10
31.2596765252
 20
232.3865189432
 30
0.0
 10
30.7695585296
 20
230.4851998444
 30
0.0
 10
30.7695585296
 20
229.2476033545
 30
0.0
  0
SPLINE
  5
2A7
100
AcDbEntity
  8
0
100
AcDbSpline
 62
7
  6
CONTINUOUS
 70
0
 71
3
 72
9
 73
5
 74
0
 42
0.0000001
 43
0.0000001
 44
0.0000000001
 40
0.0
 40
0.0
 40
0.0
 40
0.0
 40
0.4872206454
 40
1.0
 40
1.0
 40
1.0
 40
1.0
 10
20.8229144743
 20
231.6331987055
 30
0.0
 10
20.5960200052
 20
231.7642844739
 30
0.0
 10
20.0746708098
 20
231.945312359
 30
0.0
 10
19.5259404999
 20
231.9317916504
 30
0.0
 10
19.2541973928
 20
231.8847463983
 30
0.0
  0
SPLINE
  5
2A8
100
AcDbEntity
  8
0
100
AcDbSpline
 62
7
  6
CONTINUOUS
 70
0
 71
3
 72
15
 73
11
 74
0
 42
0.0000001
 43
0.0000001
 44
0.0000000001
 40
0.0
 40
0.0
 40
0.0
 40
0.0
 40
0.0524624495
 40
0.1056459492
 40
0.2162146554
 40
0.3353288405
 40
0.4632709937
 40
0.5978579402
 40
0.7353253112
 40
1.0
 40
1.0
 40
1.0
 40
1.0
 10
25.2993752428
 20
232.8837101168
 30
0.0
 10
25.0869453746
 20
233.0063907539
 30
0.0
 10
24.6353219672
 20
233.2145845083
 30
0.0
 10
23.6515207652
 20
233.4668783409
 30
0.0
 10
22.3025849417
 20
233.4483387212
 30
0.0
 10
20.6945265688
 20
232.9177339109
 30
0.0
 10
19.1834390123
 20
231.9367762102
 30
0.0
 10
17.8738426437
 20
230.5785895468
 30
0.0
 10
16.5407560647
 20
228.4410316147
 30
0.0
 10
16.0506380691
 20
226.5397125158
 30
0.0
 10
16.0506380691
 20
225.3021160259
 30
0.0
  0
SPLINE
  5
2A9
100
AcDbEntity
  8
0
100
AcDbSpline
 62
7
  6
CONTINUOUS
 70
0
 71
3
 72
9
 73
5
 74
0
 42
0.0000001
 43
0.0000001
 44
0.0000000001
 40
0.0
 40
0.0
 40
0.0
 40
0.0
 40
0.4872206454
 40
1.0
 40
1.0
 40
1.0
 40
1.0
 10
16.2745179131
 20
214.8420887954
 30
0.0
 10
16.0476234441
 20
214.9731745638
 30
0.0
 10
15.5262742486
 20
215.1542024489
 30
0.0
 10
14.9775439387
 20
215.1406817403
 30
0.0
 10
14.7058008316
 20
215.0936364882
 30
0.0
  0
SPLINE
  5
2AA
100
AcDbEntity
  8
0
100
AcDbSpline
 62
7
  6
CONTINUOUS
 70
0
 71
3
 72
15
 73
11
 74
0
 42
0.0000001
 43
0.0000001
 44
0.0000000001
 40
0.0
 40
0.0
 40
0.0
 40
0.0
 40
0.0524624495
 40
0.1056459492
 40
0.2162146554
 40
0.3353288405
 40
0.4632709937
 40
0.5978579402
 40
0.7353253112
 40
1.0
 40
1.0
 40
1.0
 40
1.0
 10
20.7509786817
 20
216.0926002067
 30
0.0
 10
20.5385488134
 20
216.2152808438
 30
0.0
 10
20.0869254061
 20
216.4234745982
 30
0.0
 10
19.103124204
 20
216.6757684308
 30
0.0
 10
17.7541883805
 20
216.6572288111
 30
0.0
 10
16.1461300077
 20
216.1266240008
 30
0.0
 10
14.6350424511
 20
215.1456663001
 30
0.0
 10
13.3254460826
 20
213.7874796367
 30
0.0
 10
11.9923595036
 20
211.6499217046
 30
0.0
 10
11.5022415079
 20
209.7486026057
 30
0.0
 10
11.5022415079
 20
208.5110061158
 30
0.0
  0
SPLINE
  5
2AB
100
AcDbEntity
  8
0
100
AcDbSpline
 62
7
  6
CONTINUOUS
 70
0
 71
3
 72
9
 73
5
 74
0
 42
0.0000001
 43
0.0000001
 44
0.0000000001
 40
0.0
 40
0.0
 40
0.0
 40
0.0
 40
0.5134609316
 40
1.0
 40
1.0
 40
1.0
 40
1.0
 10
11.6033927504
 20
209.8051013721
 30
0.0
 10
11.6965899168
 20
209.5354229051
 30
0.0
 10
11.9597786847
 20
209.0324013435
 30
0.0
 10
12.3893351129
 20
208.6560213644
 30
0.0
 10
12.6234411191
 20
208.5207692103
 30
0.0
  0
SPLINE
  5
2AC
100
AcDbEntity
  8
0
100
AcDbSpline
 62
7
  6
CONTINUOUS
 70
0
 71
3
 72
9
 73
5
 74
0
 42
0.0000001
 43
0.0000001
 44
0.0000000001
 40
0.0
 40
0.0
 40
0.0
 40
0.0
 40
0.5134609316
 40
1.0
 40
1.0
 40
1.0
 40
1.0
 10
16.1517893115
 20
226.5962112822
 30
0.0
 10
16.244986478
 20
226.3265328152
 30
0.0
 10
16.5081752458
 20
225.8235112536
 30
0.0
 10
16.9377316741
 20
225.4471312745
 30
0.0
 10
17.1718376802
 20
225.3118791204
 30
0.0
  0
SPLINE
  5
2AD
100
AcDbEntity
  8
0
100
AcDbSpline
 62
7
  6
CONTINUOUS
 70
0
 71
3
 72
9
 73
5
 74
0
 42
0.0000001
 43
0.0000001
 44
0.0000000001
 40
0.0
 40
0.0
 40
0.0
 40
0.0
 40
0.5134609316
 40
1.0
 40
1.0
 40
1.0
 40
1.0
 10
30.8707097721
 20
230.5416986108
 30
0.0
 10
30.9639069385
 20
230.2720201438
 30
0.0
 10
31.2270957064
 20
229.7689985822
 30
0.0
 10
31.6566521346
 20
229.3926186031
 30
0.0
 10
31.8907581408
 20
229.257366449
 30
0.0
  0
SPLINE
  5
2AE
100
AcDbEntity
  8
0
100
AcDbSpline
 62
7
  6
CONTINUOUS
 70
0
 71
3
 72
9
 73
5
 74
0
 42
0.0000001
 43
0.0000001
 44
0.0000000001
 40
0.0
 40
0.0
 40
0.0
 40
0.0
 40
0.5134609316
 40
1.0
 40
1.0
 40
1.0
 40
1.0
 10
35.4200252464
 20
216.1898011256
 30
0.0
 10
35.5132224128
 20
215.9201226586
 30
0.0
 10
35.7764111807
 20
215.417101097
 30
0.0
 10
36.2059676089
 20
215.0407211179
 30
0.0
 10
36.4400736151
 20
214.9054689638
 30
0.0
  0
SPLINE
  5
2AF
100
AcDbEntity
  8
0
100
AcDbSpline
 62
7
  6
CONTINUOUS
 70
0
 71
3
 72
11
 73
7
 74
0
 42
0.0000001
 43
0.0000001
 44
0.0000000001
 40
0.0
 40
0.0
 40
0.0
 40
0.0
 40
0.2717668072
 40
0.5268680782
 40
0.7676307416
 40
1.0
 40
1.0
 40
1.0
 40
1.0
 10
24.202907587
 20
203.2437471382
 30
0.0
 10
24.2029075864
 20
202.9258608046
 30
0.0
 10
24.2647223228
 20
202.3069624793
 30
0.0
 10
24.5607099303
 20
201.4496331169
 30
0.0
 10
25.0458265094
 20
200.7363351802
 30
0.0
 10
25.4848052984
 20
200.3831791777
 30
0.0
 10
25.7201888884
 20
200.2472696761
 30
0.0
  0
SPLINE
  5
2B0
100
AcDbEntity
  8
0
100
AcDbSpline
 62
7
  6
CONTINUOUS
 70
0
 71
3
 72
12
 73
8
 74
0
 42
0.0000001
 43
0.0000001
 44
0.0000000001
 40
0.0
 40
0.0
 40
0.0
 40
0.0
 40
0.2349899833
 40
0.4894752595
 40
0.6202667695
 40
0.7503904793
 40
1.0
 40
1.0
 40
1.0
 40
1.0
 10
28.0458829258
 20
208.5487836924
 30
0.0
 10
27.5187229491
 20
208.4074755704
 30
0.0
 10
26.4795813232
 20
207.8765859938
 30
0.0
 10
25.4609548948
 20
206.8267044057
 30
0.0
 10
24.8312637291
 20
205.8038759084
 30
0.0
 10
24.3643463714
 20
204.7112196741
 30
0.0
 10
24.2029075879
 20
203.8234720863
 30
0.0
 10
24.202907587
 20
203.2437471382
 30
0.0
  0
SPLINE
  5
2B1
100
AcDbEntity
  8
0
100
AcDbSpline
 62
7
  6
CONTINUOUS
 70
0
 71
3
 72
20
 73
16
 74
0
 42
0.0000001
 43
0.0000001
 44
0.0000000001
 40
0.0
 40
0.0
 40
0.0
 40
0.0
 40
0.0524886937
 40
0.1058789059
 40
0.1609447296
 40
0.2182402318
 40
0.3400761704
 40
0.4047856122
 40
0.4714397065
 40
0.608057272
 40
0.7449175453
 40
0.8118576339
 40
0.8769396341
 40
0.9397340024
 40
1.0
 40
1.0
 40
1.0
 40
1.0
 10
42.3008103652
 20
240.2822372109
 30
0.0
 10
43.1983539882
 20
239.7637999745
 30
0.0
 10
44.9056552753
 20
238.5270909278
 30
0.0
 10
47.0642778873
 20
236.1675440573
 30
0.0
 10
48.7810533814
 20
233.3577901574
 30
0.0
 10
50.4605761417
 20
229.0273533104
 30
0.0
 10
51.048719631
 20
224.159809258
 30
0.0
 10
50.6334027852
 20
219.168345187
 30
0.0
 10
49.5162288284
 20
213.9814007096
 30
0.0
 10
46.8923849375
 20
207.7253616729
 30
0.0
 10
42.8915894659
 20
202.2391598369
 30
0.0
 10
39.0244566003
 20
198.5832480832
 30
0.0
 10
35.9042237075
 20
196.3127565293
 30
0.0
 10
32.619909629
 20
194.551102455
 30
0.0
 10
30.3214275272
 20
193.7270685037
 30
0.0
 10
29.1719140046
 20
193.4189351015
 30
0.0
  0
SPLINE
  5
2B2
100
AcDbEntity
  8
0
100
AcDbSpline
 62
7
  6
CONTINUOUS
 70
0
 71
3
 72
9
 73
5
 74
0
 42
0.0000001
 43
0.0000001
 44
0.0000000001
 40
0.0
 40
0.0
 40
0.0
 40
0.0
 40
0.5108746771
 40
1.0
 40
1.0
 40
1.0
 40
1.0
 10
-31.9139134499
 20
231.0131682555
 30
0.0
 10
-31.7528757238
 20
229.8192731192
 30
0.0
 10
-31.2630699626
 20
227.5014712749
 30
0.0
 10
-30.395322212
 20
225.2941268295
 30
0.0
 10
-29.8763312867
 20
224.2640665136
 30
0.0
  0
SPLINE
  5
2B3
100
AcDbEntity
  8
0
100
AcDbSpline
 62
7
  6
CONTINUOUS
 70
0
 71
3
 72
9
 73
5
 74
0
 42
0.0000001
 43
0.0000001
 44
0.0000000001
 40
0.0
 40
0.0
 40
0.0
 40
0.0
 40
0.25549851
 40
1.0
 40
1.0
 40
1.0
 40
1.0
 10
-32.2255617954
 20
237.660486979
 30
0.0
 10
-32.2611173642
 20
237.2092266513
 30
0.0
 10
-32.3561382925
 20
235.4399928779
 30
0.0
 10
-32.2708830305
 20
233.6598078541
 30
0.0
 10
-32.0945667419
 20
232.3526348103
 30
0.0
  0
SPLINE
  5
2B4
100
AcDbEntity
  8
0
100
AcDbSpline
 62
7
  6
CONTINUOUS
 70
0
 71
3
 72
11
 73
7
 74
0
 42
0.0000001
 43
0.0000001
 44
0.0000000001
 40
0.0
 40
0.0
 40
0.0
 40
0.0
 40
0.271774827
 40
0.5268698584
 40
0.7676346552
 40
1.0
 40
1.0
 40
1.0
 40
1.0
 10
42.2931899402
 20
232.3365759345
 30
0.0
 10
42.2931899402
 20
232.8131989033
 30
0.0
 10
42.2005223369
 20
233.7411258024
 30
0.0
 10
41.7566940854
 20
235.0265081937
 30
0.0
 10
41.0293824143
 20
236.0959717128
 30
0.0
 10
40.371184162
 20
236.6254003931
 30
0.0
 10
40.0182957033
 20
236.8291974453
 30
0.0
  0
SPLINE
  5
2B5
100
AcDbEntity
  8
0
100
AcDbSpline
 62
7
  6
CONTINUOUS
 70
0
 71
3
 72
9
 73
5
 74
0
 42
0.0000001
 43
0.0000001
 44
0.0000000001
 40
0.0
 40
0.0
 40
0.0
 40
0.0
 40
0.4792511153
 40
1.0
 40
1.0
 40
1.0
 40
1.0
 10
19.1772389816
 20
216.6116528827
 30
0.0
 10
19.5215945963
 20
216.1537930324
 30
0.0
 10
20.0553519153
 20
215.0525478998
 30
0.0
 10
20.2107952214
 20
213.8484239222
 30
0.0
 10
20.2107952214
 20
213.2259152929
 30
0.0
  0
SPLINE
  5
2B6
100
AcDbEntity
  8
0
100
AcDbSpline
 62
7
  6
CONTINUOUS
 70
0
 71
3
 72
11
 73
7
 74
0
 42
0.0000001
 43
0.0000001
 44
0.0000000001
 40
0.0
 40
0.0
 40
0.0
 40
0.0
 40
0.2634102731
 40
0.5159328529
 40
0.7602044305
 40
1.0
 40
1.0
 40
1.0
 40
1.0
 10
29.1719140046
 20
241.6839098876
 30
0.0
 10
30.3196248926
 20
241.9915600837
 30
0.0
 10
32.6233221738
 20
242.4100767979
 30
0.0
 10
36.0732181546
 20
242.3931323849
 30
0.0
 10
39.3488823051
 20
241.7138333569
 30
0.0
 10
41.3641351817
 20
240.8232775359
 30
0.0
 10
42.3008103652
 20
240.2822372109
 30
0.0
  0
SPLINE
  5
2B7
100
AcDbEntity
  8
0
100
AcDbSpline
 62
7
  6
CONTINUOUS
 70
0
 71
3
 72
14
 73
10
 74
0
 42
0.0000001
 43
0.0000001
 44
0.0000000001
 40
0.0
 40
0.0
 40
0.0
 40
0.0
 40
0.1052603002
 40
0.2158757457
 40
0.3350391856
 40
0.4630355292
 40
0.5976775257
 40
0.7352094838
 40
1.0
 40
1.0
 40
1.0
 40
1.0
 10
36.4400736151
 20
214.9054689638
 30
0.0
 10
36.663096867
 20
214.7766197483
 30
0.0
 10
37.1746041228
 20
214.5973102354
 30
0.0
 10
38.0084559162
 20
214.6101966727
 30
0.0
 10
38.8510058125
 20
214.8875519694
 30
0.0
 10
39.6419007493
 20
215.4012466106
 30
0.0
 10
40.3275917772
 20
216.1122658848
 30
0.0
 10
41.0255246128
 20
217.2313653086
 30
0.0
 10
41.2821410415
 20
218.2267923984
 30
0.0
 10
41.2821410415
 20
218.8747259014
 30
0.0
  0
SPLINE
  5
2B8
100
AcDbEntity
  8
0
100
AcDbSpline
 62
7
  6
CONTINUOUS
 70
0
 71
3
 72
11
 73
7
 74
0
 42
0.0000001
 43
0.0000001
 44
0.0000000001
 40
0.0
 40
0.0
 40
0.0
 40
0.0
 40
0.271774827
 40
0.5268698584
 40
0.7676346552
 40
1.0
 40
1.0
 40
1.0
 40
1.0
 10
46.8425054145
 20
217.9846784493
 30
0.0
 10
46.8425054145
 20
218.4613014182
 30
0.0
 10
46.7498378112
 20
219.3892283172
 30
0.0
 10
46.3060095597
 20
220.6746107085
 30
0.0
 10
45.5786978886
 20
221.7440742276
 30
0.0
 10
44.9204996363
 20
222.273502908
 30
0.0
 10
44.5676111776
 20
222.4772999602
 30
0.0
  0
SPLINE
  5
2B9
100
AcDbEntity
  8
0
100
AcDbSpline
 62
7
  6
CONTINUOUS
 70
0
 71
3
 72
15
 73
11
 74
0
 42
0.0000001
 43
0.0000001
 44
0.0000000001
 40
0.0
 40
0.0
 40
0.0
 40
0.0
 40
0.0524624495
 40
0.1056459492
 40
0.2162146554
 40
0.3353288405
 40
0.4632709937
 40
0.5978579402
 40
0.7353253112
 40
1.0
 40
1.0
 40
1.0
 40
1.0
 10
37.5937682408
 20
210.4030843585
 30
0.0
 10
37.806198109
 20
210.2804037213
 30
0.0
 10
38.2578215164
 20
210.072209967
 30
0.0
 10
39.2416227184
 20
209.8199161344
 30
0.0
 10
40.5905585419
 20
209.838455754
 30
0.0
 10
42.1986169148
 20
210.3690605644
 30
0.0
 10
43.7097044713
 20
211.3500182651
 30
0.0
 10
45.0193008399
 20
212.7082049284
 30
0.0
 10
46.3523874189
 20
214.8457628606
 30
0.0
 10
46.8425054145
 20
216.7470819594
 30
0.0
 10
46.8425054145
 20
217.9846784493
 30
0.0
  0
SPLINE
  5
2BA
100
AcDbEntity
  8
0
100
AcDbSpline
 62
7
  6
CONTINUOUS
 70
0
 71
3
 72
11
 73
7
 74
0
 42
0.0000001
 43
0.0000001
 44
0.0000000001
 40
0.0
 40
0.0
 40
0.0
 40
0.0
 40
0.271774827
 40
0.5268698584
 40
0.7676346552
 40
1.0
 40
1.0
 40
1.0
 40
1.0
 10
27.5742694797
 20
228.3910886059
 30
0.0
 10
27.5742694797
 20
228.8677115748
 30
0.0
 10
27.4816018764
 20
229.7956384738
 30
0.0
 10
27.0377736249
 20
231.0810208651
 30
0.0
 10
26.3104619537
 20
232.1504843842
 30
0.0
 10
25.6522637015
 20
232.6799130646
 30
0.0
 10
25.2993752428
 20
232.8837101168
 30
0.0
  0
SPLINE
  5
2BB
100
AcDbEntity
  8
0
100
AcDbSpline
 62
7
  6
CONTINUOUS
 70
0
 71
3
 72
9
 73
5
 74
0
 42
0.0000001
 43
0.0000001
 44
0.0000000001
 40
0.0
 40
0.0
 40
0.0
 40
0.0
 40
0.4792511153
 40
1.0
 40
1.0
 40
1.0
 40
1.0
 10
42.9938714776
 20
222.9963526362
 30
0.0
 10
43.3382270923
 20
222.5384927859
 30
0.0
 10
43.8719844113
 20
221.4372476533
 30
0.0
 10
44.0274277174
 20
220.2331236758
 30
0.0
 10
44.0274277174
 20
219.6106150464
 30
0.0
  0
SPLINE
  5
2BC
100
AcDbEntity
  8
0
100
AcDbSpline
 62
7
  6
CONTINUOUS
 70
0
 71
3
 72
14
 73
10
 74
0
 42
0.0000001
 43
0.0000001
 44
0.0000000001
 40
0.0
 40
0.0
 40
0.0
 40
0.0
 40
0.1052603002
 40
0.2158757457
 40
0.3350391856
 40
0.4630355292
 40
0.5976775257
 40
0.7352094838
 40
1.0
 40
1.0
 40
1.0
 40
1.0
 10
31.8907581408
 20
229.257366449
 30
0.0
 10
32.1137813927
 20
229.1285172335
 30
0.0
 10
32.6252886485
 20
228.9492077205
 30
0.0
 10
33.4591404419
 20
228.9620941578
 30
0.0
 10
34.3016903382
 20
229.2394494546
 30
0.0
 10
35.092585275
 20
229.7531440958
 30
0.0
 10
35.7782763029
 20
230.4641633699
 30
0.0
 10
36.4762091385
 20
231.5832627938
 30
0.0
 10
36.7328255672
 20
232.5786898836
 30
0.0
 10
36.7328255672
 20
233.2266233865
 30
0.0
  0
SPLINE
  5
2BD
100
AcDbEntity
  8
0
100
AcDbSpline
 62
7
  6
CONTINUOUS
 70
0
 71
3
 72
14
 73
10
 74
0
 42
0.0000001
 43
0.0000001
 44
0.0000000001
 40
0.0
 40
0.0
 40
0.0
 40
0.0
 40
0.2686164723
 40
0.3932530389
 40
0.5129262831
 40
0.6303784462
 40
0.7488454196
 40
0.8713344666
 40
1.0
 40
1.0
 40
1.0
 40
1.0
 10
23.676046047
 20
202.150305563
 30
0.0
 10
23.6760460457
 20
201.3948477297
 30
0.0
 10
23.8646033408
 20
200.2660230897
 30
0.0
 10
24.5599559989
 20
198.9897775041
 30
0.0
 10
25.2528782162
 20
198.2298406995
 30
0.0
 10
26.1025016817
 20
197.6811502848
 30
0.0
 10
27.0722341593
 20
197.3676566205
 30
0.0
 10
28.1191432082
 20
197.3004817704
 30
0.0
 10
28.8223939915
 20
197.4162371659
 30
0.0
 10
29.1719140046
 20
197.5099279218
 30
0.0
  0
SPLINE
  5
2BE
100
AcDbEntity
  8
0
100
AcDbSpline
 62
7
  6
CONTINUOUS
 70
0
 71
3
 72
15
 73
11
 74
0
 42
0.0000001
 43
0.0000001
 44
0.0000000001
 40
0.0
 40
0.0
 40
0.0
 40
0.0
 40
0.0524624495
 40
0.1056459492
 40
0.2162146554
 40
0.3353288405
 40
0.4632709937
 40
0.5978579402
 40
0.7353253112
 40
1.0
 40
1.0
 40
1.0
 40
1.0
 10
33.0444527665
 20
224.7549818436
 30
0.0
 10
33.2568826347
 20
224.6323012065
 30
0.0
 10
33.7085060421
 20
224.4241074521
 30
0.0
 10
34.6923072441
 20
224.1718136195
 30
0.0
 10
36.0412430676
 20
224.1903532392
 30
0.0
 10
37.6493014405
 20
224.7209580495
 30
0.0
 10
39.160388997
 20
225.7019157502
 30
0.0
 10
40.4699853656
 20
227.0601024136
 30
0.0
 10
41.8030719446
 20
229.1976603457
 30
0.0
 10
42.2931899402
 20
231.0989794446
 30
0.0
 10
42.2931899402
 20
232.3365759345
 30
0.0
  0
SPLINE
  5
2BF
100
AcDbEntity
  8
0
100
AcDbSpline
 62
7
  6
CONTINUOUS
 70
0
 71
3
 72
14
 73
10
 74
0
 42
0.0000001
 43
0.0000001
 44
0.0000000001
 40
0.0
 40
0.0
 40
0.0
 40
0.0
 40
0.2346073929
 40
0.3603379301
 40
0.4894684284
 40
0.6200482101
 40
0.7499714674
 40
0.8772023527
 40
1.0
 40
1.0
 40
1.0
 40
1.0
 10
29.1719140046
 20
197.5099279218
 30
0.0
 10
29.9257917416
 20
197.7120089825
 30
0.0
 10
31.0245195155
 20
198.2736046642
 30
0.0
 10
32.2561250408
 20
199.34338036
 30
0.0
 10
33.0872969206
 20
200.3273288141
 30
0.0
 10
33.7691278447
 20
201.435082205
 30
0.0
 10
34.2774785118
 20
202.6260075372
 30
0.0
 10
34.5928216511
 20
203.8550369922
 30
0.0
 10
34.667781962
 20
204.6881771477
 30
0.0
 10
34.6677819623
 20
205.0967006392
 30
0.0
  0
SPLINE
  5
2C0
100
AcDbEntity
  8
0
100
AcDbSpline
 62
7
  6
CONTINUOUS
 70
0
 71
3
 72
14
 73
10
 74
0
 42
0.0000001
 43
0.0000001
 44
0.0000000001
 40
0.0
 40
0.0
 40
0.0
 40
0.0
 40
0.257132217
 40
0.3911512539
 40
0.5242842538
 40
0.6535041431
 40
0.7764183323
 40
0.891792128
 40
1.0
 40
1.0
 40
1.0
 40
1.0
 10
20.2107952214
 20
213.2259152929
 30
0.0
 10
20.2107952214
 20
212.1652203166
 30
0.0
 10
19.8502634573
 20
210.5373443129
 30
0.0
 10
18.8406897292
 20
208.6179269688
 30
0.0
 10
17.8279116034
 20
207.3213580001
 30
0.0
 10
16.626723093
 20
206.2660933111
 30
0.0
 10
15.2996201497
 20
205.509034841
 30
0.0
 10
13.9177030364
 20
205.0950255609
 30
0.0
 10
12.981486997
 20
205.0680286639
 30
0.0
 10
12.5384574481
 20
205.1225176216
 30
0.0
  0
SPLINE
  5
2C1
100
AcDbEntity
  8
0
100
AcDbSpline
 62
7
  6
CONTINUOUS
 70
0
 71
3
 72
11
 73
7
 74
0
 42
0.0000001
 43
0.0000001
 44
0.0000000001
 40
0.0
 40
0.0
 40
0.0
 40
0.0
 40
0.2717577763
 40
0.5268821179
 40
0.7676367252
 40
1.0
 40
1.0
 40
1.0
 40
1.0
 10
17.4655085455
 20
212.4900261479
 30
0.0
 10
17.4655085455
 20
212.7395406777
 30
0.0
 10
17.4169666288
 20
213.2253501795
 30
0.0
 10
17.184663652
 20
213.8983196468
 30
0.0
 10
16.8038375301
 20
214.4582209345
 30
0.0
 10
16.4592485291
 20
214.7353627265
 30
0.0
 10
16.2745179131
 20
214.8420887954
 30
0.0
  0
SPLINE
  5
2C2
100
AcDbEntity
  8
0
100
AcDbSpline
 62
7
  6
CONTINUOUS
 70
0
 71
3
 72
9
 73
5
 74
0
 42
0.0000001
 43
0.0000001
 44
0.0000000001
 40
0.0
 40
0.0
 40
0.0
 40
0.0
 40
0.4792511153
 40
1.0
 40
1.0
 40
1.0
 40
1.0
 10
38.4445560033
 20
237.3482501213
 30
0.0
 10
38.788911618
 20
236.890390271
 30
0.0
 10
39.322668937
 20
235.7891451385
 30
0.0
 10
39.4781122431
 20
234.5850211609
 30
0.0
 10
39.4781122431
 20
233.9625125315
 30
0.0
  0
SPLINE
  5
2C3
100
AcDbEntity
  8
0
100
AcDbSpline
 62
7
  6
CONTINUOUS
 70
0
 71
3
 72
14
 73
10
 74
0
 42
0.0000001
 43
0.0000001
 44
0.0000000001
 40
0.0
 40
0.0
 40
0.0
 40
0.0
 40
0.1052603002
 40
0.2158757457
 40
0.3350391856
 40
0.4630355292
 40
0.5976775257
 40
0.7352094838
 40
1.0
 40
1.0
 40
1.0
 40
1.0
 10
17.1718376802
 20
225.3118791204
 30
0.0
 10
17.3948609322
 20
225.1830299049
 30
0.0
 10
17.906368188
 20
225.003720392
 30
0.0
 10
18.7402199814
 20
225.0166068293
 30
0.0
 10
19.5827698777
 20
225.293962126
 30
0.0
 10
20.3736648144
 20
225.8076567672
 30
0.0
 10
21.0593558423
 20
226.5186760414
 30
0.0
 10
21.7572886779
 20
227.6377754652
 30
0.0
 10
22.0139051067
 20
228.633202555
 30
0.0
 10
22.0139051067
 20
229.281136058
 30
0.0
  0
SPLINE
  5
2C4
100
AcDbEntity
  8
0
100
AcDbSpline
 62
7
  6
CONTINUOUS
 70
0
 71
3
 72
14
 73
10
 74
0
 42
0.0000001
 43
0.0000001
 44
0.0000000001
 40
0.0
 40
0.0
 40
0.0
 40
0.0
 40
0.2686164723
 40
0.3932530389
 40
0.5129262831
 40
0.6303784462
 40
0.7488454196
 40
0.8713344666
 40
1.0
 40
1.0
 40
1.0
 40
1.0
 10
34.6677819623
 20
205.0967006392
 30
0.0
 10
34.667781963
 20
205.8521584725
 30
0.0
 10
34.4792246687
 20
206.9809831125
 30
0.0
 10
33.7838720104
 20
208.2572286981
 30
0.0
 10
33.0909497931
 20
209.0171655027
 30
0.0
 10
32.2413263276
 20
209.5658559174
 30
0.0
 10
31.27159385
 20
209.8793495817
 30
0.0
 10
30.2246848011
 20
209.9465244318
 30
0.0
 10
29.5214340178
 20
209.8307690363
 30
0.0
 10
29.1719140046
 20
209.7370782804
 30
0.0
  0
SPLINE
  5
2C5
100
AcDbEntity
  8
0
100
AcDbSpline
 62
7
  6
CONTINUOUS
 70
0
 71
3
 72
14
 73
10
 74
0
 42
0.0000001
 43
0.0000001
 44
0.0000000001
 40
0.0
 40
0.0
 40
0.0
 40
0.0
 40
0.257132217
 40
0.3911512539
 40
0.5242842538
 40
0.6535041431
 40
0.7764183323
 40
0.891792128
 40
1.0
 40
1.0
 40
1.0
 40
1.0
 10
24.7591917826
 20
230.017025203
 30
0.0
 10
24.7591917826
 20
228.9563302267
 30
0.0
 10
24.3986600184
 20
227.328454223
 30
0.0
 10
23.3890862903
 20
225.4090368789
 30
0.0
 10
22.3763081646
 20
224.1124679102
 30
0.0
 10
21.1751196541
 20
223.0572032212
 30
0.0
 10
19.8480167108
 20
222.3001447511
 30
0.0
 10
18.4660995976
 20
221.886135471
 30
0.0
 10
17.5298835581
 20
221.859138574
 30
0.0
 10
17.0868540092
 20
221.9136275317
 30
0.0
  0
SPLINE
  5
2C6
100
AcDbEntity
  8
0
100
AcDbSpline
 62
7
  6
CONTINUOUS
 70
0
 71
3
 72
11
 73
7
 74
0
 42
0.0000001
 43
0.0000001
 44
0.0000000001
 40
0.0
 40
0.0
 40
0.0
 40
0.0
 40
0.2717577763
 40
0.5268821179
 40
0.7676367252
 40
1.0
 40
1.0
 40
1.0
 40
1.0
 10
22.0139051067
 20
229.281136058
 30
0.0
 10
22.0139051067
 20
229.5306505878
 30
0.0
 10
21.9653631899
 20
230.0164600896
 30
0.0
 10
21.7330602132
 20
230.6894295569
 30
0.0
 10
21.3522340912
 20
231.2493308446
 30
0.0
 10
21.0076450903
 20
231.5264726366
 30
0.0
 10
20.8229144743
 20
231.6331987055
 30
0.0
  0
SPLINE
  5
2C7
100
AcDbEntity
  8
0
100
AcDbSpline
 62
7
  6
CONTINUOUS
 70
0
 71
3
 72
14
 73
10
 74
0
 42
0.0000001
 43
0.0000001
 44
0.0000000001
 40
0.0
 40
0.0
 40
0.0
 40
0.0
 40
0.2346073929
 40
0.3603379301
 40
0.4894684284
 40
0.6200482101
 40
0.7499714674
 40
0.8772023527
 40
1.0
 40
1.0
 40
1.0
 40
1.0
 10
29.1719140046
 20
209.7370782804
 30
0.0
 10
28.4180362677
 20
209.5349972198
 30
0.0
 10
27.3193084938
 20
208.973401538
 30
0.0
 10
26.0877029685
 20
207.9036258422
 30
0.0
 10
25.2565310887
 20
206.9196773881
 30
0.0
 10
24.5747001646
 20
205.8119239973
 30
0.0
 10
24.0663494975
 20
204.620998665
 30
0.0
 10
23.7510063581
 20
203.39196921
 30
0.0
 10
23.6760460476
 20
202.5588290545
 30
0.0
 10
23.676046047
 20
202.150305563
 30
0.0
  0
SPLINE
  5
2C8
100
AcDbEntity
  8
0
100
AcDbSpline
 62
7
  6
CONTINUOUS
 70
0
 71
3
 72
14
 73
10
 74
0
 42
0.0000001
 43
0.0000001
 44
0.0000000001
 40
0.0
 40
0.0
 40
0.0
 40
0.0
 40
0.257132217
 40
0.3911512539
 40
0.5242842538
 40
0.6535041431
 40
0.7764183323
 40
0.891792128
 40
1.0
 40
1.0
 40
1.0
 40
1.0
 10
39.4781122431
 20
233.9625125315
 30
0.0
 10
39.4781122431
 20
232.9018175553
 30
0.0
 10
39.1175804789
 20
231.2739415516
 30
0.0
 10
38.1080067509
 20
229.3545242074
 30
0.0
 10
37.0952286251
 20
228.0579552387
 30
0.0
 10
35.8940401147
 20
227.0026905498
 30
0.0
 10
34.5669371713
 20
226.2456320796
 30
0.0
 10
33.1850200581
 20
225.8316227996
 30
0.0
 10
32.2488040187
 20
225.8046259026
 30
0.0
 10
31.8057744697
 20
225.8591148603
 30
0.0
  0
SPLINE
  5
2C9
100
AcDbEntity
  8
0
100
AcDbSpline
 62
7
  6
CONTINUOUS
 70
0
 71
3
 72
11
 73
7
 74
0
 42
0.0000001
 43
0.0000001
 44
0.0000000001
 40
0.0
 40
0.0
 40
0.0
 40
0.0
 40
0.2717577763
 40
0.5268821179
 40
0.7676367252
 40
1.0
 40
1.0
 40
1.0
 40
1.0
 10
36.7328255672
 20
233.2266233865
 30
0.0
 10
36.7328255672
 20
233.4761379164
 30
0.0
 10
36.6842836504
 20
233.9619474181
 30
0.0
 10
36.4519806737
 20
234.6349168854
 30
0.0
 10
36.0711545518
 20
235.1948181732
 30
0.0
 10
35.7265655508
 20
235.4719599652
 30
0.0
 10
35.5418349348
 20
235.5786860341
 30
0.0
  0
SPLINE
  5
2CA
100
AcDbEntity
  8
0
100
AcDbSpline
 62
7
  6
CONTINUOUS
 70
0
 71
3
 72
14
 73
10
 74
0
 42
0.0000001
 43
0.0000001
 44
0.0000000001
 40
0.0
 40
0.0
 40
0.0
 40
0.0
 40
0.257132217
 40
0.3911512539
 40
0.5242842538
 40
0.6535041431
 40
0.7764183323
 40
0.891792128
 40
1.0
 40
1.0
 40
1.0
 40
1.0
 10
44.0274277174
 20
219.6106150464
 30
0.0
 10
44.0274277174
 20
218.5499200701
 30
0.0
 10
43.6668959533
 20
216.9220440664
 30
0.0
 10
42.6573222252
 20
215.0026267223
 30
0.0
 10
41.6445440994
 20
213.7060577536
 30
0.0
 10
40.443355589
 20
212.6507930646
 30
0.0
 10
39.1162526457
 20
211.8937345945
 30
0.0
 10
37.7343355324
 20
211.4797253144
 30
0.0
 10
36.798119493
 20
211.4527284174
 30
0.0
 10
36.3550899441
 20
211.5072173751
 30
0.0
  0
SPLINE
  5
2CB
100
AcDbEntity
  8
0
100
AcDbSpline
 62
7
  6
CONTINUOUS
 70
0
 71
3
 72
11
 73
7
 74
0
 42
0.0000001
 43
0.0000001
 44
0.0000000001
 40
0.0
 40
0.0
 40
0.0
 40
0.0
 40
0.2717577763
 40
0.5268821179
 40
0.7676367252
 40
1.0
 40
1.0
 40
1.0
 40
1.0
 10
41.2821410415
 20
218.8747259014
 30
0.0
 10
41.2821410415
 20
219.1242404312
 30
0.0
 10
41.2335991248
 20
219.610049933
 30
0.0
 10
41.001296148
 20
220.2830194003
 30
0.0
 10
40.6204700261
 20
220.842920688
 30
0.0
 10
40.2758810251
 20
221.12006248
 30
0.0
 10
40.0911504091
 20
221.2267885489
 30
0.0
  0
SPLINE
  5
2CC
100
AcDbEntity
  8
0
100
AcDbSpline
 62
7
  6
CONTINUOUS
 70
0
 71
3
 72
15
 73
11
 74
0
 42
0.0000001
 43
0.0000001
 44
0.0000000001
 40
0.0
 40
0.0
 40
0.0
 40
0.0
 40
0.0524624495
 40
0.1056459492
 40
0.2162146554
 40
0.3353288405
 40
0.4632709937
 40
0.5978579402
 40
0.7353253112
 40
1.0
 40
1.0
 40
1.0
 40
1.0
 10
18.325532306
 20
220.8094945151
 30
0.0
 10
18.5379621742
 20
220.6868138779
 30
0.0
 10
18.9895855815
 20
220.4786201236
 30
0.0
 10
19.9733867836
 20
220.226326291
 30
0.0
 10
21.3223226071
 20
220.2448659106
 30
0.0
 10
22.93038098
 20
220.775470721
 30
0.0
 10
24.4414685365
 20
221.7564284217
 30
0.0
 10
25.7510649051
 20
223.114615085
 30
0.0
 10
27.0841514841
 20
225.2521730172
 30
0.0
 10
27.5742694797
 20
227.153492116
 30
0.0
 10
27.5742694797
 20
228.3910886059
 30
0.0
  0
SPLINE
  5
2CD
100
AcDbEntity
  8
0
100
AcDbSpline
 62
7
  6
CONTINUOUS
 70
0
 71
3
 72
12
 73
8
 74
0
 42
0.0000001
 43
0.0000001
 44
0.0000000001
 40
0.0
 40
0.0
 40
0.0
 40
0.0
 40
0.2349899833
 40
0.4894752595
 40
0.6202667696
 40
0.7503904793
 40
1.0
 40
1.0
 40
1.0
 40
1.0
 10
28.0458829258
 20
199.9989717875
 30
0.0
 10
28.5730429031
 20
200.1402799096
 30
0.0
 10
29.6121845302
 20
200.6711694871
 30
0.0
 10
30.6308109593
 20
201.721051077
 30
0.0
 10
31.260502125
 20
202.743879576
 30
0.0
 10
31.7274194819
 20
203.8365358118
 30
0.0
 10
31.888858265
 20
204.7242834007
 30
0.0
 10
31.8888582646
 20
205.3040083493
 30
0.0
  0
SPLINE
  5
2CE
100
AcDbEntity
  8
0
100
AcDbSpline
 62
7
  6
CONTINUOUS
 70
0
 71
3
 72
11
 73
7
 74
0
 42
0.0000001
 43
0.0000001
 44
0.0000000001
 40
0.0
 40
0.0
 40
0.0
 40
0.0
 40
0.2717668071
 40
0.5268680781
 40
0.7676307415
 40
1.0
 40
1.0
 40
1.0
 40
1.0
 10
31.8888582646
 20
205.3040083493
 30
0.0
 10
31.8888582644
 20
205.6218946822
 30
0.0
 10
31.8270435276
 20
206.2407930059
 30
0.0
 10
31.5310559196
 20
207.0981223661
 30
0.0
 10
31.0459393409
 20
207.8114203008
 30
0.0
 10
30.6069605527
 20
208.1645763024
 30
0.0
 10
30.3715769632
 20
208.3004858037
 30
0.0
  0
SPLINE
  5
2CF
100
AcDbEntity
  8
0
100
AcDbSpline
 62
7
  6
CONTINUOUS
 70
0
 71
3
 72
9
 73
5
 74
0
 42
0.0000001
 43
0.0000001
 44
0.0000000001
 40
0.0
 40
0.0
 40
0.0
 40
0.0
 40
0.4792511153
 40
1.0
 40
1.0
 40
1.0
 40
1.0
 10
23.7256355428
 20
233.4027627928
 30
0.0
 10
24.0699911575
 20
232.9449029425
 30
0.0
 10
24.6037484765
 20
231.8436578099
 30
0.0
 10
24.7591917826
 20
230.6395338323
 30
0.0
 10
24.7591917826
 20
230.017025203
 30
0.0
  0
SPLINE
  5
2D0
100
AcDbEntity
  8
0
100
AcDbSpline
 62
7
  6
CONTINUOUS
 70
0
 71
3
 72
20
 73
16
 74
0
 42
0.0000001
 43
0.0000001
 44
0.0000000001
 40
0.0
 40
0.0
 40
0.0
 40
0.0
 40
0.0524886937
 40
0.1058789059
 40
0.1609447296
 40
0.2182402318
 40
0.3400761704
 40
0.4047856122
 40
0.4714397065
 40
0.608057272
 40
0.7449175453
 40
0.8118576339
 40
0.8769396341
 40
0.9397340024
 40
1.0
 40
1.0
 40
1.0
 40
1.0
 10
16.0430176441
 20
194.8206077783
 30
0.0
 10
15.1454740211
 20
195.3390450147
 30
0.0
 10
13.438172734
 20
196.5757540614
 30
0.0
 10
11.279550122
 20
198.9353009319
 30
0.0
 10
9.5627746279
 20
201.7450548318
 30
0.0
 10
7.8832518676
 20
206.0754916788
 30
0.0
 10
7.2951083783
 20
210.9430357311
 30
0.0
 10
7.7104252241
 20
215.9344998022
 30
0.0
 10
8.8275991809
 20
221.1214442796
 30
0.0
 10
11.4514430718
 20
227.3774833163
 30
0.0
 10
15.4522385434
 20
232.8636851523
 30
0.0
 10
19.319371409
 20
236.519596906
 30
0.0
 10
22.4396043018
 20
238.7900884599
 30
0.0
 10
25.7239183803
 20
240.5517425342
 30
0.0
 10
28.0224004821
 20
241.3757764855
 30
0.0
 10
29.1719140046
 20
241.6839098876
 30
0.0
  0
SPLINE
  5
2D1
100
AcDbEntity
  8
0
100
AcDbSpline
 62
7
  6
CONTINUOUS
 70
0
 71
3
 72
14
 73
10
 74
0
 42
0.0000001
 43
0.0000001
 44
0.0000000001
 40
0.0
 40
0.0
 40
0.0
 40
0.0
 40
0.1052603002
 40
0.2158757457
 40
0.3350391856
 40
0.4630355292
 40
0.5976775257
 40
0.7352094838
 40
1.0
 40
1.0
 40
1.0
 40
1.0
 10
12.6234411191
 20
208.5207692103
 30
0.0
 10
12.846464371
 20
208.3919199948
 30
0.0
 10
13.3579716268
 20
208.2126104819
 30
0.0
 10
14.1918234202
 20
208.2254969192
 30
0.0
 10
15.0343733165
 20
208.5028522159
 30
0.0
 10
15.8252682533
 20
209.0165468571
 30
0.0
 10
16.5109592812
 20
209.7275661313
 30
0.0
 10
17.2088921168
 20
210.8466655551
 30
0.0
 10
17.4655085455
 20
211.8420926449
 30
0.0
 10
17.4655085455
 20
212.4900261479
 30
0.0
  0
SPLINE
  5
2D2
100
AcDbEntity
  8
0
100
AcDbSpline
 62
7
  6
CONTINUOUS
 70
0
 71
3
 72
11
 73
7
 74
0
 42
0.0000001
 43
0.0000001
 44
0.0000000001
 40
0.0
 40
0.0
 40
0.0
 40
0.0
 40
0.271774827
 40
0.5268698584
 40
0.7676346552
 40
1.0
 40
1.0
 40
1.0
 40
1.0
 10
23.0258729185
 20
211.5999786958
 30
0.0
 10
23.0258729185
 20
212.0766016647
 30
0.0
 10
22.9332053152
 20
213.0045285637
 30
0.0
 10
22.4893770637
 20
214.289910955
 30
0.0
 10
21.7620653926
 20
215.3593744741
 30
0.0
 10
21.1038671403
 20
215.8888031545
 30
0.0
 10
20.7509786817
 20
216.0926002067
 30
0.0
  0
SPLINE
  5
2D3
100
AcDbEntity
  8
0
100
AcDbSpline
 62
7
  6
CONTINUOUS
 70
0
 71
3
 72
10
 73
6
 74
0
 42
0.0000001
 43
0.0000001
 44
0.0000000001
 40
0.0
 40
0.0
 40
0.0
 40
0.0
 40
0.2403281524
 40
0.485096085
 40
1.0
 40
1.0
 40
1.0
 40
1.0
 10
25.7201888884
 20
200.2472696761
 30
0.0
 10
25.8861351481
 20
200.1514529991
 30
0.0
 10
26.2432685307
 20
199.9937561383
 30
0.0
 10
27.0281729817
 20
199.8303261582
 30
0.0
 10
27.6493318019
 20
199.8926740845
 30
0.0
 10
28.0458829258
 20
199.9989717875
 30
0.0
  0
SPLINE
  5
2D4
100
AcDbEntity
  8
0
100
AcDbSpline
 62
7
  6
CONTINUOUS
 70
0
 71
3
 72
15
 73
11
 74
0
 42
0.0000001
 43
0.0000001
 44
0.0000000001
 40
0.0
 40
0.0
 40
0.0
 40
0.0
 40
0.0524624495
 40
0.1056459492
 40
0.2162146554
 40
0.3353288405
 40
0.4632709937
 40
0.5978579402
 40
0.7353253112
 40
1.0
 40
1.0
 40
1.0
 40
1.0
 10
13.7771357448
 20
204.018384605
 30
0.0
 10
13.9895656131
 20
203.8957039678
 30
0.0
 10
14.4411890204
 20
203.6875102135
 30
0.0
 10
15.4249902225
 20
203.4352163809
 30
0.0
 10
16.7739260459
 20
203.4537560005
 30
0.0
 10
18.3819844188
 20
203.9843608109
 30
0.0
 10
19.8930719753
 20
204.9653185116
 30
0.0
 10
21.2026683439
 20
206.3235051749
 30
0.0
 10
22.5357549229
 20
208.4610631071
 30
0.0
 10
23.0258729185
 20
210.3623822059
 30
0.0
 10
23.0258729185
 20
211.5999786958
 30
0.0
  0
SPLINE
  5
2D5
100
AcDbEntity
  8
0
100
AcDbSpline
 62
7
  6
CONTINUOUS
 70
0
 71
3
 72
9
 73
5
 74
0
 42
0.0000001
 43
0.0000001
 44
0.0000000001
 40
0.0
 40
0.0
 40
0.0
 40
0.0
 40
0.2540370483
 40
1.0
 40
1.0
 40
1.0
 40
1.0
 10
-32.0508516021
 20
236.6636886354
 30
0.0
 10
-32.0798375144
 20
236.2997277383
 30
0.0
 10
-32.1666772301
 20
234.8650344569
 30
0.0
 10
-32.1429761309
 20
233.4232151131
 30
0.0
 10
-32.0575862525
 20
232.3544899767
 30
0.0
  0
SPLINE
  5
2D6
100
AcDbEntity
  8
0
100
AcDbSpline
 62
7
  6
CONTINUOUS
 70
0
 71
3
 72
14
 73
10
 74
0
 42
0.0000001
 43
0.0000001
 44
0.0000000001
 40
0.0
 40
0.0
 40
0.0
 40
0.0
 40
0.1140894563
 40
0.2315249848
 40
0.3529043069
 40
0.4781993599
 40
0.6068137802
 40
0.7377073179
 40
1.0
 40
1.0
 40
1.0
 40
1.0
 10
-31.2185825805
 20
268.5222283905
 30
0.0
 10
-31.6281477515
 20
268.4124422009
 30
0.0
 10
-32.4361574691
 20
268.0929464759
 30
0.0
 10
-33.5314494059
 20
267.3550328213
 30
0.0
 10
-34.4853919626
 20
266.3828627712
 30
0.0
 10
-35.262253696
 20
265.2152439992
 30
0.0
 10
-35.8340959432
 20
263.8959411169
 30
0.0
 10
-36.2957748577
 20
262.0060600496
 30
0.0
 10
-36.283346007
 20
260.5091919028
 30
0.0
 10
-36.1120696277
 20
259.5495205365
 30
0.0
  0
SPLINE
  5
2D7
100
AcDbEntity
  8
0
100
AcDbSpline
 62
7
  6
CONTINUOUS
 70
0
 71
3
 72
13
 73
9
 74
0
 42
0.0000001
 43
0.0000001
 44
0.0000000001
 40
0.0
 40
0.0
 40
0.0
 40
0.0
 40
0.2677055058
 40
0.5230970111
 40
0.6460394981
 40
0.7659489379
 40
0.8835891113
 40
1.0
 40
1.0
 40
1.0
 40
1.0
 10
-21.3236531964
 20
176.6891759975
 30
0.0
 10
-21.1842501646
 20
175.9080928234
 30
0.0
 10
-20.6992338193
 20
174.4098242667
 30
0.0
 10
-19.5743305717
 20
172.8174403855
 30
0.0
 10
-18.4405285068
 20
171.8608652506
 30
0.0
 10
-17.5096568876
 20
171.3240762317
 30
0.0
 10
-16.5138218345
 20
170.9755859228
 30
0.0
 10
-15.8222622136
 20
170.875177228
 30
0.0
 10
-15.4776250718
 20
170.8589579195
 30
0.0
  0
SPLINE
  5
2D8
100
AcDbEntity
  8
0
100
AcDbSpline
 62
7
  6
CONTINUOUS
 70
0
 71
3
 72
20
 73
16
 74
0
 42
0.0000001
 43
0.0000001
 44
0.0000000001
 40
0.0
 40
0.0
 40
0.0
 40
0.0
 40
0.0523255029
 40
0.1054814337
 40
0.1601380617
 40
0.2167942812
 40
0.2757423124
 40
0.3370631453
 40
0.4659544372
 40
0.5330809714
 40
0.6012643288
 40
0.738275649
 40
0.8061146426
 40
0.872690371
 40
1.0
 40
1.0
 40
1.0
 40
1.0
 10
47.0506411829
 20
247.9298455994
 30
0.0
 10
48.1592311868
 20
247.2684239982
 30
0.0
 10
50.271508379
 20
245.7170339884
 30
0.0
 10
52.977003651
 20
242.8089692307
 30
0.0
 10
55.1783672309
 20
239.3758173461
 30
0.0
 10
56.8308927536
 20
235.4944715844
 30
0.0
 10
57.9044963347
 20
231.2465400144
 30
0.0
 10
58.5492980042
 20
225.1168741883
 30
0.0
 10
57.9349624726
 20
218.7193629923
 30
0.0
 10
56.2058580423
 20
212.4249320401
 30
0.0
 10
53.7075758885
 20
206.1756186934
 30
0.0
 10
50.1846363427
 20
200.3595756025
 30
0.0
 10
45.8096205676
 20
195.2735719906
 30
0.0
 10
41.0648994681
 20
190.8817962897
 30
0.0
 10
36.9837830966
 20
188.2600238732
 30
0.0
 10
34.1305918612
 20
186.94697604
 30
0.0
  0
SPLINE
  5
2D9
100
AcDbEntity
  8
0
100
AcDbSpline
 62
7
  6
CONTINUOUS
 70
0
 71
3
 72
11
 73
7
 74
0
 42
0.0000001
 43
0.0000001
 44
0.0000000001
 40
0.0
 40
0.0
 40
0.0
 40
0.0
 40
0.2397937192
 40
0.4840642469
 40
0.7365884492
 40
1.0
 40
1.0
 40
1.0
 40
1.0
 10
45.4267704439
 20
245.6943924018
 30
0.0
 10
44.2670898706
 20
246.3642582549
 30
0.0
 10
41.7720186231
 20
247.4668361633
 30
0.0
 10
37.7164379764
 20
248.3078874713
 30
0.0
 10
33.4451179932
 20
248.3288630538
 30
0.0
 10
30.5928991505
 20
247.8107002903
 30
0.0
 10
29.1719140046
 20
247.4297974311
 30
0.0
  0
SPLINE
  5
2DA
100
AcDbEntity
  8
0
100
AcDbSpline
 62
7
  6
CONTINUOUS
 70
0
 71
3
 72
9
 73
5
 74
0
 42
0.0000001
 43
0.0000001
 44
0.0000000001
 40
0.0
 40
0.0
 40
0.0
 40
0.0
 40
0.2516390773
 40
1.0
 40
1.0
 40
1.0
 40
1.0
 10
-11.1431476146
 20
170.9135626089
 30
0.0
 10
-11.2785072971
 20
170.8772787039
 30
0.0
 10
-11.8216617655
 20
170.7534616286
 30
0.0
 10
-12.3840239346
 20
170.713458366
 30
0.0
 10
-12.800327084
 20
170.7330504191
 30
0.0
  0
SPLINE
  5
2DB
100
AcDbEntity
  8
0
100
AcDbSpline
 62
7
  6
CONTINUOUS
 70
0
 71
3
 72
14
 73
10
 74
0
 42
0.0000001
 43
0.0000001
 44
0.0000000001
 40
0.0
 40
0.0
 40
0.0
 40
0.0
 40
0.2622926821
 40
0.3931862198
 40
0.5218006401
 40
0.6470956931
 40
0.7684750152
 40
0.8859105437
 40
1.0
 40
1.0
 40
1.0
 40
1.0
 10
55.7338126397
 20
196.5012802915
 30
0.0
 10
55.905089019
 20
195.5416089251
 30
0.0
 10
55.9175178696
 20
194.0447407783
 30
0.0
 10
55.4558389552
 20
192.154859711
 30
0.0
 10
54.8839967078
 20
190.8355568287
 30
0.0
 10
54.1071349745
 20
189.6679380567
 30
0.0
 10
53.1531924178
 20
188.6957680066
 30
0.0
 10
52.0579004809
 20
187.957854352
 30
0.0
 10
51.2498907633
 20
187.6383586271
 30
0.0
 10
50.8403255923
 20
187.5285724375
 30
0.0
  0
SPLINE
  5
2DC
100
AcDbEntity
  8
0
100
AcDbSpline
 62
7
  6
CONTINUOUS
 70
0
 71
3
 72
9
 73
5
 74
0
 42
0.0000001
 43
0.0000001
 44
0.0000000001
 40
0.0
 40
0.0
 40
0.0
 40
0.0
 40
0.748453333
 40
1.0
 40
1.0
 40
1.0
 40
1.0
 10
-12.2363850322
 20
182.9599491666
 30
0.0
 10
-12.5139545164
 20
182.9730048647
 30
0.0
 10
-12.8888555856
 20
182.9462919033
 30
0.0
 10
-13.2509651832
 20
182.8637820175
 30
0.0
 10
-13.3411716501
 20
182.8396016795
 30
0.0
  0
SPLINE
  5
2DD
100
AcDbEntity
  8
0
100
AcDbSpline
 62
7
  6
CONTINUOUS
 70
0
 71
3
 72
11
 73
7
 74
0
 42
0.0000001
 43
0.0000001
 44
0.0000000001
 40
0.0
 40
0.0
 40
0.0
 40
0.0
 40
0.2580479919
 40
0.5094306626
 40
0.755963455
 40
1.0
 40
1.0
 40
1.0
 40
1.0
 10
24.2132361481
 20
184.2885744674
 30
0.0
 10
23.0853447769
 20
184.202958792
 30
0.0
 10
20.8437719613
 20
184.1837161184
 30
0.0
 10
17.5489723298
 20
184.6352388933
 30
0.0
 10
14.4187132205
 20
185.562623552
 30
0.0
 10
12.4679269354
 20
186.4920536067
 30
0.0
 10
11.5416325671
 20
187.0271004685
 30
0.0
  0
SPLINE
  5
2DE
100
AcDbEntity
  8
0
100
AcDbSpline
 62
7
  6
CONTINUOUS
 70
0
 71
3
 72
14
 73
10
 74
0
 42
0.0000001
 43
0.0000001
 44
0.0000000001
 40
0.0
 40
0.0
 40
0.0
 40
0.0
 40
0.2647836975
 40
0.4023089611
 40
0.5369529891
 40
0.664953032
 40
0.7841200316
 40
0.8947373551
 40
1.0
 40
1.0
 40
1.0
 40
1.0
 10
34.1305918612
 20
186.2442445041
 30
0.0
 10
34.1305918612
 20
185.1791748015
 30
0.0
 10
33.7087789406
 20
183.5429116196
 30
0.0
 10
32.5615619423
 20
181.7033105371
 30
0.0
 10
31.4344578807
 20
180.5344561564
 30
0.0
 10
30.1343118177
 20
179.6900053514
 30
0.0
 10
28.749261698
 20
179.2341062251
 30
0.0
 10
27.3784948107
 20
179.2128679252
 30
0.0
 10
26.5376910713
 20
179.5076961458
 30
0.0
 10
26.1710233306
 20
179.7194289006
 30
0.0
  0
SPLINE
  5
2DF
100
AcDbEntity
  8
0
100
AcDbSpline
 62
7
  6
CONTINUOUS
 70
0
 71
3
 72
11
 73
7
 74
0
 42
0.0000001
 43
0.0000001
 44
0.0000000001
 40
0.0
 40
0.0
 40
0.0
 40
0.0
 40
0.2717350397
 40
0.5268969419
 40
0.7676331593
 40
1.0
 40
1.0
 40
1.0
 40
1.0
 10
26.2793519217
 20
184.1396765924
 30
0.0
 10
26.2793519217
 20
183.9004381372
 30
0.0
 10
26.3259369846
 20
183.4345948436
 30
0.0
 10
26.5486256101
 20
182.7892573876
 30
0.0
 10
26.9138896308
 20
182.2524169642
 30
0.0
 10
27.2442607166
 20
181.9866202631
 30
0.0
 10
27.4214126795
 20
181.8842999321
 30
0.0
  0
SPLINE
  5
2E0
100
AcDbEntity
  8
0
100
AcDbSpline
 62
7
  6
CONTINUOUS
 70
0
 71
3
 72
20
 73
16
 74
0
 42
0.0000001
 43
0.0000001
 44
0.0000000001
 40
0.0
 40
0.0
 40
0.0
 40
0.0
 40
0.0602653289
 40
0.1230594031
 40
0.1881409614
 40
0.2550807809
 40
0.3919428727
 40
0.5285616429
 40
0.5952158969
 40
0.6599252542
 40
0.7817607026
 40
0.8390560145
 40
0.8941217041
 40
0.9475119448
 40
1.0
 40
1.0
 40
1.0
 40
1.0
 10
29.1719140046
 20
247.4297974311
 30
0.0
 10
27.7487196425
 20
247.0483023794
 30
0.0
 10
24.9029966422
 20
246.0280762747
 30
0.0
 10
20.8367179581
 20
243.8470058506
 30
0.0
 10
16.9735791726
 20
241.0359369002
 30
0.0
 10
12.1856559776
 20
236.5095581865
 30
0.0
 10
7.2322288979
 20
229.7170534593
 30
0.0
 10
3.9836303606
 20
221.9713884708
 30
0.0
 10
2.6004693288
 20
215.5494094938
 30
0.0
 10
2.0862862028
 20
209.3694977722
 30
0.0
 10
2.8144796555
 20
203.3430212203
 30
0.0
 10
4.8939075491
 20
197.9815470489
 30
0.0
 10
7.0194397555
 20
194.5027969693
 30
0.0
 10
9.6920517855
 20
191.5815095738
 30
0.0
 10
11.8057983546
 20
190.0502764414
 30
0.0
 10
12.9170553632
 20
189.4084493726
 30
0.0
  0
SPLINE
  5
2E1
100
AcDbEntity
  8
0
100
AcDbSpline
 62
7
  6
CONTINUOUS
 70
0
 71
3
 72
11
 73
7
 74
0
 42
0.0000001
 43
0.0000001
 44
0.0000000001
 40
0.0
 40
0.0
 40
0.0
 40
0.0
 40
0.2656232555
 40
0.5205447612
 40
0.7648985705
 40
1.0
 40
1.0
 40
1.0
 40
1.0
 10
-11.3390280888
 20
210.0171285521
 30
0.0
 10
-11.3000131612
 20
207.8381945128
 30
0.0
 10
-10.9196540886
 20
203.5655634856
 30
0.0
 10
-9.3889387508
 20
197.4514395312
 30
0.0
 10
-6.9450716624
 20
191.9111713449
 30
0.0
 10
-4.7036853953
 20
188.6434066648
 30
0.0
 10
-3.4577553748
 20
187.1709270296
 30
0.0
  0
SPLINE
  5
2E2
100
AcDbEntity
  8
0
100
AcDbSpline
 62
7
  6
CONTINUOUS
 70
0
 71
3
 72
14
 73
10
 74
0
 42
0.0000001
 43
0.0000001
 44
0.0000000001
 40
0.0
 40
0.0
 40
0.0
 40
0.0
 40
0.244404225
 40
0.3711471669
 40
0.4992293481
 40
0.6273807337
 40
0.754325922
 40
0.8788680708
 40
1.0
 40
1.0
 40
1.0
 40
1.0
 10
13.3925686078
 20
255.9925844033
 30
0.0
 10
9.6492801806
 20
253.6277453363
 30
0.0
 10
4.4630634538
 20
249.1857668838
 30
0.0
 10
-1.2052963428
 20
242.1220200156
 30
0.0
 10
-4.8662121641
 20
236.2057157748
 30
0.0
 10
-7.7855932809
 20
229.8895107485
 30
0.0
 10
-9.8945183248
 20
223.324285854
 30
0.0
 10
-11.1407967997
 20
216.6720224787
 30
0.0
 10
-11.3783149045
 20
212.2112471967
 30
0.0
 10
-11.3390280888
 20
210.0171285521
 30
0.0
  0
SPLINE
  5
2E3
100
AcDbEntity
  8
0
100
AcDbSpline
 62
7
  6
CONTINUOUS
 70
0
 71
3
 72
9
 73
5
 74
0
 42
0.0000001
 43
0.0000001
 44
0.0000000001
 40
0.0
 40
0.0
 40
0.0
 40
0.0
 40
0.5133391117
 40
1.0
 40
1.0
 40
1.0
 40
1.0
 10
-8.9851117273
 20
267.6059367907
 30
0.0
 10
-8.3252610052
 20
268.2689885176
 30
0.0
 10
-6.8893965429
 20
269.4251272267
 30
0.0
 10
-5.1900829699
 20
270.1556272375
 30
0.0
 10
-4.3334955398
 20
270.3852143431
 30
0.0
  0
SPLINE
  5
2E4
100
AcDbEntity
  8
0
100
AcDbSpline
 62
7
  6
CONTINUOUS
 70
0
 71
3
 72
9
 73
5
 74
0
 42
0.0000001
 43
0.0000001
 44
0.0000000001
 40
0.0
 40
0.0
 40
0.0
 40
0.0
 40
0.2436682599
 40
1.0
 40
1.0
 40
1.0
 40
1.0
 10
17.9154704931
 20
253.4566377023
 30
0.0
 10
17.8987341325
 20
252.7255909729
 30
0.0
 10
17.6972257556
 20
249.7291985978
 30
0.0
 10
16.984110284
 20
246.7732538839
 30
0.0
 10
16.2091846474
 20
244.6399186686
 30
0.0
  0
SPLINE
  5
2E5
100
AcDbEntity
  8
0
100
AcDbSpline
 62
7
  6
CONTINUOUS
 70
0
 71
3
 72
15
 73
11
 74
0
 42
0.0000001
 43
0.0000001
 44
0.0000000001
 40
0.0
 40
0.0
 40
0.0
 40
0.0
 40
0.1226793102
 40
0.2497804871
 40
0.3795759387
 40
0.5100271139
 40
0.6390304753
 40
0.7646372387
 40
0.8852762652
 40
1.0
 40
1.0
 40
1.0
 40
1.0
 10
64.6161321179
 20
228.0046529323
 30
0.0
 10
64.6161321179
 20
225.2862152743
 30
0.0
 10
64.1173808412
 20
219.7424131197
 30
0.0
 10
62.0188678175
 20
211.5642660234
 30
0.0
 10
58.6367483901
 20
203.6398977307
 30
0.0
 10
54.0981651097
 20
196.2680578479
 30
0.0
 10
48.5729923702
 20
189.7232527586
 30
0.0
 10
42.2640641031
 20
184.2513196309
 30
0.0
 10
35.4072561893
 20
180.0603611682
 30
0.0
 10
30.5013468924
 20
178.1794410678
 30
0.0
 10
28.0458829258
 20
177.5212404891
 30
0.0
  0
SPLINE
  5
2E6
100
AcDbEntity
  8
0
100
AcDbSpline
 62
7
  6
CONTINUOUS
 70
0
 71
3
 72
11
 73
7
 74
0
 42
0.0000001
 43
0.0000001
 44
0.0000000001
 40
0.0
 40
0.0
 40
0.0
 40
0.0
 40
0.2344241041
 40
0.4783749029
 40
0.7334580688
 40
1.0
 40
1.0
 40
1.0
 40
1.0
 10
57.1774870111
 20
250.6027328775
 30
0.0
 10
58.3916638772
 20
249.1484141675
 30
0.0
 10
60.566842132
 20
245.9164477506
 30
0.0
 10
62.9013392671
 20
240.4343468314
 30
0.0
 10
64.3151069519
 20
234.3824576593
 30
0.0
 10
64.6161321179
 20
230.1587548194
 30
0.0
 10
64.6161321179
 20
228.0046529323
 30
0.0
  0
SPLINE
  5
2E7
100
AcDbEntity
  8
0
100
AcDbSpline
 62
7
  6
CONTINUOUS
 70
0
 71
3
 72
11
 73
7
 74
0
 42
0.0000001
 43
0.0000001
 44
0.0000000001
 40
0.0
 40
0.0
 40
0.0
 40
0.0
 40
0.2323606736
 40
0.4731243623
 40
0.7282306424
 40
1.0
 40
1.0
 40
1.0
 40
1.0
 10
26.1710233306
 20
179.7194289006
 30
0.0
 10
25.8673215063
 20
179.8948019066
 30
0.0
 10
25.3008973566
 20
180.3504592169
 30
0.0
 10
24.674930293
 20
181.2708349948
 30
0.0
 10
24.2930017839
 20
182.3770749099
 30
0.0
 10
24.213236148
 20
183.1756637419
 30
0.0
 10
24.2132361481
 20
183.5858429344
 30
0.0
  0
SPLINE
  5
2E8
100
AcDbEntity
  8
0
100
AcDbSpline
 62
7
  6
CONTINUOUS
 70
0
 71
3
 72
13
 73
9
 74
0
 42
0.0000001
 43
0.0000001
 44
0.0000000001
 40
0.0
 40
0.0
 40
0.0
 40
0.0
 40
0.1164108887
 40
0.2340510621
 40
0.3539605019
 40
0.4769029889
 40
0.7322944942
 40
1.0
 40
1.0
 40
1.0
 40
1.0
 10
-12.800327084
 20
170.7330504191
 30
0.0
 10
-13.1449642259
 20
170.7492697276
 30
0.0
 10
-13.8365238468
 20
170.8496784224
 30
0.0
 10
-14.8323588998
 20
171.1981687313
 30
0.0
 10
-15.763230519
 20
171.7349577502
 30
0.0
 10
-16.8970325839
 20
172.6915328851
 30
0.0
 10
-18.0219358315
 20
174.2839167663
 30
0.0
 10
-18.5069521769
 20
175.782185323
 30
0.0
 10
-18.6463552087
 20
176.5632684971
 30
0.0
  0
SPLINE
  5
2E9
100
AcDbEntity
  8
0
100
AcDbSpline
 62
7
  6
CONTINUOUS
 70
0
 71
3
 72
11
 73
7
 74
0
 42
0.0000001
 43
0.0000001
 44
0.0000000001
 40
0.0
 40
0.0
 40
0.0
 40
0.0
 40
0.2342429697
 40
0.4783622923
 40
0.7341736475
 40
1.0
 40
1.0
 40
1.0
 40
1.0
 10
-12.260778831
 20
182.8740353309
 30
0.0
 10
-11.8739615939
 20
182.7681065453
 30
0.0
 10
-11.1157106774
 20
182.4169299167
 30
0.0
 10
-10.1773828952
 20
181.5546262983
 30
0.0
 10
-9.4845873605
 20
180.4237749592
 30
0.0
 10
-9.222188762
 20
179.558958043
 30
0.0
 10
-9.1422226503
 20
179.1109033375
 30
0.0
  0
SPLINE
  5
2EA
100
AcDbEntity
  8
0
100
AcDbSpline
 62
7
  6
CONTINUOUS
 70
0
 71
3
 72
14
 73
10
 74
0
 42
0.0000001
 43
0.0000001
 44
0.0000000001
 40
0.0
 40
0.0
 40
0.0
 40
0.0
 40
0.2622926821
 40
0.3931862198
 40
0.5218006401
 40
0.6470956931
 40
0.7684750152
 40
0.8859105437
 40
1.0
 40
1.0
 40
1.0
 40
1.0
 10
-33.43477164
 20
259.4236130362
 30
0.0
 10
-33.6060480193
 20
260.3832844025
 30
0.0
 10
-33.6184768699
 20
261.8801525494
 30
0.0
 10
-33.1567979555
 20
263.7700336166
 30
0.0
 10
-32.5849557082
 20
265.0893364989
 30
0.0
 10
-31.8080939748
 20
266.2569552709
 30
0.0
 10
-30.8541514181
 20
267.229125321
 30
0.0
 10
-29.7588594813
 20
267.9670389756
 30
0.0
 10
-28.9508497637
 20
268.2865347006
 30
0.0
 10
-28.5412845927
 20
268.3963208902
 30
0.0
  0
SPLINE
  5
2EB
100
AcDbEntity
  8
0
100
AcDbSpline
 62
7
  6
CONTINUOUS
 70
0
 71
3
 72
13
 73
9
 74
0
 42
0.0000001
 43
0.0000001
 44
0.0000000001
 40
0.0
 40
0.0
 40
0.0
 40
0.0
 40
0.1054228116
 40
0.2162092768
 40
0.3355568365
 40
0.4637520711
 40
0.7347891091
 40
1.0
 40
1.0
 40
1.0
 40
1.0
 10
27.4214126795
 20
181.8842999321
 30
0.0
 10
27.6352792557
 20
181.7607737882
 30
0.0
 10
28.1257485682
 20
181.5888244167
 30
0.0
 10
28.9252752459
 20
181.6011743089
 30
0.0
 10
29.7333572162
 20
181.8670631322
 30
0.0
 10
30.7609059431
 20
182.5352321997
 30
0.0
 10
31.7406208838
 20
183.8059994934
 30
0.0
 10
32.0644760876
 20
185.0690938851
 30
0.0
 10
32.0644760876
 20
185.6904108431
 30
0.0
  0
SPLINE
  5
2EC
100
AcDbEntity
  8
0
100
AcDbSpline
 62
7
  6
CONTINUOUS
 70
0
 71
3
 72
11
 73
7
 74
0
 42
0.0000001
 43
0.0000001
 44
0.0000000001
 40
0.0
 40
0.0
 40
0.0
 40
0.0
 40
0.24254637
 40
0.4882672474
 40
0.7400278467
 40
1.0
 40
1.0
 40
1.0
 40
1.0
 10
12.9170553632
 20
189.4084493726
 30
0.0
 10
13.8838772681
 20
188.8500434732
 30
0.0
 10
15.9357161061
 20
187.8986838233
 30
0.0
 10
19.2462300711
 20
187.0282371819
 30
0.0
 10
22.7352083111
 20
186.7235222905
 30
0.0
 10
25.0954611376
 20
186.8967519775
 30
0.0
 10
26.2793519217
 20
187.0714449319
 30
0.0
  0
SPLINE
  5
2ED
100
AcDbEntity
  8
0
100
AcDbSpline
 62
7
  6
CONTINUOUS
 70
0
 71
3
 72
9
 73
5
 74
0
 42
0.0000001
 43
0.0000001
 44
0.0000000001
 40
0.0
 40
0.0
 40
0.0
 40
0.0
 40
0.2429892131
 40
1.0
 40
1.0
 40
1.0
 40
1.0
 10
4.756430903
 20
201.348785125
 30
0.0
 10
4.7521695983
 20
201.2134465425
 30
0.0
 10
4.7039584797
 20
200.6576472221
 30
0.0
 10
4.5388283074
 20
200.1137685529
 30
0.0
 10
4.3621678154
 20
199.7306975115
 30
0.0
  0
SPLINE
  5
2EE
100
AcDbEntity
  8
0
100
AcDbSpline
 62
7
  6
CONTINUOUS
 70
0
 71
3
 72
11
 73
7
 74
0
 42
0.0000001
 43
0.0000001
 44
0.0000000001
 40
0.0
 40
0.0
 40
0.0
 40
0.0
 40
0.2682595766
 40
0.5241619233
 40
0.7665488161
 40
1.0
 40
1.0
 40
1.0
 40
1.0
 10
-8.339033254
 20
179.0731310874
 30
0.0
 10
-8.431971861
 20
179.5938714271
 30
0.0
 10
-8.7558767193
 20
180.5931089827
 30
0.0
 10
-9.6415399373
 20
181.8484963787
 30
0.0
 10
-10.8391951531
 20
182.7054222748
 30
0.0
 10
-11.7765616008
 20
182.9383210112
 30
0.0
 10
-12.2363850322
 20
182.9599491666
 30
0.0
  0
SPLINE
  5
2EF
100
AcDbEntity
  8
0
100
AcDbSpline
 62
7
  6
CONTINUOUS
 70
0
 71
3
 72
11
 73
7
 74
0
 42
0.0000001
 43
0.0000001
 44
0.0000000001
 40
0.0
 40
0.0
 40
0.0
 40
0.0
 40
0.2634097533
 40
0.5159320737
 40
0.760203738
 40
1.0
 40
1.0
 40
1.0
 40
1.0
 10
29.1719140046
 20
249.957967618
 30
0.0
 10
30.7131255706
 20
250.3710978283
 30
0.0
 10
33.8066629392
 20
250.933108895
 30
0.0
 10
38.4393836645
 20
250.9103494265
 30
0.0
 10
42.8381478988
 20
249.9981578022
 30
0.0
 10
45.5443473746
 20
248.8022513089
 30
0.0
 10
46.8021778781
 20
248.0757142205
 30
0.0
  0
SPLINE
  5
2F0
100
AcDbEntity
  8
0
100
AcDbSpline
 62
7
  6
CONTINUOUS
 70
0
 71
3
 72
20
 73
16
 74
0
 42
0.0000001
 43
0.0000001
 44
0.0000000001
 40
0.0
 40
0.0
 40
0.0
 40
0.0
 40
0.1257124286
 40
0.19181006
 40
0.259391909
 40
0.3964653636
 40
0.4649100882
 40
0.532384754
 40
0.6620225582
 40
0.7236682389
 40
0.7828645508
 40
0.8396828465
 40
0.8944263436
 40
0.9476259001
 40
1.0
 40
1.0
 40
1.0
 40
1.0
 10
32.0644760876
 20
188.6221791825
 30
0.0
 10
34.8110296964
 20
189.6893598082
 30
0.0
 10
38.7741742089
 20
191.9591927793
 30
0.0
 10
43.4109866951
 20
195.9047237229
 30
0.0
 10
47.7316536926
 20
200.5709070857
 30
0.0
 10
51.245326402
 20
205.9990018728
 30
0.0
 10
53.7752881712
 20
211.8890905221
 30
0.0
 10
55.5618531918
 20
217.8616766824
 30
0.0
 10
56.262676896
 20
223.9647922456
 30
0.0
 10
55.7289405078
 20
229.8281256491
 30
0.0
 10
54.747061036
 20
233.8920967145
 30
0.0
 10
53.195147893
 20
237.6011312729
 30
0.0
 10
51.1029740591
 20
240.8721367794
 30
0.0
 10
48.5156181442
 20
243.6268973671
 30
0.0
 10
46.4897798864
 20
245.0803666576
 30
0.0
 10
45.4267704439
 20
245.6943924018
 30
0.0
  0
SPLINE
  5
2F1
100
AcDbEntity
  8
0
100
AcDbSpline
 62
7
  6
CONTINUOUS
 70
0
 71
3
 72
12
 73
8
 74
0
 42
0.0000001
 43
0.0000001
 44
0.0000000001
 40
0.0
 40
0.0
 40
0.0
 40
0.0
 40
0.1143141546
 40
0.2320076927
 40
0.4780753152
 40
0.7371598839
 40
1.0
 40
1.0
 40
1.0
 40
1.0
 10
-26.3897743833
 20
255.9516703906
 30
0.0
 10
-26.1167550705
 20
256.0248547142
 30
0.0
 10
-25.5780336255
 20
256.2380302394
 30
0.0
 10
-24.5911603847
 20
256.9021641942
 30
0.0
 10
-23.6071768628
 20
258.1403039781
 30
0.0
 10
-23.0020618909
 20
259.9751844569
 30
0.0
 10
-23.0132621225
 20
261.2936761703
 30
0.0
 10
-23.1274496853
 20
261.9334756265
 30
0.0
  0
SPLINE
  5
2F2
100
AcDbEntity
  8
0
100
AcDbSpline
 62
7
  6
CONTINUOUS
 70
0
 71
3
 72
9
 73
5
 74
0
 42
0.0000001
 43
0.0000001
 44
0.0000000001
 40
0.0
 40
0.0
 40
0.0
 40
0.0
 40
0.25570563
 40
1.0
 40
1.0
 40
1.0
 40
1.0
 10
7.2686947044
 20
251.2326425544
 30
0.0
 10
7.3997970519
 20
251.7199872056
 30
0.0
 10
7.8536251458
 20
253.6409221159
 30
0.0
 10
8.0665555019
 20
255.6211088806
 30
0.0
 10
8.0665555019
 20
257.0900778996
 30
0.0
  0
SPLINE
  5
2F3
100
AcDbEntity
  8
0
100
AcDbSpline
 62
7
  6
CONTINUOUS
 70
0
 71
3
 72
9
 73
5
 74
0
 42
0.0000001
 43
0.0000001
 44
0.0000000001
 40
0.0
 40
0.0
 40
0.0
 40
0.0
 40
0.4900767521
 40
1.0
 40
1.0
 40
1.0
 40
1.0
 10
-4.3334955398
 20
270.3852143431
 30
0.0
 10
-3.603818825
 20
270.5807861658
 30
0.0
 10
-2.0606327012
 20
270.7977218741
 30
0.0
 10
-0.5122568785
 20
270.6505006452
 30
0.0
 10
0.2589026958
 20
270.4983615862
 30
0.0
  0
SPLINE
  5
2F4
100
AcDbEntity
  8
0
100
AcDbSpline
 62
7
  6
CONTINUOUS
 70
0
 71
3
 72
13
 73
9
 74
0
 42
0.0000001
 43
0.0000001
 44
0.0000000001
 40
0.0
 40
0.0
 40
0.0
 40
0.0
 40
0.2441421123
 40
0.3711094372
 40
0.499520248
 40
0.6279963423
 40
0.7551549415
 40
1.0
 40
1.0
 40
1.0
 40
1.0
 10
-8.5243662663
 20
208.3989413345
 30
0.0
 10
-8.5243662663
 20
212.8912334742
 30
0.0
 10
-7.5062342105
 20
219.7531911543
 30
0.0
 10
-4.4834478711
 20
228.4468902126
 30
0.0
 10
-1.3569260913
 20
234.8016539704
 30
0.0
 10
2.5200202074
 20
240.7326145186
 30
0.0
 10
8.4702304137
 20
247.7781184647
 30
0.0
 10
13.8640358498
 20
252.1650462377
 30
0.0
 10
17.735846693
 20
254.4685538348
 30
0.0
  0
SPLINE
  5
2F5
100
AcDbEntity
  8
0
100
AcDbSpline
 62
7
  6
CONTINUOUS
 70
0
 71
3
 72
11
 73
7
 74
0
 42
0.0000001
 43
0.0000001
 44
0.0000000001
 40
0.0
 40
0.0
 40
0.0
 40
0.0
 40
0.2344241165
 40
0.4783749401
 40
0.7334580985
 40
1.0
 40
1.0
 40
1.0
 40
1.0
 10
-1.0857499568
 20
185.80089706
 30
0.0
 10
-2.2999196765
 20
187.2552172199
 30
0.0
 10
-4.4750947048
 20
190.4871765818
 30
0.0
 10
-6.8095795074
 20
195.9692714354
 30
0.0
 10
-8.2233425523
 20
202.0211490431
 30
0.0
 10
-8.5243662663
 20
206.2448437433
 30
0.0
 10
-8.5243662663
 20
208.3989413345
 30
0.0
  0
SPLINE
  5
2F6
100
AcDbEntity
  8
0
100
AcDbSpline
 62
7
  6
CONTINUOUS
 70
0
 71
3
 72
18
 73
14
 74
0
 42
0.0000001
 43
0.0000001
 44
0.0000000001
 40
0.0
 40
0.0
 40
0.0
 40
0.0
 40
0.1328973018
 40
0.2693110871
 40
0.3378191327
 40
0.4058686537
 40
0.5387195994
 40
0.6651309562
 40
0.7834975169
 40
0.8398051755
 40
0.8943857776
 40
0.9476228301
 40
1.0
 40
1.0
 40
1.0
 40
1.0
 10
16.2091846474
 20
244.6399186686
 30
0.0
 10
13.9313949796
 20
242.9026761972
 30
0.0
 10
9.6856435309
 20
238.8760684763
 30
0.0
 10
5.4441530418
 20
232.9013179119
 30
0.0
 10
2.7480494783
 20
227.6621538688
 30
0.0
 10
0.595293046
 20
222.2608663863
 30
0.0
 10
-1.0532903535
 20
215.3472954987
 30
0.0
 10
-1.2531714173
 20
207.1468034194
 30
0.0
 10
0.1354562146
 20
200.7258025319
 30
0.0
 10
2.1638590464
 20
196.2031490702
 30
0.0
 10
4.0747488173
 20
193.2092396405
 30
0.0
 10
6.3700201016
 20
190.6109654033
 30
0.0
 10
8.1426183626
 20
189.1631708072
 30
0.0
 10
9.0733652938
 20
188.5241168984
 30
0.0
  0
SPLINE
  5
2F7
100
AcDbEntity
  8
0
100
AcDbSpline
 62
7
  6
CONTINUOUS
 70
0
 71
3
 72
12
 73
8
 74
0
 42
0.0000001
 43
0.0000001
 44
0.0000000001
 40
0.0
 40
0.0
 40
0.0
 40
0.0
 40
0.2628401161
 40
0.5219246848
 40
0.7679923073
 40
0.8856858454
 40
1.0
 40
1.0
 40
1.0
 40
1.0
 10
-23.9306390816
 20
261.9712478766
 30
0.0
 10
-23.8164515188
 20
261.3314484205
 30
0.0
 10
-23.8052512872
 20
260.012956707
 30
0.0
 10
-24.4103662591
 20
258.1780762281
 30
0.0
 10
-25.3943497811
 20
256.9399364442
 30
0.0
 10
-26.3812230219
 20
256.2758024894
 30
0.0
 10
-26.919944467
 20
256.0626269643
 30
0.0
 10
-27.1929637798
 20
255.9894426406
 30
0.0
  0
SPLINE
  5
2F8
100
AcDbEntity
  8
0
100
AcDbSpline
 62
7
  6
CONTINUOUS
 70
0
 71
3
 72
19
 73
15
 74
0
 42
0.0000001
 43
0.0000001
 44
0.0000000001
 40
0.0
 40
0.0
 40
0.0
 40
0.0
 40
0.0526250924
 40
0.1066041977
 40
0.1625229339
 40
0.2207476155
 40
0.3441346947
 40
0.4092377843
 40
0.4760015736
 40
0.6120837922
 40
0.747710622
 40
0.8139330162
 40
0.878328529
 40
1.0
 40
1.0
 40
1.0
 40
1.0
 10
9.1535425535
 20
188.6417057023
 30
0.0
 10
8.0952238512
 20
189.4715016372
 30
0.0
 10
6.112319077
 20
191.3685259009
 30
0.0
 10
3.689139833
 20
194.7684491777
 30
0.0
 10
1.8388087602
 20
198.6697985652
 30
0.0
 10
0.1553583236
 20
204.5242150676
 30
0.0
 10
-0.177618899
 20
210.9176521419
 30
0.0
 10
0.7135131863
 20
217.3898671775
 30
0.0
 10
2.4636027661
 20
224.0261895918
 30
0.0
 10
6.1208137535
 20
231.9512286638
 30
0.0
 10
11.4334155388
 20
238.860291736
 30
0.0
 10
16.4788121543
 20
243.4499017275
 30
0.0
 10
21.7524557049
 20
247.1743363667
 30
0.0
 10
26.1686095621
 20
249.1529153961
 30
0.0
 10
29.1719140046
 20
249.957967618
 30
0.0
  0
ELLIPSE
  5
2F9
100
AcDbEntity
  8
0
100
AcDbEllipse
 62
7
  6
CONTINUOUS
 10
12.0378280875
 20
227.4477523111
 30
0.0
 11
-0.4264466839
 21
36.9637088296
 31
0.0
 40
0.8071250907
 41
0.9132161697
 42
2.2588867883
  0
ELLIPSE
  5
2FA
100
AcDbEntity
  8
0
100
AcDbEllipse
 62
7
  6
CONTINUOUS
 10
-13.2066182289
 20
177.6231471971
 30
0.0
 11
-0.0199613346
 21
1.7302162009
 31
0.0
 40
0.8071250907
 41
0.0
 42
6.2831853072
  0
ELLIPSE
  5
2FB
100
AcDbEntity
  8
0
100
AcDbEllipse
 62
7
  6
CONTINUOUS
 10
-25.3812877851
 20
262.4314609148
 30
0.0
 11
-0.2419555653
 21
20.9723170664
 31
0.0
 40
0.8071250907
 41
-2.2283764839
 42
-1.367250466
  0
ELLIPSE
  5
2FC
100
AcDbEntity
  8
0
100
AcDbEllipse
 62
7
  6
CONTINUOUS
 10
-27.9950346601
 20
260.4834917362
 30
0.0
 11
-0.0199613341
 21
1.730216158
 31
0.0
 40
0.8071250907
 41
0.0
 42
6.2831853072
  0
ENDSEC
  0
SECTION
  2
OBJECTS
  0
DICTIONARY
  5
C
100
AcDbDictionary
280
0
281
1
  3
ACAD_GROUP
350
D
  3
ACAD_MLINESTYLE
350
17
  3
ACAD_LAYOUT
350
1A
  3
ACAD_PLOTSETTINGS
350
19
  3
ACAD_PLOTSTYLENAME
350
E
  0
DICTIONARY
  5
D
102
{ACAD_REACTORS
330
C
102
}
100
AcDbDictionary
280
0
281
1
  0
ACDBDICTIONARYWDFLT
  5
E
102
{ACAD_REACTORS
330
C
102
}
100
AcDbDictionary
281
1
  3
Normal
350
F
100
AcDbDictionaryWithDefault
340
F
  0
DICTIONARY
  5
17
102
{ACAD_REACTORS
330
C
102
}
100
AcDbDictionary
280
0
281
1
  3
Standard
350
18
  0
DICTIONARY
  5
19
102
{ACAD_REACTORS
330
C
102
}
100
AcDbDictionary
281
1
  0
DICTIONARY
  5
1A
102
{ACAD_REACTORS
330
C
102
}
100
AcDbDictionary
281
1
  3
Model
350
2FD
  3
Layout1
350
2FE
  0
ACDBPLACEHOLDER
  5
F
102
{ACAD_REACTORS
330
E
102
}
  0
MLINESTYLE
  5
18
102
{ACAD_REACTORS
330
17
102
}
100
AcDbMlineStyle
  2
STANDARD
 70
0
  3

 62
256
 51
90.0
 52
90.0
 71
2
 49
0.5
 62
256
  6
BYLAYER
 49
-0.5
 62
256
  6
BYLAYER
  0
LAYOUT
  5
2FD
102
{ACAD_REACTORS
330
1A
102
}
100
AcDbPlotSettings
  1

  2
none_device
  4
ANSI_C_(22.00_x_17.00_Inches)
  6

 40
0.0
 41
0.0
 42
0.0
 43
0.0
 44
558.8
 45
431.8
 46
0.0
 47
0.0
 48
0.0
 49
0.0
140
0.0
141
0.0
142
1.0
143
1.0
 70
1024
 72
1
 73
0
 74
0
  7

 75
0
147
1.0
148
0.0
149
0.0
100
AcDbLayout
  1
Model
 70
0
 71
0
 10
0.0
 20
0.0
 11
558.8
 21
431.8
 12
0.0
 22
0.0
 32
0.0
 14
0.0
 24
0.0
 34
0.0
 15
0.0
 25
0.0
 35
0.0
146
0.0
 13
0.0
 23
0.0
 33
0.0
 16
1.0
 26
0.0
 36
0.0
 17
0.0
 27
1.0
 37
0.0
 76
0
330
216
345
0
346
0
  0
LAYOUT
  5
2FE
102
{ACAD_REACTORS
330
1A
102
}
100
AcDbPlotSettings
  1

  2
none_device
  4
ANSI_C_(22.00_x_17.00_Inches)
  6

 40
0.0
 41
0.0
 42
0.0
 43
0.0
 44
558.8
 45
431.8
 46
0.0
 47
0.0
 48
0.0
 49
0.0
140
0.0
141
0.0
142
1.0
143
1.0
 70
0
 72
1
 73
0
 74
0
  7

 75
0
147
1.0
148
0.0
149
0.0
100
AcDbLayout
  1
Layout1
 70
0
 71
1
 10
0.0
 20
0.0
 11
558.8
 21
431.8
 12
0.0
 22
0.0
 32
0.0
 14
0.0
 24
0.0
 34
0.0
 15
0.0
 25
0.0
 35
0.0
146
0.0
 13
0.0
 23
0.0
 33
0.0
 16
1.0
 26
0.0
 36
0.0
 17
0.0
 27
1.0
 37
0.0
 76
0
330
217
345
0
346
0
  0
ENDSEC
  0
EOF
