999
DXF file: Y:\3D PRATIKA-KAEDRA_OLGA\TRAVAIL_PHASE_5\CAD3D\PKF32F723_3D-Simplified\PKF32F723_2D-isometric.dxf
999
Pro/ENGINEER 2018260 by Parametric Technology Corporation
  0
SECTION
  2
HEADER
  9
$ACADVER
  1
AC1027
  9
$DWGCODEPAGE
  3
ANSI_1252
  9
$EXTMAX
 10
558.8
 20
431.8
 30
0.0
  9
$EXTMIN
 10
0.0
 20
0.0
 30
0.0
  9
$LIMMIN
 10
0.0
 20
0.0
  9
$LIMMAX
 10
558.8
 20
431.8
  9
$VIEWCTR
 10
279.4
 20
215.9
  9
$VIEWSIZE
 40
431.8
  9
$CLAYER
  8
0
  9
$LTSCALE
 40
30.734
  9
$CELTYPE
  6
BYLAYER
  9
$DIMSCALE
 40
1.0
  9
$DIMASZ
 40
0.1875
  9
$DIMEXO
 40
0.0625
  9
$DIMDLI
 40
21.2344
  9
$DIMEXE
 40
0.125
  9
$DIMCEN
 40
5.0292
  9
$DIMLFAC
 40
1.0
  9
$DIMBLK
  1
_CLOSED
  9
$DIMALT
 70
0
  9
$DIMALTF
 40
0.0393700787
  9
$DIMTXT
 40
0.15625
  9
$DIMTOL
 70
0
  9
$DIMLIM
 70
0
  9
$DIMTFAC
 40
1.0
  9
$DIMGAP
 40
0.625
  9
$DIMDSEP
 70
46
  9
$AUNITS
 70
0
  9
$PDMODE
 70
3
  9
$PDSIZE
 40
0.3125
  9
$HANDSEED
  5
3A4
  9
$TILEMODE
 70
1
  9
$MEASUREMENT
 70
1
  9
$INSUNITS
 70
4
  0
ENDSEC
  0
SECTION
  2
CLASSES
  0
CLASS
  1
ACDBDICTIONARYWDFLT
  2
AcDbDictionaryWithDefault
  3
AutoCAD 2000
 90
0
 91
1
280
0
281
0
  0
CLASS
  1
ACDBPLACEHOLDER
  2
AcDbPlaceHolder
  3
AutoCAD 2000
 90
0
 91
1
280
0
281
0
  0
CLASS
  1
LAYOUT
  2
AcDbLayout
  3
AutoCAD 2000
 90
0
 91
0
280
0
281
0
  0
ENDSEC
  0
SECTION
  2
TABLES
  0
TABLE
  2
VPORT
  5
8
100
AcDbSymbolTable
 70
2
  0
VPORT
  5
1F4
100
AcDbSymbolTableRecord
100
AcDbViewportTableRecord
  2
*ACTIVE
 70
0
 10
0.0
 20
0.0
 11
1.0
 21
1.0
 12
279.4
 22
215.9
 13
0.0
 23
0.0
 14
1.0
 24
1.0
 15
0.0
 25
0.0
 16
0.0
 26
0.0
 36
1.0
 17
0.0
 27
0.0
 37
0.0
 40
431.8
 41
1.2941176471
 42
50.0
 43
0.0
 44
0.0
 50
0.0
 51
0.0
 71
0
 72
100
 73
1
 74
1
 75
0
 76
0
 77
0
 78
0
  0
ENDTAB
  0
TABLE
  2
LTYPE
  5
5
100
AcDbSymbolTable
 70
6
  0
LTYPE
  5
14
100
AcDbSymbolTableRecord
100
AcDbLinetypeTableRecord
  2
BYBLOCK
 70
0
  3

 72
65
 73
0
 40
0.0
  0
LTYPE
  5
15
100
AcDbSymbolTableRecord
100
AcDbLinetypeTableRecord
  2
BYLAYER
 70
0
  3

 72
65
 73
0
 40
0.0
  0
LTYPE
  5
16
100
AcDbSymbolTableRecord
100
AcDbLinetypeTableRecord
  2
CONTINUOUS
 70
64
  3
Solid line
 72
65
 73
0
 40
0.0
  0
LTYPE
  5
1F5
100
AcDbSymbolTableRecord
100
AcDbLinetypeTableRecord
  2
CENTER
 70
64
  3
____ _ ____ _ ____ _ ____ _ ____ _ ____ _ ____
 72
65
 73
4
 40
0.6
 49
0.375
 74
0
 49
-0.075
 74
0
 49
0.075
 74
0
 49
-0.075
 74
0
  0
LTYPE
  5
1F6
100
AcDbSymbolTableRecord
100
AcDbLinetypeTableRecord
  2
HIDDEN
 70
64
  3
- - - - - - - - - - - - - - - - - - - -
 72
65
 73
2
 40
0.2
 49
0.1
 74
0
 49
-0.1
 74
0
  0
LTYPE
  5
1F7
100
AcDbSymbolTableRecord
100
AcDbLinetypeTableRecord
  2
PHANTOM
 70
64
  3
_____ _ _ _____ _ _ _____ _ _ _____
 72
65
 73
6
 40
0.8
 49
0.45
 74
0
 49
-0.05
 74
0
 49
0.1
 74
0
 49
-0.05
 74
0
 49
0.1
 74
0
 49
-0.05
 74
0
  0
LTYPE
  5
1F8
100
AcDbSymbolTableRecord
100
AcDbLinetypeTableRecord
  2
DOT
 70
64
  3
. . . . . . . . . . . . . . . . . . . .
 72
65
 73
2
 40
0.2
 49
0.1
 74
0
 49
-0.1
 74
0
  0
LTYPE
  5
1F9
100
AcDbSymbolTableRecord
100
AcDbLinetypeTableRecord
  2
DASHED
 70
64
  3
- - - - - - - - - - - - - - - - - - - -
 72
65
 73
2
 40
0.2
 49
0.1
 74
0
 49
-0.1
 74
0
  0
ENDTAB
  0
TABLE
  2
LAYER
  5
2
100
AcDbSymbolTable
 70
36
  0
LAYER
  5
10
100
AcDbSymbolTableRecord
100
AcDbLayerTableRecord
  2
0
 70
0
 62
7
  6
CONTINUOUS
370
-3
390
F
  0
LAYER
  5
1FA
100
AcDbSymbolTableRecord
100
AcDbLayerTableRecord
  2
DEFAULT_1
 70
0
 62
7
  6
CENTER
370
-3
390
F
  0
LAYER
  5
1FB
100
AcDbSymbolTableRecord
100
AcDbLayerTableRecord
  2
DEFAULT_2
 70
0
 62
8
  6
HIDDEN
370
-3
390
F
  0
LAYER
  5
1FC
100
AcDbSymbolTableRecord
100
AcDbLayerTableRecord
  2
DEFAULT_3
 70
0
 62
7
  6
PHANTOM
370
-3
390
F
  0
LAYER
  5
1FD
100
AcDbSymbolTableRecord
100
AcDbLayerTableRecord
  2
01_ALL_DTM_PLN
 70
0
 62
7
  6
CONTINUOUS
370
-3
390
F
  0
LAYER
  5
1FE
100
AcDbSymbolTableRecord
100
AcDbLayerTableRecord
  2
01__ASM_ALL_DTM_PLN
 70
0
 62
7
  6
CONTINUOUS
370
-3
390
F
  0
LAYER
  5
1FF
100
AcDbSymbolTableRecord
100
AcDbLayerTableRecord
  2
01__ASM_DEF_DTM_PLN
 70
0
 62
7
  6
CONTINUOUS
370
-3
390
F
  0
LAYER
  5
200
100
AcDbSymbolTableRecord
100
AcDbLayerTableRecord
  2
01___PRT_ALL_DTM_PLN
 70
0
 62
7
  6
CONTINUOUS
370
-3
390
F
  0
LAYER
  5
201
100
AcDbSymbolTableRecord
100
AcDbLayerTableRecord
  2
01___PRT_DEF_DTM_PLN
 70
0
 62
7
  6
CONTINUOUS
370
-3
390
F
  0
LAYER
  5
202
100
AcDbSymbolTableRecord
100
AcDbLayerTableRecord
  2
02_ALL_AXES
 70
0
 62
7
  6
CONTINUOUS
370
-3
390
F
  0
LAYER
  5
203
100
AcDbSymbolTableRecord
100
AcDbLayerTableRecord
  2
02__ASM_ALL_AXES
 70
0
 62
7
  6
CONTINUOUS
370
-3
390
F
  0
LAYER
  5
204
100
AcDbSymbolTableRecord
100
AcDbLayerTableRecord
  2
02___PRT_ALL_AXES
 70
0
 62
7
  6
CONTINUOUS
370
-3
390
F
  0
LAYER
  5
205
100
AcDbSymbolTableRecord
100
AcDbLayerTableRecord
  2
03_ALL_CURVES
 70
0
 62
7
  6
CONTINUOUS
370
-3
390
F
  0
LAYER
  5
206
100
AcDbSymbolTableRecord
100
AcDbLayerTableRecord
  2
03__ASM_ALL_CURVES
 70
0
 62
7
  6
CONTINUOUS
370
-3
390
F
  0
LAYER
  5
207
100
AcDbSymbolTableRecord
100
AcDbLayerTableRecord
  2
03___PRT_ALL_CURVES
 70
0
 62
7
  6
CONTINUOUS
370
-3
390
F
  0
LAYER
  5
208
100
AcDbSymbolTableRecord
100
AcDbLayerTableRecord
  2
04_ALL_DTM_PNT
 70
0
 62
7
  6
CONTINUOUS
370
-3
390
F
  0
LAYER
  5
209
100
AcDbSymbolTableRecord
100
AcDbLayerTableRecord
  2
04__ASM_ALL_DTM_PNT
 70
0
 62
7
  6
CONTINUOUS
370
-3
390
F
  0
LAYER
  5
20A
100
AcDbSymbolTableRecord
100
AcDbLayerTableRecord
  2
04___PRT_ALL_DTM_PNT
 70
0
 62
7
  6
CONTINUOUS
370
-3
390
F
  0
LAYER
  5
20B
100
AcDbSymbolTableRecord
100
AcDbLayerTableRecord
  2
05_ALL_DTM_CSYS
 70
0
 62
7
  6
CONTINUOUS
370
-3
390
F
  0
LAYER
  5
20C
100
AcDbSymbolTableRecord
100
AcDbLayerTableRecord
  2
05__ASM_ALL_DTM_CSYS
 70
0
 62
7
  6
CONTINUOUS
370
-3
390
F
  0
LAYER
  5
20D
100
AcDbSymbolTableRecord
100
AcDbLayerTableRecord
  2
05__ASM_DEF_DTM_CSYS
 70
0
 62
7
  6
CONTINUOUS
370
-3
390
F
  0
LAYER
  5
20E
100
AcDbSymbolTableRecord
100
AcDbLayerTableRecord
  2
05___PRT_ALL_DTM_CSYS
 70
0
 62
7
  6
CONTINUOUS
370
-3
390
F
  0
LAYER
  5
20F
100
AcDbSymbolTableRecord
100
AcDbLayerTableRecord
  2
05___PRT_DEF_DTM_CSYS
 70
0
 62
7
  6
CONTINUOUS
370
-3
390
F
  0
LAYER
  5
210
100
AcDbSymbolTableRecord
100
AcDbLayerTableRecord
  2
06_ALL_SURFS
 70
0
 62
7
  6
CONTINUOUS
370
-3
390
F
  0
LAYER
  5
211
100
AcDbSymbolTableRecord
100
AcDbLayerTableRecord
  2
06__ASM_ALL_SURFS
 70
0
 62
7
  6
CONTINUOUS
370
-3
390
F
  0
LAYER
  5
212
100
AcDbSymbolTableRecord
100
AcDbLayerTableRecord
  2
06___PRT_ALL_SURFS
 70
0
 62
7
  6
CONTINUOUS
370
-3
390
F
  0
LAYER
  5
213
100
AcDbSymbolTableRecord
100
AcDbLayerTableRecord
  2
07__ASM_ALL_SKELETONS
 70
0
 62
7
  6
CONTINUOUS
370
-3
390
F
  0
ENDTAB
  0
TABLE
  2
STYLE
  5
3
100
AcDbSymbolTable
 70
1
  0
STYLE
  5
11
100
AcDbSymbolTableRecord
100
AcDbTextStyleTableRecord
  2
STANDARD
 70
0
 40
0.0
 41
0.8
 50
0.0
 71
0
 42
0.2
  3
txt
  4

  0
STYLE
  5
214
100
AcDbSymbolTableRecord
100
AcDbTextStyleTableRecord
  2
TEXTSTYLE_1
 70
0
 40
0.0
 41
0.8
 50
0.0
 71
0
 42
0.2
  3
gdt
  4

  0
ENDTAB
  0
TABLE
  2
VIEW
  5
6
100
AcDbSymbolTable
 70
0
  0
ENDTAB
  0
TABLE
  2
UCS
  5
7
100
AcDbSymbolTable
 70
0
  0
ENDTAB
  0
TABLE
  2
APPID
  5
9
100
AcDbSymbolTable
 70
1
  0
APPID
  5
215
100
AcDbSymbolTableRecord
100
AcDbRegAppTableRecord
  2
ACAD
 70
0
  0
ENDTAB
  0
TABLE
  2
BLOCK_RECORD
  5
1
100
AcDbSymbolTable
 70
0
  0
BLOCK_RECORD
  5
216
100
AcDbSymbolTableRecord
100
AcDbBlockTableRecord
  2
*Model_Space
  0
BLOCK_RECORD
  5
217
100
AcDbSymbolTableRecord
100
AcDbBlockTableRecord
  2
*Paper_Space
  0
BLOCK_RECORD
  5
218
100
AcDbSymbolTableRecord
100
AcDbBlockTableRecord
  2
_CLOSED
  0
ENDTAB
  0
TABLE
  2
DIMSTYLE
  5
A
100
AcDbSymbolTable
 70
1
100
AcDbDimStyleTable
 71
0
  0
DIMSTYLE
105
219
100
AcDbSymbolTableRecord
100
AcDbDimStyleTableRecord
  2
STANDARD
 70
0
  3

  4

 40
1.0
 41
0.1875
 42
0.0625
 43
0.38
 44
0.125
 45
0.0
 46
0.0
 47
0.01
 48
0.01
140
0.15625
141
0.09
142
0.0
143
25.4
144
1.0
145
0.0
146
1.0
147
0.625
 71
0.0
 72
0.0
 73
1
 74
1
 75
0
 76
0
 77
0
 78
8
 79
2
170
0
171
1
172
0
173
0
174
0
175
0
176
0
177
0
178
0
270
2
179
2
271
2
272
2
273
2
274
2
275
0
280
0
281
0
282
0
283
1
284
8
285
0
286
0
287
3
288
0
340
11
278
46
341
218
342
218
343
218
344
218
  0
ENDTAB
  0
ENDSEC
  0
SECTION
  2
BLOCKS
  0
BLOCK
  5
20
100
AcDbEntity
  8
0
100
AcDbBlockBegin
  2
*Model_Space
 70
0
 10
0.0
 20
0.0
 30
0.0
  3
*Model_Space
  1

  0
ENDBLK
  5
21
100
AcDbEntity
  8
0
100
AcDbBlockEnd
  0
BLOCK
  5
1C
100
AcDbEntity
  8
0
100
AcDbBlockBegin
  2
*Paper_Space
 70
0
 10
0.0
 20
0.0
 30
0.0
  3
*Paper_Space
  1

  0
ENDBLK
  5
1D
100
AcDbEntity
  8
0
100
AcDbBlockEnd
  0
BLOCK
  5
21A
100
AcDbEntity
  8
0
100
AcDbBlockBegin
  2
_CLOSED
 70
64
 10
0.0
 20
0.0
  3
_CLOSED
  1

  0
LINE
  5
21B
100
AcDbEntity
  8
0
  6
BYBLOCK
 62
0
100
AcDbLine
 10
0.0
 20
0.0
 11
-1.0
 21
0.1666666667
  0
LINE
  5
21C
100
AcDbEntity
  8
0
  6
BYBLOCK
 62
0
100
AcDbLine
 10
-1.0
 20
0.1666666667
 11
-1.0
 21
-0.1666666667
  0
LINE
  5
21D
100
AcDbEntity
  8
0
  6
BYBLOCK
 62
0
100
AcDbLine
 10
-1.0
 20
-0.1666666667
 11
0.0
 21
0.0
  0
LINE
  5
21E
100
AcDbEntity
  8
0
  6
BYBLOCK
 62
0
100
AcDbLine
 10
-1.0
 20
0.0
 11
0.0
 21
0.0
  0
ENDBLK
  5
21F
100
AcDbEntity
  8
0
  6
BYBLOCK
 62
0
100
AcDbBlockEnd
  0
ENDSEC
  0
SECTION
  2
ENTITIES
  0
LWPOLYLINE
  5
220
100
AcDbEntity
  8
0
100
AcDbPolyline
 62
7
  6
CONTINUOUS
 90
4
 70
0
 10
2.6709969571
 20
276.9226432569
 10
2.3212444946
 20
276.8165807828
 10
1.6649118893
 20
276.2460418092
 10
1.405238192
 20
275.4073041163
  0
LINE
  5
221
100
AcDbEntity
  8
0
100
AcDbLine
 62
7
  6
CONTINUOUS
 10
5.6186312398
 20
269.640067017
 11
5.0791431265
 21
269.3935416685
  0
LINE
  5
222
100
AcDbEntity
  8
0
100
AcDbLine
 62
7
  6
CONTINUOUS
 10
53.2991341534
 20
196.6713541643
 11
-2.0727685781
 21
181.8286120507
  0
LINE
  5
223
100
AcDbEntity
  8
0
100
AcDbLine
 62
7
  6
CONTINUOUS
 10
55.8017299948
 20
197.5952602719
 11
53.256029621
 21
196.9128713295
  0
LINE
  5
224
100
AcDbEntity
  8
0
100
AcDbLine
 62
7
  6
CONTINUOUS
 10
-2.8759579745
 20
181.8663843008
 11
-6.1817432119
 21
180.9802504434
  0
LINE
  5
225
100
AcDbEntity
  8
0
100
AcDbLine
 62
7
  6
CONTINUOUS
 10
-10.516220776
 20
180.9256446446
 11
-7.8389227882
 21
180.7997371442
  0
LINE
  5
226
100
AcDbEntity
  8
0
100
AcDbLine
 62
7
  6
CONTINUOUS
 10
-2.8759579745
 20
181.8663843008
 11
-2.0727685781
 21
181.8286120507
  0
LWPOLYLINE
  5
227
100
AcDbEntity
  8
0
100
AcDbPolyline
 62
7
  6
CONTINUOUS
 90
4
 70
0
 10
5.0786051839
 20
269.3932886777
 10
4.2548548443
 20
268.952757934
 10
2.4850098054
 20
267.3541070841
 10
1.5222386035
 20
265.4696997172
  0
LINE
  5
228
100
AcDbEntity
  8
0
100
AcDbLine
 62
7
  6
CONTINUOUS
 10
-8.3797672476
 20
192.9062895139
 11
-13.7516682588
 21
191.4663219955
  0
LINE
  5
229
100
AcDbEntity
  8
0
100
AcDbLine
 62
7
  6
CONTINUOUS
 10
57.4394666997
 20
210.5494960393
 11
60.6284995896
 21
211.4043337899
  0
LINE
  5
22A
100
AcDbEntity
  8
0
100
AcDbLine
 62
7
  6
CONTINUOUS
 10
15.5569190339
 20
201.5246083328
 11
5.5756826667
 21
198.8490570043
  0
LINE
  5
22B
100
AcDbEntity
  8
0
100
AcDbLine
 62
7
  6
CONTINUOUS
 10
-16.362248794
 20
186.7558638319
 11
-13.6849508062
 21
186.6299563315
  0
LINE
  5
22C
100
AcDbEntity
  8
0
100
AcDbLine
 62
7
  6
CONTINUOUS
 10
-3.3776288512
 20
189.13981892
 11
-4.1808182476
 21
189.177591171
  0
LINE
  5
22D
100
AcDbEntity
  8
0
100
AcDbLine
 62
7
  6
CONTINUOUS
 10
-14.5548576551
 20
191.5040942456
 11
-13.7516682588
 21
191.4663219955
  0
LINE
  5
22E
100
AcDbEntity
  8
0
100
AcDbLine
 62
7
  6
CONTINUOUS
 10
16.5421602159
 20
284.3322577137
 11
16.6062837903
 21
284.3925226887
  0
LINE
  5
22F
100
AcDbEntity
  8
0
100
AcDbLine
 62
7
  6
CONTINUOUS
 10
7.7686157804
 20
258.9043770682
 11
7.8077981859
 21
258.9446452467
  0
LINE
  5
230
100
AcDbEntity
  8
0
100
AcDbLine
 62
7
  6
CONTINUOUS
 10
7.7686157804
 20
258.9043770682
 11
7.812822593
 21
258.9424040715
  0
LINE
  5
231
100
AcDbEntity
  8
0
100
AcDbLine
 62
7
  6
CONTINUOUS
 10
7.8065571766
 20
258.9496876875
 11
7.7686157569
 21
258.9043764475
  0
LINE
  5
232
100
AcDbEntity
  8
0
100
AcDbLine
 62
7
  6
CONTINUOUS
 10
5.5756901343
 20
198.8490841937
 11
3.2102515234
 21
200.2153377252
  0
LINE
  5
233
100
AcDbEntity
  8
0
100
AcDbLine
 62
7
  6
CONTINUOUS
 10
28.7900014658
 20
193.3454029548
 11
32.3461581231
 21
191.2922731382
  0
LINE
  5
234
100
AcDbEntity
  8
0
100
AcDbLine
 62
7
  6
CONTINUOUS
 10
17.4673853716
 20
200.3947451235
 11
15.5454794364
 21
201.5048022987
  0
LINE
  5
235
100
AcDbEntity
  8
0
100
AcDbLine
 62
7
  6
CONTINUOUS
 10
21.3497874753
 20
198.7588536588
 11
30.4712884838
 21
193.4904440782
  0
LINE
  5
236
100
AcDbEntity
  8
0
100
AcDbLine
 62
7
  6
CONTINUOUS
 10
27.5513270074
 20
197.9126153859
 11
28.5135113454
 21
197.3568755817
  0
LINE
  5
237
100
AcDbEntity
  8
0
100
AcDbLine
 62
7
  6
CONTINUOUS
 10
11.0305380942
 20
211.6917918247
 11
30.579627119
 21
200.400601064
  0
LINE
  5
238
100
AcDbEntity
  8
0
100
AcDbLine
 62
7
  6
CONTINUOUS
 10
-16.362248794
 20
186.7558638319
 11
-31.1506652252
 21
269.616208371
  0
LINE
  5
239
100
AcDbEntity
  8
0
100
AcDbLine
 62
7
  6
CONTINUOUS
 10
-13.6849508062
 20
186.6299563315
 11
-14.5548576551
 21
191.5040942456
  0
LINE
  5
23A
100
AcDbEntity
  8
0
100
AcDbLine
 62
7
  6
CONTINUOUS
 10
-27.6034603886
 20
264.6161629566
 11
-28.4733672375
 21
269.4903008704
  0
LINE
  5
23B
100
AcDbEntity
  8
0
100
AcDbLine
 62
7
  6
CONTINUOUS
 10
-13.7516682588
 20
191.4663219955
 11
-26.8002709923
 21
264.5783907065
  0
LINE
  5
23C
100
AcDbEntity
  8
0
100
AcDbLine
 62
7
  6
CONTINUOUS
 10
1.4047720279
 20
275.4023210441
 11
1.4056786351
 21
275.4128570069
  0
LINE
  5
23D
100
AcDbEntity
  8
0
100
AcDbLine
 62
7
  6
CONTINUOUS
 10
2.6077292841
 20
276.9309525632
 11
2.6039683899
 21
276.9023168363
  0
LINE
  5
23E
100
AcDbEntity
  8
0
100
AcDbLine
 62
7
  6
CONTINUOUS
 10
3.4240260236
 20
283.1462963311
 11
3.4218879016
 21
283.1340484835
  0
LINE
  5
23F
100
AcDbEntity
  8
0
100
AcDbLine
 62
7
  6
CONTINUOUS
 10
4.3784608638
 20
282.836557932
 11
4.4961013886
 21
283.4133307902
  0
LINE
  5
240
100
AcDbEntity
  8
0
100
AcDbLine
 62
7
  6
CONTINUOUS
 10
93.8260233312
 20
263.4768329575
 11
93.9342798044
 21
263.4983164355
  0
LINE
  5
241
100
AcDbEntity
  8
0
100
AcDbLine
 62
7
  6
CONTINUOUS
 10
10.033702364
 20
214.6697683364
 11
36.364751285
 21
199.4614434922
  0
LINE
  5
242
100
AcDbEntity
  8
0
100
AcDbLine
 62
7
  6
CONTINUOUS
 10
21.9687653643
 20
208.1882436195
 11
9.9104079584
 21
215.1529269128
  0
LINE
  5
243
100
AcDbEntity
  8
0
100
AcDbLine
 62
7
  6
CONTINUOUS
 10
36.364751285
 20
201.9513353147
 11
28.6470604268
 21
206.4089302237
  0
LINE
  5
244
100
AcDbEntity
  8
0
100
AcDbLine
 62
7
  6
CONTINUOUS
 10
-20.2740949524
 20
279.3491425821
 11
-18.9692346791
 21
272.037935711
  0
LINE
  5
245
100
AcDbEntity
  8
0
100
AcDbLine
 62
7
  6
CONTINUOUS
 10
-4.1808182476
 20
189.177591171
 11
-2.8759579745
 21
181.8663843008
  0
LINE
  5
246
100
AcDbEntity
  8
0
100
AcDbLine
 62
7
  6
CONTINUOUS
 10
-3.3776288512
 20
189.13981892
 11
-2.0727685781
 21
181.8286120507
  0
LINE
  5
247
100
AcDbEntity
  8
0
100
AcDbLine
 62
7
  6
CONTINUOUS
 10
-18.1660452828
 20
272.0001634609
 11
-19.4709055561
 21
279.311370332
  0
LINE
  5
248
100
AcDbEntity
  8
0
100
AcDbLine
 62
7
  6
CONTINUOUS
 10
2.5573481795
 20
276.9354318809
 11
2.5545628844
 21
276.9066918516
  0
LINE
  5
249
100
AcDbEntity
  8
0
100
AcDbLine
 62
7
  6
CONTINUOUS
 10
54.6911946132
 20
249.9362649919
 11
54.6601539305
 21
249.9054559315
  0
LINE
  5
24A
100
AcDbEntity
  8
0
100
AcDbLine
 62
7
  6
CONTINUOUS
 10
54.6916934968
 20
249.9362054373
 11
54.6601539305
 21
249.9054559315
  0
LINE
  5
24B
100
AcDbEntity
  8
0
100
AcDbLine
 62
7
  6
CONTINUOUS
 10
63.8822257523
 20
270.1382170801
 11
63.8299393938
 21
270.1289665857
  0
LINE
  5
24C
100
AcDbEntity
  8
0
100
AcDbLine
 62
7
  6
CONTINUOUS
 10
63.8829627453
 20
270.1375104181
 11
63.8299393938
 21
270.1289665857
  0
LINE
  5
24D
100
AcDbEntity
  8
0
100
AcDbLine
 62
7
  6
CONTINUOUS
 10
85.7546118621
 20
257.0030422168
 11
85.875521789
 21
257.0065894225
  0
LINE
  5
24E
100
AcDbEntity
  8
0
100
AcDbLine
 62
7
  6
CONTINUOUS
 10
-3.4886157447
 20
274.6744758444
 11
-3.827749971
 21
276.5746643447
  0
LINE
  5
24F
100
AcDbEntity
  8
0
100
AcDbLine
 62
7
  6
CONTINUOUS
 10
16.5421602159
 20
285.3894925191
 11
16.5421602159
 21
284.3322577137
  0
LINE
  5
250
100
AcDbEntity
  8
0
100
AcDbLine
 62
7
  6
CONTINUOUS
 10
16.6334233122
 20
285.9989379878
 11
16.6334233122
 21
284.2947691265
  0
LINE
  5
251
100
AcDbEntity
  8
0
100
AcDbLine
 62
7
  6
CONTINUOUS
 10
16.4334355349
 20
285.2223456621
 11
16.4334233122
 21
285.2113406067
  0
LINE
  5
252
100
AcDbEntity
  8
0
100
AcDbLine
 62
7
  6
CONTINUOUS
 10
-21.428369981
 20
266.0183582249
 11
-26.8002709923
 21
264.5783907065
  0
LINE
  5
253
100
AcDbEntity
  8
0
100
AcDbLine
 62
7
  6
CONTINUOUS
 10
-22.2315593772
 20
266.0561304751
 11
-27.6034603886
 21
264.6161629566
  0
LINE
  5
254
100
AcDbEntity
  8
0
100
AcDbLine
 62
7
  6
CONTINUOUS
 10
2.9844830875
 20
279.799583896
 11
0.6374170274
 21
279.1704399704
  0
LINE
  5
255
100
AcDbEntity
  8
0
100
AcDbLine
 62
7
  6
CONTINUOUS
 10
3.5956559481
 20
277.1062405551
 11
2.6572788016
 21
276.9200155667
  0
LINE
  5
256
100
AcDbEntity
  8
0
100
AcDbLine
 62
7
  6
CONTINUOUS
 10
2.6572788016
 20
276.9200155667
 11
2.6722773075
 21
276.9228984778
  0
LINE
  5
257
100
AcDbEntity
  8
0
100
AcDbLine
 62
7
  6
CONTINUOUS
 10
-27.6034603886
 20
264.6161629566
 11
-26.8002709923
 21
264.5783907065
  0
LINE
  5
258
100
AcDbEntity
  8
0
100
AcDbLine
 62
7
  6
CONTINUOUS
 10
-21.428369981
 20
266.0183582249
 11
-22.2315593773
 21
266.0561304751
  0
LINE
  5
259
100
AcDbEntity
  8
0
100
AcDbLine
 62
7
  6
CONTINUOUS
 10
72.0013877554
 20
252.237408317
 11
72.1165440491
 21
252.2224792311
  0
LINE
  5
25A
100
AcDbEntity
  8
0
100
AcDbLine
 62
7
  6
CONTINUOUS
 10
-6.1111117674
 20
255.3182293293
 11
4.2738591109
 21
249.3200630167
  0
LINE
  5
25B
100
AcDbEntity
  8
0
100
AcDbLine
 62
7
  6
CONTINUOUS
 10
72.0353695299
 20
252.2828974946
 11
72.0013877957
 21
252.2374085891
  0
LINE
  5
25C
100
AcDbEntity
  8
0
100
AcDbLine
 62
7
  6
CONTINUOUS
 10
5.4392471692
 20
285.9886733444
 11
-19.4709055561
 21
279.311370332
  0
LINE
  5
25D
100
AcDbEntity
  8
0
100
AcDbLine
 62
7
  6
CONTINUOUS
 10
-23.5798801904
 20
278.4630087245
 11
-20.2740949524
 21
279.3491425821
  0
LINE
  5
25E
100
AcDbEntity
  8
0
100
AcDbLine
 62
7
  6
CONTINUOUS
 10
-26.2571781779
 20
278.588916225
 11
6.2265973343
 21
287.2963703491
  0
LWPOLYLINE
  5
25F
100
AcDbEntity
  8
0
100
AcDbPolyline
 62
7
  6
CONTINUOUS
 90
4
 70
0
 10
4.3928268917
 20
283.9430966902
 10
3.9998255645
 20
283.8664972771
 10
3.5249597542
 20
283.444071463
 10
3.4216882147
 20
283.1330912995
  0
LINE
  5
260
100
AcDbEntity
  8
0
100
AcDbLine
 62
7
  6
CONTINUOUS
 10
4.1528954577
 20
277.1502075658
 11
3.5947307981
 21
277.1060569546
  0
LINE
  5
261
100
AcDbEntity
  8
0
100
AcDbLine
 62
7
  6
CONTINUOUS
 10
-28.4733672375
 20
269.4903008705
 11
-31.1506652252
 21
269.616208371
  0
LINE
  5
262
100
AcDbEntity
  8
0
100
AcDbLine
 62
7
  6
CONTINUOUS
 10
-18.9692346791
 20
272.037935711
 11
-18.1660452828
 21
272.0001634609
  0
LINE
  5
263
100
AcDbEntity
  8
0
100
AcDbLine
 62
7
  6
CONTINUOUS
 10
-26.2571781779
 20
278.588916225
 11
-23.5798801902
 21
278.4630087246
  0
LINE
  5
264
100
AcDbEntity
  8
0
100
AcDbLine
 62
7
  6
CONTINUOUS
 10
54.6601541141
 20
249.905455775
 11
54.7520255522
 21
249.8743232441
  0
LINE
  5
265
100
AcDbEntity
  8
0
100
AcDbLine
 62
7
  6
CONTINUOUS
 10
19.9181627458
 20
253.5381152358
 11
19.9271777807
 21
253.4905400037
  0
LINE
  5
266
100
AcDbEntity
  8
0
100
AcDbLine
 62
7
  6
CONTINUOUS
 10
28.5135113454
 20
197.356875582
 11
28.5135113454
 21
197.8786280442
  0
LINE
  5
267
100
AcDbEntity
  8
0
100
AcDbLine
 62
7
  6
CONTINUOUS
 10
30.579627119
 20
200.400601064
 11
30.579627119
 21
197.9107092416
  0
LINE
  5
268
100
AcDbEntity
  8
0
100
AcDbLine
 62
7
  6
CONTINUOUS
 10
32.3461581231
 20
191.2922731382
 11
32.3461581231
 21
193.0169063095
  0
LINE
  5
269
100
AcDbEntity
  8
0
100
AcDbLine
 62
7
  6
CONTINUOUS
 10
36.364751285
 20
199.4614434922
 11
36.364751285
 21
201.9513353147
  0
LINE
  5
26A
100
AcDbEntity
  8
0
100
AcDbLine
 62
7
  6
CONTINUOUS
 10
38.4308670585
 20
200.5370296168
 11
38.4308670585
 21
200.0152771585
  0
LINE
  5
26B
100
AcDbEntity
  8
0
100
AcDbLine
 62
7
  6
CONTINUOUS
 10
28.7900014658
 20
193.3454029548
 11
28.8120883958
 21
194.4487672348
  0
LINE
  5
26C
100
AcDbEntity
  8
0
100
AcDbLine
 62
7
  6
CONTINUOUS
 10
79.8521547111
 20
283.1849170842
 11
79.8599799431
 21
283.2006527528
  0
LINE
  5
26D
100
AcDbEntity
  8
0
100
AcDbLine
 62
7
  6
CONTINUOUS
 10
80.5337076862
 20
283.2448584421
 11
80.5421743286
 21
283.2610559464
  0
LINE
  5
26E
100
AcDbEntity
  8
0
100
AcDbLine
 62
7
  6
CONTINUOUS
 10
72.0350396543
 20
252.2828447211
 11
72.0013877957
 21
252.2374085891
  0
LINE
  5
26F
100
AcDbEntity
  8
0
100
AcDbLine
 62
7
  6
CONTINUOUS
 10
4.6956903317
 20
283.9583103651
 11
4.4234445251
 21
283.9503223502
  0
LINE
  5
270
100
AcDbEntity
  8
0
100
AcDbLine
 62
7
  6
CONTINUOUS
 10
16.5421602159
 20
285.3894925191
 11
16.6334233122
 21
285.3921702866
  0
LINE
  5
271
100
AcDbEntity
  8
0
100
AcDbLine
 62
7
  6
CONTINUOUS
 10
-20.2740949524
 20
279.3491425821
 11
-19.4709055561
 21
279.311370332
  0
LINE
  5
272
100
AcDbEntity
  8
0
100
AcDbLine
 62
7
  6
CONTINUOUS
 10
-3.4886157447
 20
274.6744758444
 11
1.2042051364
 21
271.9639896572
  0
LINE
  5
273
100
AcDbEntity
  8
0
100
AcDbLine
 62
7
  6
CONTINUOUS
 10
44.9756130397
 20
248.0213243739
 11
41.9806729737
 21
249.7511461349
  0
LINE
  5
274
100
AcDbEntity
  8
0
100
AcDbLine
 62
7
  6
CONTINUOUS
 10
36.3709582452
 20
250.3622033472
 11
36.425557277
 21
250.3196070209
  0
LINE
  5
275
100
AcDbEntity
  8
0
100
AcDbLine
 62
7
  6
CONTINUOUS
 10
79.9635940311
 20
283.1872778979
 11
79.9709051122
 21
283.2030461819
  0
LINE
  5
276
100
AcDbEntity
  8
0
100
AcDbLine
 62
7
  6
CONTINUOUS
 10
52.0355956918
 20
203.7510325568
 11
53.2991341534
 21
196.6713541643
  0
LINE
  5
277
100
AcDbEntity
  8
0
100
AcDbLine
 62
7
  6
CONTINUOUS
 10
80.5199148307
 20
283.245978309
 11
80.5257357856
 21
283.2623819679
  0
LINE
  5
278
100
AcDbEntity
  8
0
100
AcDbLine
 62
7
  6
CONTINUOUS
 10
85.7546123162
 20
257.0030425265
 11
85.7748305981
 21
257.0499706863
  0
LINE
  5
279
100
AcDbEntity
  8
0
100
AcDbLine
 62
7
  6
CONTINUOUS
 10
85.7546123162
 20
257.0030425265
 11
85.7761112805
 21
257.0501451564
  0
LINE
  5
27A
100
AcDbEntity
  8
0
100
AcDbLine
 62
7
  6
CONTINUOUS
 10
59.8684147258
 20
211.2005888748
 11
60.6952170422
 21
206.5679681258
  0
LINE
  5
27B
100
AcDbEntity
  8
0
100
AcDbLine
 62
7
  6
CONTINUOUS
 10
60.0026238632
 20
214.9111513434
 11
60.6284995896
 21
211.4043337899
  0
LINE
  5
27C
100
AcDbEntity
  8
0
100
AcDbLine
 62
7
  6
CONTINUOUS
 10
80.2334233122
 20
285.9989379878
 11
80.2334233122
 21
283.9516057052
  0
LINE
  5
27D
100
AcDbEntity
  8
0
100
AcDbLine
 62
7
  6
CONTINUOUS
 10
80.4334233122
 20
285.2113406067
 11
80.4332739847
 21
285.2498067349
  0
LINE
  5
27E
100
AcDbEntity
  8
0
100
AcDbLine
 62
7
  6
CONTINUOUS
 10
94.8620382962
 20
270.726006865
 11
94.858581278
 21
270.6836781834
  0
LINE
  5
27F
100
AcDbEntity
  8
0
100
AcDbLine
 62
7
  6
CONTINUOUS
 10
93.8300317719
 20
263.5106653668
 11
93.8260241274
 21
263.476833366
  0
LINE
  5
280
100
AcDbEntity
  8
0
100
AcDbLine
 62
7
  6
CONTINUOUS
 10
93.8313275803
 20
263.5109455733
 11
93.8260241274
 21
263.476833366
  0
LINE
  5
281
100
AcDbEntity
  8
0
100
AcDbLine
 62
7
  6
CONTINUOUS
 10
92.9253755991
 20
281.2450942296
 11
92.9228884815
 21
281.2739912317
  0
LINE
  5
282
100
AcDbEntity
  8
0
100
AcDbLine
 62
7
  6
CONTINUOUS
 10
92.4156776529
 20
283.1772648103
 11
92.418582691
 21
283.1422395511
  0
LINE
  5
283
100
AcDbEntity
  8
0
100
AcDbLine
 62
7
  6
CONTINUOUS
 10
92.4159295854
 20
283.1575734541
 11
92.4157088826
 21
283.177605872
  0
LINE
  5
284
100
AcDbEntity
  8
0
100
AcDbLine
 62
7
  6
CONTINUOUS
 10
94.8836109476
 20
270.7354376268
 11
94.8812710148
 21
270.6935594424
  0
LINE
  5
285
100
AcDbEntity
  8
0
100
AcDbLine
 62
7
  6
CONTINUOUS
 10
92.947007079
 20
281.2684853419
 11
92.9429315813
 21
281.2956984554
  0
LINE
  5
286
100
AcDbEntity
  8
0
100
AcDbLine
 62
7
  6
CONTINUOUS
 10
95.2727337666
 20
276.0532691473
 11
95.2612404875
 21
276.1558729093
  0
LINE
  5
287
100
AcDbEntity
  8
0
100
AcDbLine
 62
7
  6
CONTINUOUS
 10
92.3368477531
 20
283.7529930003
 11
92.2318176669
 21
283.9404832697
  0
LWPOLYLINE
  5
288
100
AcDbEntity
  8
0
100
AcDbPolyline
 62
7
  6
CONTINUOUS
 90
4
 70
0
 10
93.8609192528
 20
282.1717079417
 10
92.2779233132
 20
285.3911867534
 10
90.2305780981
 20
287.9711941059
 10
90.0360204126
 20
288.1260142296
  0
LWPOLYLINE
  5
289
100
AcDbEntity
  8
0
100
AcDbPolyline
 62
7
  6
CONTINUOUS
 90
3
 70
0
 10
92.6321851603
 20
283.1599560028
 10
92.5241641584
 20
283.3900932277
 10
92.3368477531
 20
283.7529930003
  0
LINE
  5
28A
100
AcDbEntity
  8
0
100
AcDbLine
 62
7
  6
CONTINUOUS
 10
92.6321851603
 20
283.1599560028
 11
92.6318645789
 21
283.1606622897
  0
LINE
  5
28B
100
AcDbEntity
  8
0
100
AcDbLine
 62
7
  6
CONTINUOUS
 10
93.7329643297
 20
281.4813360546
 11
93.742525406
 21
281.4540690499
  0
LINE
  5
28C
100
AcDbEntity
  8
0
100
AcDbLine
 62
7
  6
CONTINUOUS
 10
93.7635420439
 20
281.5064862808
 11
93.7723331958
 21
281.4785303335
  0
LWPOLYLINE
  5
28D
100
AcDbEntity
  8
0
100
AcDbPolyline
 62
7
  6
CONTINUOUS
 90
3
 70
0
 10
93.2185057673
 20
281.2703234628
 10
93.0132561581
 20
282.1174919197
 10
92.6322415791
 20
283.1598289581
  0
LINE
  5
28E
100
AcDbEntity
  8
0
100
AcDbLine
 62
7
  6
CONTINUOUS
 10
92.3802461165
 20
283.3669055178
 11
92.3707477624
 21
283.4133186485
  0
LINE
  5
28F
100
AcDbEntity
  8
0
100
AcDbLine
 62
7
  6
CONTINUOUS
 10
93.2128035187
 20
281.2989442902
 11
93.218527128
 21
281.2703537642
  0
LINE
  5
290
100
AcDbEntity
  8
0
100
AcDbLine
 62
7
  6
CONTINUOUS
 10
92.4191380143
 20
283.1576532787
 11
92.4157088826
 21
283.177605872
  0
LINE
  5
291
100
AcDbEntity
  8
0
100
AcDbLine
 62
7
  6
CONTINUOUS
 10
93.212804246
 20
281.2989438065
 11
93.2176406512
 21
281.2701780105
  0
LWPOLYLINE
  5
292
100
AcDbEntity
  8
0
100
AcDbPolyline
 62
7
  6
CONTINUOUS
 90
3
 70
0
 10
95.260901478
 20
276.1589015272
 10
94.9367354144
 20
278.3010888652
 10
93.8609192528
 20
282.1717079417
  0
ARC
  5
293
100
AcDbEntity
  8
0
100
AcDbCircle
 62
7
  6
CONTINUOUS
 10
-1020.7135814547
 20
249.4268102645
 40
1074.5264820458
100
AcDbArc
 50
0.6606006196
 51
0.8098170713
  0
ARC
  5
294
100
AcDbEntity
  8
0
100
AcDbCircle
 62
7
  6
CONTINUOUS
 10
288.9214492534
 20
250.066116607
 40
252.8276641847
100
AcDbArc
 50
176.5838317498
 51
177.2168401882
  0
ARC
  5
295
100
AcDbEntity
  8
0
100
AcDbCircle
 62
7
  6
CONTINUOUS
 10
-104.0145986086
 20
251.7010237764
 40
174.726696635
100
AcDbArc
 50
4.0169775689
 51
4.9308320935
  0
ARC
  5
296
100
AcDbEntity
  8
0
100
AcDbCircle
 62
7
  6
CONTINUOUS
 10
138.6900054516
 20
253.3544400238
 40
118.4327183241
100
AcDbArc
 50
172.8017187454
 51
174.1421420509
  0
ARC
  5
297
100
AcDbEntity
  8
0
100
AcDbCircle
 62
7
  6
CONTINUOUS
 10
-16.3795663651
 20
256.4174971713
 40
100.5931117527
100
AcDbArc
 50
6.838657964
 51
8.4090796613
  0
ARC
  5
298
100
AcDbEntity
  8
0
100
AcDbCircle
 62
7
  6
CONTINUOUS
 10
91.4685067464
 20
258.9197439816
 40
82.7481068428
100
AcDbArc
 50
169.9669011581
 51
171.8562653281
  0
ARC
  5
299
100
AcDbEntity
  8
0
100
AcDbCircle
 62
7
  6
CONTINUOUS
 10
48.418453433
 20
216.1488985269
 40
82.5987230335
100
AcDbArc
 50
91.6806620994
 51
91.917550251
  0
ARC
  5
29A
100
AcDbEntity
  8
0
100
AcDbCircle
 62
7
  6
CONTINUOUS
 10
80.4714966689
 20
268.8264384598
 40
79.339633952
100
AcDbArc
 50
175.245646814
 51
179.9864747929
  0
ARC
  5
29B
100
AcDbEntity
  8
0
100
AcDbCircle
 62
7
  6
CONTINUOUS
 10
18.8236538476
 20
267.6335514684
 40
76.9113359451
100
AcDbArc
 50
359.9759702605
 51
6.2849320689
  0
ARC
  5
29C
100
AcDbEntity
  8
0
100
AcDbCircle
 62
7
  6
CONTINUOUS
 10
16.0770466984
 20
262.9352923319
 40
76.1806367598
100
AcDbArc
 50
8.7322602611
 51
10.7685214223
  0
ARC
  5
29D
100
AcDbEntity
  8
0
100
AcDbCircle
 62
7
  6
CONTINUOUS
 10
77.2504927381
 20
269.6781682902
 40
75.0448780322
100
AcDbArc
 50
169.6612408525
 51
174.4505016582
  0
ARC
  5
29E
100
AcDbEntity
  8
0
100
AcDbCircle
 62
7
  6
CONTINUOUS
 10
20.4783412301
 20
266.7250076898
 40
74.1801977409
100
AcDbArc
 50
6.2711564728
 51
11.3078942653
  0
ARC
  5
29F
100
AcDbEntity
  8
0
100
AcDbCircle
 62
7
  6
CONTINUOUS
 10
72.5532649601
 20
265.9520406996
 40
69.3109885907
100
AcDbArc
 50
168.4977400218
 51
170.7022901273
  0
ARC
  5
2A0
100
AcDbEntity
  8
0
100
AcDbCircle
 62
7
  6
CONTINUOUS
 10
-13.7165878275
 20
263.4014836166
 40
36.0333485182
100
AcDbArc
 50
341.2124986828
 51
343.2705805484
  0
ARC
  5
2A1
100
AcDbEntity
  8
0
100
AcDbCircle
 62
7
  6
CONTINUOUS
 10
27.6025948324
 20
271.7304062355
 40
25.6602479375
100
AcDbArc
 50
120.4451765454
 51
122.7382044159
  0
ARC
  5
2A2
100
AcDbEntity
  8
0
100
AcDbCircle
 62
7
  6
CONTINUOUS
 10
75.0948753614
 20
275.6388392369
 40
19.569067365
100
AcDbArc
 50
17.4481710641
 51
23.1215706289
  0
ARC
  5
2A3
100
AcDbEntity
  8
0
100
AcDbCircle
 62
7
  6
CONTINUOUS
 10
74.9172133192
 20
276.192656803
 40
19.4045515404
100
AcDbArc
 50
46.2136837777
 51
49.0188166583
  0
ARC
  5
2A4
100
AcDbEntity
  8
0
100
AcDbCircle
 62
7
  6
CONTINUOUS
 10
75.6811060444
 20
275.8828402681
 40
18.9341121475
100
AcDbArc
 50
23.1391269572
 51
23.3593961834
  0
ARC
  5
2A5
100
AcDbEntity
  8
0
100
AcDbCircle
 62
7
  6
CONTINUOUS
 10
75.9821182851
 20
276.0138374392
 40
18.6058321053
100
AcDbArc
 50
23.3565953417
 51
24.4510395155
  0
ARC
  5
2A6
100
AcDbEntity
  8
0
100
AcDbCircle
 62
7
  6
CONTINUOUS
 10
76.640608892
 20
276.3146091103
 40
17.8819040123
100
AcDbArc
 50
24.4470741608
 51
26.1770446637
  0
ARC
  5
2A7
100
AcDbEntity
  8
0
100
AcDbCircle
 62
7
  6
CONTINUOUS
 10
7.6443220539
 20
263.0726279148
 40
6.4935780745
100
AcDbArc
 50
158.7185736734
 51
160.254910022
  0
ARC
  5
2A8
100
AcDbEntity
  8
0
100
AcDbCircle
 62
7
  6
CONTINUOUS
 10
28.6416464475
 20
220.5109194259
 40
3.8795777238
100
AcDbArc
 50
12.2972923098
 51
15.5939067179
  0
ARC
  5
2A9
100
AcDbEntity
  8
0
100
AcDbCircle
 62
7
  6
CONTINUOUS
 10
-8.2524167786
 20
189.461307168
 40
3.6075788839
100
AcDbArc
 50
74.6818951237
 51
80.6616708635
  0
ARC
  5
2AA
100
AcDbEntity
  8
0
100
AcDbCircle
 62
7
  6
CONTINUOUS
 10
46.8605345893
 20
353.0463400781
 40
103.4353715107
100
AcDbArc
 50
264.7675684018
 51
274.3245348414
  0
ARC
  5
2AB
100
AcDbEntity
  8
0
100
AcDbCircle
 62
7
  6
CONTINUOUS
 10
41.5146975237
 20
363.4765476484
 40
98.4704987455
100
AcDbArc
 50
265.9598597633
 51
267.1059545374
  0
ARC
  5
2AC
100
AcDbEntity
  8
0
100
AcDbCircle
 62
7
  6
CONTINUOUS
 10
-3.3416159259
 20
297.6948802493
 40
97.9487814789
100
AcDbArc
 50
335.4832611608
 51
336.1120249369
  0
ARC
  5
2AD
100
AcDbEntity
  8
0
100
AcDbCircle
 62
7
  6
CONTINUOUS
 10
43.4352510842
 20
361.2823452239
 40
97.2127441083
100
AcDbArc
 50
274.905005886
 51
276.0644614514
  0
ARC
  5
2AE
100
AcDbEntity
  8
0
100
AcDbCircle
 62
7
  6
CONTINUOUS
 10
51.1622258325
 20
349.2205736222
 40
80.0996131911
100
AcDbArc
 50
279.1379161371
 51
281.6668805807
  0
ARC
  5
2AF
100
AcDbEntity
  8
0
100
AcDbCircle
 62
7
  6
CONTINUOUS
 10
35.9260460318
 20
332.9369572189
 40
66.3981809481
100
AcDbArc
 50
255.6913444225
 51
257.1779395162
  0
ARC
  5
2B0
100
AcDbEntity
  8
0
100
AcDbCircle
 62
7
  6
CONTINUOUS
 10
51.6393835075
 20
328.273837201
 40
64.2532166555
100
AcDbArc
 50
285.1307139516
 51
286.6647948539
  0
ARC
  5
2B1
100
AcDbEntity
  8
0
100
AcDbCircle
 62
7
  6
CONTINUOUS
 10
66.4098603464
 20
290.6499721182
 40
38.8538708683
100
AcDbArc
 50
295.4301513326
 51
296.9359045323
  0
ARC
  5
2B2
100
AcDbEntity
  8
0
100
AcDbCircle
 62
7
  6
CONTINUOUS
 10
67.7628342994
 20
288.5527788228
 40
36.3263431148
100
AcDbArc
 50
294.9885536638
 51
296.6275414326
  0
ARC
  5
2B3
100
AcDbEntity
  8
0
100
AcDbCircle
 62
7
  6
CONTINUOUS
 10
22.930541139
 20
298.0947948899
 40
27.938662075
100
AcDbArc
 50
239.7542621969
 51
242.3980827527
  0
ARC
  5
2B4
100
AcDbEntity
  8
0
100
AcDbCircle
 62
7
  6
CONTINUOUS
 10
68.1469178264
 20
293.8378702897
 40
27.208147734
100
AcDbArc
 50
300.6798759314
 51
303.4191343263
  0
ARC
  5
2B5
100
AcDbEntity
  8
0
100
AcDbCircle
 62
7
  6
CONTINUOUS
 10
17.2556435522
 20
280.1939032406
 40
13.2180198245
100
AcDbArc
 50
146.8928507097
 51
150.4601847903
  0
ARC
  5
2B6
100
AcDbEntity
  8
0
100
AcDbCircle
 62
7
  6
CONTINUOUS
 10
78.0614697188
 20
282.4104904594
 40
11.7691281684
100
AcDbArc
 50
37.1700831282
 51
40.9983523064
  0
ARC
  5
2B7
100
AcDbEntity
  8
0
100
AcDbCircle
 62
7
  6
CONTINUOUS
 10
82.3034008072
 20
279.1156107866
 40
11.125686453
100
AcDbArc
 50
9.0584054111
 51
11.1638257554
  0
ARC
  5
2B8
100
AcDbEntity
  8
0
100
AcDbCircle
 62
7
  6
CONTINUOUS
 10
25.707969678
 20
288.9131395732
 40
11.0019305383
100
AcDbArc
 50
223.5552012742
 51
223.86354411
  0
ARC
  5
2B9
100
AcDbEntity
  8
0
100
AcDbCircle
 62
7
  6
CONTINUOUS
 10
78.7594779217
 20
282.9543392938
 40
10.884345407
100
AcDbArc
 50
36.8096926743
 51
37.1088162784
  0
ARC
  5
2BA
100
AcDbEntity
  8
0
100
AcDbCircle
 62
7
  6
CONTINUOUS
 10
81.8401733334
 20
281.2216990819
 40
10.7562165345
100
AcDbArc
 50
11.7563559112
 51
14.6729585798
  0
ARC
  5
2BB
100
AcDbEntity
  8
0
100
AcDbCircle
 62
7
  6
CONTINUOUS
 10
15.0099844941
 20
281.2252227166
 40
10.7391598786
100
AcDbArc
 50
165.651243703
 51
168.2438915405
  0
ARC
  5
2BC
100
AcDbEntity
  8
0
100
AcDbCircle
 62
7
  6
CONTINUOUS
 10
25.3588343913
 20
288.5847004861
 40
10.5225967435
100
AcDbArc
 50
221.3693946718
 51
223.5690827534
  0
ARC
  5
2BD
100
AcDbEntity
  8
0
100
AcDbCircle
 62
7
  6
CONTINUOUS
 10
82.8856163811
 20
279.7776009927
 40
10.171244218
100
AcDbArc
 50
8.5836891528
 51
10.1665914086
  0
ARC
  5
2BE
100
AcDbEntity
  8
0
100
AcDbCircle
 62
7
  6
CONTINUOUS
 10
25.3101197832
 20
287.8361077318
 40
9.6531285299
100
AcDbArc
 50
220.5149663397
 51
224.3768720729
  0
ARC
  5
2BF
100
AcDbEntity
  8
0
100
AcDbCircle
 62
7
  6
CONTINUOUS
 10
24.6615634544
 20
287.2792837056
 40
8.7983338276
100
AcDbArc
 50
217.964784077
 51
220.5020372684
  0
ARC
  5
2C0
100
AcDbEntity
  8
0
100
AcDbCircle
 62
7
  6
CONTINUOUS
 10
73.9754031929
 20
286.7027339157
 40
7.4143562983
100
AcDbArc
 50
328.7236251517
 51
329.3985554213
  0
ARC
  5
2C1
100
AcDbEntity
  8
0
100
AcDbCircle
 62
7
  6
CONTINUOUS
 10
85.1816586845
 20
281.9190792052
 40
7.342743069
100
AcDbArc
 50
10.7402730031
 51
11.3741119071
  0
ARC
  5
2C2
100
AcDbEntity
  8
0
100
AcDbCircle
 62
7
  6
CONTINUOUS
 10
74.1973258281
 20
286.5727266365
 40
7.1571591772
100
AcDbArc
 50
329.3899771126
 51
331.568172574
  0
ARC
  5
2C3
100
AcDbEntity
  8
0
100
AcDbCircle
 62
7
  6
CONTINUOUS
 10
11.4506314451
 20
281.9656093398
 40
7.1036391555
100
AcDbArc
 50
168.2408886205
 51
171.4017696269
  0
ARC
  5
2C4
100
AcDbEntity
  8
0
100
AcDbCircle
 62
7
  6
CONTINUOUS
 10
11.3355138105
 20
281.9837462137
 40
6.9871038157
100
AcDbArc
 50
171.4076934161
 51
172.9802283467
  0
ARC
  5
2C5
100
AcDbEntity
  8
0
100
AcDbCircle
 62
7
  6
CONTINUOUS
 10
74.4119480427
 20
286.4553308598
 40
6.912530237
100
AcDbArc
 50
331.5768890925
 51
332.3258562341
  0
ARC
  5
2C6
100
AcDbEntity
  8
0
100
AcDbCircle
 62
7
  6
CONTINUOUS
 10
11.2343039133
 20
281.9969054576
 40
6.8850444032
100
AcDbArc
 50
172.9859833067
 51
189.8686772634
  0
ARC
  5
2C7
100
AcDbEntity
  8
0
100
AcDbCircle
 62
7
  6
CONTINUOUS
 10
14.2982386178
 20
284.9834202609
 40
6.5646319057
100
AcDbArc
 50
189.8295083936
 51
190.7266231627
  0
ARC
  5
2C8
100
AcDbEntity
  8
0
100
AcDbCircle
 62
7
  6
CONTINUOUS
 10
82.5687317528
 20
284.9210869503
 40
6.5645574921
100
AcDbArc
 50
9.8316103006
 51
10.7294503844
  0
ARC
  5
2C9
100
AcDbEntity
  8
0
100
AcDbCircle
 62
7
  6
CONTINUOUS
 10
86.5750748965
 20
280.7694187794
 40
6.3427685053
100
AcDbArc
 50
21.7936680305
 51
23.3877453452
  0
ARC
  5
2CA
100
AcDbEntity
  8
0
100
AcDbCircle
 62
7
  6
CONTINUOUS
 10
74.9454804161
 20
285.5255712415
 40
5.5361553473
100
AcDbArc
 50
335.1957454893
 51
338.3204129966
  0
ARC
  5
2CB
100
AcDbEntity
  8
0
100
AcDbCircle
 62
7
  6
CONTINUOUS
 10
75.1148668933
 20
285.154460209
 40
5.3234287907
100
AcDbArc
 50
10.7527532523
 51
17.6691861674
  0
ARC
  5
2CC
100
AcDbEntity
  8
0
100
AcDbCircle
 62
7
  6
CONTINUOUS
 10
21.7182310412
 20
284.3016627651
 40
5.2891476404
100
AcDbArc
 50
165.5295605854
 51
168.1311578914
  0
ARC
  5
2CD
100
AcDbEntity
  8
0
100
AcDbCircle
 62
7
  6
CONTINUOUS
 10
75.1574144088
 20
283.2470542909
 40
5.2799979775
100
AcDbArc
 50
10.7807137334
 51
14.7239183026
  0
ARC
  5
2CE
100
AcDbEntity
  8
0
100
AcDbCircle
 62
7
  6
CONTINUOUS
 10
75.2993516341
 20
285.1913536266
 40
5.1353004113
100
AcDbArc
 50
9.1899080761
 51
10.7323793039
  0
ARC
  5
2CF
100
AcDbEntity
  8
0
100
AcDbCircle
 62
7
  6
CONTINUOUS
 10
75.4127309138
 20
285.2085118459
 40
5.0206362645
100
AcDbArc
 50
0.4712638291
 51
9.2032546663
  0
ARC
  5
2D0
100
AcDbEntity
  8
0
100
AcDbCircle
 62
7
  6
CONTINUOUS
 10
21.4511667497
 20
285.2081352344
 40
5.0177503568
100
AcDbArc
 50
170.791913797
 51
179.8377363268
  0
SPLINE
  5
2D1
100
AcDbEntity
  8
0
100
AcDbSpline
 62
7
  6
CONTINUOUS
 70
0
 71
3
 72
15
 73
11
 74
0
 42
0.0000001
 43
0.0000001
 44
0.0000000001
 40
0.0
 40
0.0
 40
0.0
 40
0.0
 40
0.08959202
 40
0.1840944118
 40
0.2875367578
 40
0.4026939208
 40
0.5311705459
 40
0.6736456535
 40
0.8300907988
 40
1.0
 40
1.0
 40
1.0
 40
1.0
 10
16.6334362707
 20
285.9989379877
 30
0.0
 10
16.6334618384
 20
286.4303252079
 30
0.0
 10
16.7530165914
 20
287.3205566809
 30
0.0
 10
17.2779118173
 20
288.6145982887
 30
0.0
 10
18.1326513624
 20
289.867867
 30
0.0
 10
19.3020217191
 20
291.0708658325
 30
0.0
 10
20.7725180761
 20
292.2160518916
 30
0.0
 10
22.5294435243
 20
293.2942324751
 30
0.0
 10
24.5553521034
 20
294.2957485961
 30
0.0
 10
26.0146948861
 20
294.8826489683
 30
0.0
 10
26.7830351763
 20
295.1636593977
 30
0.0
  0
SPLINE
  5
2D2
100
AcDbEntity
  8
0
100
AcDbSpline
 62
7
  6
CONTINUOUS
 70
0
 71
3
 72
9
 73
5
 74
0
 42
0.0000001
 43
0.0000001
 44
0.0000000001
 40
0.0
 40
0.0
 40
0.0
 40
0.0
 40
0.2413020292
 40
1.0
 40
1.0
 40
1.0
 40
1.0
 10
26.7830351763
 20
295.1636593977
 30
0.0
 10
27.079722231
 20
295.2721688143
 30
0.0
 10
28.3148080521
 20
295.706591402
 30
0.0
 10
29.5701284839
 20
296.0827221342
 30
0.0
 10
30.5295291585
 20
296.3398947451
 30
0.0
  0
SPLINE
  5
2D3
100
AcDbEntity
  8
0
100
AcDbSpline
 62
7
  6
CONTINUOUS
 70
0
 71
3
 72
22
 73
18
 74
0
 42
0.0000001
 43
0.0000001
 44
0.0000000001
 40
0.0
 40
0.0
 40
0.0
 40
0.0
 40
0.069935654
 40
0.1438308151
 40
0.2990280486
 40
0.4562311034
 40
0.5325772142
 40
0.6058484988
 40
0.6749835976
 40
0.7390515351
 40
0.7973018604
 40
0.8492329864
 40
0.8946948897
 40
0.9340516285
 40
0.968419828
 40
0.9844011905
 40
1.0
 40
1.0
 40
1.0
 40
1.0
 10
30.5295291585
 20
296.3398947451
 30
0.0
 10
31.7572850438
 20
296.6690014416
 30
0.0
 10
34.3082032062
 20
297.2517364626
 30
0.0
 10
39.675562359
 20
298.1232705038
 30
0.0
 10
46.6926945435
 20
298.640522579
 30
0.0
 10
53.7690048325
 20
298.4257333481
 30
0.0
 10
59.3126373228
 20
297.7968973505
 30
0.0
 10
63.2325223696
 20
297.1167367612
 30
0.0
 10
66.883605897
 20
296.2366054958
 30
0.0
 10
70.20053269
 20
295.1725944073
 30
0.0
 10
73.1247549795
 20
293.9438197452
 30
0.0
 10
75.6061875351
 20
292.5715604673
 30
0.0
 10
77.6039807165
 20
291.0756425017
 30
0.0
 10
79.0854957114
 20
289.4748674619
 30
0.0
 10
79.8779167991
 20
288.0218135533
 30
0.0
 10
80.1831919758
 20
286.8576157415
 30
0.0
 10
80.2334271571
 20
286.2824507418
 30
0.0
 10
80.2334103537
 20
285.998937988
 30
0.0
  0
SPLINE
  5
2D4
100
AcDbEntity
  8
0
100
AcDbSpline
 62
7
  6
CONTINUOUS
 70
0
 71
3
 72
9
 73
5
 74
0
 42
0.0000001
 43
0.0000001
 44
0.0000000001
 40
0.0
 40
0.0
 40
0.0
 40
0.0
 40
0.4860999705
 40
1.0
 40
1.0
 40
1.0
 40
1.0
 10
80.2334103537
 20
285.998937988
 30
0.0
 10
80.2333841995
 20
285.5576544284
 30
0.0
 10
80.1081591647
 20
284.646167136
 30
0.0
 10
79.756240712
 20
283.7991897059
 30
0.0
 10
79.5339461012
 20
283.3890354093
 30
0.0
  0
SPLINE
  5
2D5
100
AcDbEntity
  8
0
100
AcDbSpline
 62
7
  6
CONTINUOUS
 70
0
 71
3
 72
13
 73
9
 74
0
 42
0.0000001
 43
0.0000001
 44
0.0000000001
 40
0.0
 40
0.0
 40
0.0
 40
0.0
 40
0.186160302
 40
0.2946938583
 40
0.414314556
 40
0.5450980439
 40
0.686748619
 40
1.0
 40
1.0
 40
1.0
 40
1.0
 10
79.5339461012
 20
283.3890354093
 30
0.0
 10
79.0715509918
 20
282.5358732918
 30
0.0
 10
78.0519919489
 20
281.3401026611
 30
0.0
 10
76.3719514516
 20
279.9835872986
 30
0.0
 10
74.7957025938
 20
278.9676824683
 30
0.0
 10
72.9845322642
 20
278.0167711307
 30
0.0
 10
70.1803631318
 20
276.8038227905
 30
0.0
 10
67.9145410036
 20
276.0807646472
 30
0.0
 10
66.337317466
 20
275.6579812306
 30
0.0
  0
SPLINE
  5
2D6
100
AcDbEntity
  8
0
100
AcDbSpline
 62
7
  6
CONTINUOUS
 70
0
 71
3
 72
22
 73
18
 74
0
 42
0.0000001
 43
0.0000001
 44
0.0000000001
 40
0.0
 40
0.0
 40
0.0
 40
0.0
 40
0.069935654
 40
0.1438308151
 40
0.2990280486
 40
0.4562311034
 40
0.5325772142
 40
0.6058484988
 40
0.6749835976
 40
0.7390515351
 40
0.7973018604
 40
0.8492329864
 40
0.8946948897
 40
0.9340516285
 40
0.968419828
 40
0.9844011905
 40
1.0
 40
1.0
 40
1.0
 40
1.0
 10
66.337317466
 20
275.6579812306
 30
0.0
 10
65.1095615806
 20
275.3288745341
 30
0.0
 10
62.5586434182
 20
274.7461395131
 30
0.0
 10
57.1912842655
 20
273.8746054719
 30
0.0
 10
50.1741520809
 20
273.3573533967
 30
0.0
 10
43.097841792
 20
273.5721426276
 30
0.0
 10
37.5542093016
 20
274.2009786251
 30
0.0
 10
33.6343242548
 20
274.8811392145
 30
0.0
 10
29.9832407274
 20
275.7612704798
 30
0.0
 10
26.6663139345
 20
276.8252815683
 30
0.0
 10
23.742091645
 20
278.0540562305
 30
0.0
 10
21.2606590894
 20
279.4263155084
 30
0.0
 10
19.2628659079
 20
280.9222334739
 30
0.0
 10
17.7813509131
 20
282.5230085138
 30
0.0
 10
16.9889298253
 20
283.9760624224
 30
0.0
 10
16.6836546486
 20
285.1402602341
 30
0.0
 10
16.6334194673
 20
285.7154252338
 30
0.0
 10
16.6334362707
 20
285.9989379877
 30
0.0
  0
SPLINE
  5
2D7
100
AcDbEntity
  8
0
100
AcDbSpline
 62
7
  6
CONTINUOUS
 70
0
 71
3
 72
11
 73
7
 74
0
 42
0.0000001
 43
0.0000001
 44
0.0000000001
 40
0.0
 40
0.0
 40
0.0
 40
0.0
 40
0.2634102167
 40
0.5159328321
 40
0.7602045539
 40
1.0
 40
1.0
 40
1.0
 40
1.0
 10
33.472189202
 20
206.9601410377
 30
0.0
 10
32.4665766685
 20
206.6905810846
 30
0.0
 10
30.4481003509
 20
206.3238808557
 30
0.0
 10
27.4253356767
 20
206.338727486
 30
0.0
 10
24.555231375
 20
206.9339224178
 30
0.0
 10
22.7894871128
 20
207.7142187385
 30
0.0
 10
21.9687820758
 20
208.1882724625
 30
0.0
  0
SPLINE
  5
2D8
100
AcDbEntity
  8
0
100
AcDbSpline
 62
7
  6
CONTINUOUS
 70
0
 71
3
 72
11
 73
7
 74
0
 42
0.0000001
 43
0.0000001
 44
0.0000000001
 40
0.0
 40
0.0
 40
0.0
 40
0.0
 40
0.2717748112
 40
0.526869873
 40
0.7676346335
 40
1.0
 40
1.0
 40
1.0
 40
1.0
 10
36.8815426642
 20
234.7645212186
 30
0.0
 10
36.8815426642
 20
234.3064795104
 30
0.0
 10
36.9705976272
 20
233.414727998
 30
0.0
 10
37.3971230785
 20
232.179456474
 30
0.0
 10
38.0960804427
 20
231.1516862288
 30
0.0
 10
38.7286186447
 20
230.6428973479
 30
0.0
 10
39.0677497543
 20
230.4470454136
 30
0.0
  0
SPLINE
  5
2D9
100
AcDbEntity
  8
0
100
AcDbSpline
 62
7
  6
CONTINUOUS
 70
0
 71
3
 72
11
 73
7
 74
0
 42
0.0000001
 43
0.0000001
 44
0.0000000001
 40
0.0
 40
0.0
 40
0.0
 40
0.0
 40
0.2717748112
 40
0.526869873
 40
0.7676346335
 40
1.0
 40
1.0
 40
1.0
 40
1.0
 10
18.9884551935
 20
229.96818102
 30
0.0
 10
18.9884551935
 20
229.5101393119
 30
0.0
 10
19.0775101565
 20
228.6183877994
 30
0.0
 10
19.5040356078
 20
227.3831162754
 30
0.0
 10
20.202992972
 20
226.3553460302
 30
0.0
 10
20.835531174
 20
225.8465571493
 30
0.0
 10
21.1746622836
 20
225.6507052151
 30
0.0
  0
SPLINE
  5
2DA
100
AcDbEntity
  8
0
100
AcDbSpline
 62
7
  6
CONTINUOUS
 70
0
 71
3
 72
9
 73
5
 74
0
 42
0.0000001
 43
0.0000001
 44
0.0000000001
 40
0.0
 40
0.0
 40
0.0
 40
0.0
 40
0.2484591562
 40
1.0
 40
1.0
 40
1.0
 40
1.0
 10
23.2545983696
 20
236.4016452338
 30
0.0
 10
23.2008999631
 20
236.4326689333
 30
0.0
 10
22.9793504818
 20
236.5479873396
 30
0.0
 10
22.7373507732
 20
236.6232889871
 30
0.0
 10
22.5526838946
 20
236.6562562486
 30
0.0
  0
SPLINE
  5
2DB
100
AcDbEntity
  8
0
100
AcDbSpline
 62
7
  6
CONTINUOUS
 70
0
 71
3
 72
15
 73
11
 74
0
 42
0.0000001
 43
0.0000001
 44
0.0000000001
 40
0.0
 40
0.0
 40
0.0
 40
0.0
 40
0.0524624705
 40
0.1056459648
 40
0.2162146438
 40
0.335328798
 40
0.4632709066
 40
0.5978578637
 40
0.7353252348
 40
1.0
 40
1.0
 40
1.0
 40
1.0
 10
27.8766286497
 20
237.2542052476
 30
0.0
 10
27.6724802923
 20
237.3721031624
 30
0.0
 10
27.2384634938
 20
237.5721805846
 30
0.0
 10
26.2930159525
 20
237.8146384957
 30
0.0
 10
24.9966689667
 20
237.7968217733
 30
0.0
 10
23.4513014522
 20
237.2869029058
 30
0.0
 10
21.999124045
 20
236.3441883983
 30
0.0
 10
20.7405824912
 20
235.0389511263
 30
0.0
 10
19.4594660755
 20
232.9847261164
 30
0.0
 10
18.9884551935
 20
231.1575299274
 30
0.0
 10
18.9884551935
 20
229.96818102
 30
0.0
  0
SPLINE
  5
2DC
100
AcDbEntity
  8
0
100
AcDbSpline
 62
7
  6
CONTINUOUS
 70
0
 71
3
 72
9
 73
5
 74
0
 42
0.0000001
 43
0.0000001
 44
0.0000000001
 40
0.0
 40
0.0
 40
0.0
 40
0.0
 40
0.2484591562
 40
1.0
 40
1.0
 40
1.0
 40
1.0
 10
41.1476858403
 20
241.1979854324
 30
0.0
 10
41.0939874338
 20
241.2290091319
 30
0.0
 10
40.8724379525
 20
241.3443275382
 30
0.0
 10
40.6304382439
 20
241.4196291857
 30
0.0
 10
40.4457713653
 20
241.4525964472
 30
0.0
  0
SPLINE
  5
2DD
100
AcDbEntity
  8
0
100
AcDbSpline
 62
7
  6
CONTINUOUS
 70
0
 71
3
 72
15
 73
11
 74
0
 42
0.0000001
 43
0.0000001
 44
0.0000000001
 40
0.0
 40
0.0
 40
0.0
 40
0.0
 40
0.0524624705
 40
0.1056459648
 40
0.2162146438
 40
0.335328798
 40
0.4632709066
 40
0.5978578637
 40
0.7353252348
 40
1.0
 40
1.0
 40
1.0
 40
1.0
 10
45.7697161204
 20
242.0505454462
 30
0.0
 10
45.565567763
 20
242.168443361
 30
0.0
 10
45.1315509645
 20
242.3685207832
 30
0.0
 10
44.1861034232
 20
242.6109786942
 30
0.0
 10
42.8897564374
 20
242.5931619719
 30
0.0
 10
41.3443889229
 20
242.0832431043
 30
0.0
 10
39.8922115157
 20
241.1405285968
 30
0.0
 10
38.6336699619
 20
239.8352913249
 30
0.0
 10
37.3525535462
 20
237.781066315
 30
0.0
 10
36.8815426642
 20
235.953870126
 30
0.0
 10
36.8815426642
 20
234.7645212186
 30
0.0
  0
SPLINE
  5
2DE
100
AcDbEntity
  8
0
100
AcDbSpline
 62
7
  6
CONTINUOUS
 70
0
 71
3
 72
10
 73
6
 74
0
 42
0.0000001
 43
0.0000001
 44
0.0000000001
 40
0.0
 40
0.0
 40
0.0
 40
0.0
 40
0.2403281524
 40
0.485096085
 40
1.0
 40
1.0
 40
1.0
 40
1.0
 10
34.6718521605
 20
221.2900840314
 30
0.0
 10
34.5059059008
 20
221.3859007085
 30
0.0
 10
34.1487725182
 20
221.5435975693
 30
0.0
 10
33.3638680672
 20
221.7070275494
 30
0.0
 10
32.742709247
 20
221.644679623
 30
0.0
 10
32.3461581231
 20
221.5383819201
 30
0.0
  0
SPLINE
  5
2DF
100
AcDbEntity
  8
0
100
AcDbSpline
 62
7
  6
CONTINUOUS
 70
0
 71
3
 72
12
 73
8
 74
0
 42
0.0000001
 43
0.0000001
 44
0.0000000001
 40
0.0
 40
0.0
 40
0.0
 40
0.0
 40
0.2349899833
 40
0.4894752595
 40
0.6202667695
 40
0.7503904793
 40
1.0
 40
1.0
 40
1.0
 40
1.0
 10
32.3461581231
 20
221.5383819201
 30
0.0
 10
31.8189981463
 20
221.397073798
 30
0.0
 10
30.7798565201
 20
220.8661842212
 30
0.0
 10
29.7612300914
 20
219.8163026327
 30
0.0
 10
29.1315389258
 20
218.7934741349
 30
0.0
 10
28.6646215683
 20
217.7008179002
 30
0.0
 10
28.503182785
 20
216.8130703122
 30
0.0
 10
28.5031827843
 20
216.2333453639
 30
0.0
  0
SPLINE
  5
2E0
100
AcDbEntity
  8
0
100
AcDbSpline
 62
7
  6
CONTINUOUS
 70
0
 71
3
 72
11
 73
7
 74
0
 42
0.0000001
 43
0.0000001
 44
0.0000000001
 40
0.0
 40
0.0
 40
0.0
 40
0.0
 40
0.2717668072
 40
0.5268680782
 40
0.7676307415
 40
1.0
 40
1.0
 40
1.0
 40
1.0
 10
28.5031827843
 20
216.2333453639
 30
0.0
 10
28.5031827839
 20
215.9154590305
 30
0.0
 10
28.5649975204
 20
215.2965607056
 30
0.0
 10
28.8609851281
 20
214.4392313438
 30
0.0
 10
29.3461017071
 20
213.7259334076
 30
0.0
 10
29.7850804958
 20
213.3727774053
 30
0.0
 10
30.0204640857
 20
213.2368679038
 30
0.0
  0
SPLINE
  5
2E1
100
AcDbEntity
  8
0
100
AcDbSpline
 62
7
  6
CONTINUOUS
 70
0
 71
3
 72
9
 73
5
 74
0
 42
0.0000001
 43
0.0000001
 44
0.0000000001
 40
0.0
 40
0.0
 40
0.0
 40
0.0
 40
0.2532875435
 40
1.0
 40
1.0
 40
1.0
 40
1.0
 10
36.9233815619
 20
235.3597767194
 30
0.0
 10
36.9641914007
 20
235.3111609729
 30
0.0
 10
37.1331890448
 20
235.1259873749
 30
0.0
 10
37.3345803744
 20
234.9702763636
 30
0.0
 10
37.4966091007
 20
234.876665941
 30
0.0
  0
SPLINE
  5
2E2
100
AcDbEntity
  8
0
100
AcDbSpline
 62
7
  6
CONTINUOUS
 70
0
 71
3
 72
9
 73
5
 74
0
 42
0.0000001
 43
0.0000001
 44
0.0000000001
 40
0.0
 40
0.0
 40
0.0
 40
0.0
 40
0.2532875435
 40
1.0
 40
1.0
 40
1.0
 40
1.0
 10
19.0302940912
 20
230.5634365208
 30
0.0
 10
19.07110393
 20
230.5148207743
 30
0.0
 10
19.2401015741
 20
230.3296471763
 30
0.0
 10
19.4414929037
 20
230.173936165
 30
0.0
 10
19.60352163
 20
230.0803257424
 30
0.0
  0
SPLINE
  5
2E3
100
AcDbEntity
  8
0
100
AcDbSpline
 62
7
  6
CONTINUOUS
 70
0
 71
3
 72
20
 73
16
 74
0
 42
0.0000001
 43
0.0000001
 44
0.0000000001
 40
0.0
 40
0.0
 40
0.0
 40
0.0
 40
0.0524886411
 40
0.1058788268
 40
0.1609446315
 40
0.2182401334
 40
0.3400761484
 40
0.4047856415
 40
0.4714397679
 40
0.6080573063
 40
0.7449175043
 40
0.8118575954
 40
0.8769396555
 40
0.9397340308
 40
1.0
 40
1.0
 40
1.0
 40
1.0
 10
44.9755963282
 20
248.0212955309
 30
0.0
 10
45.7620143148
 20
247.5670466127
 30
0.0
 10
47.2579333384
 20
246.4834552807
 30
0.0
 10
49.1492962627
 20
244.4160459244
 30
0.0
 10
50.6535179825
 20
241.9541688777
 30
0.0
 10
52.1251004096
 20
238.1598831249
 30
0.0
 10
52.6404266236
 20
233.8949876436
 30
0.0
 10
52.2765298839
 20
229.5215142151
 30
0.0
 10
51.2976727142
 20
224.9767646937
 30
0.0
 10
48.9986871271
 20
219.4952874781
 30
0.0
 10
45.493231429
 20
214.6883340024
 30
0.0
 10
42.1048888472
 20
211.485060777
 30
0.0
 10
39.3709711651
 20
209.4956781589
 30
0.0
 10
36.4932875375
 20
207.952134311
 30
0.0
 10
34.4793809263
 20
207.2301243015
 30
0.0
 10
33.472189202
 20
206.9601410377
 30
0.0
  0
SPLINE
  5
2E4
100
AcDbEntity
  8
0
100
AcDbSpline
 62
7
  6
CONTINUOUS
 70
0
 71
3
 72
14
 73
10
 74
0
 42
0.0000001
 43
0.0000001
 44
0.0000000001
 40
0.0
 40
0.0
 40
0.0
 40
0.0
 40
0.2346073929
 40
0.3603379301
 40
0.4894684284
 40
0.6200482101
 40
0.7499714674
 40
0.8772023527
 40
1.0
 40
1.0
 40
1.0
 40
1.0
 10
33.472189202
 20
222.7266765081
 30
0.0
 10
32.718311465
 20
222.5245954475
 30
0.0
 10
31.6195836911
 20
221.9629997657
 30
0.0
 10
30.3879781658
 20
220.8932240699
 30
0.0
 10
29.556806286
 20
219.9092756158
 30
0.0
 10
28.874975362
 20
218.801522225
 30
0.0
 10
28.3666246948
 20
217.6105968927
 30
0.0
 10
28.0512815555
 20
216.3815674377
 30
0.0
 10
27.9763212448
 20
215.5484272822
 30
0.0
 10
27.9763212443
 20
215.1399037907
 30
0.0
  0
SPLINE
  5
2E5
100
AcDbEntity
  8
0
100
AcDbSpline
 62
7
  6
CONTINUOUS
 70
0
 71
3
 72
14
 73
10
 74
0
 42
0.0000001
 43
0.0000001
 44
0.0000000001
 40
0.0
 40
0.0
 40
0.0
 40
0.0
 40
0.2686164723
 40
0.3932530389
 40
0.5129262831
 40
0.6303784462
 40
0.7488454196
 40
0.8713344666
 40
1.0
 40
1.0
 40
1.0
 40
1.0
 10
27.9763212443
 20
215.1399037907
 30
0.0
 10
27.9763212434
 20
214.3844459574
 30
0.0
 10
28.164878538
 20
213.2556213174
 30
0.0
 10
28.8602311963
 20
211.9793757318
 30
0.0
 10
29.5531534135
 20
211.2194389272
 30
0.0
 10
30.402776879
 20
210.6707485125
 30
0.0
 10
31.3725093567
 20
210.3572548482
 30
0.0
 10
32.4194184056
 20
210.2900799981
 30
0.0
 10
33.1226691888
 20
210.4058353937
 30
0.0
 10
33.472189202
 20
210.4995261495
 30
0.0
  0
SPLINE
  5
2E6
100
AcDbEntity
  8
0
100
AcDbSpline
 62
7
  6
CONTINUOUS
 70
0
 71
3
 72
9
 73
5
 74
0
 42
0.0000001
 43
0.0000001
 44
0.0000000001
 40
0.0
 40
0.0
 40
0.0
 40
0.0
 40
0.4829031774
 40
1.0
 40
1.0
 40
1.0
 40
1.0
 10
22.3907944007
 20
236.5286271861
 30
0.0
 10
22.5138155879
 20
236.3097153289
 30
0.0
 10
22.7005521754
 20
235.8163234532
 30
0.0
 10
22.7565424109
 20
235.2940361252
 30
0.0
 10
22.7565424109
 20
235.0251445913
 30
0.0
  0
SPLINE
  5
2E7
100
AcDbEntity
  8
0
100
AcDbSpline
 62
7
  6
CONTINUOUS
 70
0
 71
3
 72
14
 73
10
 74
0
 42
0.0000001
 43
0.0000001
 44
0.0000000001
 40
0.0
 40
0.0
 40
0.0
 40
0.0
 40
0.2346073929
 40
0.3603379301
 40
0.4894684284
 40
0.6200482101
 40
0.7499714674
 40
0.8772023527
 40
1.0
 40
1.0
 40
1.0
 40
1.0
 10
33.472189202
 20
210.4995261495
 30
0.0
 10
34.226066939
 20
210.7016072102
 30
0.0
 10
35.3247947129
 20
211.2632028919
 30
0.0
 10
36.5564002381
 20
212.3329785877
 30
0.0
 10
37.387572118
 20
213.3169270418
 30
0.0
 10
38.069403042
 20
214.4246804327
 30
0.0
 10
38.5777537092
 20
215.6156057649
 30
0.0
 10
38.8930968483
 20
216.8446352199
 30
0.0
 10
38.9680571595
 20
217.6777753754
 30
0.0
 10
38.9680571597
 20
218.0862988669
 30
0.0
  0
SPLINE
  5
2E8
100
AcDbEntity
  8
0
100
AcDbSpline
 62
7
  6
CONTINUOUS
 70
0
 71
3
 72
11
 73
7
 74
0
 42
0.0000001
 43
0.0000001
 44
0.0000000001
 40
0.0
 40
0.0
 40
0.0
 40
0.0
 40
0.2634102167
 40
0.5159328321
 40
0.7602045539
 40
1.0
 40
1.0
 40
1.0
 40
1.0
 10
33.472189202
 20
249.2494269557
 30
0.0
 10
34.4778017355
 20
249.5189869088
 30
0.0
 10
36.4962780531
 20
249.8856871377
 30
0.0
 10
39.5190427272
 20
249.8708405074
 30
0.0
 10
42.389147029
 20
249.2756455756
 30
0.0
 10
44.1548912912
 20
248.4953492549
 30
0.0
 10
44.9755963282
 20
248.0212955309
 30
0.0
  0
SPLINE
  5
2E9
100
AcDbEntity
  8
0
100
AcDbSpline
 62
7
  6
CONTINUOUS
 70
0
 71
3
 72
9
 73
5
 74
0
 42
0.0000001
 43
0.0000001
 44
0.0000000001
 40
0.0
 40
0.0
 40
0.0
 40
0.0
 40
0.4806659377
 40
1.0
 40
1.0
 40
1.0
 40
1.0
 10
26.109730673
 20
237.7864323648
 30
0.0
 10
26.3963445846
 20
237.3587128116
 30
0.0
 10
26.8365630972
 20
236.3591483398
 30
0.0
 10
26.966250273
 20
235.2815498926
 30
0.0
 10
26.966250273
 20
234.7252596995
 30
0.0
  0
SPLINE
  5
2EA
100
AcDbEntity
  8
0
100
AcDbSpline
 62
7
  6
CONTINUOUS
 70
0
 71
3
 72
15
 73
11
 74
0
 42
0.0000001
 43
0.0000001
 44
0.0000000001
 40
0.0
 40
0.0
 40
0.0
 40
0.0
 40
0.0524624705
 40
0.1056459648
 40
0.2162146438
 40
0.335328798
 40
0.4632709066
 40
0.5978578637
 40
0.7353252348
 40
1.0
 40
1.0
 40
1.0
 40
1.0
 10
21.1746622836
 20
225.6507052151
 30
0.0
 10
21.3788106409
 20
225.5328073003
 30
0.0
 10
21.8128274395
 20
225.3327298781
 30
0.0
 10
22.7582749808
 20
225.090271967
 30
0.0
 10
24.0546219665
 20
225.1080886894
 30
0.0
 10
25.5999894811
 20
225.6180075569
 30
0.0
 10
27.0521668882
 20
226.5607220644
 30
0.0
 10
28.3107084421
 20
227.8659593364
 30
0.0
 10
29.5918248577
 20
229.9201843463
 30
0.0
 10
30.0628357398
 20
231.7473805353
 30
0.0
 10
30.0628357398
 20
232.9367294427
 30
0.0
  0
SPLINE
  5
2EB
100
AcDbEntity
  8
0
100
AcDbSpline
 62
7
  6
CONTINUOUS
 70
0
 71
3
 72
14
 73
10
 74
0
 42
0.0000001
 43
0.0000001
 44
0.0000000001
 40
0.0
 40
0.0
 40
0.0
 40
0.0
 40
0.1052606084
 40
0.2158761655
 40
0.3350397352
 40
0.4630361372
 40
0.5976782612
 40
0.7352099669
 40
1.0
 40
1.0
 40
1.0
 40
1.0
 10
37.4966091007
 20
234.876665941
 30
0.0
 10
37.7196329375
 20
234.7478162235
 30
0.0
 10
38.2311414875
 20
234.5685068455
 30
0.0
 10
39.0649945901
 20
234.5813940518
 30
0.0
 10
39.9075449334
 20
234.8587505061
 30
0.0
 10
40.6984399632
 20
235.372446467
 30
0.0
 10
41.3841299172
 20
236.0834665519
 30
0.0
 10
42.0820612637
 20
237.2025651338
 30
0.0
 10
42.3386764999
 20
238.1979905025
 30
0.0
 10
42.3386764999
 20
238.8459228317
 30
0.0
  0
SPLINE
  5
2EC
100
AcDbEntity
  8
0
100
AcDbSpline
 62
7
  6
CONTINUOUS
 70
0
 71
3
 72
11
 73
7
 74
0
 42
0.0000001
 43
0.0000001
 44
0.0000000001
 40
0.0
 40
0.0
 40
0.0
 40
0.0
 40
0.2717668072
 40
0.5268680781
 40
0.7676307415
 40
1.0
 40
1.0
 40
1.0
 40
1.0
 10
36.189133462
 20
218.293606577
 30
0.0
 10
36.1891334619
 20
218.6114929099
 30
0.0
 10
36.1273187249
 20
219.2303912336
 30
0.0
 10
35.8313311169
 20
220.0877205938
 30
0.0
 10
35.3462145382
 20
220.8010185285
 30
0.0
 10
34.9072357501
 20
221.1541745301
 30
0.0
 10
34.6718521605
 20
221.2900840314
 30
0.0
  0
SPLINE
  5
2ED
100
AcDbEntity
  8
0
100
AcDbSpline
 62
7
  6
CONTINUOUS
 70
0
 71
3
 72
11
 73
7
 74
0
 42
0.0000001
 43
0.0000001
 44
0.0000000001
 40
0.0
 40
0.0
 40
0.0
 40
0.0
 40
0.2717748112
 40
0.526869873
 40
0.7676346335
 40
1.0
 40
1.0
 40
1.0
 40
1.0
 10
47.9559232105
 20
237.7330696413
 30
0.0
 10
47.9559232105
 20
238.1911113494
 30
0.0
 10
47.8668682475
 20
239.0828628619
 30
0.0
 10
47.4403427961
 20
240.3181343859
 30
0.0
 10
46.7413854319
 20
241.3459046311
 30
0.0
 10
46.10884723
 20
241.854693512
 30
0.0
 10
45.7697161204
 20
242.0505454462
 30
0.0
  0
SPLINE
  5
2EE
100
AcDbEntity
  8
0
100
AcDbSpline
 62
7
  6
CONTINUOUS
 70
0
 71
3
 72
10
 73
6
 74
0
 42
0.0000001
 43
0.0000001
 44
0.0000000001
 40
0.0
 40
0.0
 40
0.0
 40
0.0
 40
0.5353254329
 40
0.7749483618
 40
1.0
 40
1.0
 40
1.0
 40
1.0
 10
33.472189202
 20
228.0952110784
 30
0.0
 10
33.4769129597
 20
228.0964773075
 30
0.0
 10
33.482596047
 20
228.1042502494
 30
0.0
 10
33.4792027096
 20
228.1139434745
 30
0.0
 10
33.474175077
 20
228.1148892397
 30
0.0
 10
33.472189202
 20
228.114356915
 30
0.0
  0
SPLINE
  5
2EF
100
AcDbEntity
  8
0
100
AcDbSpline
 62
7
  6
CONTINUOUS
 70
0
 71
3
 72
12
 73
8
 74
0
 42
0.0000001
 43
0.0000001
 44
0.0000000001
 40
0.0
 40
0.0
 40
0.0
 40
0.0
 40
0.2349899832
 40
0.4894752595
 40
0.6202667695
 40
0.7503904793
 40
1.0
 40
1.0
 40
1.0
 40
1.0
 10
32.346158117
 20
212.9885700135
 30
0.0
 10
32.873318095
 20
213.1298781345
 30
0.0
 10
33.9124597234
 20
213.6607677118
 30
0.0
 10
34.9310861543
 20
214.7106493015
 30
0.0
 10
35.560777321
 20
215.7334778012
 30
0.0
 10
36.027694679
 20
216.826134038
 30
0.0
 10
36.1891334621
 20
217.7138816278
 30
0.0
 10
36.189133462
 20
218.293606577
 30
0.0
  0
SPLINE
  5
2F0
100
AcDbEntity
  8
0
100
AcDbSpline
 62
7
  6
CONTINUOUS
 70
0
 71
3
 72
9
 73
5
 74
0
 42
0.0000001
 43
0.0000001
 44
0.0000000001
 40
0.0
 40
0.0
 40
0.0
 40
0.0
 40
0.4829031774
 40
1.0
 40
1.0
 40
1.0
 40
1.0
 10
40.2838818713
 20
241.3249673847
 30
0.0
 10
40.4069030586
 20
241.1060555275
 30
0.0
 10
40.5936396461
 20
240.6126636518
 30
0.0
 10
40.6496298816
 20
240.0903763238
 30
0.0
 10
40.6496298816
 20
239.8214847899
 30
0.0
  0
SPLINE
  5
2F1
100
AcDbEntity
  8
0
100
AcDbSpline
 62
7
  6
CONTINUOUS
 70
0
 71
3
 72
12
 73
8
 74
0
 42
0.0000001
 43
0.0000001
 44
0.0000000001
 40
0.0
 40
0.0
 40
0.0
 40
0.0
 40
0.2497031857
 40
0.3798777046
 40
0.510702578
 40
0.765170184
 40
1.0
 40
1.0
 40
1.0
 40
1.0
 10
32.5295324557
 20
220.4073241532
 30
0.0
 10
32.5295324557
 20
219.8260293115
 30
0.0
 10
32.3672149018
 20
218.9358506103
 30
0.0
 10
31.8979484289
 20
217.8407211794
 30
0.0
 10
31.2652884862
 20
216.8162258287
 30
0.0
 10
30.2423704358
 20
215.7660530214
 30
0.0
 10
29.1992458516
 20
215.2373125271
 30
0.0
 10
28.670607758
 20
215.0980631782
 30
0.0
  0
SPLINE
  5
2F2
100
AcDbEntity
  8
0
100
AcDbSpline
 62
7
  6
CONTINUOUS
 70
0
 71
3
 72
14
 73
10
 74
0
 42
0.0000001
 43
0.0000001
 44
0.0000000001
 40
0.0
 40
0.0
 40
0.0
 40
0.0
 40
0.255849667
 40
0.3892373421
 40
0.5220152326
 40
0.6512958811
 40
0.774721374
 40
0.8909354277
 40
1.0
 40
1.0
 40
1.0
 40
1.0
 10
44.8593377437
 20
239.521599898
 30
0.0
 10
44.8593377437
 20
238.5302448541
 30
0.0
 10
44.5315914845
 20
237.0091696091
 30
0.0
 10
43.6093894784
 20
235.2029572527
 30
0.0
 10
42.6813897411
 20
233.9724135059
 30
0.0
 10
41.5760861255
 20
232.9553160173
 30
0.0
 10
40.3482530738
 20
232.2035182452
 30
0.0
 10
39.0605048633
 20
231.758556642
 30
0.0
 10
38.1785322987
 20
231.6842635415
 30
0.0
 10
37.7566857495
 20
231.7094642317
 30
0.0
  0
SPLINE
  5
2F3
100
AcDbEntity
  8
0
100
AcDbSpline
 62
7
  6
CONTINUOUS
 70
0
 71
3
 72
11
 73
7
 74
0
 42
0.0000001
 43
0.0000001
 44
0.0000000001
 40
0.0
 40
0.0
 40
0.0
 40
0.0
 40
0.2717572078
 40
0.5268814843
 40
0.7676360802
 40
1.0
 40
1.0
 40
1.0
 40
1.0
 10
42.3386764999
 20
238.8459228317
 30
0.0
 10
42.3386764999
 20
239.0954368469
 30
0.0
 10
42.29013505
 20
239.5812458393
 30
0.0
 10
42.0578321767
 20
240.2542146668
 30
0.0
 10
41.6770067157
 20
240.8141171153
 30
0.0
 10
41.3324169157
 20
241.0912589621
 30
0.0
 10
41.1476858403
 20
241.1979854324
 30
0.0
  0
SPLINE
  5
2F4
100
AcDbEntity
  8
0
100
AcDbSpline
 62
7
  6
CONTINUOUS
 70
0
 71
3
 72
11
 73
7
 74
0
 42
0.0000001
 43
0.0000001
 44
0.0000000001
 40
0.0
 40
0.0
 40
0.0
 40
0.0
 40
0.2717748112
 40
0.526869873
 40
0.7676346335
 40
1.0
 40
1.0
 40
1.0
 40
1.0
 10
30.0628357398
 20
232.9367294427
 30
0.0
 10
30.0628357398
 20
233.3947711508
 30
0.0
 10
29.9737807768
 20
234.2865226633
 30
0.0
 10
29.5472553254
 20
235.5217941873
 30
0.0
 10
28.8482979613
 20
236.5495644325
 30
0.0
 10
28.2157597593
 20
237.0583533134
 30
0.0
 10
27.8766286497
 20
237.2542052476
 30
0.0
  0
SPLINE
  5
2F5
100
AcDbEntity
  8
0
100
AcDbSpline
 62
7
  6
CONTINUOUS
 70
0
 71
3
 72
9
 73
5
 74
0
 42
0.0000001
 43
0.0000001
 44
0.0000000001
 40
0.0
 40
0.0
 40
0.0
 40
0.0
 40
0.4806659377
 40
1.0
 40
1.0
 40
1.0
 40
1.0
 10
44.0028181437
 20
242.5827725634
 30
0.0
 10
44.2894320553
 20
242.1550530102
 30
0.0
 10
44.7296505679
 20
241.1554885384
 30
0.0
 10
44.8593377437
 20
240.0778900912
 30
0.0
 10
44.8593377437
 20
239.521599898
 30
0.0
  0
SPLINE
  5
2F6
100
AcDbEntity
  8
0
100
AcDbSpline
 62
7
  6
CONTINUOUS
 70
0
 71
3
 72
13
 73
9
 74
0
 42
0.0000001
 43
0.0000001
 44
0.0000000001
 40
0.0
 40
0.0
 40
0.0
 40
0.0
 40
0.2546480988
 40
0.5189332819
 40
0.648366291
 40
0.7724620891
 40
0.8897549228
 40
1.0
 40
1.0
 40
1.0
 40
1.0
 10
40.6496298816
 20
239.8214847899
 30
0.0
 10
40.6496298816
 20
239.2989546682
 30
0.0
 10
40.4271746102
 20
238.2291794136
 30
0.0
 10
39.7266809903
 20
237.0678313109
 30
0.0
 10
38.9606098482
 20
236.324360315
 30
0.0
 10
38.3218099189
 20
235.9017362479
 30
0.0
 10
37.6466257642
 20
235.6325521395
 30
0.0
 10
37.1789750521
 20
235.5638262326
 30
0.0
 10
36.9527680059
 20
235.5614495446
 30
0.0
  0
SPLINE
  5
2F7
100
AcDbEntity
  8
0
100
AcDbSpline
 62
7
  6
CONTINUOUS
 70
0
 71
3
 72
14
 73
10
 74
0
 42
0.0000001
 43
0.0000001
 44
0.0000000001
 40
0.0
 40
0.0
 40
0.0
 40
0.0
 40
0.255849667
 40
0.3892373421
 40
0.5220152326
 40
0.6512958811
 40
0.774721374
 40
0.8909354277
 40
1.0
 40
1.0
 40
1.0
 40
1.0
 10
26.966250273
 20
234.7252596995
 30
0.0
 10
26.966250273
 20
233.7339046555
 30
0.0
 10
26.6385040138
 20
232.2128294105
 30
0.0
 10
25.7163020077
 20
230.4066170542
 30
0.0
 10
24.7883022704
 20
229.1760733073
 30
0.0
 10
23.6829986549
 20
228.1589758188
 30
0.0
 10
22.4551656031
 20
227.4071780466
 30
0.0
 10
21.1674173926
 20
226.9622164434
 30
0.0
 10
20.285444828
 20
226.8879233429
 30
0.0
 10
19.8635982788
 20
226.9131240331
 30
0.0
  0
SPLINE
  5
2F8
100
AcDbEntity
  8
0
100
AcDbSpline
 62
7
  6
CONTINUOUS
 70
0
 71
3
 72
15
 73
11
 74
0
 42
0.0000001
 43
0.0000001
 44
0.0000000001
 40
0.0
 40
0.0
 40
0.0
 40
0.0
 40
0.0524624705
 40
0.1056459648
 40
0.2162146438
 40
0.335328798
 40
0.4632709066
 40
0.5978578637
 40
0.7353252348
 40
1.0
 40
1.0
 40
1.0
 40
1.0
 10
39.0677497543
 20
230.4470454136
 30
0.0
 10
39.2718981116
 20
230.3291474988
 30
0.0
 10
39.7059149102
 20
230.1290700767
 30
0.0
 10
40.6513624515
 20
229.8866121656
 30
0.0
 10
41.9477094372
 20
229.904428888
 30
0.0
 10
43.4930769518
 20
230.4143477555
 30
0.0
 10
44.9452543589
 20
231.357062263
 30
0.0
 10
46.2037959128
 20
232.662299535
 30
0.0
 10
47.4849123284
 20
234.7165245449
 30
0.0
 10
47.9559232105
 20
236.5437207339
 30
0.0
 10
47.9559232105
 20
237.7330696413
 30
0.0
  0
SPLINE
  5
2F9
100
AcDbEntity
  8
0
100
AcDbSpline
 62
7
  6
CONTINUOUS
 70
0
 71
3
 72
11
 73
7
 74
0
 42
0.0000001
 43
0.0000001
 44
0.0000000001
 40
0.0
 40
0.0
 40
0.0
 40
0.0
 40
0.2717572078
 40
0.5268814843
 40
0.7676360802
 40
1.0
 40
1.0
 40
1.0
 40
1.0
 10
24.4455890292
 20
234.0495826331
 30
0.0
 10
24.4455890292
 20
234.2990966484
 30
0.0
 10
24.3970475793
 20
234.7849056408
 30
0.0
 10
24.164744706
 20
235.4578744682
 30
0.0
 10
23.783919245
 20
236.0177769167
 30
0.0
 10
23.439329445
 20
236.2949187635
 30
0.0
 10
23.2545983696
 20
236.4016452338
 30
0.0
  0
SPLINE
  5
2FA
100
AcDbEntity
  8
0
100
AcDbSpline
 62
7
  6
CONTINUOUS
 70
0
 71
3
 72
9
 73
5
 74
0
 42
0.0000001
 43
0.0000001
 44
0.0000000001
 40
0.0
 40
0.0
 40
0.0
 40
0.0
 40
0.2447494379
 40
1.0
 40
1.0
 40
1.0
 40
1.0
 10
32.4322097462
 20
221.3372082331
 30
0.0
 10
32.4484881009
 20
221.2626028251
 30
0.0
 10
32.5061823042
 20
220.9558933955
 30
0.0
 10
32.5295324557
 20
220.6429587618
 30
0.0
 10
32.5295324557
 20
220.4073241532
 30
0.0
  0
SPLINE
  5
2FB
100
AcDbEntity
  8
0
100
AcDbSpline
 62
7
  6
CONTINUOUS
 70
0
 71
3
 72
13
 73
9
 74
0
 42
0.0000001
 43
0.0000001
 44
0.0000000001
 40
0.0
 40
0.0
 40
0.0
 40
0.0
 40
0.2546480988
 40
0.5189332819
 40
0.648366291
 40
0.7724620891
 40
0.8897549228
 40
1.0
 40
1.0
 40
1.0
 40
1.0
 10
22.7565424109
 20
235.0251445913
 30
0.0
 10
22.7565424109
 20
234.5026144696
 30
0.0
 10
22.5340871395
 20
233.432839215
 30
0.0
 10
21.8335935196
 20
232.2714911123
 30
0.0
 10
21.0675223775
 20
231.5280201164
 30
0.0
 10
20.4287224482
 20
231.1053960494
 30
0.0
 10
19.7535382935
 20
230.8362119409
 30
0.0
 10
19.2858875814
 20
230.7674860341
 30
0.0
 10
19.0596805352
 20
230.765109346
 30
0.0
  0
SPLINE
  5
2FC
100
AcDbEntity
  8
0
100
AcDbSpline
 62
7
  6
CONTINUOUS
 70
0
 71
3
 72
10
 73
6
 74
0
 42
0.0000001
 43
0.0000001
 44
0.0000000001
 40
0.0
 40
0.0
 40
0.0
 40
0.0
 40
0.2403281525
 40
0.4850960851
 40
1.0
 40
1.0
 40
1.0
 40
1.0
 10
30.0204640857
 20
213.2368679038
 30
0.0
 10
30.186410345
 20
213.141051227
 30
0.0
 10
30.5435437267
 20
212.9833543665
 30
0.0
 10
31.3284481755
 20
212.8199243862
 30
0.0
 10
31.9496069939
 20
212.8822723119
 30
0.0
 10
32.346158117
 20
212.9885700135
 30
0.0
  0
SPLINE
  5
2FD
100
AcDbEntity
  8
0
100
AcDbSpline
 62
7
  6
CONTINUOUS
 70
0
 71
3
 72
20
 73
16
 74
0
 42
0.0000001
 43
0.0000001
 44
0.0000000001
 40
0.0
 40
0.0
 40
0.0
 40
0.0
 40
0.0524886411
 40
0.1058788268
 40
0.1609446315
 40
0.2182401334
 40
0.3400761484
 40
0.4047856415
 40
0.4714397679
 40
0.6080573063
 40
0.7449175043
 40
0.8118575954
 40
0.8769396555
 40
0.9397340308
 40
1.0
 40
1.0
 40
1.0
 40
1.0
 10
21.9687820758
 20
208.1882724625
 30
0.0
 10
21.1823640891
 20
208.6425213807
 30
0.0
 10
19.6864450656
 20
209.7261127127
 30
0.0
 10
17.7950821412
 20
211.793522069
 30
0.0
 10
16.2908604214
 20
214.2553991157
 30
0.0
 10
14.8192779943
 20
218.0496848685
 30
0.0
 10
14.3039517803
 20
222.3145803498
 30
0.0
 10
14.6678485201
 20
226.6880537783
 30
0.0
 10
15.6467056898
 20
231.2328032997
 30
0.0
 10
17.9456912769
 20
236.7142805153
 30
0.0
 10
21.4511469749
 20
241.521233991
 30
0.0
 10
24.8394895567
 20
244.7245072164
 30
0.0
 10
27.5734072388
 20
246.7138898345
 30
0.0
 10
30.4510908664
 20
248.2574336824
 30
0.0
 10
32.4649974776
 20
248.9794436919
 30
0.0
 10
33.472189202
 20
249.2494269557
 30
0.0
  0
SPLINE
  5
2FE
100
AcDbEntity
  8
0
100
AcDbSpline
 62
7
  6
CONTINUOUS
 70
0
 71
3
 72
14
 73
10
 74
0
 42
0.0000001
 43
0.0000001
 44
0.0000000001
 40
0.0
 40
0.0
 40
0.0
 40
0.0
 40
0.2686164723
 40
0.3932530389
 40
0.5129262831
 40
0.6303784462
 40
0.7488454196
 40
0.8713344666
 40
1.0
 40
1.0
 40
1.0
 40
1.0
 10
38.9680571597
 20
218.0862988669
 30
0.0
 10
38.96805716
 20
218.8417567002
 30
0.0
 10
38.7794998661
 20
219.9705813402
 30
0.0
 10
38.0841472077
 20
221.2468269258
 30
0.0
 10
37.3912249904
 20
222.0067637304
 30
0.0
 10
36.5416015249
 20
222.5554541451
 30
0.0
 10
35.5718690473
 20
222.8689478094
 30
0.0
 10
34.5249599984
 20
222.9361226595
 30
0.0
 10
33.8217092151
 20
222.820367264
 30
0.0
 10
33.472189202
 20
222.7266765081
 30
0.0
  0
SPLINE
  5
2FF
100
AcDbEntity
  8
0
100
AcDbSpline
 62
7
  6
CONTINUOUS
 70
0
 71
3
 72
14
 73
10
 74
0
 42
0.0000001
 43
0.0000001
 44
0.0000000001
 40
0.0
 40
0.0
 40
0.0
 40
0.0
 40
0.1052606084
 40
0.2158761655
 40
0.3350397352
 40
0.4630361372
 40
0.5976782612
 40
0.7352099669
 40
1.0
 40
1.0
 40
1.0
 40
1.0
 10
19.60352163
 20
230.0803257424
 30
0.0
 10
19.8265454668
 20
229.9514760249
 30
0.0
 10
20.3380540168
 20
229.7721666469
 30
0.0
 10
21.1719071194
 20
229.7850538532
 30
0.0
 10
22.0144574627
 20
230.0624103075
 30
0.0
 10
22.8053524925
 20
230.5761062684
 30
0.0
 10
23.4910424465
 20
231.2871263533
 30
0.0
 10
24.1889737931
 20
232.4062249352
 30
0.0
 10
24.4455890292
 20
233.4016503039
 30
0.0
 10
24.4455890292
 20
234.0495826331
 30
0.0
  0
SPLINE
  5
300
100
AcDbEntity
  8
0
100
AcDbSpline
 62
7
  6
CONTINUOUS
 70
0
 71
3
 72
10
 73
6
 74
0
 42
0.0000001
 43
0.0000001
 44
0.0000000001
 40
0.0
 40
0.0
 40
0.0
 40
0.0
 40
0.4439738543
 40
0.7068752524
 40
1.0
 40
1.0
 40
1.0
 40
1.0
 10
1.5325308964
 20
265.2663967616
 30
0.0
 10
2.0429241632
 20
264.0325779543
 30
0.0
 10
3.3639300097
 20
262.2786539881
 30
0.0
 10
5.6500059113
 20
260.3275482444
 30
0.0
 10
7.0491843156
 20
259.400818728
 30
0.0
 10
7.8065571766
 20
258.9496876875
 30
0.0
  0
SPLINE
  5
301
100
AcDbEntity
  8
0
100
AcDbSpline
 62
7
  6
CONTINUOUS
 70
0
 71
3
 72
10
 73
6
 74
0
 42
0.0000001
 43
0.0000001
 44
0.0000000001
 40
0.0
 40
0.0
 40
0.0
 40
0.0
 40
0.2197222459
 40
0.4605270538
 40
1.0
 40
1.0
 40
1.0
 40
1.0
 10
7.9782788835
 20
258.4292694552
 30
0.0
 10
8.7782691195
 20
257.9204938962
 30
0.0
 10
10.5149095219
 20
256.9468914522
 30
0.0
 10
14.451043034
 20
255.1707230538
 30
0.0
 10
17.6685948416
 20
254.136327911
 30
0.0
 10
19.9181627458
 20
253.5381152358
 30
0.0
  0
SPLINE
  5
302
100
AcDbEntity
  8
0
100
AcDbSpline
 62
7
  6
CONTINUOUS
 70
0
 71
3
 72
9
 73
5
 74
0
 42
0.0000001
 43
0.0000001
 44
0.0000000001
 40
0.0
 40
0.0
 40
0.0
 40
0.0
 40
0.480989657
 40
1.0
 40
1.0
 40
1.0
 40
1.0
 10
20.5829558828
 20
253.0831688208
 30
0.0
 10
23.0571745795
 20
252.3821839806
 30
0.0
 10
28.2907652989
 20
251.2347331274
 30
0.0
 10
33.6050102323
 20
250.5846568616
 30
0.0
 10
36.3709582452
 20
250.3622033472
 30
0.0
  0
SPLINE
  5
303
100
AcDbEntity
  8
0
100
AcDbSpline
 62
7
  6
CONTINUOUS
 70
0
 71
3
 72
9
 73
5
 74
0
 42
0.0000001
 43
0.0000001
 44
0.0000000001
 40
0.0
 40
0.0
 40
0.0
 40
0.0
 40
0.517064877
 40
1.0
 40
1.0
 40
1.0
 40
1.0
 10
55.9478069711
 20
249.7687255182
 30
0.0
 10
58.7446052161
 20
249.9478490336
 30
0.0
 10
64.1420029624
 20
250.5171968994
 30
0.0
 10
69.4680235617
 20
251.5789283429
 30
0.0
 10
72.0013877554
 20
252.237408317
 30
0.0
  0
SPLINE
  5
304
100
AcDbEntity
  8
0
100
AcDbSpline
 62
7
  6
CONTINUOUS
 70
0
 71
3
 72
9
 73
5
 74
0
 42
0.0000001
 43
0.0000001
 44
0.0000000001
 40
0.0
 40
0.0
 40
0.0
 40
0.0
 40
0.5257905243
 40
1.0
 40
1.0
 40
1.0
 40
1.0
 10
73.3240030652
 20
252.3049767975
 30
0.0
 10
75.0856924049
 20
252.7338468169
 30
0.0
 10
78.4067973477
 20
253.6784081852
 30
0.0
 10
81.6263116217
 20
254.9359100444
 30
0.0
 10
83.1084327725
 20
255.6268648401
 30
0.0
  0
SPLINE
  5
305
100
AcDbEntity
  8
0
100
AcDbSpline
 62
7
  6
CONTINUOUS
 70
0
 71
3
 72
9
 73
5
 74
0
 42
0.0000001
 43
0.0000001
 44
0.0000000001
 40
0.0
 40
0.0
 40
0.0
 40
0.0
 40
0.2560399105
 40
1.0
 40
1.0
 40
1.0
 40
1.0
 10
84.0438960962
 20
256.0792475879
 30
0.0
 10
84.1922176229
 20
256.1536715308
 30
0.0
 10
84.7693930721
 20
256.4485278448
 30
0.0
 10
85.3379112732
 20
256.760433989
 30
0.0
 10
85.7546118621
 20
257.0030422168
 30
0.0
  0
SPLINE
  5
306
100
AcDbEntity
  8
0
100
AcDbSpline
 62
7
  6
CONTINUOUS
 70
0
 71
3
 72
10
 73
6
 74
0
 42
0.0000001
 43
0.0000001
 44
0.0000000001
 40
0.0
 40
0.0
 40
0.0
 40
0.0
 40
0.2925934178
 40
0.5558497114
 40
1.0
 40
1.0
 40
1.0
 40
1.0
 10
86.9108340251
 20
257.2646227888
 30
0.0
 10
87.7153950241
 20
257.7042922993
 30
0.0
 10
89.2100232369
 20
258.6092899427
 30
0.0
 10
91.6897042384
 20
260.5215289823
 30
0.0
 10
93.1844457305
 20
262.2417621692
 30
0.0
 10
93.8260233312
 20
263.4768329575
 30
0.0
  0
SPLINE
  5
307
100
AcDbEntity
  8
0
100
AcDbSpline
 62
7
  6
CONTINUOUS
 70
0
 71
3
 72
9
 73
5
 74
0
 42
0.0000001
 43
0.0000001
 44
0.0000000001
 40
0.0
 40
0.0
 40
0.0
 40
0.0
 40
0.5165517695
 40
1.0
 40
1.0
 40
1.0
 40
1.0
 10
94.6398280025
 20
263.8926023492
 30
0.0
 10
94.9850443587
 20
264.4692419249
 30
0.0
 10
95.5357074776
 20
265.6651046291
 30
0.0
 10
95.7350149635
 20
266.9722884646
 30
0.0
 10
95.7350101786
 20
267.6012950223
 30
0.0
  0
SPLINE
  5
308
100
AcDbEntity
  8
0
100
AcDbSpline
 62
7
  6
CONTINUOUS
 70
0
 71
3
 72
9
 73
5
 74
0
 42
0.0000001
 43
0.0000001
 44
0.0000000001
 40
0.0
 40
0.0
 40
0.0
 40
0.0
 40
0.4843128838
 40
1.0
 40
1.0
 40
1.0
 40
1.0
 10
16.4332691643
 20
285.2213709773
 30
0.0
 10
16.4328087321
 20
284.864699674
 30
0.0
 10
16.5227336587
 20
284.1255362741
 30
0.0
 10
16.7836702366
 20
283.4297033914
 30
0.0
 10
16.9507410594
 20
283.0886491491
 30
0.0
  0
SPLINE
  5
309
100
AcDbEntity
  8
0
100
AcDbSpline
 62
7
  6
CONTINUOUS
 70
0
 71
3
 72
9
 73
5
 74
0
 42
0.0000001
 43
0.0000001
 44
0.0000000001
 40
0.0
 40
0.0
 40
0.0
 40
0.0
 40
0.2377626778
 40
1.0
 40
1.0
 40
1.0
 40
1.0
 10
16.9507410594
 20
283.0886491491
 30
0.0
 10
17.0012282142
 20
282.985585921
 30
0.0
 10
17.2261992917
 20
282.5583283127
 30
0.0
 10
17.4988567
 20
282.1569256791
 30
0.0
 10
17.7250537488
 20
281.8667509116
 30
0.0
  0
SPLINE
  5
30A
100
AcDbEntity
  8
0
100
AcDbSpline
 62
7
  6
CONTINUOUS
 70
0
 71
3
 72
23
 73
19
 74
0
 42
0.0000001
 43
0.0000001
 44
0.0000000001
 40
0.0
 40
0.0
 40
0.0
 40
0.0
 40
0.0429297011
 40
0.094234834
 40
0.1534615379
 40
0.2196580293
 40
0.2915440734
 40
0.3676104837
 40
0.4461941428
 40
0.5255437244
 40
0.6038815774
 40
0.6794648282
 40
0.7506477535
 40
0.815948123
 40
0.8741244525
 40
0.9242802085
 40
0.9660589043
 40
1.0
 40
1.0
 40
1.0
 40
1.0
 10
18.4104974524
 20
281.0849521191
 30
0.0
 10
19.0700796259
 20
280.4093490896
 30
0.0
 10
20.711813833
 20
279.1158180502
 30
0.0
 10
23.6806847492
 20
277.4911539685
 30
0.0
 10
27.3030027715
 20
276.0585860626
 30
0.0
 10
31.4808254323
 20
274.8646773284
 30
0.0
 10
36.1046109917
 20
273.9440359594
 30
0.0
 10
41.0520835491
 20
273.3233827478
 30
0.0
 10
46.1932339711
 20
273.0201534614
 30
0.0
 10
51.3931269751
 20
273.0428380145
 30
0.0
 10
56.5153987852
 20
273.3907991935
 30
0.0
 10
61.4256212608
 20
274.0543120302
 30
0.0
 10
65.9945764993
 20
275.0146123198
 30
0.0
 10
70.1018429989
 20
276.244040113
 30
0.0
 10
73.6382625684
 20
277.7057091625
 30
0.0
 10
76.5129831844
 20
279.3554684856
 30
0.0
 10
78.6520042114
 20
281.1381624736
 30
0.0
 10
79.648560744
 20
282.5105165653
 30
0.0
 10
79.9635940311
 20
283.1872778979
 30
0.0
  0
SPLINE
  5
30B
100
AcDbEntity
  8
0
100
AcDbSpline
 62
7
  6
CONTINUOUS
 70
0
 71
3
 72
9
 73
5
 74
0
 42
0.0000001
 43
0.0000001
 44
0.0000000001
 40
0.0
 40
0.0
 40
0.0
 40
0.0
 40
0.5111884355
 40
1.0
 40
1.0
 40
1.0
 40
1.0
 10
80.090031628
 20
283.4804284941
 30
0.0
 10
80.2039191888
 20
283.7671557144
 30
0.0
 10
80.3786393651
 20
284.349003058
 30
0.0
 10
80.435555529
 20
284.9544954959
 30
0.0
 10
80.4330551325
 20
285.2494970219
 30
0.0
  0
SPLINE
  5
30C
100
AcDbEntity
  8
0
100
AcDbSpline
 62
7
  6
CONTINUOUS
 70
0
 71
3
 72
9
 73
5
 74
0
 42
0.0000001
 43
0.0000001
 44
0.0000000001
 40
0.0
 40
0.0
 40
0.0
 40
0.0
 40
0.2580544744
 40
1.0
 40
1.0
 40
1.0
 40
1.0
 10
1.5325308964
 20
265.2663967616
 30
0.0
 10
1.5257584952
 20
265.2827715707
 30
0.0
 10
1.5040642509
 20
265.3480187893
 30
0.0
 10
1.5065302642
 20
265.4212339323
 30
0.0
 10
1.5222383696
 20
265.469699716
 30
0.0
  0
SPLINE
  5
30D
100
AcDbEntity
  8
0
100
AcDbSpline
 62
7
  6
CONTINUOUS
 70
0
 71
3
 72
11
 73
7
 74
0
 42
0.0000001
 43
0.0000001
 44
0.0000000001
 40
0.0
 40
0.0
 40
0.0
 40
0.0
 40
0.3063171929
 40
0.559966513
 40
0.7749502244
 40
1.0
 40
1.0
 40
1.0
 40
1.0
 10
7.9782788835
 20
258.4292694552
 30
0.0
 10
7.9275277929
 20
258.4615482869
 30
0.0
 10
7.8388880341
 20
258.5279324765
 30
0.0
 10
7.7403553237
 20
258.6464940983
 30
0.0
 10
7.7012935617
 20
258.7846862317
 30
0.0
 10
7.740246732
 20
258.8704958655
 30
0.0
 10
7.7686157569
 20
258.9043764475
 30
0.0
  0
SPLINE
  5
30E
100
AcDbEntity
  8
0
100
AcDbSpline
 62
7
  6
CONTINUOUS
 70
0
 71
3
 72
10
 73
6
 74
0
 42
0.0000001
 43
0.0000001
 44
0.0000000001
 40
0.0
 40
0.0
 40
0.0
 40
0.0
 40
0.5943301123
 40
0.8240084126
 40
1.0
 40
1.0
 40
1.0
 40
1.0
 10
20.5829558828
 20
253.0831688208
 30
0.0
 10
20.4312924921
 20
253.1261403129
 30
0.0
 10
20.2217983052
 20
253.2017789839
 30
0.0
 10
20.0032633422
 20
253.3515025055
 30
0.0
 10
19.9358692562
 20
253.4446782592
 30
0.0
 10
19.9271777807
 20
253.4905400037
 30
0.0
  0
SPLINE
  5
30F
100
AcDbEntity
  8
0
100
AcDbSpline
 62
7
  6
CONTINUOUS
 70
0
 71
3
 72
10
 73
6
 74
0
 42
0.0000001
 43
0.0000001
 44
0.0000000001
 40
0.0
 40
0.0
 40
0.0
 40
0.0
 40
0.5581490796
 40
0.8008084812
 40
1.0
 40
1.0
 40
1.0
 40
1.0
 10
37.4276140839
 20
250.041990217
 30
0.0
 10
37.2333131427
 20
250.0600022042
 30
0.0
 10
36.9544684117
 20
250.1024927108
 30
0.0
 10
36.6210707636
 20
250.2073989092
 30
0.0
 10
36.4804639976
 20
250.2767716729
 30
0.0
 10
36.425557277
 20
250.3196070209
 30
0.0
  0
SPLINE
  5
310
100
AcDbEntity
  8
0
100
AcDbSpline
 62
7
  6
CONTINUOUS
 70
0
 71
3
 72
10
 73
6
 74
0
 42
0.0000001
 43
0.0000001
 44
0.0000000001
 40
0.0
 40
0.0
 40
0.0
 40
0.0
 40
0.5207813659
 40
0.77199886
 40
1.0
 40
1.0
 40
1.0
 40
1.0
 10
55.9478069711
 20
249.7687255182
 30
0.0
 10
55.7388856059
 20
249.7553476413
 30
0.0
 10
55.4270804245
 20
249.7553477072
 30
0.0
 10
55.0276316104
 20
249.8021870645
 30
0.0
 10
54.8388313269
 20
249.8449077195
 30
0.0
 10
54.7520255522
 20
249.8743232441
 30
0.0
  0
SPLINE
  5
311
100
AcDbEntity
  8
0
100
AcDbSpline
 62
7
  6
CONTINUOUS
 70
0
 71
3
 72
9
 73
5
 74
0
 42
0.0000001
 43
0.0000001
 44
0.0000000001
 40
0.0
 40
0.0
 40
0.0
 40
0.0
 40
0.4860436553
 40
1.0
 40
1.0
 40
1.0
 40
1.0
 10
73.3240030652
 20
252.3049767975
 30
0.0
 10
73.1327883909
 20
252.2584303324
 30
0.0
 10
72.7310971592
 20
252.197652104
 30
0.0
 10
72.3229173766
 20
252.1957254775
 30
0.0
 10
72.1165440491
 20
252.2224792311
 30
0.0
  0
SPLINE
  5
312
100
AcDbEntity
  8
0
100
AcDbSpline
 62
7
  6
CONTINUOUS
 70
0
 71
3
 72
9
 73
5
 74
0
 42
0.0000001
 43
0.0000001
 44
0.0000000001
 40
0.0
 40
0.0
 40
0.0
 40
0.0
 40
0.4486283318
 40
1.0
 40
1.0
 40
1.0
 40
1.0
 10
86.9108340251
 20
257.2646227888
 30
0.0
 10
86.7699607578
 20
257.1876447522
 30
0.0
 10
86.4295274138
 20
257.065738669
 30
0.0
 10
86.0727348344
 20
257.0123759296
 30
0.0
 10
85.875521789
 20
257.0065894225
 30
0.0
  0
SPLINE
  5
313
100
AcDbEntity
  8
0
100
AcDbSpline
 62
7
  6
CONTINUOUS
 70
0
 71
3
 72
9
 73
5
 74
0
 42
0.0000001
 43
0.0000001
 44
0.0000000001
 40
0.0
 40
0.0
 40
0.0
 40
0.0
 40
0.4079784556
 40
1.0
 40
1.0
 40
1.0
 40
1.0
 10
94.6398280025
 20
263.8926023492
 30
0.0
 10
94.5822972338
 20
263.7965182845
 30
0.0
 10
94.357260054
 20
263.6170859692
 30
0.0
 10
94.0936820806
 20
263.5299505633
 30
0.0
 10
93.9342798044
 20
263.4983164355
 30
0.0
  0
SPLINE
  5
314
100
AcDbEntity
  8
0
100
AcDbSpline
 62
7
  6
CONTINUOUS
 70
0
 71
3
 72
9
 73
5
 74
0
 42
0.0000001
 43
0.0000001
 44
0.0000000001
 40
0.0
 40
0.0
 40
0.0
 40
0.0
 40
0.490087095
 40
1.0
 40
1.0
 40
1.0
 40
1.0
 10
1.1318364472
 20
268.8451535493
 30
0.0
 10
1.1318261435
 20
268.3691519383
 30
0.0
 10
1.2429408955
 20
267.3950320896
 30
0.0
 10
1.5610046051
 20
266.4693726092
 30
0.0
 10
1.7646277812
 20
266.0179108675
 30
0.0
  0
SPLINE
  5
315
100
AcDbEntity
  8
0
100
AcDbSpline
 62
7
  6
CONTINUOUS
 70
0
 71
3
 72
10
 73
6
 74
0
 42
0.0000001
 43
0.0000001
 44
0.0000000001
 40
0.0
 40
0.0
 40
0.0
 40
0.0
 40
0.2448571664
 40
0.4910402532
 40
1.0
 40
1.0
 40
1.0
 40
1.0
 10
92.2456017784
 20
283.94626382
 30
0.0
 10
92.0915207998
 20
284.5347759668
 30
0.0
 10
91.6807996228
 20
285.690743421
 30
0.0
 10
90.4903506503
 20
287.8795465698
 30
0.0
 10
89.2573256099
 20
289.3261323352
 30
0.0
 10
88.3445959516
 20
290.2012975696
 30
0.0
  0
SPLINE
  5
316
100
AcDbEntity
  8
0
100
AcDbSpline
 62
7
  6
CONTINUOUS
 70
0
 71
3
 72
23
 73
19
 74
0
 42
0.0000001
 43
0.0000001
 44
0.0000000001
 40
0.0
 40
0.0
 40
0.0
 40
0.0
 40
0.0491303255
 40
0.1032722396
 40
0.1627796905
 40
0.2273623698
 40
0.2962629746
 40
0.3684108427
 40
0.44253333
 40
0.5172461904
 40
0.5911332053
 40
0.6628230518
 40
0.7310701099
 40
0.7948475069
 40
0.8534638277
 40
0.9067232655
 40
0.9551099014
 40
1.0
 40
1.0
 40
1.0
 40
1.0
 10
87.6429343366
 20
290.8416378281
 30
0.0
 10
86.5670551257
 20
291.7772659608
 30
0.0
 10
84.101343026
 20
293.5119330121
 30
0.0
 10
79.8759657791
 20
295.6481134584
 30
0.0
 10
75.0189059099
 20
297.4530345318
 30
0.0
 10
69.6076266289
 20
298.9215585227
 30
0.0
 10
63.7398962211
 20
300.0370690007
 30
0.0
 10
57.5355029874
 20
300.7815274298
 30
0.0
 10
51.1283470285
 20
301.1409387457
 30
0.0
 10
44.6608366993
 20
301.1081153763
 30
0.0
 10
38.2777885841
 20
300.683730774
 30
0.0
 10
32.1206077187
 20
299.8761958249
 30
0.0
 10
26.3212750652
 20
298.7005079859
 30
0.0
 10
20.9962895978
 20
297.1746807609
 30
0.0
 10
16.2403092331
 20
295.3152069827
 30
0.0
 10
12.1240872719
 20
293.1203201506
 30
0.0
 10
8.7005614057
 20
290.5652402203
 30
0.0
 10
6.8947715937
 20
288.5051541887
 30
0.0
 10
6.1835617354
 20
287.4136714031
 30
0.0
  0
SPLINE
  5
317
100
AcDbEntity
  8
0
100
AcDbSpline
 62
7
  6
CONTINUOUS
 70
0
 71
3
 72
9
 73
5
 74
0
 42
0.0000001
 43
0.0000001
 44
0.0000000001
 40
0.0
 40
0.0
 40
0.0
 40
0.0
 40
0.2509980407
 40
1.0
 40
1.0
 40
1.0
 40
1.0
 10
5.7557905384
 20
286.7107605155
 30
0.0
 10
5.6298831115
 20
286.4884015259
 30
0.0
 10
5.1547092569
 20
285.5879452895
 30
0.0
 10
4.7947869056
 20
284.6253856813
 30
0.0
 10
4.6058306156
 20
283.8866390637
 30
0.0
  0
SPLINE
  5
318
100
AcDbEntity
  8
0
100
AcDbSpline
 62
7
  6
CONTINUOUS
 70
0
 71
3
 72
8
 73
4
 74
0
 42
0.0000001
 43
0.0000001
 44
0.0000000001
 40
0.0
 40
0.0
 40
0.0
 40
0.0
 40
1.0
 40
1.0
 40
1.0
 40
1.0
 10
51.7130057082
 20
264.6996366569
 30
0.0
 10
51.779879892
 20
264.7020271818
 30
0.0
 10
51.8467801315
 20
264.7036236556
 30
0.0
 10
51.9136649427
 20
264.7056956371
 30
0.0
  0
SPLINE
  5
319
100
AcDbEntity
  8
0
100
AcDbSpline
 62
7
  6
CONTINUOUS
 70
0
 71
3
 72
17
 73
13
 74
0
 42
0.0000001
 43
0.0000001
 44
0.0000000001
 40
0.0
 40
0.0
 40
0.0
 40
0.0
 40
0.2512055796
 40
0.3766975758
 40
0.5020979818
 40
0.6273868664
 40
0.7525246096
 40
0.8150164926
 40
0.8774228691
 40
0.9396600097
 40
0.970632115
 40
1.0
 40
1.0
 40
1.0
 40
1.0
 10
51.9135158836
 20
264.7058069142
 30
0.0
 10
52.0651804341
 20
264.7105050301
 30
0.0
 10
52.2926571572
 20
264.7162019633
 30
0.0
 10
52.5959272238
 20
264.7199521899
 30
0.0
 10
52.8231500054
 20
264.7201412535
 30
0.0
 10
53.0501921692
 20
264.7169061696
 30
0.0
 10
53.2389753775
 20
264.7098208088
 30
0.0
 10
53.389937831
 20
264.6993882997
 30
0.0
 10
53.501589151
 20
264.6880625815
 30
0.0
 10
53.5970302478
 20
264.6722078963
 30
0.0
 10
53.6634871043
 20
264.6537793024
 30
0.0
 10
53.7052540178
 20
264.6313706086
 30
0.0
 10
53.7055737151
 20
264.6136342198
 30
0.0
  0
SPLINE
  5
31A
100
AcDbEntity
  8
0
100
AcDbSpline
 62
7
  6
CONTINUOUS
 70
0
 71
3
 72
9
 73
5
 74
0
 42
0.0000001
 43
0.0000001
 44
0.0000000001
 40
0.0
 40
0.0
 40
0.0
 40
0.0
 40
0.5113639302
 40
1.0
 40
1.0
 40
1.0
 40
1.0
 10
51.9135158836
 20
264.7058069142
 30
0.0
 10
54.7223255275
 20
264.7933292886
 30
0.0
 10
60.2107799454
 20
265.1712694516
 30
0.0
 10
65.653098574
 20
265.9875659158
 30
0.0
 10
68.2869977046
 20
266.5103157718
 30
0.0
  0
SPLINE
  5
31B
100
AcDbEntity
  8
0
100
AcDbSpline
 62
7
  6
CONTINUOUS
 70
0
 71
3
 72
9
 73
5
 74
0
 42
0.0000001
 43
0.0000001
 44
0.0000000001
 40
0.0
 40
0.0
 40
0.0
 40
0.0
 40
0.4884149797
 40
1.0
 40
1.0
 40
1.0
 40
1.0
 10
68.2873388467
 20
266.5100127821
 30
0.0
 10
65.8429508077
 20
266.0249711846
 30
0.0
 10
60.9010738651
 20
264.70196486
 30
0.0
 10
56.1313814563
 20
262.8651585174
 30
0.0
 10
53.7414841241
 20
261.8154495408
 30
0.0
  0
SPLINE
  5
31C
100
AcDbEntity
  8
0
100
AcDbSpline
 62
7
  6
CONTINUOUS
 70
0
 71
3
 72
18
 73
14
 74
0
 42
0.0000001
 43
0.0000001
 44
0.0000000001
 40
0.0
 40
0.0
 40
0.0
 40
0.0
 40
0.1194789212
 40
0.2433778017
 40
0.3707515504
 40
0.4353674925
 40
0.5003082749
 40
0.5653382586
 40
0.6302005951
 40
0.6946339814
 40
0.7583767867
 40
0.8824782688
 40
1.0
 40
1.0
 40
1.0
 40
1.0
 10
36.4255574329
 20
250.3196076708
 30
0.0
 10
37.5477477215
 20
251.2114100379
 30
0.0
 10
39.8875443303
 20
252.9604413537
 30
0.0
 10
43.5644843833
 20
255.4657298051
 30
0.0
 10
46.7976132732
 20
257.4457569844
 30
0.0
 10
49.476762703
 20
258.9704590031
 30
0.0
 10
51.5369182371
 20
260.0691639
 30
0.0
 10
53.630110104
 20
261.1099720446
 30
0.0
 10
55.7410659396
 20
262.0998692459
 30
0.0
 10
57.862630626
 20
263.029353744
 30
0.0
 10
60.671730328
 20
264.1569830909
 30
0.0
 10
64.1285646329
 20
265.3764732769
 30
0.0
 10
66.9187149847
 20
266.171296347
 30
0.0
 10
68.2873388467
 20
266.5100127821
 30
0.0
  0
SPLINE
  5
31D
100
AcDbEntity
  8
0
100
AcDbSpline
 62
7
  6
CONTINUOUS
 70
0
 71
3
 72
15
 73
11
 74
0
 42
0.0000001
 43
0.0000001
 44
0.0000000001
 40
0.0
 40
0.0
 40
0.0
 40
0.0
 40
0.1201952295
 40
0.2446249511
 40
0.3723240565
 40
0.5019354223
 40
0.6316489192
 40
0.7594063662
 40
0.8829569795
 40
1.0
 40
1.0
 40
1.0
 40
1.0
 10
37.4276278408
 20
250.0419906718
 30
0.0
 10
38.5466088966
 20
250.8990178989
 30
0.0
 10
40.8369845338
 20
252.6271330137
 30
0.0
 10
44.436328775
 20
255.1010392394
 30
0.0
 10
48.2354047196
 20
257.4721451248
 30
0.0
 10
52.2015917081
 20
259.6807545848
 30
0.0
 10
56.2464325512
 20
261.7447442548
 30
0.0
 10
60.3453473666
 20
263.5294052619
 30
0.0
 10
64.388076704
 20
265.0559242385
 30
0.0
 10
67.086301414
 20
265.8885066701
 30
0.0
 10
68.4108930061
 20
266.2480020025
 30
0.0
  0
SPLINE
  5
31E
100
AcDbEntity
  8
0
100
AcDbSpline
 62
7
  6
CONTINUOUS
 70
0
 71
3
 72
9
 73
5
 74
0
 42
0.0000001
 43
0.0000001
 44
0.0000000001
 40
0.0
 40
0.0
 40
0.0
 40
0.0
 40
0.4920684529
 40
1.0
 40
1.0
 40
1.0
 40
1.0
 10
70.2828465655
 20
263.9409850298
 30
0.0
 10
67.593819974
 20
261.7975344299
 30
0.0
 10
62.2816418847
 20
257.2491602617
 30
0.0
 10
57.2107820365
 20
252.4365945008
 30
0.0
 10
54.6911946132
 20
249.9362649919
 30
0.0
  0
SPLINE
  5
31F
100
AcDbEntity
  8
0
100
AcDbSpline
 62
7
  6
CONTINUOUS
 70
0
 71
3
 72
10
 73
6
 74
0
 42
0.0000001
 43
0.0000001
 44
0.0000000001
 40
0.0
 40
0.0
 40
0.0
 40
0.0
 40
0.2862918437
 40
0.5666706117
 40
1.0
 40
1.0
 40
1.0
 40
1.0
 10
68.4108992536
 20
266.248000449
 30
0.0
 10
68.4134413059
 20
266.276421743
 30
0.0
 10
68.409276591
 20
266.3346771951
 30
0.0
 10
68.3655792785
 20
266.4239236796
 30
0.0
 10
68.324741354
 20
266.4878276219
 30
0.0
 10
68.2873528263
 20
266.5094487796
 30
0.0
  0
SPLINE
  5
320
100
AcDbEntity
  8
0
100
AcDbSpline
 62
7
  6
CONTINUOUS
 70
0
 71
3
 72
8
 73
4
 74
0
 42
0.0000001
 43
0.0000001
 44
0.0000000001
 40
0.0
 40
0.0
 40
0.0
 40
0.0
 40
1.0
 40
1.0
 40
1.0
 40
1.0
 10
68.2870083164
 20
266.5101938741
 30
0.0
 10
68.3466357707
 20
266.5224577581
 30
0.0
 10
68.4064204848
 20
266.5339444766
 30
0.0
 10
68.4661076311
 20
266.5459144692
 30
0.0
  0
SPLINE
  5
321
100
AcDbEntity
  8
0
100
AcDbSpline
 62
7
  6
CONTINUOUS
 70
0
 71
3
 72
17
 73
13
 74
0
 42
0.0000001
 43
0.0000001
 44
0.0000000001
 40
0.0
 40
0.0
 40
0.0
 40
0.0
 40
0.2539167854
 40
0.3802149182
 40
0.5060152652
 40
0.6312493155
 40
0.7557781817
 40
0.8177035093
 40
0.8793022474
 40
0.9403905137
 40
0.9706279898
 40
1.0
 40
1.0
 40
1.0
 40
1.0
 10
68.4663149071
 20
266.5460532786
 30
0.0
 10
68.6014755127
 20
266.5731595081
 30
0.0
 10
68.8041105627
 20
266.6125546376
 30
0.0
 10
69.0744879607
 20
266.6612294443
 30
0.0
 10
69.2765348247
 20
266.6950229525
 30
0.0
 10
69.4782054515
 20
266.7253348163
 30
0.0
 10
69.646067494
 20
266.7462082013
 30
0.0
 10
69.780441209
 20
266.7580656258
 30
0.0
 10
69.8799152076
 20
266.76342528
 30
0.0
 10
69.9650770477
 20
266.7612629336
 30
0.0
 10
70.0261839422
 20
266.7536403457
 30
0.0
 10
70.0640716332
 20
266.7352039236
 30
0.0
 10
70.0654672394
 20
266.7193189972
 30
0.0
  0
SPLINE
  5
322
100
AcDbEntity
  8
0
100
AcDbSpline
 62
7
  6
CONTINUOUS
 70
0
 71
3
 72
9
 73
5
 74
0
 42
0.0000001
 43
0.0000001
 44
0.0000000001
 40
0.0
 40
0.0
 40
0.0
 40
0.0
 40
0.5293890521
 40
1.0
 40
1.0
 40
1.0
 40
1.0
 10
68.4663149071
 20
266.5460532786
 30
0.0
 10
70.8912264312
 20
267.0327920955
 30
0.0
 10
75.4349533816
 20
268.1518683995
 30
0.0
 10
79.8360880332
 20
269.7639272372
 30
0.0
 10
81.8359541914
 20
270.6775405252
 30
0.0
  0
SPLINE
  5
323
100
AcDbEntity
  8
0
100
AcDbSpline
 62
7
  6
CONTINUOUS
 70
0
 71
3
 72
9
 73
5
 74
0
 42
0.0000001
 43
0.0000001
 44
0.0000000001
 40
0.0
 40
0.0
 40
0.0
 40
0.0
 40
0.4658473941
 40
1.0
 40
1.0
 40
1.0
 40
1.0
 10
81.8371760372
 20
270.6771386546
 30
0.0
 10
79.9465635454
 20
269.8132567594
 30
0.0
 10
76.0062204963
 20
267.7007560974
 30
0.0
 10
72.2502838027
 20
265.2862892033
 30
0.0
 10
70.2828465655
 20
263.9409850298
 30
0.0
  0
SPLINE
  5
324
100
AcDbEntity
  8
0
100
AcDbSpline
 62
7
  6
CONTINUOUS
 70
0
 71
3
 72
14
 73
10
 74
0
 42
0.0000001
 43
0.0000001
 44
0.0000000001
 40
0.0
 40
0.0
 40
0.0
 40
0.0
 40
0.2083701966
 40
0.3269216888
 40
0.4528728095
 40
0.5846608627
 40
0.7207837094
 40
0.8596119631
 40
1.0
 40
1.0
 40
1.0
 40
1.0
 10
81.8371760372
 20
270.6771386546
 30
0.0
 10
80.3087612534
 20
269.8281509791
 30
0.0
 10
77.9661784917
 20
268.3956524677
 30
0.0
 10
74.809442355
 20
266.2801065963
 30
0.0
 10
72.2373553464
 20
264.4480907207
 30
0.0
 10
69.5911699742
 20
262.4681007119
 30
0.0
 10
66.8956486157
 20
260.3742894708
 30
0.0
 10
64.2019060833
 20
258.1628329233
 30
0.0
 10
62.4047611301
 20
256.6597097178
 30
0.0
 10
61.5088317669
 20
255.8949230752
 30
0.0
  0
LINE
  5
325
100
AcDbEntity
  8
0
100
AcDbLine
 62
7
  6
CONTINUOUS
 10
61.5088317669
 20
255.8949230752
 11
61.3390295327
 21
255.7497912008
  0
LINE
  5
326
100
AcDbEntity
  8
0
100
AcDbLine
 62
7
  6
CONTINUOUS
 10
61.3390295327
 20
255.7497912008
 11
61.2345222374
 21
255.6602814036
  0
SPLINE
  5
327
100
AcDbEntity
  8
0
100
AcDbSpline
 62
7
  6
CONTINUOUS
 70
0
 71
3
 72
9
 73
5
 74
0
 42
0.0000001
 43
0.0000001
 44
0.0000000001
 40
0.0
 40
0.0
 40
0.0
 40
0.0
 40
0.5019673453
 40
1.0
 40
1.0
 40
1.0
 40
1.0
 10
61.2345222374
 20
255.6602814036
 30
0.0
 10
60.1306245442
 20
254.7140499827
 30
0.0
 10
57.9544831136
 20
252.8022052682
 30
0.0
 10
55.808664376
 20
250.8563868113
 30
0.0
 10
54.7520256114
 20
249.8743236967
 30
0.0
  0
SPLINE
  5
328
100
AcDbEntity
  8
0
100
AcDbSpline
 62
7
  6
CONTINUOUS
 70
0
 71
3
 72
9
 73
5
 74
0
 42
0.0000001
 43
0.0000001
 44
0.0000000001
 40
0.0
 40
0.0
 40
0.0
 40
0.0
 40
0.4739355649
 40
1.0
 40
1.0
 40
1.0
 40
1.0
 10
83.4978583526
 20
268.3954977604
 30
0.0
 10
81.7683392961
 20
265.7938034009
 30
0.0
 10
78.0026298797
 20
260.3818164783
 30
0.0
 10
74.1105718403
 20
255.0611537506
 30
0.0
 10
72.0353695299
 20
252.2828974946
 30
0.0
  0
SPLINE
  5
329
100
AcDbEntity
  8
0
100
AcDbSpline
 62
7
  6
CONTINUOUS
 70
0
 71
3
 72
9
 73
5
 74
0
 42
0.0000001
 43
0.0000001
 44
0.0000000001
 40
0.0
 40
0.0
 40
0.0
 40
0.0
 40
0.4984292632
 40
1.0
 40
1.0
 40
1.0
 40
1.0
 10
55.9478205356
 20
249.7687281113
 30
0.0
 10
56.956808674
 20
250.6869292921
 30
0.0
 10
58.972277712
 20
252.5388509784
 30
0.0
 10
61.015512911
 20
254.3602999539
 30
0.0
 10
62.04805988
 20
255.2650274733
 30
0.0
  0
SPLINE
  5
32A
100
AcDbEntity
  8
0
100
AcDbSpline
 62
7
  6
CONTINUOUS
 70
0
 71
3
 72
14
 73
10
 74
0
 42
0.0000001
 43
0.0000001
 44
0.0000000001
 40
0.0
 40
0.0
 40
0.0
 40
0.0
 40
0.1405373608
 40
0.2795177141
 40
0.4157013308
 40
0.5476025761
 40
0.673480793
 40
0.7918562508
 40
1.0
 40
1.0
 40
1.0
 40
1.0
 10
62.04805988
 20
255.2650274733
 30
0.0
 10
62.9330941943
 20
256.0405029952
 30
0.0
 10
64.7027932264
 20
257.5722350393
 30
0.0
 10
67.379965809
 20
259.796885016
 30
0.0
 10
70.0325128899
 20
261.9371782124
 30
0.0
 10
72.6226330983
 20
263.9802107885
 30
0.0
 10
75.1527792542
 20
265.8565984648
 30
0.0
 10
78.2423887448
 20
268.0479297045
 30
0.0
 10
80.5329901639
 20
269.5450496521
 30
0.0
 10
82.0296175893
 20
270.4380056396
 30
0.0
  0
SPLINE
  5
32B
100
AcDbEntity
  8
0
100
AcDbSpline
 62
7
  6
CONTINUOUS
 70
0
 71
3
 72
9
 73
5
 74
0
 42
0.0000001
 43
0.0000001
 44
0.0000000001
 40
0.0
 40
0.0
 40
0.0
 40
0.0
 40
0.2672334368
 40
1.0
 40
1.0
 40
1.0
 40
1.0
 10
82.0296270534
 20
270.4380051696
 30
0.0
 10
82.0240127323
 20
270.4653548822
 30
0.0
 10
81.9900685759
 20
270.5633581365
 30
0.0
 10
81.910695721
 20
270.6551945442
 30
0.0
 10
81.8371948217
 20
270.6766128525
 30
0.0
  0
SPLINE
  5
32C
100
AcDbEntity
  8
0
100
AcDbSpline
 62
7
  6
CONTINUOUS
 70
0
 71
3
 72
8
 73
4
 74
0
 42
0.0000001
 43
0.0000001
 44
0.0000000001
 40
0.0
 40
0.0
 40
0.0
 40
0.0
 40
1.0
 40
1.0
 40
1.0
 40
1.0
 10
81.8359767639
 20
270.677389213
 30
0.0
 10
81.8793992672
 20
270.6976542026
 30
0.0
 10
81.923110357
 20
270.717295233
 30
0.0
 10
81.9666271518
 20
270.737356942
 30
0.0
  0
SPLINE
  5
32D
100
AcDbEntity
  8
0
100
AcDbSpline
 62
7
  6
CONTINUOUS
 70
0
 71
3
 72
14
 73
10
 74
0
 42
0.0000001
 43
0.0000001
 44
0.0000000001
 40
0.0
 40
0.0
 40
0.0
 40
0.0
 40
0.2594719393
 40
0.5144471161
 40
0.6398811527
 40
0.7634842941
 40
0.884394591
 40
0.9431994234
 40
1.0
 40
1.0
 40
1.0
 40
1.0
 10
81.96661557
 20
270.7374378761
 30
0.0
 10
82.0649043415
 20
270.782750055
 30
0.0
 10
82.2603781731
 20
270.8714582498
 30
0.0
 10
82.5053950637
 20
270.9767729722
 30
0.0
 10
82.7015255797
 20
271.0539496493
 30
0.0
 10
82.8450431702
 20
271.106387078
 30
0.0
 10
82.9718948497
 20
271.1412461774
 30
0.0
 10
83.0588345788
 20
271.1604224473
 30
0.0
 10
83.1285603658
 20
271.151642188
 30
0.0
 10
83.1320860211
 20
271.1282133833
 30
0.0
  0
SPLINE
  5
32E
100
AcDbEntity
  8
0
100
AcDbSpline
 62
7
  6
CONTINUOUS
 70
0
 71
3
 72
11
 73
7
 74
0
 42
0.0000001
 43
0.0000001
 44
0.0000000001
 40
0.0
 40
0.0
 40
0.0
 40
0.0
 40
0.2863119687
 40
0.5482583451
 40
0.7857929608
 40
1.0
 40
1.0
 40
1.0
 40
1.0
 10
81.96661557
 20
270.7374378761
 30
0.0
 10
82.8547626439
 20
271.1469325695
 30
0.0
 10
84.5285563377
 20
271.9921029038
 30
0.0
 10
86.8133036202
 20
273.4087258233
 30
0.0
 10
88.7423314275
 20
274.9074429111
 30
0.0
 10
89.8332664023
 20
276.0079428524
 30
0.0
 10
90.3030621291
 20
276.5689071486
 30
0.0
  0
SPLINE
  5
32F
100
AcDbEntity
  8
0
100
AcDbSpline
 62
7
  6
CONTINUOUS
 70
0
 71
3
 72
9
 73
5
 74
0
 42
0.0000001
 43
0.0000001
 44
0.0000000001
 40
0.0
 40
0.0
 40
0.0
 40
0.0
 40
0.2001379415
 40
1.0
 40
1.0
 40
1.0
 40
1.0
 10
90.3045927054
 20
276.5687098258
 30
0.0
 10
89.849049026
 20
276.0246621591
 30
0.0
 10
87.5733627335
 20
273.3059081099
 30
0.0
 10
85.3108579065
 20
270.5761590739
 30
0.0
 10
83.4978583526
 20
268.3954977604
 30
0.0
  0
SPLINE
  5
330
100
AcDbEntity
  8
0
100
AcDbSpline
 62
7
  6
CONTINUOUS
 70
0
 71
3
 72
19
 73
15
 74
0
 42
0.0000001
 43
0.0000001
 44
0.0000000001
 40
0.0
 40
0.0
 40
0.0
 40
0.0
 40
0.0783026231
 40
0.1754097196
 40
0.2302498476
 40
0.2887765905
 40
0.3506451773
 40
0.4155516189
 40
0.4830529114
 40
0.5527122996
 40
0.6242809174
 40
0.697467977
 40
0.8472837523
 40
1.0
 40
1.0
 40
1.0
 40
1.0
 10
90.3045927054
 20
276.5687098258
 30
0.0
 10
89.9073636614
 20
275.8816014517
 30
0.0
 10
88.9534650527
 20
274.3798297664
 30
0.0
 10
87.6331333319
 20
272.4553649745
 30
0.0
 10
86.3967616641
 20
270.716755401
 30
0.0
 10
85.3573723457
 20
269.2764575117
 30
0.0
 10
84.2473676185
 20
267.7613102496
 30
0.0
 10
83.0642821493
 20
266.1871279872
 30
0.0
 10
81.8259952152
 20
264.5557256671
 30
0.0
 10
80.5492823673
 20
262.8687012613
 30
0.0
 10
79.2227425331
 20
261.1471682156
 30
0.0
 10
77.3766710164
 20
258.8005143469
 30
0.0
 10
75.0169099594
 20
255.8114274531
 30
0.0
 10
73.0892930027
 20
253.4265597265
 30
0.0
 10
72.1165442468
 20
252.2224799394
 30
0.0
  0
SPLINE
  5
331
100
AcDbEntity
  8
0
100
AcDbSpline
 62
7
  6
CONTINUOUS
 70
0
 71
3
 72
8
 73
4
 74
0
 42
0.0000001
 43
0.0000001
 44
0.0000000001
 40
0.0
 40
0.0
 40
0.0
 40
0.0
 40
1.0
 40
1.0
 40
1.0
 40
1.0
 10
4.4701224375
 20
280.708409815
 30
0.0
 10
4.4633077582
 20
280.7443625243
 30
0.0
 10
4.4576381835
 20
280.7805233654
 30
0.0
 10
4.4511670732
 20
280.8165394991
 30
0.0
  0
SPLINE
  5
332
100
AcDbEntity
  8
0
100
AcDbSpline
 62
7
  6
CONTINUOUS
 70
0
 71
3
 72
9
 73
5
 74
0
 42
0.0000001
 43
0.0000001
 44
0.0000000001
 40
0.0
 40
0.0
 40
0.0
 40
0.0
 40
0.2538370634
 40
1.0
 40
1.0
 40
1.0
 40
1.0
 10
90.5427762913
 20
276.3632806217
 30
0.0
 10
90.5778162723
 20
276.4297700745
 30
0.0
 10
90.712592059
 20
276.6934106517
 30
0.0
 10
90.8340268602
 20
276.9639095714
 30
0.0
 10
90.9161392486
 20
277.169011408
 30
0.0
  0
SPLINE
  5
333
100
AcDbEntity
  8
0
100
AcDbSpline
 62
7
  6
CONTINUOUS
 70
0
 71
3
 72
15
 73
11
 74
0
 42
0.0000001
 43
0.0000001
 44
0.0000000001
 40
0.0
 40
0.0
 40
0.0
 40
0.0
 40
0.1527949738
 40
0.3025593853
 40
0.4470530884
 40
0.5838078893
 40
0.7104182052
 40
0.823504841
 40
0.920813529
 40
1.0
 40
1.0
 40
1.0
 40
1.0
 10
73.324014372
 20
252.3049813373
 30
0.0
 10
74.277710591
 20
253.4735635868
 30
0.0
 10
76.1291394437
 20
255.8176284262
 30
0.0
 10
78.8292204403
 20
259.3084876156
 30
0.0
 10
81.3910011004
 20
262.7057290855
 30
0.0
 10
83.782190547
 20
265.9454590071
 30
0.0
 10
85.907541862
 20
268.9941776427
 30
0.0
 10
87.7788865866
 20
271.7452224393
 30
0.0
 10
89.3065688112
 20
274.1618862879
 30
0.0
 10
90.1797989388
 20
275.670948434
 30
0.0
 10
90.5427650888
 20
276.3632791864
 30
0.0
  0
SPLINE
  5
334
100
AcDbEntity
  8
0
100
AcDbSpline
 62
7
  6
CONTINUOUS
 70
0
 71
3
 72
9
 73
5
 74
0
 42
0.0000001
 43
0.0000001
 44
0.0000000001
 40
0.0
 40
0.0
 40
0.0
 40
0.0
 40
0.4968273313
 40
1.0
 40
1.0
 40
1.0
 40
1.0
 10
90.5427762905
 20
276.36328062
 30
0.0
 10
90.5311981174
 20
276.4166063495
 30
0.0
 10
90.4672999923
 20
276.5162342789
 30
0.0
 10
90.3596754131
 20
276.5634293509
 30
0.0
 10
90.3046154639
 20
276.5681870364
 30
0.0
  0
LINE
  5
335
100
AcDbEntity
  8
0
100
AcDbLine
 62
7
  6
CONTINUOUS
 10
90.3030915255
 20
276.568754081
 11
90.365087561
 21
276.6433412039
  0
SPLINE
  5
336
100
AcDbEntity
  8
0
100
AcDbSpline
 62
7
  6
CONTINUOUS
 70
0
 71
3
 72
17
 73
13
 74
0
 42
0.0000001
 43
0.0000001
 44
0.0000000001
 40
0.0
 40
0.0
 40
0.0
 40
0.0
 40
0.2732409434
 40
0.5354717657
 40
0.6611054514
 40
0.7813407314
 40
0.8385825541
 40
0.8928450213
 40
0.9184254194
 40
0.9425782822
 40
0.9653208423
 40
1.0
 40
1.0
 40
1.0
 40
1.0
 10
90.3650731967
 20
276.6434242169
 30
0.0
 10
90.4114279671
 20
276.6996304878
 30
0.0
 10
90.5025523767
 20
276.8095428729
 30
0.0
 10
90.617246785
 20
276.9434341205
 30
0.0
 10
90.7083652083
 20
277.0437063411
 30
0.0
 10
90.7648431741
 20
277.1015654549
 30
0.0
 10
90.8104887571
 20
277.1432812553
 30
0.0
 10
90.8390450109
 20
277.1660801706
 30
0.0
 10
90.8625851922
 20
277.1811016337
 30
0.0
 10
90.879764274
 20
277.1891562667
 30
0.0
 10
90.9029203691
 20
277.1946379023
 30
0.0
 10
90.9144062445
 20
277.1780868337
 30
0.0
 10
90.9161463052
 20
277.1690053819
 30
0.0
  0
SPLINE
  5
337
100
AcDbEntity
  8
0
100
AcDbSpline
 62
7
  6
CONTINUOUS
 70
0
 71
3
 72
11
 73
7
 74
0
 42
0.0000001
 43
0.0000001
 44
0.0000000001
 40
0.0
 40
0.0
 40
0.0
 40
0.0
 40
0.1962815855
 40
0.4290944375
 40
0.6978397003
 40
1.0
 40
1.0
 40
1.0
 40
1.0
 10
92.4211219592
 20
283.145559805
 30
0.0
 10
92.5170052404
 20
282.5800431936
 30
0.0
 10
92.5923389926
 20
281.3210701912
 30
0.0
 10
92.4358124628
 20
279.2843043611
 30
0.0
 10
92.0271470425
 20
276.9684207131
 30
0.0
 10
91.6158581043
 20
275.3502238265
 30
0.0
 10
91.3746203201
 20
274.5008228828
 30
0.0
  0
SPLINE
  5
338
100
AcDbEntity
  8
0
100
AcDbSpline
 62
7
  6
CONTINUOUS
 70
0
 71
3
 72
11
 73
7
 74
0
 42
0.0000001
 43
0.0000001
 44
0.0000000001
 40
0.0
 40
0.0
 40
0.0
 40
0.0
 40
0.2751187003
 40
0.5274034888
 40
0.7654311698
 40
1.0
 40
1.0
 40
1.0
 40
1.0
 10
90.3650731967
 20
276.6434242169
 30
0.0
 10
90.775934123
 20
277.1415880565
 30
0.0
 10
91.4938340517
 20
278.1589295141
 30
0.0
 10
92.2345106887
 20
279.8099724596
 30
0.0
 10
92.5680858466
 20
281.4941630489
 30
0.0
 10
92.5116139864
 20
282.6149153339
 30
0.0
 10
92.4191380143
 20
283.1576532787
 30
0.0
  0
LINE
  5
339
100
AcDbEntity
  8
0
100
AcDbLine
 62
7
  6
CONTINUOUS
 10
92.4156776529
 20
283.1772648103
 11
92.4101695048
 21
283.2138821211
  0
SPLINE
  5
33A
100
AcDbEntity
  8
0
100
AcDbSpline
 62
7
  6
CONTINUOUS
 70
0
 71
3
 72
8
 73
4
 74
0
 42
0.0000001
 43
0.0000001
 44
0.0000000001
 40
0.0
 40
0.0
 40
0.0
 40
0.0
 40
1.0
 40
1.0
 40
1.0
 40
1.0
 10
92.4101695048
 20
283.2138821211
 30
0.0
 10
92.4081819545
 20
283.2261042296
 30
0.0
 10
92.4056229107
 20
283.2382265191
 30
0.0
 10
92.4033428302
 20
283.2503974486
 30
0.0
  0
LINE
  5
33B
100
AcDbEntity
  8
0
100
AcDbLine
 62
7
  6
CONTINUOUS
 10
92.4033428302
 20
283.2503974486
 11
92.3967186763
 21
283.2871908128
  0
SPLINE
  5
33C
100
AcDbEntity
  8
0
100
AcDbSpline
 62
7
  6
CONTINUOUS
 70
0
 71
3
 72
14
 73
10
 74
0
 42
0.0000001
 43
0.0000001
 44
0.0000000001
 40
0.0
 40
0.0
 40
0.0
 40
0.0
 40
0.1385251344
 40
0.2743085515
 40
0.4067703732
 40
0.535378239
 40
0.6596103138
 40
0.7788606483
 40
1.0
 40
1.0
 40
1.0
 40
1.0
 10
86.2167714649
 20
258.0305506674
 30
0.0
 10
86.5404651763
 20
258.761379206
 30
0.0
 10
87.1636628753
 20
260.2165004778
 30
0.0
 10
88.0400197382
 20
262.394062561
 30
0.0
 10
88.8372484995
 20
264.5411490933
 30
0.0
 10
89.5345214143
 20
266.6526673469
 30
0.0
 10
90.1446339356
 20
268.7115331388
 30
0.0
 10
90.8277350342
 20
271.3041643683
 30
0.0
 10
91.2017617265
 20
273.2365881702
 30
0.0
 10
91.3746203201
 20
274.5008228828
 30
0.0
  0
SPLINE
  5
33D
100
AcDbEntity
  8
0
100
AcDbSpline
 62
7
  6
CONTINUOUS
 70
0
 71
3
 72
20
 73
16
 74
0
 42
0.0000001
 43
0.0000001
 44
0.0000000001
 40
0.0
 40
0.0
 40
0.0
 40
0.0
 40
0.1529236655
 40
0.3010136466
 40
0.3727882647
 40
0.4427780226
 40
0.5107458806
 40
0.5764974898
 40
0.6398533422
 40
0.7005797509
 40
0.7584280125
 40
0.8132421078
 40
0.8648991794
 40
0.9132723361
 40
1.0
 40
1.0
 40
1.0
 40
1.0
 10
85.875521962
 20
257.0065901589
 30
0.0
 10
86.4631602606
 20
258.1705400459
 30
0.0
 10
87.599266957
 20
260.4724045339
 30
0.0
 10
88.8924591517
 20
263.3771418887
 30
0.0
 10
89.8232202143
 20
265.6667304449
 30
0.0
 10
90.460068123
 20
267.3379437619
 30
0.0
 10
91.0306687433
 20
268.978750601
 30
0.0
 10
91.5317323879
 20
270.5828914874
 30
0.0
 10
91.9736139612
 20
272.1401547075
 30
0.0
 10
92.3562052682
 20
273.6437325202
 30
0.0
 10
92.6593485791
 20
275.0913304011
 30
0.0
 10
92.8752697226
 20
276.4761531573
 30
0.0
 10
93.017995074
 20
277.7893620545
 30
0.0
 10
93.1071077555
 20
279.3792449064
 30
0.0
 10
93.0555767442
 20
280.5370299759
 30
0.0
 10
92.947007079
 20
281.2684853419
 30
0.0
  0
SPLINE
  5
33E
100
AcDbEntity
  8
0
100
AcDbSpline
 62
7
  6
CONTINUOUS
 70
0
 71
3
 72
9
 73
5
 74
0
 42
0.0000001
 43
0.0000001
 44
0.0000000001
 40
0.0
 40
0.0
 40
0.0
 40
0.0
 40
0.2627083374
 40
1.0
 40
1.0
 40
1.0
 40
1.0
 10
92.8971588115
 20
281.5729358098
 30
0.0
 10
92.8722207447
 20
281.7118797976
 30
0.0
 10
92.765961209
 20
282.2385573285
 30
0.0
 10
92.6116317283
 20
282.7564219654
 30
0.0
 10
92.4645058359
 20
283.1242681421
 30
0.0
  0
SPLINE
  5
33F
100
AcDbEntity
  8
0
100
AcDbSpline
 62
7
  6
CONTINUOUS
 70
0
 71
3
 72
15
 73
11
 74
0
 42
0.0000001
 43
0.0000001
 44
0.0000000001
 40
0.0
 40
0.0
 40
0.0
 40
0.0
 40
0.1514284723
 40
0.2983288607
 40
0.4390641449
 40
0.5718932798
 40
0.6958652001
 40
0.8093316515
 40
0.9106682995
 40
1.0
 40
1.0
 40
1.0
 40
1.0
 10
86.9108413529
 20
257.2646287871
 30
0.0
 10
87.4753148501
 20
258.3797210977
 30
0.0
 10
88.5331006074
 20
260.6042458346
 30
0.0
 10
89.9575334364
 20
263.9374917507
 30
0.0
 10
91.1735117115
 20
267.1891971028
 30
0.0
 10
92.167193056
 20
270.3181288532
 30
0.0
 10
92.8957885878
 20
273.2888317168
 30
0.0
 10
93.3453524879
 20
276.0521595523
 30
0.0
 10
93.5104306102
 20
278.5613370386
 30
0.0
 10
93.4066045038
 20
280.1391731922
 30
0.0
 10
93.2903317416
 20
280.867252215
 30
0.0
  0
SPLINE
  5
340
100
AcDbEntity
  8
0
100
AcDbSpline
 62
7
  6
CONTINUOUS
 70
0
 71
3
 72
9
 73
5
 74
0
 42
0.0000001
 43
0.0000001
 44
0.0000000001
 40
0.0
 40
0.0
 40
0.0
 40
0.0
 40
0.5623828936
 40
1.0
 40
1.0
 40
1.0
 40
1.0
 10
4.4511670732
 20
280.8165394991
 30
0.0
 10
4.3838893711
 20
281.1909829518
 30
0.0
 10
4.2954162801
 20
281.8628652
 30
0.0
 10
4.3204153966
 20
282.5462350993
 30
0.0
 10
4.3784208846
 20
282.8365349074
 30
0.0
  0
SPLINE
  5
341
100
AcDbEntity
  8
0
100
AcDbSpline
 62
7
  6
CONTINUOUS
 70
0
 71
3
 72
9
 73
5
 74
0
 42
0.0000001
 43
0.0000001
 44
0.0000000001
 40
0.0
 40
0.0
 40
0.0
 40
0.0
 40
0.244912901
 40
1.0
 40
1.0
 40
1.0
 40
1.0
 10
91.0739091482
 20
286.8165178995
 30
0.0
 10
91.2273812145
 20
286.6178716955
 30
0.0
 10
91.8319319747
 20
285.7897935392
 30
0.0
 10
92.3469564159
 20
284.8976596354
 30
0.0
 10
92.6884587327
 20
284.203145514
 30
0.0
  0
SPLINE
  5
342
100
AcDbEntity
  8
0
100
AcDbSpline
 62
7
  6
CONTINUOUS
 70
0
 71
3
 72
13
 73
9
 74
0
 42
0.0000001
 43
0.0000001
 44
0.0000000001
 40
0.0
 40
0.0
 40
0.0
 40
0.0
 40
0.2335540733
 40
0.3546701834
 40
0.4786608587
 40
0.6053218594
 40
0.7344737429
 40
1.0
 40
1.0
 40
1.0
 40
1.0
 10
93.7723331958
 20
281.4785303335
 30
0.0
 10
94.0252569479
 20
280.6722050428
 30
0.0
 10
94.3306053203
 20
279.4221467067
 30
0.0
 10
94.6192633493
 20
277.714284395
 30
0.0
 10
94.7892654414
 20
276.379463005
 30
0.0
 10
94.9040115874
 20
275.0095519475
 30
0.0
 10
94.9739222852
 20
273.1239416398
 30
0.0
 10
94.9367710452
 20
271.6947125554
 30
0.0
 10
94.8836109476
 20
270.7354376268
 30
0.0
  0
SPLINE
  5
343
100
AcDbEntity
  8
0
100
AcDbSpline
 62
7
  6
CONTINUOUS
 70
0
 71
3
 72
9
 73
5
 74
0
 42
0.0000001
 43
0.0000001
 44
0.0000000001
 40
0.0
 40
0.0
 40
0.0
 40
0.0
 40
0.4918705802
 40
1.0
 40
1.0
 40
1.0
 40
1.0
 10
94.8812710148
 20
270.6935594424
 30
0.0
 10
94.8143054361
 20
269.5048030668
 30
0.0
 10
94.5831443514
 20
267.0924204928
 30
0.0
 10
94.1742664262
 20
264.7046758246
 30
0.0
 10
93.9342799284
 20
263.4983171962
 30
0.0
  0
SPLINE
  5
344
100
AcDbEntity
  8
0
100
AcDbSpline
 62
7
  6
CONTINUOUS
 70
0
 71
3
 72
9
 73
5
 74
0
 42
0.0000001
 43
0.0000001
 44
0.0000000001
 40
0.0
 40
0.0
 40
0.0
 40
0.0
 40
0.5160851557
 40
1.0
 40
1.0
 40
1.0
 40
1.0
 10
94.6398302359
 20
263.8926090958
 30
0.0
 10
95.0284681602
 20
265.9570653283
 30
0.0
 10
95.544199716
 20
270.0061907093
 30
0.0
 10
95.4884541175
 20
274.0975549587
 30
0.0
 10
95.2724281336
 20
276.0554430636
 30
0.0
  0
SPLINE
  5
345
100
AcDbEntity
  8
0
100
AcDbSpline
 62
7
  6
CONTINUOUS
 70
0
 71
3
 72
9
 73
5
 74
0
 42
0.0000001
 43
0.0000001
 44
0.0000000001
 40
0.0
 40
0.0
 40
0.0
 40
0.0
 40
0.2457460809
 40
1.0
 40
1.0
 40
1.0
 40
1.0
 10
4.2216877156
 20
280.5220852916
 30
0.0
 10
4.2521421791
 20
280.4589869878
 30
0.0
 10
4.379618101
 20
280.2039472188
 30
0.0
 10
4.5209778943
 20
279.9558948534
 30
0.0
 10
4.6342656914
 20
279.7731146317
 30
0.0
  0
SPLINE
  5
346
100
AcDbEntity
  8
0
100
AcDbSpline
 62
7
  6
CONTINUOUS
 70
0
 71
3
 72
9
 73
5
 74
0
 42
0.0000001
 43
0.0000001
 44
0.0000000001
 40
0.0
 40
0.0
 40
0.0
 40
0.0
 40
0.492823252
 40
1.0
 40
1.0
 40
1.0
 40
1.0
 10
4.2216877157
 20
280.5220852914
 30
0.0
 10
4.231465707
 20
280.5757278349
 30
0.0
 10
4.2968000346
 20
280.6795335064
 30
0.0
 10
4.4141557361
 20
280.7120531578
 30
0.0
 10
4.4701123754
 20
280.7078468208
 30
0.0
  0
LINE
  5
347
100
AcDbEntity
  8
0
100
AcDbLine
 62
7
  6
CONTINUOUS
 10
4.4710788653
 20
280.7076580257
 11
4.4866443289
 21
280.6282641054
  0
SPLINE
  5
348
100
AcDbEntity
  8
0
100
AcDbSpline
 62
7
  6
CONTINUOUS
 70
0
 71
3
 72
13
 73
9
 74
0
 42
0.0000001
 43
0.0000001
 44
0.0000000001
 40
0.0
 40
0.0
 40
0.0
 40
0.0
 40
0.2146369412
 40
0.4402566554
 40
0.6837620799
 40
0.8196145144
 40
0.8968566508
 40
1.0
 40
1.0
 40
1.0
 40
1.0
 10
4.486598973
 20
280.6287552161
 30
0.0
 10
4.4988654122
 20
280.5677320045
 30
0.0
 10
4.524716025
 20
280.4427090425
 30
0.0
 10
4.565911107
 20
280.2487131079
 30
0.0
 10
4.6012010529
 20
280.0769713727
 30
0.0
 10
4.6244730188
 20
279.9463518141
 30
0.0
 10
4.6354601209
 20
279.8557071119
 30
0.0
 10
4.6402004167
 20
279.8024236853
 30
0.0
 10
4.6342600446
 20
279.7731083395
 30
0.0
  0
SPLINE
  5
349
100
AcDbEntity
  8
0
100
AcDbSpline
 62
7
  6
CONTINUOUS
 70
0
 71
3
 72
9
 73
5
 74
0
 42
0.0000001
 43
0.0000001
 44
0.0000000001
 40
0.0
 40
0.0
 40
0.0
 40
0.0
 40
0.4855850986
 40
1.0
 40
1.0
 40
1.0
 40
1.0
 10
94.2142308793
 20
274.8280339862
 30
0.0
 10
94.4148043162
 20
273.0022466684
 30
0.0
 10
94.516652473
 20
269.2053869603
 30
0.0
 10
94.1296542394
 20
265.4337631917
 30
0.0
 10
93.8313275803
 20
263.5109455733
 30
0.0
  0
SPLINE
  5
34A
100
AcDbEntity
  8
0
100
AcDbSpline
 62
7
  6
CONTINUOUS
 70
0
 71
3
 72
9
 73
5
 74
0
 42
0.0000001
 43
0.0000001
 44
0.0000000001
 40
0.0
 40
0.0
 40
0.0
 40
0.0
 40
0.4819510755
 40
1.0
 40
1.0
 40
1.0
 40
1.0
 10
92.6317775074
 20
283.1606337227
 30
0.0
 10
92.6131008468
 20
283.2013788209
 30
0.0
 10
92.5414685478
 20
283.2723103212
 30
0.0
 10
92.4448290743
 20
283.2893812236
 30
0.0
 10
92.3967289819
 20
283.2866289648
 30
0.0
  0
SPLINE
  5
34B
100
AcDbEntity
  8
0
100
AcDbSpline
 62
7
  6
CONTINUOUS
 70
0
 71
3
 72
11
 73
7
 74
0
 42
0.0000001
 43
0.0000001
 44
0.0000000001
 40
0.0
 40
0.0
 40
0.0
 40
0.0
 40
0.2176560509
 40
0.4528662603
 40
0.7122682526
 40
1.0
 40
1.0
 40
1.0
 40
1.0
 10
4.486598973
 20
280.6287552161
 30
0.0
 10
4.6020059058
 20
280.0552869034
 30
0.0
 10
4.9911356556
 20
278.8888501873
 30
0.0
 10
5.972851346
 20
277.2323918014
 30
0.0
 10
7.3503755425
 20
275.6323789349
 30
0.0
 10
8.4617924103
 20
274.6625497654
 30
0.0
 10
9.0714816536
 20
274.1868713152
 30
0.0
  0
SPLINE
  5
34C
100
AcDbEntity
  8
0
100
AcDbSpline
 62
7
  6
CONTINUOUS
 70
0
 71
3
 72
12
 73
8
 74
0
 42
0.0000001
 43
0.0000001
 44
0.0000000001
 40
0.0
 40
0.0
 40
0.0
 40
0.0
 40
0.3556854736
 40
0.6409233274
 40
0.8545927338
 40
0.935403309
 40
1.0
 40
1.0
 40
1.0
 40
1.0
 10
9.071118453
 20
274.1864640206
 30
0.0
 10
8.5307338756
 20
274.608055155
 30
0.0
 10
7.5438917835
 20
275.3518826132
 30
0.0
 10
6.1744774612
 20
276.267116388
 30
0.0
 10
5.1940202228
 20
276.8102695625
 30
0.0
 10
4.5491616075
 20
277.063382007
 30
0.0
 10
4.2761566064
 20
277.132871542
 30
0.0
 10
4.1528954577
 20
277.1502075658
 30
0.0
  0
SPLINE
  5
34D
100
AcDbEntity
  8
0
100
AcDbSpline
 62
7
  6
CONTINUOUS
 70
0
 71
3
 72
13
 73
9
 74
0
 42
0.0000001
 43
0.0000001
 44
0.0000000001
 40
0.0
 40
0.0
 40
0.0
 40
0.0
 40
0.1844502403
 40
0.2916629182
 40
0.4108499661
 40
0.5411802873
 40
0.6830958405
 40
1.0
 40
1.0
 40
1.0
 40
1.0
 10
5.100497831
 20
269.4033054494
 30
0.0
 10
5.9298127413
 20
269.7819976613
 30
0.0
 10
7.3445811146
 20
270.1601700381
 30
0.0
 10
9.3659110539
 20
270.3577102092
 30
0.0
 10
11.1320439337
 20
270.3702474949
 30
0.0
 10
13.0627255526
 20
270.2205844398
 30
0.0
 10
15.9458252543
 20
269.7998144356
 30
0.0
 10
18.1572145616
 20
269.2743172141
 30
0.0
 10
19.6659940585
 20
268.8534914301
 30
0.0
  0
SPLINE
  5
34E
100
AcDbEntity
  8
0
100
AcDbSpline
 62
7
  6
CONTINUOUS
 70
0
 71
3
 72
9
 73
5
 74
0
 42
0.0000001
 43
0.0000001
 44
0.0000000001
 40
0.0
 40
0.0
 40
0.0
 40
0.0
 40
0.2276159547
 40
1.0
 40
1.0
 40
1.0
 40
1.0
 10
5.6227644267
 20
269.6420049838
 30
0.0
 10
5.9034601711
 20
269.7702665624
 30
0.0
 10
7.1652775163
 20
270.2713225117
 30
0.0
 10
8.5133388461
 20
270.5324535391
 30
0.0
 10
9.5548710373
 20
270.6415653573
 30
0.0
  0
SPLINE
  5
34F
100
AcDbEntity
  8
0
100
AcDbSpline
 62
7
  6
CONTINUOUS
 70
0
 71
3
 72
17
 73
13
 74
0
 42
0.0000001
 43
0.0000001
 44
0.0000000001
 40
0.0
 40
0.0
 40
0.0
 40
0.0
 40
0.0659017626
 40
0.095526372
 40
0.1261486166
 40
0.160151547
 40
0.1991000342
 40
0.2958724933
 40
0.4230805086
 40
0.5827966947
 40
0.7754243183
 40
1.0
 40
1.0
 40
1.0
 40
1.0
 10
1.4052347391
 20
275.4078422827
 30
0.0
 10
1.4219032107
 20
275.5950753916
 30
0.0
 10
1.4898258158
 20
275.8732560937
 30
0.0
 10
1.7217157346
 20
276.1551647456
 30
0.0
 10
1.9481102899
 20
276.3061719454
 30
0.0
 10
2.2278062572
 20
276.4077565537
 30
0.0
 10
2.7083895198
 20
276.484274249
 30
0.0
 10
3.4647371409
 20
276.409394923
 30
0.0
 10
4.5162589385
 20
276.0995290231
 30
0.0
 10
5.7868202636
 20
275.5881939843
 30
0.0
 10
7.2647049677
 20
274.8622064978
 30
0.0
 10
8.3040191736
 20
274.2816722403
 30
0.0
 10
8.8575753541
 20
273.959340341
 30
0.0
  0
SPLINE
  5
350
100
AcDbEntity
  8
0
100
AcDbSpline
 62
7
  6
CONTINUOUS
 70
0
 71
3
 72
9
 73
5
 74
0
 42
0.0000001
 43
0.0000001
 44
0.0000000001
 40
0.0
 40
0.0
 40
0.0
 40
0.0
 40
0.2277526853
 40
1.0
 40
1.0
 40
1.0
 40
1.0
 10
2.6711611286
 20
276.9227646746
 30
0.0
 10
2.7047657272
 20
276.9290182493
 30
0.0
 10
2.8534302275
 20
276.9505397596
 30
0.0
 10
3.0046279014
 20
276.950128599
 30
0.0
 10
3.1202810096
 20
276.9425642404
 30
0.0
  0
SPLINE
  5
351
100
AcDbEntity
  8
0
100
AcDbSpline
 62
7
  6
CONTINUOUS
 70
0
 71
3
 72
11
 73
7
 74
0
 42
0.0000001
 43
0.0000001
 44
0.0000000001
 40
0.0
 40
0.0
 40
0.0
 40
0.0
 40
0.1593177318
 40
0.3770054266
 40
0.6577148343
 40
1.0
 40
1.0
 40
1.0
 40
1.0
 10
3.1202810096
 20
276.9425642404
 30
0.0
 10
3.4701317153
 20
276.9196820521
 30
0.0
 10
4.2858127991
 20
276.7221421685
 30
0.0
 10
5.619902358
 20
276.1578364328
 30
0.0
 10
7.258153716
 20
275.2940914413
 30
0.0
 10
8.4324874926
 20
274.5858657737
 30
0.0
 10
9.071118453
 20
274.1864640206
 30
0.0
  0
SPLINE
  5
352
100
AcDbEntity
  8
0
100
AcDbSpline
 62
7
  6
CONTINUOUS
 70
0
 71
3
 72
9
 73
5
 74
0
 42
0.0000001
 43
0.0000001
 44
0.0000000001
 40
0.0
 40
0.0
 40
0.0
 40
0.0
 40
0.5153707976
 40
1.0
 40
1.0
 40
1.0
 40
1.0
 10
8.8575656028
 20
273.9593396819
 30
0.0
 10
8.8702295885
 20
274.0135922024
 30
0.0
 10
8.9203598542
 20
274.1141854584
 30
0.0
 10
9.0192971948
 20
274.1780521519
 30
0.0
 10
9.0710952482
 20
274.1858910142
 30
0.0
  0
LINE
  5
353
100
AcDbEntity
  8
0
100
AcDbLine
 62
7
  6
CONTINUOUS
 10
9.0716188889
 20
274.1866423763
 11
9.1635186884
 21
274.1153678251
  0
SPLINE
  5
354
100
AcDbEntity
  8
0
100
AcDbSpline
 62
7
  6
CONTINUOUS
 70
0
 71
3
 72
16
 73
12
 74
0
 42
0.0000001
 43
0.0000001
 44
0.0000000001
 40
0.0
 40
0.0
 40
0.0
 40
0.0
 40
0.2316352728
 40
0.4696662718
 40
0.5918050813
 40
0.7169982596
 40
0.7812823408
 40
0.8474439598
 40
0.9171031347
 40
0.9551396407
 40
1.0
 40
1.0
 40
1.0
 40
1.0
 10
9.1633741069
 20
274.1156169993
 30
0.0
 10
9.2334136486
 20
274.0615632394
 30
0.0
 10
9.3747672806
 20
273.9511063112
 30
0.0
 10
9.550342655
 20
273.8087045534
 30
0.0
 10
9.6912236333
 20
273.6881765603
 30
0.0
 10
9.7794245946
 20
273.6082496339
 30
0.0
 10
9.8493853616
 20
273.5400415906
 30
0.0
 10
9.9018038529
 20
273.4846121614
 30
0.0
 10
9.9447340437
 20
273.4331186737
 30
0.0
 10
9.9755244431
 20
273.3848179448
 30
0.0
 10
9.9887897077
 20
273.3527546942
 30
0.0
 10
9.9858439492
 20
273.3358755549
 30
0.0
  0
SPLINE
  5
355
100
AcDbEntity
  8
0
100
AcDbSpline
 62
7
  6
CONTINUOUS
 70
0
 71
3
 72
10
 73
6
 74
0
 42
0.0000001
 43
0.0000001
 44
0.0000000001
 40
0.0
 40
0.0
 40
0.0
 40
0.0
 40
0.2186758896
 40
0.4586832477
 40
1.0
 40
1.0
 40
1.0
 40
1.0
 10
9.1633741069
 20
274.1156169993
 30
0.0
 10
9.8439539603
 20
273.5906604077
 30
0.0
 10
11.3385552833
 20
272.5751404467
 30
0.0
 10
14.7870547138
 20
270.6813029586
 30
0.0
 10
17.6513590186
 20
269.5365910782
 30
0.0
 10
19.6664891746
 20
268.8537739455
 30
0.0
  0
SPLINE
  5
356
100
AcDbEntity
  8
0
100
AcDbSpline
 62
7
  6
CONTINUOUS
 70
0
 71
3
 72
11
 73
7
 74
0
 42
0.0000001
 43
0.0000001
 44
0.0000000001
 40
0.0
 40
0.0
 40
0.0
 40
0.0
 40
0.292714191
 40
0.5576143792
 40
0.7933127877
 40
1.0
 40
1.0
 40
1.0
 40
1.0
 10
19.6659940585
 20
268.8534914301
 30
0.0
 10
18.7119964187
 20
269.1767928931
 30
0.0
 10
16.8753608526
 20
269.738443933
 30
0.0
 10
14.2088937666
 20
270.3382615789
 30
0.0
 10
11.7920316571
 20
270.655234082
 30
0.0
 10
10.2649425263
 20
270.6825649159
 30
0.0
 10
9.5548710373
 20
270.6415653573
 30
0.0
  0
SPLINE
  5
357
100
AcDbEntity
  8
0
100
AcDbSpline
 62
7
  6
CONTINUOUS
 70
0
 71
3
 72
11
 73
7
 74
0
 42
0.0000001
 43
0.0000001
 44
0.0000000001
 40
0.0
 40
0.0
 40
0.0
 40
0.0
 40
0.1548322199
 40
0.3700805359
 40
0.6518251539
 40
1.0
 40
1.0
 40
1.0
 40
1.0
 10
3.4217872676
 20
283.1333773556
 30
0.0
 10
3.398287283
 20
282.9929785378
 30
0.0
 10
3.4197209891
 20
282.6470304065
 30
0.0
 10
3.5687839504
 20
282.0663881227
 30
0.0
 10
3.8412402832
 20
281.3370743714
 30
0.0
 10
4.0819141124
 20
280.8100609512
 30
0.0
 10
4.2216990781
 20
280.5220840724
 30
0.0
  0
SPLINE
  5
358
100
AcDbEntity
  8
0
100
AcDbSpline
 62
7
  6
CONTINUOUS
 70
0
 71
3
 72
9
 73
5
 74
0
 42
0.0000001
 43
0.0000001
 44
0.0000000001
 40
0.0
 40
0.0
 40
0.0
 40
0.0
 40
0.2611542398
 40
1.0
 40
1.0
 40
1.0
 40
1.0
 10
4.4225890918
 20
283.9503410166
 30
0.0
 10
4.4103852871
 20
283.9499790163
 30
0.0
 10
4.3636895302
 20
283.9477509861
 30
0.0
 10
4.3171183963
 20
283.9419926034
 30
0.0
 10
4.2832362855
 20
283.9352749129
 30
0.0
  0
SPLINE
  5
359
100
AcDbEntity
  8
0
100
AcDbSpline
 62
7
  6
CONTINUOUS
 70
0
 71
3
 72
8
 73
4
 74
0
 42
0.0000001
 43
0.0000001
 44
0.0000000001
 40
0.0
 40
0.0
 40
0.0
 40
0.0
 40
1.0
 40
1.0
 40
1.0
 40
1.0
 10
4.2832362855
 20
283.9352749129
 30
0.0
 10
4.2486138754
 20
283.9284104457
 30
0.0
 10
4.2143577613
 20
283.9189109645
 30
0.0
 10
4.1813812379
 20
283.9063260096
 30
0.0
  0
SPLINE
  5
35A
100
AcDbEntity
  8
0
100
AcDbSpline
 62
7
  6
CONTINUOUS
 70
0
 71
3
 72
14
 73
10
 74
0
 42
0.0000001
 43
0.0000001
 44
0.0000000001
 40
0.0
 40
0.0
 40
0.0
 40
0.0
 40
0.0646493723
 40
0.1338764825
 40
0.2180443517
 40
0.3230475542
 40
0.4524769143
 40
0.6081159331
 40
1.0
 40
1.0
 40
1.0
 40
1.0
 10
4.1813812379
 20
283.9063260096
 30
0.0
 10
4.1119053039
 20
283.8798116471
 30
0.0
 10
3.9776887114
 20
283.7920718527
 30
0.0
 10
3.8478384762
 20
283.5700717697
 30
0.0
 10
3.7849369597
 20
283.2762858742
 30
0.0
 10
3.7887892676
 20
282.9077881625
 30
0.0
 10
3.8606950449
 20
282.4638301513
 30
0.0
 10
4.0612204903
 20
281.7106015376
 30
0.0
 10
4.2909619973
 20
281.1220435576
 30
0.0
 10
4.4701224375
 20
280.708409815
 30
0.0
  0
SPLINE
  5
35B
100
AcDbEntity
  8
0
100
AcDbSpline
 62
7
  6
CONTINUOUS
 70
0
 71
3
 72
11
 73
7
 74
0
 42
0.0000001
 43
0.0000001
 44
0.0000000001
 40
0.0
 40
0.0
 40
0.0
 40
0.0
 40
0.287971327
 40
0.5493846709
 40
0.7856065396
 40
1.0
 40
1.0
 40
1.0
 40
1.0
 10
20.8757441378
 20
265.4417751425
 30
0.0
 10
19.4857936492
 20
265.1507855413
 30
0.0
 10
16.8607316239
 20
264.4501672277
 30
0.0
 10
13.2672383093
 20
262.9701498213
 30
0.0
 10
10.241153656
 20
261.1624232121
 30
0.0
 10
8.5404155407
 20
259.7107534819
 30
0.0
 10
7.8065560909
 20
258.9496883699
 30
0.0
  0
SPLINE
  5
35C
100
AcDbEntity
  8
0
100
AcDbSpline
 62
7
  6
CONTINUOUS
 70
0
 71
3
 72
11
 73
7
 74
0
 42
0.0000001
 43
0.0000001
 44
0.0000000001
 40
0.0
 40
0.0
 40
0.0
 40
0.0
 40
0.2330895739
 40
0.4717959624
 40
0.7242853043
 40
1.0
 40
1.0
 40
1.0
 40
1.0
 10
1.5935479878
 20
265.4294667743
 30
0.0
 10
1.739512678
 20
265.804168799
 30
0.0
 10
2.1065432913
 20
266.5379245744
 30
0.0
 10
2.899560219
 20
267.5164112707
 30
0.0
 10
3.9419456795
 20
268.3465247503
 30
0.0
 10
4.7591874331
 20
268.7637949651
 30
0.0
 10
5.1995558686
 20
268.9436102651
 30
0.0
  0
SPLINE
  5
35D
100
AcDbEntity
  8
0
100
AcDbSpline
 62
7
  6
CONTINUOUS
 70
0
 71
3
 72
14
 73
10
 74
0
 42
0.0000001
 43
0.0000001
 44
0.0000000001
 40
0.0
 40
0.0
 40
0.0
 40
0.0
 40
0.0899789161
 40
0.1891969241
 40
0.2983358694
 40
0.4179807173
 40
0.5483050157
 40
0.6890910737
 40
1.0
 40
1.0
 40
1.0
 40
1.0
 10
5.1995558686
 20
268.9436102651
 30
0.0
 10
5.6031926978
 20
269.1084269769
 30
0.0
 10
6.4779940993
 20
269.3916922552
 30
0.0
 10
7.8941006109
 20
269.6917950046
 30
0.0
 10
9.4766018945
 20
269.8668054209
 30
0.0
 10
11.2187263271
 20
269.8867159239
 30
0.0
 10
13.109840305
 20
269.7703240459
 30
0.0
 10
15.9102740179
 20
269.4257578766
 30
0.0
 10
18.0560597544
 20
268.9700052703
 30
0.0
 10
19.5160478188
 20
268.5985557002
 30
0.0
  0
SPLINE
  5
35E
100
AcDbEntity
  8
0
100
AcDbSpline
 62
7
  6
CONTINUOUS
 70
0
 71
3
 72
10
 73
6
 74
0
 42
0.0000001
 43
0.0000001
 44
0.0000000001
 40
0.0
 40
0.0
 40
0.0
 40
0.0
 40
0.2794291389
 40
0.55526749
 40
1.0
 40
1.0
 40
1.0
 40
1.0
 10
19.5160411851
 20
268.5985536473
 30
0.0
 10
19.5217374467
 20
268.6261890433
 30
0.0
 10
19.5380285456
 20
268.6802937653
 30
0.0
 10
19.5736726299
 20
268.7733260229
 30
0.0
 10
19.6240080141
 20
268.8369502836
 30
0.0
 10
19.6659782797
 20
268.8529273143
 30
0.0
  0
SPLINE
  5
35F
100
AcDbEntity
  8
0
100
AcDbSpline
 62
7
  6
CONTINUOUS
 70
0
 71
3
 72
8
 73
4
 74
0
 42
0.0000001
 43
0.0000001
 44
0.0000000001
 40
0.0
 40
0.0
 40
0.0
 40
0.0
 40
1.0
 40
1.0
 40
1.0
 40
1.0
 10
19.6664736777
 20
268.8536523541
 30
0.0
 10
19.7173989572
 20
268.8368347253
 30
0.0
 10
19.7680901879
 20
268.8193163192
 30
0.0
 10
19.8189280929
 20
268.8022363853
 30
0.0
  0
SPLINE
  5
360
100
AcDbEntity
  8
0
100
AcDbSpline
 62
7
  6
CONTINUOUS
 70
0
 71
3
 72
17
 73
13
 74
0
 42
0.0000001
 43
0.0000001
 44
0.0000000001
 40
0.0
 40
0.0
 40
0.0
 40
0.0
 40
0.2429906553
 40
0.3655326635
 40
0.4888666351
 40
0.6131141703
 40
0.738547738
 40
0.8018883112
 40
0.8658906001
 40
0.9310847975
 40
0.9647730876
 40
1.0
 40
1.0
 40
1.0
 40
1.0
 10
19.8186538732
 20
268.8024602529
 30
0.0
 10
19.935121306
 20
268.7633301776
 30
0.0
 10
20.1099354381
 20
268.703293091
 30
0.0
 10
20.3426064997
 20
268.6198094088
 30
0.0
 10
20.5179331023
 20
268.5543457938
 30
0.0
 10
20.6935345989
 20
268.4854254694
 30
0.0
 10
20.8392751988
 20
268.4237813252
 30
0.0
 10
20.9553770527
 20
268.3699444831
 30
0.0
 10
21.0417407245
 20
268.3259405354
 30
0.0
 10
21.114015867
 20
268.2832852318
 30
0.0
 10
21.165467625
 20
268.2435342627
 30
0.0
 10
21.1928915088
 20
268.21214994
 30
0.0
 10
21.190719265
 20
268.1944708618
 30
0.0
  0
SPLINE
  5
361
100
AcDbEntity
  8
0
100
AcDbSpline
 62
7
  6
CONTINUOUS
 70
0
 71
3
 72
9
 73
5
 74
0
 42
0.0000001
 43
0.0000001
 44
0.0000000001
 40
0.0
 40
0.0
 40
0.0
 40
0.0
 40
0.4779947326
 40
1.0
 40
1.0
 40
1.0
 40
1.0
 10
19.8186538732
 20
268.8024602529
 30
0.0
 10
22.1140336586
 20
268.0318145759
 30
0.0
 10
27.0166703099
 20
266.7143985391
 30
0.0
 10
32.0168261749
 20
265.8626949886
 30
0.0
 10
34.6391152385
 20
265.5227642949
 30
0.0
  0
SPLINE
  5
362
100
AcDbEntity
  8
0
100
AcDbSpline
 62
7
  6
CONTINUOUS
 70
0
 71
3
 72
9
 73
5
 74
0
 42
0.0000001
 43
0.0000001
 44
0.0000000001
 40
0.0
 40
0.0
 40
0.0
 40
0.0
 40
0.4718197151
 40
1.0
 40
1.0
 40
1.0
 40
1.0
 10
15.7476940765
 20
284.8919847045
 30
0.0
 10
15.8565782583
 20
284.3174382249
 30
0.0
 10
16.2947984226
 20
283.1350306337
 30
0.0
 10
17.029475659
 20
282.1215816778
 30
0.0
 10
17.4620021241
 20
281.6301996148
 30
0.0
  0
SPLINE
  5
363
100
AcDbEntity
  8
0
100
AcDbSpline
 62
7
  6
CONTINUOUS
 70
0
 71
3
 72
9
 73
5
 74
0
 42
0.0000001
 43
0.0000001
 44
0.0000000001
 40
0.0
 40
0.0
 40
0.0
 40
0.0
 40
0.4710785821
 40
1.0
 40
1.0
 40
1.0
 40
1.0
 10
17.7756640122
 20
281.2894264101
 30
0.0
 10
18.2344109289
 20
280.8121055323
 30
0.0
 10
19.2985296468
 20
279.8846436656
 30
0.0
 10
20.472573288
 20
279.1063222323
 30
0.0
 10
21.1117158299
 20
278.726821472
 30
0.0
  0
SPLINE
  5
364
100
AcDbEntity
  8
0
100
AcDbSpline
 62
7
  6
CONTINUOUS
 70
0
 71
3
 72
13
 73
9
 74
0
 42
0.0000001
 43
0.0000001
 44
0.0000000001
 40
0.0
 40
0.0
 40
0.0
 40
0.0
 40
0.0965716079
 40
0.2040991751
 40
0.3215625437
 40
0.4475515137
 40
0.7180139983
 40
1.0
 40
1.0
 40
1.0
 40
1.0
 10
21.1117158299
 20
278.726821472
 30
0.0
 10
21.969257034
 20
278.2176431314
 30
0.0
 10
23.8540027164
 20
277.2619630594
 30
0.0
 10
26.9536350171
 20
276.0594176384
 30
0.0
 10
30.4321578683
 20
275.0277925244
 30
0.0
 10
35.6171540722
 20
273.878751093
 30
0.0
 10
42.5860193048
 20
273.0104088583
 30
0.0
 10
48.3017548966
 20
272.9032339827
 30
0.0
 10
51.2122553564
 20
273.0006775331
 30
0.0
  0
SPLINE
  5
365
100
AcDbEntity
  8
0
100
AcDbSpline
 62
7
  6
CONTINUOUS
 70
0
 71
3
 72
12
 73
8
 74
0
 42
0.0000001
 43
0.0000001
 44
0.0000000001
 40
0.0
 40
0.0
 40
0.0
 40
0.0
 40
0.2848851704
 40
0.553145579
 40
0.7941610405
 40
0.901856636
 40
1.0
 40
1.0
 40
1.0
 40
1.0
 10
51.2122553564
 20
273.0006775331
 30
0.0
 10
53.6243309811
 20
273.0814338209
 30
0.0
 10
58.3043521717
 20
273.4416510088
 30
0.0
 10
64.9434723861
 20
274.5881655348
 30
0.0
 10
69.9813806742
 20
276.0409817884
 30
0.0
 10
73.4817776118
 20
277.4912617364
 30
0.0
 10
75.0316375182
 20
278.2976497746
 30
0.0
 10
75.7467249326
 20
278.7218249008
 30
0.0
  0
SPLINE
  5
366
100
AcDbEntity
  8
0
100
AcDbSpline
 62
7
  6
CONTINUOUS
 70
0
 71
3
 72
9
 73
5
 74
0
 42
0.0000001
 43
0.0000001
 44
0.0000000001
 40
0.0
 40
0.0
 40
0.0
 40
0.0
 40
0.5463530033
 40
1.0
 40
1.0
 40
1.0
 40
1.0
 10
75.7467249326
 20
278.7218249008
 30
0.0
 10
76.718142996
 20
279.2980500884
 30
0.0
 10
78.4245769369
 20
280.4852331371
 30
0.0
 10
79.82538448
 20
282.0519136181
 30
0.0
 10
80.3122531428
 20
282.8534467049
 30
0.0
  0
SPLINE
  5
367
100
AcDbEntity
  8
0
100
AcDbSpline
 62
7
  6
CONTINUOUS
 70
0
 71
3
 72
9
 73
5
 74
0
 42
0.0000001
 43
0.0000001
 44
0.0000000001
 40
0.0
 40
0.0
 40
0.0
 40
0.0
 40
0.5114471934
 40
1.0
 40
1.0
 40
1.0
 40
1.0
 10
80.5421743286
 20
283.2610559464
 30
0.0
 10
80.8295819047
 20
283.8126882415
 30
0.0
 10
81.2473534771
 20
284.9806581744
 30
0.0
 10
81.2297863956
 20
286.2262815463
 30
0.0
 10
81.1191524404
 20
286.8100608384
 30
0.0
  0
SPLINE
  5
368
100
AcDbEntity
  8
0
100
AcDbSpline
 62
7
  6
CONTINUOUS
 70
0
 71
3
 72
17
 73
13
 74
0
 42
0.0000001
 43
0.0000001
 44
0.0000000001
 40
0.0
 40
0.0
 40
0.0
 40
0.0
 40
0.0403901966
 40
0.0808459866
 40
0.122484963
 40
0.1663115826
 40
0.2634225361
 40
0.3766763649
 40
0.5076798808
 40
0.6562661878
 40
0.8210911711
 40
1.0
 40
1.0
 40
1.0
 40
1.0
 10
89.0370063859
 20
286.0419933636
 30
0.0
 10
89.1029918999
 20
285.6612932554
 30
0.0
 10
89.1668631279
 20
284.8854202552
 30
0.0
 10
89.0453427669
 20
283.7137025108
 30
0.0
 10
88.7072948084
 20
282.5511555064
 30
0.0
 10
87.9479214156
 20
280.9707658666
 30
0.0
 10
86.414484788
 20
279.0457560805
 30
0.0
 10
83.8739015353
 20
276.9692042498
 30
0.0
 10
80.6213503316
 20
275.0634577017
 30
0.0
 10
76.7170465
 20
273.3618110156
 30
0.0
 10
72.2356421509
 20
271.8954205128
 30
0.0
 10
69.0360953103
 20
271.1222708383
 30
0.0
 10
67.3600680306
 20
270.7758291107
 30
0.0
  0
SPLINE
  5
369
100
AcDbEntity
  8
0
100
AcDbSpline
 62
7
  6
CONTINUOUS
 70
0
 71
3
 72
27
 73
23
 74
0
 42
0.0000001
 43
0.0000001
 44
0.0000000001
 40
0.0
 40
0.0
 40
0.0
 40
0.0
 40
0.1522067071
 40
0.3091351012
 40
0.4634789465
 40
0.5374652461
 40
0.6081985587
 40
0.6749316093
 40
0.7370193131
 40
0.7939480572
 40
0.8203727819
 40
0.8453847403
 40
0.8912099304
 40
0.9316401088
 40
0.941016974
 40
0.9500992942
 40
0.958916611
 40
0.9675242274
 40
0.9758788433
 40
0.9840732094
 40
0.9920957823
 40
1.0
 40
1.0
 40
1.0
 40
1.0
 10
63.8299393938
 20
270.1289665857
 30
0.0
 10
60.7784988344
 20
269.6382639294
 30
0.0
 10
54.5243700126
 20
268.9733807348
 30
0.0
 10
45.102487116
 20
268.8480064639
 30
0.0
 10
37.2900235803
 20
269.4585849797
 30
0.0
 10
31.2866467091
 20
270.388856694
 30
0.0
 10
27.0832349436
 20
271.276133745
 30
0.0
 10
23.1731997152
 20
272.3500119548
 30
0.0
 10
19.6095654536
 20
273.595348736
 30
0.0
 10
16.904403108
 20
274.7906258461
 30
0.0
 10
14.9615729075
 20
275.8259658092
 30
0.0
 10
13.2727003047
 20
276.8509566538
 30
0.0
 10
11.4405800618
 20
278.1849900453
 30
0.0
 10
10.0638100881
 20
279.5700294872
 30
0.0
 10
9.3257014288
 20
280.5112412437
 30
0.0
 10
9.0092785886
 20
280.9663920252
 30
0.0
 10
8.7313772737
 20
281.4274137966
 30
0.0
 10
8.4744818166
 20
281.8842135038
 30
0.0
 10
8.2724862717
 20
282.353876306
 30
0.0
 10
8.0867273828
 20
282.8173409625
 30
0.0
 10
7.9514638349
 20
283.2887170668
 30
0.0
 10
7.8782167834
 20
283.6039003097
 30
0.0
 10
7.8483318923
 20
283.7615931307
 30
0.0
  0
SPLINE
  5
36A
100
AcDbEntity
  8
0
100
AcDbSpline
 62
7
  6
CONTINUOUS
 70
0
 71
3
 72
9
 73
5
 74
0
 42
0.0000001
 43
0.0000001
 44
0.0000000001
 40
0.0
 40
0.0
 40
0.0
 40
0.0
 40
0.2546658805
 40
1.0
 40
1.0
 40
1.0
 40
1.0
 10
16.7819734994
 20
287.0646824035
 30
0.0
 10
16.7491740425
 20
286.9779615692
 30
0.0
 10
16.6284755085
 20
286.6344480412
 30
0.0
 10
16.5414080548
 20
286.2789501072
 30
0.0
 10
16.4980766742
 20
286.0110781629
 30
0.0
  0
SPLINE
  5
36B
100
AcDbEntity
  8
0
100
AcDbSpline
 62
7
  6
CONTINUOUS
 70
0
 71
3
 72
9
 73
5
 74
0
 42
0.0000001
 43
0.0000001
 44
0.0000000001
 40
0.0
 40
0.0
 40
0.0
 40
0.0
 40
0.5179043078
 40
1.0
 40
1.0
 40
1.0
 40
1.0
 10
45.6545912878
 20
298.7013673743
 30
0.0
 10
42.9974048406
 20
298.6124047759
 30
0.0
 10
37.8718187971
 20
298.1956335812
 30
0.0
 10
32.813190255
 20
297.2450790707
 30
0.0
 10
30.4173339268
 20
296.6247896625
 30
0.0
  0
SPLINE
  5
36C
100
AcDbEntity
  8
0
100
AcDbSpline
 62
7
  6
CONTINUOUS
 70
0
 71
3
 72
9
 73
5
 74
0
 42
0.0000001
 43
0.0000001
 44
0.0000000001
 40
0.0
 40
0.0
 40
0.0
 40
0.0
 40
0.2580047651
 40
1.0
 40
1.0
 40
1.0
 40
1.0
 10
30.4173339268
 20
296.6247896625
 30
0.0
 10
30.0893383038
 20
296.5398712938
 30
0.0
 10
28.8212434892
 20
296.1986795237
 30
0.0
 10
27.5661867221
 20
295.8081510722
 30
0.0
 10
26.6465314091
 20
295.486194096
 30
0.0
  0
SPLINE
  5
36D
100
AcDbEntity
  8
0
100
AcDbSpline
 62
7
  6
CONTINUOUS
 70
0
 71
3
 72
15
 73
11
 74
0
 42
0.0000001
 43
0.0000001
 44
0.0000000001
 40
0.0
 40
0.0
 40
0.0
 40
0.0
 40
0.1742309125
 40
0.3333137833
 40
0.4765649308
 40
0.6040327779
 40
0.716787613
 40
0.817293973
 40
0.9097746921
 40
1.0
 40
1.0
 40
1.0
 40
1.0
 10
26.6465314091
 20
295.486194096
 30
0.0
 10
25.7471597194
 20
295.1713380998
 30
0.0
 10
24.0462754021
 20
294.5096844834
 30
0.0
 10
21.7020433621
 20
293.3622988731
 30
0.0
 10
19.7028531749
 20
292.1163311649
 30
0.0
 10
18.0729285599
 20
290.7852103357
 30
0.0
 10
16.8327001694
 20
289.3805317131
 30
0.0
 10
16.0026054395
 20
287.9110600305
 30
0.0
 10
15.6102227955
 20
286.3921374325
 30
0.0
 10
15.6558133368
 20
285.3768095406
 30
0.0
 10
15.7476940765
 20
284.8919847045
 30
0.0
  0
SPLINE
  5
36E
100
AcDbEntity
  8
0
100
AcDbSpline
 62
7
  6
CONTINUOUS
 70
0
 71
3
 72
19
 73
15
 74
0
 42
0.0000001
 43
0.0000001
 44
0.0000000001
 40
0.0
 40
0.0
 40
0.0
 40
0.0
 40
0.0526984181
 40
0.078893679
 40
0.105100328
 40
0.131303607
 40
0.1575259488
 40
0.2106351778
 40
0.2645086794
 40
0.3198189703
 40
0.3766795271
 40
0.4355415942
 40
0.6946029147
 40
1.0
 40
1.0
 40
1.0
 40
1.0
 10
7.8299542345
 20
283.8627229793
 30
0.0
 10
7.7945439573
 20
284.0670054265
 30
0.0
 10
7.7567194492
 20
284.3755543188
 30
0.0
 10
7.7306171292
 20
284.788437148
 30
0.0
 10
7.734965899
 20
285.0978862805
 30
0.0
 10
7.7493425785
 20
285.4068730119
 30
0.0
 10
7.7815900407
 20
285.8211398033
 30
0.0
 10
7.8817136595
 20
286.3366930719
 30
0.0
 10
8.0414693949
 20
286.955518145
 30
0.0
 10
8.2738772521
 20
287.5672410413
 30
0.0
 10
8.5587267865
 20
288.1775152134
 30
0.0
 10
9.295325148
 20
289.4567217902
 30
0.0
 10
10.9246625318
 20
291.3308960216
 30
0.0
 10
12.7149481643
 20
292.6646028939
 30
0.0
 10
13.7254990377
 20
293.3145331931
 30
0.0
  0
SPLINE
  5
36F
100
AcDbEntity
  8
0
100
AcDbSpline
 62
7
  6
CONTINUOUS
 70
0
 71
3
 72
20
 73
16
 74
0
 42
0.0000001
 43
0.0000001
 44
0.0000000001
 40
0.0
 40
0.0
 40
0.0
 40
0.0
 40
0.0511652045
 40
0.1082948275
 40
0.170785126
 40
0.2378127392
 40
0.3813677652
 40
0.5300326594
 40
0.6741989947
 40
0.7417416929
 40
0.804866537
 40
0.8627260722
 40
0.9146861029
 40
0.9604111784
 40
1.0
 40
1.0
 40
1.0
 40
1.0
 10
14.600196143
 20
293.8524755903
 30
0.0
 10
15.7146920122
 20
294.5082910685
 30
0.0
 10
18.1696254416
 20
295.7351229352
 30
0.0
 10
22.2112513951
 20
297.2653412923
 30
0.0
 10
26.7512221493
 20
298.5644644565
 30
0.0
 10
33.5095166218
 20
299.9855552655
 30
0.0
 10
42.555862482
 20
300.9983682411
 30
0.0
 10
53.6034298718
 20
301.0360882895
 30
0.0
 10
62.684809085
 20
300.0858468036
 30
0.0
 10
69.4985384782
 20
298.7136695047
 30
0.0
 10
74.0965043477
 20
297.4464494452
 30
0.0
 10
78.207146459
 20
295.9442797371
 30
0.0
 10
81.7560866632
 20
294.2339767978
 30
0.0
 10
84.6791228332
 20
292.3469865189
 30
0.0
 10
86.2878290842
 20
290.8868564568
 30
0.0
 10
86.9439655397
 20
290.1314778209
 30
0.0
  0
SPLINE
  5
370
100
AcDbEntity
  8
0
100
AcDbSpline
 62
7
  6
CONTINUOUS
 70
0
 71
3
 72
9
 73
5
 74
0
 42
0.0000001
 43
0.0000001
 44
0.0000000001
 40
0.0
 40
0.0
 40
0.0
 40
0.0
 40
0.5214462299
 40
1.0
 40
1.0
 40
1.0
 40
1.0
 10
87.4738116377
 20
289.4757933362
 30
0.0
 10
87.8588542927
 20
288.9612734527
 30
0.0
 10
88.5129247657
 20
287.9054272849
 30
0.0
 10
88.9086980812
 20
286.722688752
 30
0.0
 10
89.0185146446
 20
286.14322257
 30
0.0
  0
SPLINE
  5
371
100
AcDbEntity
  8
0
100
AcDbSpline
 62
7
  6
CONTINUOUS
 70
0
 71
3
 72
18
 73
14
 74
0
 42
0.0000001
 43
0.0000001
 44
0.0000000001
 40
0.0
 40
0.0
 40
0.0
 40
0.0
 40
0.0337284249
 40
0.0701781619
 40
0.1104002363
 40
0.1550798818
 40
0.2045616429
 40
0.2589400235
 40
0.3818021336
 40
0.5214843641
 40
0.6742516554
 40
0.8354665977
 40
1.0
 40
1.0
 40
1.0
 40
1.0
 10
81.1191517343
 20
286.8100608892
 30
0.0
 10
81.0374184665
 20
287.2413406808
 30
0.0
 10
80.753470384
 20
288.1196419422
 30
0.0
 10
80.0233359394
 20
289.3671860102
 30
0.0
 10
78.9915439145
 20
290.5720000503
 30
0.0
 10
77.670739663
 20
291.7257147611
 30
0.0
 10
76.0733532256
 20
292.8209313459
 30
0.0
 10
73.4872693493
 20
294.249176271
 30
0.0
 10
69.6444386616
 20
295.7885022663
 30
0.0
 10
64.4188612676
 20
297.2028297323
 30
0.0
 10
58.5910130514
 20
298.1982240302
 30
0.0
 10
52.3805294061
 20
298.735894059
 30
0.0
 10
48.1363127164
 20
298.7748909282
 30
0.0
 10
45.9959253212
 20
298.7120888983
 30
0.0
  0
SPLINE
  5
372
100
AcDbEntity
  8
0
100
AcDbSpline
 62
7
  6
CONTINUOUS
 70
0
 71
3
 72
9
 73
5
 74
0
 42
0.0000001
 43
0.0000001
 44
0.0000000001
 40
0.0
 40
0.0
 40
0.0
 40
0.0
 40
0.5266027846
 40
1.0
 40
1.0
 40
1.0
 40
1.0
 10
34.6388773707
 20
265.5224148837
 30
0.0
 10
32.2365765901
 20
265.8338709497
 30
0.0
 10
27.6327579679
 20
266.1504781778
 30
0.0
 10
23.0233678118
 20
265.8021987648
 30
0.0
 10
20.8757441378
 20
265.4417751425
 30
0.0
  0
SPLINE
  5
373
100
AcDbEntity
  8
0
100
AcDbSpline
 62
7
  6
CONTINUOUS
 70
0
 71
3
 72
15
 73
11
 74
0
 42
0.0000001
 43
0.0000001
 44
0.0000000001
 40
0.0
 40
0.0
 40
0.0
 40
0.0
 40
0.1896866317
 40
0.2988413937
 40
0.4189952887
 40
0.5498309581
 40
0.6194473103
 40
0.6914326508
 40
0.8420834826
 40
1.0
 40
1.0
 40
1.0
 40
1.0
 10
7.8077981859
 20
258.9446452467
 30
0.0
 10
9.0643818217
 20
260.2312693186
 30
0.0
 10
11.4182160278
 20
261.9062118407
 30
0.0
 10
15.0407186395
 20
263.5446241135
 30
0.0
 10
18.3033842239
 20
264.5818990953
 30
0.0
 10
21.2888927569
 20
265.1793961747
 30
0.0
 10
23.8502300869
 20
265.5186550603
 30
0.0
 10
26.6123761959
 20
265.7503158809
 30
0.0
 10
30.2238629856
 20
265.8203527526
 30
0.0
 10
33.1476239344
 20
265.6560378249
 30
0.0
 10
34.6388773707
 20
265.5224148837
 30
0.0
  0
SPLINE
  5
374
100
AcDbEntity
  8
0
100
AcDbSpline
 62
7
  6
CONTINUOUS
 70
0
 71
3
 72
18
 73
14
 74
0
 42
0.0000001
 43
0.0000001
 44
0.0000000001
 40
0.0
 40
0.0
 40
0.0
 40
0.0
 40
0.0913094961
 40
0.1913248065
 40
0.301146619
 40
0.3600334154
 40
0.4216233199
 40
0.4858755758
 40
0.552727505
 40
0.6221175978
 40
0.6938795305
 40
0.8436283499
 40
1.0
 40
1.0
 40
1.0
 40
1.0
 10
7.9782870319
 20
258.4292663397
 30
0.0
 10
8.6000243184
 20
259.0216387053
 30
0.0
 10
9.9788393025
 20
260.1874474714
 30
0.0
 10
12.3905561238
 20
261.689310768
 30
0.0
 10
14.6957097895
 20
262.7424872828
 30
0.0
 10
16.7398579281
 20
263.4611503451
 30
0.0
 10
18.4056479111
 20
263.9567963632
 30
0.0
 10
20.164212709
 20
264.3973410188
 30
0.0
 10
22.014981129
 20
264.762818287
 30
0.0
 10
23.9519896859
 20
265.0420347076
 30
0.0
 10
26.6749196484
 20
265.3144863829
 30
0.0
 10
30.2297976213
 20
265.4576623521
 30
0.0
 10
33.109864146
 20
265.3535181476
 30
0.0
 10
34.5769285686
 20
265.2507572987
 30
0.0
  0
SPLINE
  5
375
100
AcDbEntity
  8
0
100
AcDbSpline
 62
7
  6
CONTINUOUS
 70
0
 71
3
 72
9
 73
5
 74
0
 42
0.0000001
 43
0.0000001
 44
0.0000000001
 40
0.0
 40
0.0
 40
0.0
 40
0.0
 40
0.5971830541
 40
1.0
 40
1.0
 40
1.0
 40
1.0
 10
34.5769260773
 20
265.2507544444
 30
0.0
 10
34.5850681009
 20
265.3057349628
 30
0.0
 10
34.5985677369
 20
265.3948328717
 30
0.0
 10
34.614193944
 20
265.493621198
 30
0.0
 10
34.6388711075
 20
265.5218446918
 30
0.0
  0
SPLINE
  5
376
100
AcDbEntity
  8
0
100
AcDbSpline
 62
7
  6
CONTINUOUS
 70
0
 71
3
 72
8
 73
4
 74
0
 42
0.0000001
 43
0.0000001
 44
0.0000000001
 40
0.0
 40
0.0
 40
0.0
 40
0.0
 40
1.0
 40
1.0
 40
1.0
 40
1.0
 10
34.6391074054
 20
265.5226342346
 30
0.0
 10
34.7028457962
 20
265.5148024956
 30
0.0
 10
34.7664860797
 20
265.5061917109
 30
0.0
 10
34.8301857823
 20
265.4980512878
 30
0.0
  0
SPLINE
  5
377
100
AcDbEntity
  8
0
100
AcDbSpline
 62
7
  6
CONTINUOUS
 70
0
 71
3
 72
17
 73
13
 74
0
 42
0.0000001
 43
0.0000001
 44
0.0000000001
 40
0.0
 40
0.0
 40
0.0
 40
0.0
 40
0.2482131095
 40
0.3726990406
 40
0.4974572325
 40
0.6225139244
 40
0.7479296273
 40
0.8108139003
 40
0.8738668533
 40
0.9371829341
 40
0.9690520044
 40
1.0
 40
1.0
 40
1.0
 40
1.0
 10
34.8302708564
 20
265.4981683864
 30
0.0
 10
34.9754010743
 20
265.4796217703
 30
0.0
 10
35.1931492584
 20
265.4504127068
 30
0.0
 10
35.4832646202
 20
265.4077466308
 30
0.0
 10
35.7011555593
 20
265.3730855983
 30
0.0
 10
35.9190834371
 20
265.3350130283
 30
0.0
 10
36.1001552927
 20
265.2989575702
 30
0.0
 10
36.2447421152
 20
265.265438407
 30
0.0
 10
36.3518258753
 20
265.2368423024
 30
0.0
 10
36.4426936807
 20
265.2066952547
 30
0.0
 10
36.5060264447
 20
265.1773135952
 30
0.0
 10
36.5440617912
 20
265.1498417487
 30
0.0
 10
36.5430465392
 20
265.131627568
 30
0.0
  0
SPLINE
  5
378
100
AcDbEntity
  8
0
100
AcDbSpline
 62
7
  6
CONTINUOUS
 70
0
 71
3
 72
9
 73
5
 74
0
 42
0.0000001
 43
0.0000001
 44
0.0000000001
 40
0.0
 40
0.0
 40
0.0
 40
0.0
 40
0.4950733626
 40
1.0
 40
1.0
 40
1.0
 40
1.0
 10
34.8302708564
 20
265.4981683864
 30
0.0
 10
37.5990787795
 20
265.14474393
 30
0.0
 10
43.2235081514
 20
264.6655396624
 30
0.0
 10
48.8674025646
 20
264.6162368247
 30
0.0
 10
51.7130038796
 20
264.6997648211
 30
0.0
  0
SPLINE
  5
379
100
AcDbEntity
  8
0
100
AcDbSpline
 62
7
  6
CONTINUOUS
 70
0
 71
3
 72
9
 73
5
 74
0
 42
0.0000001
 43
0.0000001
 44
0.0000000001
 40
0.0
 40
0.0
 40
0.0
 40
0.0
 40
0.2541121076
 40
1.0
 40
1.0
 40
1.0
 40
1.0
 10
51.7130603804
 20
264.6994072379
 30
0.0
 10
50.3987087899
 20
264.6608710839
 30
0.0
 10
45.2325486864
 20
264.3470886235
 30
0.0
 10
40.1036652818
 20
263.400984317
 30
0.0
 10
36.3920201695
 20
262.3424569841
 30
0.0
  0
SPLINE
  5
37A
100
AcDbEntity
  8
0
100
AcDbSpline
 62
7
  6
CONTINUOUS
 70
0
 71
3
 72
9
 73
5
 74
0
 42
0.0000001
 43
0.0000001
 44
0.0000000001
 40
0.0
 40
0.0
 40
0.0
 40
0.0
 40
0.4696903449
 40
1.0
 40
1.0
 40
1.0
 40
1.0
 10
19.9181617583
 20
253.5381157553
 30
0.0
 10
22.1885546436
 20
255.4003987629
 30
0.0
 10
27.4581427822
 20
258.8450861586
 30
0.0
 10
33.2458796638
 20
261.296529653
 30
0.0
 10
36.3920201695
 20
262.3424569841
 30
0.0
  0
SPLINE
  5
37B
100
AcDbEntity
  8
0
100
AcDbSpline
 62
7
  6
CONTINUOUS
 70
0
 71
3
 72
17
 73
13
 74
0
 42
0.0000001
 43
0.0000001
 44
0.0000000001
 40
0.0
 40
0.0
 40
0.0
 40
0.0
 40
0.104903321
 40
0.2168859035
 40
0.3358650852
 40
0.397932188
 40
0.4614301152
 40
0.5262105555
 40
0.5922440663
 40
0.6593018136
 40
0.7270734399
 40
1.0
 40
1.0
 40
1.0
 40
1.0
 10
19.9271778778
 20
253.4905406338
 30
0.0
 10
20.8659844545
 20
254.2299558563
 30
0.0
 10
22.8832535562
 20
255.6629608212
 30
0.0
 10
26.1725707098
 20
257.624292737
 30
0.0
 10
29.1689659255
 20
259.1034337479
 30
0.0
 10
31.7282867394
 20
260.2047470189
 30
0.0
 10
33.7525826127
 20
260.9836670631
 30
0.0
 10
35.8483333183
 20
261.6976181641
 30
0.0
 10
38.005482385
 20
262.3528626279
 30
0.0
 10
40.217141948
 20
262.9421005617
 30
0.0
 10
44.7480471337
 20
263.9663672578
 30
0.0
 10
48.6109217205
 20
264.491461285
 30
0.0
 10
51.7130603804
 20
264.6994072379
 30
0.0
  0
SPLINE
  5
37C
100
AcDbEntity
  8
0
100
AcDbSpline
 62
7
  6
CONTINUOUS
 70
0
 71
3
 72
9
 73
5
 74
0
 42
0.0000001
 43
0.0000001
 44
0.0000000001
 40
0.0
 40
0.0
 40
0.0
 40
0.0
 40
0.5112738061
 40
1.0
 40
1.0
 40
1.0
 40
1.0
 10
53.7414841241
 20
261.8154495408
 30
0.0
 10
50.5702350022
 20
260.2161546185
 30
0.0
 10
44.5567576102
 20
256.7018008038
 30
0.0
 10
38.9730033019
 20
252.5429904179
 30
0.0
 10
36.3709575058
 20
250.3622037322
 30
0.0
  0
SPLINE
  5
37D
100
AcDbEntity
  8
0
100
AcDbSpline
 62
7
  6
CONTINUOUS
 70
0
 71
3
 72
17
 73
13
 74
0
 42
0.0000001
 43
0.0000001
 44
0.0000000001
 40
0.0
 40
0.0
 40
0.0
 40
0.0
 40
0.105573565
 40
0.2181992115
 40
0.3376509569
 40
0.3997861243
 40
0.4633596404
 40
0.5282002741
 40
0.5941365682
 40
0.7285111524
 40
0.8645332769
 40
1.0
 40
1.0
 40
1.0
 40
1.0
 10
20.582967738
 20
253.083167271
 30
0.0
 10
21.5299736216
 20
253.7903196466
 30
0.0
 10
23.5238681669
 20
255.205079373
 30
0.0
 10
26.7727731326
 20
257.1445461311
 30
0.0
 10
29.7206730954
 20
258.6212934165
 30
0.0
 10
32.2422691318
 20
259.7061976705
 30
0.0
 10
34.2274040851
 20
260.4878818151
 30
0.0
 10
36.2742078969
 20
261.2269048048
 30
0.0
 10
39.1014971883
 20
262.1334519445
 30
0.0
 10
42.7509915589
 20
263.0734829011
 30
0.0
 10
47.2161512615
 20
263.9295540158
 30
0.0
 10
50.236405807
 20
264.2950077407
 30
0.0
 10
51.7473248124
 20
264.425613927
 30
0.0
  0
SPLINE
  5
37E
100
AcDbEntity
  8
0
100
AcDbSpline
 62
7
  6
CONTINUOUS
 70
0
 71
3
 72
10
 73
6
 74
0
 42
0.0000001
 43
0.0000001
 44
0.0000000001
 40
0.0
 40
0.0
 40
0.0
 40
0.0
 40
0.3087036972
 40
0.7319819561
 40
1.0
 40
1.0
 40
1.0
 40
1.0
 10
51.7473268502
 20
264.425610747
 30
0.0
 10
51.7494546037
 20
264.4540059062
 30
0.0
 10
51.7516606173
 20
264.521907365
 30
0.0
 10
51.7333940627
 20
264.6127308299
 30
0.0
 10
51.720719465
 20
264.6753341393
 30
0.0
 10
51.7130647968
 20
264.6988411581
 30
0.0
  0
SPLINE
  5
37F
100
AcDbEntity
  8
0
100
AcDbSpline
 62
7
  6
CONTINUOUS
 70
0
 71
3
 72
14
 73
10
 74
0
 42
0.0000001
 43
0.0000001
 44
0.0000000001
 40
0.0
 40
0.0
 40
0.0
 40
0.0
 40
0.2622991254
 40
0.3931837643
 40
0.5218008882
 40
0.6470978931
 40
0.768470162
 40
0.8859214785
 40
1.0
 40
1.0
 40
1.0
 40
1.0
 10
60.6952170422
 20
206.5679681258
 30
0.0
 10
60.8664972209
 20
205.6082754715
 30
0.0
 10
60.878975747
 20
204.1114046866
 30
0.0
 10
60.417169394
 20
202.2215653819
 30
0.0
 10
59.8454113838
 20
200.9022437334
 30
0.0
 10
59.0684806109
 20
199.7346914238
 30
0.0
 10
58.1146117284
 20
198.7623933204
 30
0.0
 10
57.0192432256
 20
198.0246066523
 30
0.0
 10
56.2112549356
 20
197.7050356776
 30
0.0
 10
55.8017299948
 20
197.5952602719
 30
0.0
  0
SPLINE
  5
380
100
AcDbEntity
  8
0
100
AcDbSpline
 62
7
  6
CONTINUOUS
 70
0
 71
3
 72
9
 73
5
 74
0
 42
0.0000001
 43
0.0000001
 44
0.0000000001
 40
0.0
 40
0.0
 40
0.0
 40
0.0
 40
0.2515482121
 40
1.0
 40
1.0
 40
1.0
 40
1.0
 10
-6.1817432119
 20
180.9802504434
 30
0.0
 10
-6.3170536784
 20
180.943979731
 30
0.0
 10
-6.8602182876
 20
180.8202158817
 30
0.0
 10
-7.422569526
 20
180.7801541049
 30
0.0
 10
-7.8389228322
 20
180.7997346434
 30
0.0
  0
SPLINE
  5
381
100
AcDbEntity
  8
0
100
AcDbSpline
 62
7
  6
CONTINUOUS
 70
0
 71
3
 72
14
 73
10
 74
0
 42
0.0000001
 43
0.0000001
 44
0.0000000001
 40
0.0
 40
0.0
 40
0.0
 40
0.0
 40
0.114078535
 40
0.2315298708
 40
0.3529021462
 40
0.4781991557
 40
0.6068162768
 40
0.7377009109
 40
1.0
 40
1.0
 40
1.0
 40
1.0
 10
-26.2571781778
 20
278.588916225
 30
0.0
 10
-26.6667031673
 20
278.4791408062
 30
0.0
 10
-27.4746915543
 20
278.1595697433
 30
0.0
 10
-28.5700601801
 20
277.4217829901
 30
0.0
 10
-29.5239290538
 20
276.4494847145
 30
0.0
 10
-30.3008597925
 20
275.2819323503
 30
0.0
 10
-30.8726177409
 20
273.9626106846
 30
0.0
 10
-31.3344239213
 20
272.0727715068
 30
0.0
 10
-31.3219453802
 20
270.5759008926
 30
0.0
 10
-31.1506652252
 20
269.6162083709
 30
0.0
  0
SPLINE
  5
382
100
AcDbEntity
  8
0
100
AcDbSpline
 62
7
  6
CONTINUOUS
 70
0
 71
3
 72
13
 73
9
 74
0
 42
0.0000001
 43
0.0000001
 44
0.0000000001
 40
0.0
 40
0.0
 40
0.0
 40
0.0
 40
0.2677119729
 40
0.5230960123
 40
0.6460400319
 40
0.7659508074
 40
0.8835849436
 40
1.0
 40
1.0
 40
1.0
 40
1.0
 10
-16.362248794
 20
186.755863832
 30
0.0
 10
-16.2228423839
 20
185.9747617296
 30
0.0
 10
-15.7378118332
 20
184.4765021927
 30
0.0
 10
-14.612938831
 20
182.8840997443
 30
0.0
 10
-13.4791231243
 20
181.9275455061
 30
0.0
 10
-12.5482181991
 20
181.3908536703
 30
0.0
 10
-11.5524421437
 20
181.042203973
 30
0.0
 10
-10.8608708648
 20
180.9418505868
 30
0.0
 10
-10.5162208196
 20
180.9256421468
 30
0.0
  0
SPLINE
  5
383
100
AcDbEntity
  8
0
100
AcDbSpline
 62
7
  6
CONTINUOUS
 70
0
 71
3
 72
17
 73
13
 74
0
 42
0.0000001
 43
0.0000001
 44
0.0000000001
 40
0.0
 40
0.0
 40
0.0
 40
0.0
 40
0.053830033
 40
0.1093793375
 40
0.2259963653
 40
0.3500819306
 40
0.4800233082
 40
0.6131324854
 40
0.6799460927
 40
0.7463329035
 40
0.8761254441
 40
1.0
 40
1.0
 40
1.0
 40
1.0
 10
55.8761668532
 20
249.7418949364
 30
0.0
 10
56.4525510686
 20
248.8741571148
 30
0.0
 10
57.4938782368
 20
247.0213040272
 30
0.0
 10
59.0953632715
 20
242.9396384689
 30
0.0
 10
60.1183202
 20
237.2348441219
 30
0.0
 10
59.7734085758
 20
230.0189474184
 30
0.0
 10
57.9209854153
 20
222.7120657716
 30
0.0
 10
55.211873418
 20
216.8886161023
 30
0.0
 10
52.415971596
 20
212.5518435959
 30
0.0
 10
49.2703910792
 20
208.5427014313
 30
0.0
 10
44.7778465966
 20
204.222646718
 30
0.0
 10
40.5916926557
 20
201.575080401
 30
0.0
 10
38.4308670585
 20
200.5370296168
 30
0.0
  0
SPLINE
  5
384
100
AcDbEntity
  8
0
100
AcDbSpline
 62
7
  6
CONTINUOUS
 70
0
 71
3
 72
11
 73
7
 74
0
 42
0.0000001
 43
0.0000001
 44
0.0000000001
 40
0.0
 40
0.0
 40
0.0
 40
0.0
 40
0.2575230999
 40
0.5088224588
 40
0.7555701369
 40
1.0
 40
1.0
 40
1.0
 40
1.0
 10
28.5135113454
 20
197.8786280442
 30
0.0
 10
27.5295120763
 20
197.8238040174
 30
0.0
 10
25.5753072209
 20
197.8428253349
 30
0.0
 10
22.7066525121
 20
198.2762329372
 30
0.0
 10
19.97963627
 20
199.1097196244
 30
0.0
 10
18.2774166636
 20
199.9269238589
 30
0.0
 10
17.4673899908
 20
200.3947531521
 30
0.0
  0
SPLINE
  5
385
100
AcDbEntity
  8
0
100
AcDbSpline
 62
7
  6
CONTINUOUS
 70
0
 71
3
 72
14
 73
10
 74
0
 42
0.0000001
 43
0.0000001
 44
0.0000000001
 40
0.0
 40
0.0
 40
0.0
 40
0.0
 40
0.2647836295
 40
0.4023089476
 40
0.5369530529
 40
0.6649530914
 40
0.7841200342
 40
0.8947373298
 40
1.0
 40
1.0
 40
1.0
 40
1.0
 10
38.4308670585
 20
200.0152771585
 30
0.0
 10
38.4308670585
 20
198.950207727
 30
0.0
 10
38.009054315
 20
197.3139445867
 30
0.0
 10
36.8618372144
 20
195.4743432347
 30
0.0
 10
35.7347327367
 20
194.3054885206
 30
0.0
 10
34.4345865502
 20
193.4610377681
 30
0.0
 10
33.0495367456
 20
193.0051388804
 30
0.0
 10
31.6787701058
 20
192.9839005522
 30
0.0
 10
30.8379663736
 20
193.2787287717
 30
0.0
 10
30.471298528
 20
193.4904615505
 30
0.0
  0
SPLINE
  5
386
100
AcDbEntity
  8
0
100
AcDbSpline
 62
7
  6
CONTINUOUS
 70
0
 71
3
 72
11
 73
7
 74
0
 42
0.0000001
 43
0.0000001
 44
0.0000000001
 40
0.0
 40
0.0
 40
0.0
 40
0.0
 40
0.2717350397
 40
0.5268969419
 40
0.7676331593
 40
1.0
 40
1.0
 40
1.0
 40
1.0
 10
30.579627119
 20
197.9107092416
 30
0.0
 10
30.579627119
 20
197.6714707863
 30
0.0
 10
30.6262121819
 20
197.2056274927
 30
0.0
 10
30.8489008074
 20
196.5602900367
 30
0.0
 10
31.2141648281
 20
196.0234496134
 30
0.0
 10
31.5445359139
 20
195.7576529122
 30
0.0
 10
31.7216878768
 20
195.6553325812
 30
0.0
  0
SPLINE
  5
387
100
AcDbEntity
  8
0
100
AcDbSpline
 62
7
  6
CONTINUOUS
 70
0
 71
3
 72
19
 73
15
 74
0
 42
0.0000001
 43
0.0000001
 44
0.0000000001
 40
0.0
 40
0.0
 40
0.0
 40
0.0
 40
0.1312176856
 40
0.2673547522
 40
0.3361303443
 40
0.4046061514
 40
0.5384257976
 40
0.6654987158
 40
0.7259482105
 40
0.7841665703
 40
0.8402881989
 40
0.8946252369
 40
0.9476581317
 40
1.0
 40
1.0
 40
1.0
 40
1.0
 10
25.8564016015
 20
251.8265522811
 30
0.0
 10
23.7051092998
 20
250.4629008581
 30
0.0
 10
19.6508676139
 20
247.1412749612
 30
0.0
 10
15.5667255431
 20
241.9918285657
 30
0.0
 10
12.9371904777
 20
237.3727371324
 30
0.0
 10
10.8157746415
 20
232.5488580777
 30
0.0
 10
9.1636590027
 20
226.3199498913
 30
0.0
 10
8.9467383922
 20
220.0199838483
 30
0.0
 10
9.7115006661
 20
215.2985606257
 30
0.0
 10
10.7147007454
 20
212.0448900109
 30
0.0
 10
12.1404096805
 20
209.0829187211
 30
0.0
 10
13.96502344
 20
206.4683176016
 30
0.0
 10
16.1551309148
 20
204.2530107127
 30
0.0
 10
17.8379895887
 20
203.0678082622
 30
0.0
 10
18.7177789835
 20
202.5596234473
 30
0.0
  0
SPLINE
  5
388
100
AcDbEntity
  8
0
100
AcDbSpline
 62
7
  6
CONTINUOUS
 70
0
 71
3
 72
9
 73
5
 74
0
 42
0.0000001
 43
0.0000001
 44
0.0000000001
 40
0.0
 40
0.0
 40
0.0
 40
0.0
 40
0.748453333
 40
1.0
 40
1.0
 40
1.0
 40
1.0
 10
-7.2749806297
 20
193.026637001
 30
0.0
 10
-7.5525501139
 20
193.0396926991
 30
0.0
 10
-7.9274511831
 20
193.0129797377
 30
0.0
 10
-8.2895607807
 20
192.930469852
 30
0.0
 10
-8.3797672476
 20
192.9062895139
 30
0.0
  0
SPLINE
  5
389
100
AcDbEntity
  8
0
100
AcDbSpline
 62
7
  6
CONTINUOUS
 70
0
 71
3
 72
9
 73
5
 74
0
 42
0.0000001
 43
0.0000001
 44
0.0000000001
 40
0.0
 40
0.0
 40
0.0
 40
0.0
 40
0.487466269
 40
1.0
 40
1.0
 40
1.0
 40
1.0
 10
63.7710800773
 20
250.6501912182
 30
0.0
 10
64.5314433
 20
248.6589791101
 30
0.0
 10
65.6717111301
 20
244.405800789
 30
0.0
 10
66.0238452323
 20
240.0237046794
 30
0.0
 10
66.0238452323
 20
237.7826473091
 30
0.0
  0
SPLINE
  5
38A
100
AcDbEntity
  8
0
100
AcDbSpline
 62
7
  6
CONTINUOUS
 70
0
 71
3
 72
15
 73
11
 74
0
 42
0.0000001
 43
0.0000001
 44
0.0000000001
 40
0.0
 40
0.0
 40
0.0
 40
0.0
 40
0.1226793102
 40
0.2497804871
 40
0.3795759387
 40
0.5100271139
 40
0.6390304753
 40
0.7646372387
 40
0.8852762652
 40
1.0
 40
1.0
 40
1.0
 40
1.0
 10
66.0238452323
 20
237.7826473091
 30
0.0
 10
66.0238452323
 20
235.2792273189
 30
0.0
 10
65.5645432091
 20
230.1739179902
 30
0.0
 10
63.6320142664
 20
222.6426299862
 30
0.0
 10
60.51740711
 20
215.3450478861
 30
0.0
 10
56.3378078179
 20
208.5562913839
 30
0.0
 10
51.2496543912
 20
202.5291544938
 30
0.0
 10
45.4397373994
 20
197.490029636
 30
0.0
 10
39.1252758742
 20
193.6305594133
 30
0.0
 10
34.6074046009
 20
191.8984126542
 30
0.0
 10
32.3461581231
 20
191.2922731382
 30
0.0
  0
SPLINE
  5
38B
100
AcDbEntity
  8
0
100
AcDbSpline
 62
7
  6
CONTINUOUS
 70
0
 71
3
 72
9
 73
5
 74
0
 42
0.0000001
 43
0.0000001
 44
0.0000000001
 40
0.0
 40
0.0
 40
0.0
 40
0.0
 40
0.512250521
 40
1.0
 40
1.0
 40
1.0
 40
1.0
 10
-3.827749971
 20
276.5746643447
 30
0.0
 10
-3.1876085073
 20
277.1917032078
 30
0.0
 10
-1.8014450775
 20
278.2672513012
 30
0.0
 10
-0.1802996409
 20
278.9512489394
 30
0.0
 10
0.6374184676
 20
279.1704346439
 30
0.0
  0
SPLINE
  5
38C
100
AcDbEntity
  8
0
100
AcDbSpline
 62
7
  6
CONTINUOUS
 70
0
 71
3
 72
12
 73
8
 74
0
 42
0.0000001
 43
0.0000001
 44
0.0000000001
 40
0.0
 40
0.0
 40
0.0
 40
0.0
 40
0.2425574852
 40
0.4938888477
 40
0.6212578433
 40
0.7486317596
 40
1.0
 40
1.0
 40
1.0
 40
1.0
 10
-4.1461914672
 20
221.3457800444
 30
0.0
 10
-4.20916734
 20
224.5428248406
 30
0.0
 10
-3.6026870122
 20
231.0818363936
 30
0.0
 10
-1.2244590758
 20
238.9736215266
 30
0.0
 10
1.5915468943
 20
245.0321803066
 30
0.0
 10
4.9696295115
 20
250.7937592568
 30
0.0
 10
8.1084274625
 20
254.7306796849
 30
0.0
 10
10.4265113536
 20
257.0987756479
 30
0.0
  0
SPLINE
  5
38D
100
AcDbEntity
  8
0
100
AcDbSpline
 62
7
  6
CONTINUOUS
 70
0
 71
3
 72
11
 73
7
 74
0
 42
0.0000001
 43
0.0000001
 44
0.0000000001
 40
0.0
 40
0.0
 40
0.0
 40
0.0
 40
0.2351186587
 40
0.479482629
 40
0.7344019751
 40
1.0
 40
1.0
 40
1.0
 40
1.0
 10
3.2102512589
 20
200.2153118038
 30
0.0
 10
2.0510223977
 20
201.5741368523
 30
0.0
 10
-0.0359613193
 20
204.592302408
 30
0.0
 10
-2.3147088747
 20
209.7155532989
 30
0.0
 10
-3.7464354747
 20
215.373178973
 30
0.0
 10
-4.1064550144
 20
219.328511939
 30
0.0
 10
-4.1461914672
 20
221.3457800444
 30
0.0
  0
SPLINE
  5
38E
100
AcDbEntity
  8
0
100
AcDbSpline
 62
7
  6
CONTINUOUS
 70
0
 71
3
 72
17
 73
13
 74
0
 42
0.0000001
 43
0.0000001
 44
0.0000000001
 40
0.0
 40
0.0
 40
0.0
 40
0.0
 40
0.1232162235
 40
0.2533723289
 40
0.3874768065
 40
0.5217394965
 40
0.6523401892
 40
0.7761889116
 40
0.8351294685
 40
0.891953313
 40
0.946807855
 40
1.0
 40
1.0
 40
1.0
 40
1.0
 10
36.364751285
 20
201.9513353147
 30
0.0
 10
38.5608862681
 20
202.8319269181
 30
0.0
 10
42.8492517663
 20
205.245808213
 30
0.0
 10
48.4022888614
 20
210.2760740589
 30
0.0
 10
52.9467065176
 20
216.4979540552
 30
0.0
 10
56.1805686094
 20
223.4998908139
 30
0.0
 10
57.8913411963
 20
230.8199994699
 30
0.0
 10
57.9423089477
 20
236.9005450001
 30
0.0
 10
57.0999753125
 20
241.4360870454
 30
0.0
 10
56.0667315667
 20
244.5571933171
 30
0.0
 10
54.6385982287
 20
247.3955598834
 30
0.0
 10
53.4214365046
 20
249.0891021189
 30
0.0
 10
52.7578634316
 20
249.8656416608
 30
0.0
  0
SPLINE
  5
38F
100
AcDbEntity
  8
0
100
AcDbSpline
 62
7
  6
CONTINUOUS
 70
0
 71
3
 72
14
 73
10
 74
0
 42
0.0000001
 43
0.0000001
 44
0.0000000001
 40
0.0
 40
0.0
 40
0.0
 40
0.0
 40
0.2622991254
 40
0.3931837643
 40
0.5218008882
 40
0.6470978931
 40
0.768470162
 40
0.8859214785
 40
1.0
 40
1.0
 40
1.0
 40
1.0
 10
-28.4733672375
 20
269.4903008704
 30
0.0
 10
-28.6446474161
 20
270.4499935247
 30
0.0
 10
-28.6571259423
 20
271.9468643096
 30
0.0
 10
-28.1953195894
 20
273.8367036143
 30
0.0
 10
-27.6235615793
 20
275.1560252629
 30
0.0
 10
-26.8466308064
 20
276.3235775725
 30
0.0
 10
-25.8927619239
 20
277.295875676
 30
0.0
 10
-24.7973934213
 20
278.0336623441
 30
0.0
 10
-23.9894051312
 20
278.3532333188
 30
0.0
 10
-23.5798801904
 20
278.4630087245
 30
0.0
  0
SPLINE
  5
390
100
AcDbEntity
  8
0
100
AcDbSpline
 62
7
  6
CONTINUOUS
 70
0
 71
3
 72
9
 73
5
 74
0
 42
0.0000001
 43
0.0000001
 44
0.0000000001
 40
0.0
 40
0.0
 40
0.0
 40
0.0
 40
0.2485309228
 40
1.0
 40
1.0
 40
1.0
 40
1.0
 10
0.6374184676
 20
279.1704346439
 30
0.0
 10
0.8219819636
 20
279.2199060687
 30
0.0
 10
1.5705432943
 20
279.3962849009
 30
0.0
 10
2.3405603686
 20
279.4799034619
 30
0.0
 10
2.9181877267
 20
279.4920133811
 30
0.0
  0
SPLINE
  5
391
100
AcDbEntity
  8
0
100
AcDbSpline
 62
7
  6
CONTINUOUS
 70
0
 71
3
 72
13
 73
9
 74
0
 42
0.0000001
 43
0.0000001
 44
0.0000000001
 40
0.0
 40
0.0
 40
0.0
 40
0.0
 40
0.1164150736
 40
0.234049218
 40
0.3539600012
 40
0.4769040233
 40
0.732288058
 40
1.0
 40
1.0
 40
1.0
 40
1.0
 10
-7.8389228322
 20
180.7997346434
 30
0.0
 10
-8.183572929
 20
180.815943076
 30
0.0
 10
-8.8751442868
 20
180.9162964838
 30
0.0
 10
-9.8709204086
 20
181.2649462871
 30
0.0
 10
-10.8018253741
 20
181.8016381598
 30
0.0
 10
-11.9356410609
 20
182.7581924544
 30
0.0
 10
-13.0605139027
 20
184.3505948914
 30
0.0
 10
-13.5455444122
 20
185.8488543188
 30
0.0
 10
-13.6849508062
 20
186.6299563315
 30
0.0
  0
SPLINE
  5
392
100
AcDbEntity
  8
0
100
AcDbSpline
 62
7
  6
CONTINUOUS
 70
0
 71
3
 72
11
 73
7
 74
0
 42
0.0000001
 43
0.0000001
 44
0.0000000001
 40
0.0
 40
0.0
 40
0.0
 40
0.0
 40
0.2342429697
 40
0.4783622923
 40
0.7341736475
 40
1.0
 40
1.0
 40
1.0
 40
1.0
 10
-7.2993744283
 20
192.9407231653
 30
0.0
 10
-6.9125571911
 20
192.8347943796
 30
0.0
 10
-6.1543062746
 20
192.4836177509
 30
0.0
 10
-5.2159784924
 20
191.6213141323
 30
0.0
 10
-4.5231829578
 20
190.4904627929
 30
0.0
 10
-4.2607843593
 20
189.6256458766
 30
0.0
 10
-4.1808182476
 20
189.177591171
 30
0.0
  0
SPLINE
  5
393
100
AcDbEntity
  8
0
100
AcDbSpline
 62
7
  6
CONTINUOUS
 70
0
 71
3
 72
11
 73
7
 74
0
 42
0.0000001
 43
0.0000001
 44
0.0000000001
 40
0.0
 40
0.0
 40
0.0
 40
0.0
 40
0.2323607738
 40
0.473124485
 40
0.7282307521
 40
1.0
 40
1.0
 40
1.0
 40
1.0
 10
30.471298528
 20
193.4904615505
 30
0.0
 10
30.1675965591
 20
193.6658346097
 30
0.0
 10
29.6011722886
 20
194.1214921038
 30
0.0
 10
28.9752052737
 20
195.0418681071
 30
0.0
 10
28.5932768866
 20
196.1481079049
 30
0.0
 10
28.5135113454
 20
196.9466965545
 30
0.0
 10
28.5135113454
 20
197.356875582
 30
0.0
  0
SPLINE
  5
394
100
AcDbEntity
  8
0
100
AcDbSpline
 62
7
  6
CONTINUOUS
 70
0
 71
3
 72
12
 73
8
 74
0
 42
0.0000001
 43
0.0000001
 44
0.0000000001
 40
0.0
 40
0.0
 40
0.0
 40
0.0
 40
0.2628401161
 40
0.5219246848
 40
0.7679923073
 40
0.8856858454
 40
1.0
 40
1.0
 40
1.0
 40
1.0
 10
-18.9692346791
 20
272.037935711
 30
0.0
 10
-18.8550471164
 20
271.3981362549
 30
0.0
 10
-18.8438468847
 20
270.0796445414
 30
0.0
 10
-19.4489618566
 20
268.2447640626
 30
0.0
 10
-20.4329453785
 20
267.0066242787
 30
0.0
 10
-21.4198186193
 20
266.3424903239
 30
0.0
 10
-21.9585400644
 20
266.1293147988
 30
0.0
 10
-22.2315593772
 20
266.0561304751
 30
0.0
  0
SPLINE
  5
395
100
AcDbEntity
  8
0
100
AcDbSpline
 62
7
  6
CONTINUOUS
 70
0
 71
3
 72
11
 73
7
 74
0
 42
0.0000001
 43
0.0000001
 44
0.0000000001
 40
0.0
 40
0.0
 40
0.0
 40
0.0
 40
0.2682595766
 40
0.5241619233
 40
0.7665488161
 40
1.0
 40
1.0
 40
1.0
 40
1.0
 10
-3.3776288511
 20
189.1398189194
 30
0.0
 10
-3.470567458
 20
189.6605592594
 30
0.0
 10
-3.7944723159
 20
190.6597968156
 30
0.0
 10
-4.680135534
 20
191.9151842124
 30
0.0
 10
-5.8777907501
 20
192.7721101091
 30
0.0
 10
-6.8151571981
 20
193.0050088457
 30
0.0
 10
-7.2749806297
 20
193.026637001
 30
0.0
  0
SPLINE
  5
396
100
AcDbEntity
  8
0
100
AcDbSpline
 62
7
  6
CONTINUOUS
 70
0
 71
3
 72
19
 73
15
 74
0
 42
0.0000001
 43
0.0000001
 44
0.0000000001
 40
0.0
 40
0.0
 40
0.0
 40
0.0
 40
0.0523977571
 40
0.1054386745
 40
0.1596995216
 40
0.215639366
 40
0.3333708274
 40
0.3955828213
 40
0.4597936797
 40
0.5928957757
 40
0.6611977683
 40
0.729992694
 40
0.8669130294
 40
1.0
 40
1.0
 40
1.0
 40
1.0
 10
17.4673899908
 20
200.3947531521
 30
0.0
 10
16.5477610464
 20
200.9258830193
 30
0.0
 10
14.7863170749
 20
202.1578948658
 30
0.0
 10
12.4783163706
 20
204.4477821784
 30
0.0
 10
10.5351296346
 20
207.1438546403
 30
0.0
 10
8.4409659373
 20
211.2787066475
 30
0.0
 10
7.2552731142
 20
215.9827447684
 30
0.0
 10
6.9508644899
 20
220.9294115884
 30
0.0
 10
7.2446496822
 20
226.1919518672
 30
0.0
 10
8.4485552346
 20
231.4882207248
 30
0.0
 10
10.4547540967
 20
236.5909201526
 30
0.0
 10
12.995854579
 20
241.538782877
 30
0.0
 10
17.0244801573
 20
247.1564580728
 30
0.0
 10
21.0787498722
 20
250.9029647015
 30
0.0
 10
23.2531586133
 20
252.4991483011
 30
0.0
  0
SPLINE
  5
397
100
AcDbEntity
  8
0
100
AcDbSpline
 62
7
  6
CONTINUOUS
 70
0
 71
3
 72
13
 73
9
 74
0
 42
0.0000001
 43
0.0000001
 44
0.0000000001
 40
0.0
 40
0.0
 40
0.0
 40
0.0
 40
0.1054228116
 40
0.2162092768
 40
0.3355568365
 40
0.4637520711
 40
0.7347891091
 40
1.0
 40
1.0
 40
1.0
 40
1.0
 10
31.7216878768
 20
195.6553325812
 30
0.0
 10
31.935554453
 20
195.5318064373
 30
0.0
 10
32.4260237655
 20
195.3598570659
 30
0.0
 10
33.2255504432
 20
195.372206958
 30
0.0
 10
34.0336324135
 20
195.6380957813
 30
0.0
 10
35.0611811404
 20
196.3062648489
 30
0.0
 10
36.0408960811
 20
197.5770321425
 30
0.0
 10
36.364751285
 20
198.8401265342
 30
0.0
 10
36.364751285
 20
199.4614434922
 30
0.0
  0
SPLINE
  5
398
100
AcDbEntity
  8
0
100
AcDbSpline
 62
7
  6
CONTINUOUS
 70
0
 71
3
 72
11
 73
7
 74
0
 42
0.0000001
 43
0.0000001
 44
0.0000000001
 40
0.0
 40
0.0
 40
0.0
 40
0.0
 40
0.2428150626
 40
0.4886753198
 40
0.7403772572
 40
1.0
 40
1.0
 40
1.0
 40
1.0
 10
18.7177789835
 20
202.5596234473
 30
0.0
 10
19.5774661371
 20
202.0630501085
 30
0.0
 10
21.3995189422
 20
201.2142832648
 30
0.0
 10
24.3366039182
 20
200.4249805968
 30
0.0
 10
27.4316179188
 20
200.1281558942
 30
0.0
 10
29.5276700302
 20
200.2584420926
 30
0.0
 10
30.579627119
 20
200.400601064
 30
0.0
  0
SPLINE
  5
399
100
AcDbEntity
  8
0
100
AcDbSpline
 62
7
  6
CONTINUOUS
 70
0
 71
3
 72
12
 73
8
 74
0
 42
0.0000001
 43
0.0000001
 44
0.0000000001
 40
0.0
 40
0.0
 40
0.0
 40
0.0
 40
0.1143141546
 40
0.2320076927
 40
0.4780753152
 40
0.7371598839
 40
1.0
 40
1.0
 40
1.0
 40
1.0
 10
-21.428369981
 20
266.0183582249
 30
0.0
 10
-21.1553506682
 20
266.0915425486
 30
0.0
 10
-20.6166292231
 20
266.3047180738
 30
0.0
 10
-19.6297559823
 20
266.9688520286
 30
0.0
 10
-18.6457724603
 20
268.2069918124
 30
0.0
 10
-18.0406574884
 20
270.0418722913
 30
0.0
 10
-18.05185772
 20
271.3603640048
 30
0.0
 10
-18.1660452828
 20
272.0001634609
 30
0.0
  0
SPLINE
  5
39A
100
AcDbEntity
  8
0
100
AcDbSpline
 62
7
  6
CONTINUOUS
 70
0
 71
3
 72
18
 73
14
 74
0
 42
0.0000001
 43
0.0000001
 44
0.0000000001
 40
0.0
 40
0.0
 40
0.0
 40
0.0
 40
0.1342377749
 40
0.2713291558
 40
0.3399366172
 40
0.4079463188
 40
0.5403919398
 40
0.6661513713
 40
0.7838752853
 40
0.8399431298
 40
0.8943706531
 40
0.9475626719
 40
1.0
 40
1.0
 40
1.0
 40
1.0
 10
20.3968872217
 20
251.7966128502
 30
0.0
 10
18.411980405
 20
250.1462787201
 30
0.0
 10
14.738927301
 20
246.3855077849
 30
0.0
 10
11.11563918
 20
240.8973610418
 30
0.0
 10
8.8556473368
 20
236.1359544637
 30
0.0
 10
7.088844692
 20
231.2662189989
 30
0.0
 10
5.81022696
 20
225.0778900266
 30
0.0
 10
5.8544824768
 20
217.7927456611
 30
0.0
 10
7.26486792
 20
212.134748595
 30
0.0
 10
9.1923737686
 20
208.1772741525
 30
0.0
 10
10.9753469411
 20
205.5682964889
 30
0.0
 10
13.0913637692
 20
203.3164833812
 30
0.0
 10
14.7099010743
 20
202.0717377419
 30
0.0
 10
15.5569190339
 20
201.5246083328
 30
0.0
  0
SPLINE
  5
39B
100
AcDbEntity
  8
0
100
AcDbSpline
 62
7
  6
CONTINUOUS
 70
0
 71
3
 72
11
 73
7
 74
0
 42
0.0000001
 43
0.0000001
 44
0.0000000001
 40
0.0
 40
0.0
 40
0.0
 40
0.0
 40
0.2343782593
 40
0.4782977068
 40
0.733392442
 40
1.0
 40
1.0
 40
1.0
 40
1.0
 10
5.5756826667
 20
198.8490570043
 30
0.0
 10
4.448663172
 20
200.1894451007
 30
0.0
 10
2.4289953117
 20
203.1713573014
 30
0.0
 10
0.2610403905
 20
208.2354655641
 30
0.0
 10
-1.0519780009
 20
213.8298998102
 30
0.0
 10
-1.3314977472
 20
217.7355316216
 30
0.0
 10
-1.3314977472
 20
219.7275750113
 30
0.0
  0
SPLINE
  5
39C
100
AcDbEntity
  8
0
100
AcDbSpline
 62
7
  6
CONTINUOUS
 70
0
 71
3
 72
11
 73
7
 74
0
 42
0.0000001
 43
0.0000001
 44
0.0000000001
 40
0.0
 40
0.0
 40
0.0
 40
0.0
 40
0.2412517249
 40
0.4924263834
 40
0.7475629121
 40
1.0
 40
1.0
 40
1.0
 40
1.0
 10
-1.3314977472
 20
219.7275750113
 30
0.0
 10
-1.3314977472
 20
222.9346520664
 30
0.0
 10
-0.5760809157
 20
229.4961384872
 30
0.0
 10
2.5310462855
 20
238.9981344462
 30
0.0
 10
7.4439503546
 20
247.8730329581
 30
0.0
 10
11.796078551
 20
253.0946110672
 30
0.0
 10
14.1928809428
 20
255.4433399941
 30
0.0
  0
ELLIPSE
  5
39D
100
AcDbEntity
  8
0
100
AcDbEllipse
 62
7
  6
CONTINUOUS
 10
16.978375218
 20
237.6313046355
 30
0.0
 11
-0.3871289045
 21
33.5557073063
 31
0.0
 40
0.8071250907
 41
1.0063374982
 42
2.2598766912
  0
ELLIPSE
  5
39E
100
AcDbEntity
  8
0
100
AcDbEllipse
 62
7
  6
CONTINUOUS
 10
-8.2452138264
 20
187.6898350315
 30
0.0
 11
-0.0199613341
 21
1.730216158
 31
0.0
 40
0.8071250907
 41
0.0
 42
6.2831853072
  0
ELLIPSE
  5
39F
100
AcDbEntity
  8
0
100
AcDbEllipse
 62
7
  6
CONTINUOUS
 10
55.3911519995
 20
204.7479117889
 30
0.0
 11
-0.0189843569
 21
1.6455333516
 31
0.0
 40
0.8071250907
 41
0.0
 42
6.2831853072
  0
ELLIPSE
  5
3A0
100
AcDbEntity
  8
0
100
AcDbEllipse
 62
7
  6
CONTINUOUS
 10
-23.0336302576
 20
270.5501795706
 30
0.0
 11
-0.0199613341
 21
1.730216158
 31
0.0
 40
0.8071250907
 41
0.0
 42
6.2831853072
  0
ELLIPSE
  5
3A1
100
AcDbEntity
  8
0
100
AcDbEllipse
 62
7
  6
CONTINUOUS
 10
-24.1497734803
 20
269.1361392349
 30
0.0
 11
-0.3024444566
 21
26.2153963331
 31
0.0
 40
0.8071250907
 41
-2.1352551554
 42
-1.367250466
  0
ENDSEC
  0
SECTION
  2
OBJECTS
  0
DICTIONARY
  5
C
100
AcDbDictionary
280
0
281
1
  3
ACAD_GROUP
350
D
  3
ACAD_MLINESTYLE
350
17
  3
ACAD_LAYOUT
350
1A
  3
ACAD_PLOTSETTINGS
350
19
  3
ACAD_PLOTSTYLENAME
350
E
  0
DICTIONARY
  5
D
102
{ACAD_REACTORS
330
C
102
}
100
AcDbDictionary
280
0
281
1
  0
ACDBDICTIONARYWDFLT
  5
E
102
{ACAD_REACTORS
330
C
102
}
100
AcDbDictionary
281
1
  3
Normal
350
F
100
AcDbDictionaryWithDefault
340
F
  0
DICTIONARY
  5
17
102
{ACAD_REACTORS
330
C
102
}
100
AcDbDictionary
280
0
281
1
  3
Standard
350
18
  0
DICTIONARY
  5
19
102
{ACAD_REACTORS
330
C
102
}
100
AcDbDictionary
281
1
  0
DICTIONARY
  5
1A
102
{ACAD_REACTORS
330
C
102
}
100
AcDbDictionary
281
1
  3
Model
350
3A2
  3
Layout1
350
3A3
  0
ACDBPLACEHOLDER
  5
F
102
{ACAD_REACTORS
330
E
102
}
  0
MLINESTYLE
  5
18
102
{ACAD_REACTORS
330
17
102
}
100
AcDbMlineStyle
  2
STANDARD
 70
0
  3

 62
256
 51
90.0
 52
90.0
 71
2
 49
0.5
 62
256
  6
BYLAYER
 49
-0.5
 62
256
  6
BYLAYER
  0
LAYOUT
  5
3A2
102
{ACAD_REACTORS
330
1A
102
}
100
AcDbPlotSettings
  1

  2
none_device
  4
ANSI_C_(22.00_x_17.00_Inches)
  6

 40
0.0
 41
0.0
 42
0.0
 43
0.0
 44
558.8
 45
431.8
 46
0.0
 47
0.0
 48
0.0
 49
0.0
140
0.0
141
0.0
142
1.0
143
1.0
 70
1024
 72
1
 73
0
 74
0
  7

 75
0
147
1.0
148
0.0
149
0.0
100
AcDbLayout
  1
Model
 70
0
 71
0
 10
0.0
 20
0.0
 11
558.8
 21
431.8
 12
0.0
 22
0.0
 32
0.0
 14
0.0
 24
0.0
 34
0.0
 15
0.0
 25
0.0
 35
0.0
146
0.0
 13
0.0
 23
0.0
 33
0.0
 16
1.0
 26
0.0
 36
0.0
 17
0.0
 27
1.0
 37
0.0
 76
0
330
216
345
0
346
0
  0
LAYOUT
  5
3A3
102
{ACAD_REACTORS
330
1A
102
}
100
AcDbPlotSettings
  1

  2
none_device
  4
ANSI_C_(22.00_x_17.00_Inches)
  6

 40
0.0
 41
0.0
 42
0.0
 43
0.0
 44
558.8
 45
431.8
 46
0.0
 47
0.0
 48
0.0
 49
0.0
140
0.0
141
0.0
142
1.0
143
1.0
 70
0
 72
1
 73
0
 74
0
  7

 75
0
147
1.0
148
0.0
149
0.0
100
AcDbLayout
  1
Layout1
 70
0
 71
1
 10
0.0
 20
0.0
 11
558.8
 21
431.8
 12
0.0
 22
0.0
 32
0.0
 14
0.0
 24
0.0
 34
0.0
 15
0.0
 25
0.0
 35
0.0
146
0.0
 13
0.0
 23
0.0
 33
0.0
 16
1.0
 26
0.0
 36
0.0
 17
0.0
 27
1.0
 37
0.0
 76
0
330
217
345
0
346
0
  0
ENDSEC
  0
EOF
