999
DXF file: Y:\3D PRATIKA-KAEDRA_OLGA\TRAVAIL_PHASE_5\CAD3D\PKF32F734_3D-Simplified\PKF32F734_2D-isometric.dxf
999
Pro/ENGINEER 2018260 by Parametric Technology Corporation
  0
SECTION
  2
HEADER
  9
$ACADVER
  1
AC1027
  9
$DWGCODEPAGE
  3
ANSI_1252
  9
$EXTMAX
 10
558.8
 20
431.8
 30
0.0
  9
$EXTMIN
 10
0.0
 20
0.0
 30
0.0
  9
$LIMMIN
 10
0.0
 20
0.0
  9
$LIMMAX
 10
558.8
 20
431.8
  9
$VIEWCTR
 10
279.4
 20
215.9
  9
$VIEWSIZE
 40
431.8
  9
$CLAYER
  8
0
  9
$LTSCALE
 40
30.734
  9
$CELTYPE
  6
BYLAYER
  9
$DIMSCALE
 40
1.0
  9
$DIMASZ
 40
0.1875
  9
$DIMEXO
 40
0.0625
  9
$DIMDLI
 40
21.2344
  9
$DIMEXE
 40
0.125
  9
$DIMCEN
 40
5.0292
  9
$DIMLFAC
 40
1.0
  9
$DIMBLK
  1
_CLOSED
  9
$DIMALT
 70
0
  9
$DIMALTF
 40
0.0393700787
  9
$DIMTXT
 40
0.15625
  9
$DIMTOL
 70
0
  9
$DIMLIM
 70
0
  9
$DIMTFAC
 40
1.0
  9
$DIMGAP
 40
0.625
  9
$DIMDSEP
 70
46
  9
$AUNITS
 70
0
  9
$PDMODE
 70
3
  9
$PDSIZE
 40
0.3125
  9
$HANDSEED
  5
39D
  9
$TILEMODE
 70
1
  9
$MEASUREMENT
 70
1
  9
$INSUNITS
 70
4
  0
ENDSEC
  0
SECTION
  2
CLASSES
  0
CLASS
  1
ACDBDICTIONARYWDFLT
  2
AcDbDictionaryWithDefault
  3
AutoCAD 2000
 90
0
 91
1
280
0
281
0
  0
CLASS
  1
ACDBPLACEHOLDER
  2
AcDbPlaceHolder
  3
AutoCAD 2000
 90
0
 91
1
280
0
281
0
  0
CLASS
  1
LAYOUT
  2
AcDbLayout
  3
AutoCAD 2000
 90
0
 91
0
280
0
281
0
  0
ENDSEC
  0
SECTION
  2
TABLES
  0
TABLE
  2
VPORT
  5
8
100
AcDbSymbolTable
 70
2
  0
VPORT
  5
1F4
100
AcDbSymbolTableRecord
100
AcDbViewportTableRecord
  2
*ACTIVE
 70
0
 10
0.0
 20
0.0
 11
1.0
 21
1.0
 12
279.4
 22
215.9
 13
0.0
 23
0.0
 14
1.0
 24
1.0
 15
0.0
 25
0.0
 16
0.0
 26
0.0
 36
1.0
 17
0.0
 27
0.0
 37
0.0
 40
431.8
 41
1.2941176471
 42
50.0
 43
0.0
 44
0.0
 50
0.0
 51
0.0
 71
0
 72
100
 73
1
 74
1
 75
0
 76
0
 77
0
 78
0
  0
ENDTAB
  0
TABLE
  2
LTYPE
  5
5
100
AcDbSymbolTable
 70
6
  0
LTYPE
  5
14
100
AcDbSymbolTableRecord
100
AcDbLinetypeTableRecord
  2
BYBLOCK
 70
0
  3

 72
65
 73
0
 40
0.0
  0
LTYPE
  5
15
100
AcDbSymbolTableRecord
100
AcDbLinetypeTableRecord
  2
BYLAYER
 70
0
  3

 72
65
 73
0
 40
0.0
  0
LTYPE
  5
16
100
AcDbSymbolTableRecord
100
AcDbLinetypeTableRecord
  2
CONTINUOUS
 70
64
  3
Solid line
 72
65
 73
0
 40
0.0
  0
LTYPE
  5
1F5
100
AcDbSymbolTableRecord
100
AcDbLinetypeTableRecord
  2
CENTER
 70
64
  3
____ _ ____ _ ____ _ ____ _ ____ _ ____ _ ____
 72
65
 73
4
 40
0.6
 49
0.375
 74
0
 49
-0.075
 74
0
 49
0.075
 74
0
 49
-0.075
 74
0
  0
LTYPE
  5
1F6
100
AcDbSymbolTableRecord
100
AcDbLinetypeTableRecord
  2
HIDDEN
 70
64
  3
- - - - - - - - - - - - - - - - - - - -
 72
65
 73
2
 40
0.2
 49
0.1
 74
0
 49
-0.1
 74
0
  0
LTYPE
  5
1F7
100
AcDbSymbolTableRecord
100
AcDbLinetypeTableRecord
  2
PHANTOM
 70
64
  3
_____ _ _ _____ _ _ _____ _ _ _____
 72
65
 73
6
 40
0.8
 49
0.45
 74
0
 49
-0.05
 74
0
 49
0.1
 74
0
 49
-0.05
 74
0
 49
0.1
 74
0
 49
-0.05
 74
0
  0
LTYPE
  5
1F8
100
AcDbSymbolTableRecord
100
AcDbLinetypeTableRecord
  2
DOT
 70
64
  3
. . . . . . . . . . . . . . . . . . . .
 72
65
 73
2
 40
0.2
 49
0.1
 74
0
 49
-0.1
 74
0
  0
LTYPE
  5
1F9
100
AcDbSymbolTableRecord
100
AcDbLinetypeTableRecord
  2
DASHED
 70
64
  3
- - - - - - - - - - - - - - - - - - - -
 72
65
 73
2
 40
0.2
 49
0.1
 74
0
 49
-0.1
 74
0
  0
ENDTAB
  0
TABLE
  2
LAYER
  5
2
100
AcDbSymbolTable
 70
36
  0
LAYER
  5
10
100
AcDbSymbolTableRecord
100
AcDbLayerTableRecord
  2
0
 70
0
 62
7
  6
CONTINUOUS
370
-3
390
F
  0
LAYER
  5
1FA
100
AcDbSymbolTableRecord
100
AcDbLayerTableRecord
  2
DEFAULT_1
 70
0
 62
7
  6
CENTER
370
-3
390
F
  0
LAYER
  5
1FB
100
AcDbSymbolTableRecord
100
AcDbLayerTableRecord
  2
DEFAULT_2
 70
0
 62
8
  6
HIDDEN
370
-3
390
F
  0
LAYER
  5
1FC
100
AcDbSymbolTableRecord
100
AcDbLayerTableRecord
  2
DEFAULT_3
 70
0
 62
7
  6
PHANTOM
370
-3
390
F
  0
LAYER
  5
1FD
100
AcDbSymbolTableRecord
100
AcDbLayerTableRecord
  2
01_ALL_DTM_PLN
 70
0
 62
7
  6
CONTINUOUS
370
-3
390
F
  0
LAYER
  5
1FE
100
AcDbSymbolTableRecord
100
AcDbLayerTableRecord
  2
01__ASM_ALL_DTM_PLN
 70
0
 62
7
  6
CONTINUOUS
370
-3
390
F
  0
LAYER
  5
1FF
100
AcDbSymbolTableRecord
100
AcDbLayerTableRecord
  2
01__ASM_DEF_DTM_PLN
 70
0
 62
7
  6
CONTINUOUS
370
-3
390
F
  0
LAYER
  5
200
100
AcDbSymbolTableRecord
100
AcDbLayerTableRecord
  2
01___PRT_ALL_DTM_PLN
 70
0
 62
7
  6
CONTINUOUS
370
-3
390
F
  0
LAYER
  5
201
100
AcDbSymbolTableRecord
100
AcDbLayerTableRecord
  2
01___PRT_DEF_DTM_PLN
 70
0
 62
7
  6
CONTINUOUS
370
-3
390
F
  0
LAYER
  5
202
100
AcDbSymbolTableRecord
100
AcDbLayerTableRecord
  2
02_ALL_AXES
 70
0
 62
7
  6
CONTINUOUS
370
-3
390
F
  0
LAYER
  5
203
100
AcDbSymbolTableRecord
100
AcDbLayerTableRecord
  2
02__ASM_ALL_AXES
 70
0
 62
7
  6
CONTINUOUS
370
-3
390
F
  0
LAYER
  5
204
100
AcDbSymbolTableRecord
100
AcDbLayerTableRecord
  2
02___PRT_ALL_AXES
 70
0
 62
7
  6
CONTINUOUS
370
-3
390
F
  0
LAYER
  5
205
100
AcDbSymbolTableRecord
100
AcDbLayerTableRecord
  2
03_ALL_CURVES
 70
0
 62
7
  6
CONTINUOUS
370
-3
390
F
  0
LAYER
  5
206
100
AcDbSymbolTableRecord
100
AcDbLayerTableRecord
  2
03__ASM_ALL_CURVES
 70
0
 62
7
  6
CONTINUOUS
370
-3
390
F
  0
LAYER
  5
207
100
AcDbSymbolTableRecord
100
AcDbLayerTableRecord
  2
03___PRT_ALL_CURVES
 70
0
 62
7
  6
CONTINUOUS
370
-3
390
F
  0
LAYER
  5
208
100
AcDbSymbolTableRecord
100
AcDbLayerTableRecord
  2
04_ALL_DTM_PNT
 70
0
 62
7
  6
CONTINUOUS
370
-3
390
F
  0
LAYER
  5
209
100
AcDbSymbolTableRecord
100
AcDbLayerTableRecord
  2
04__ASM_ALL_DTM_PNT
 70
0
 62
7
  6
CONTINUOUS
370
-3
390
F
  0
LAYER
  5
20A
100
AcDbSymbolTableRecord
100
AcDbLayerTableRecord
  2
04___PRT_ALL_DTM_PNT
 70
0
 62
7
  6
CONTINUOUS
370
-3
390
F
  0
LAYER
  5
20B
100
AcDbSymbolTableRecord
100
AcDbLayerTableRecord
  2
05_ALL_DTM_CSYS
 70
0
 62
7
  6
CONTINUOUS
370
-3
390
F
  0
LAYER
  5
20C
100
AcDbSymbolTableRecord
100
AcDbLayerTableRecord
  2
05__ASM_ALL_DTM_CSYS
 70
0
 62
7
  6
CONTINUOUS
370
-3
390
F
  0
LAYER
  5
20D
100
AcDbSymbolTableRecord
100
AcDbLayerTableRecord
  2
05__ASM_DEF_DTM_CSYS
 70
0
 62
7
  6
CONTINUOUS
370
-3
390
F
  0
LAYER
  5
20E
100
AcDbSymbolTableRecord
100
AcDbLayerTableRecord
  2
05___PRT_ALL_DTM_CSYS
 70
0
 62
7
  6
CONTINUOUS
370
-3
390
F
  0
LAYER
  5
20F
100
AcDbSymbolTableRecord
100
AcDbLayerTableRecord
  2
05___PRT_DEF_DTM_CSYS
 70
0
 62
7
  6
CONTINUOUS
370
-3
390
F
  0
LAYER
  5
210
100
AcDbSymbolTableRecord
100
AcDbLayerTableRecord
  2
06_ALL_SURFS
 70
0
 62
7
  6
CONTINUOUS
370
-3
390
F
  0
LAYER
  5
211
100
AcDbSymbolTableRecord
100
AcDbLayerTableRecord
  2
06__ASM_ALL_SURFS
 70
0
 62
7
  6
CONTINUOUS
370
-3
390
F
  0
LAYER
  5
212
100
AcDbSymbolTableRecord
100
AcDbLayerTableRecord
  2
06___PRT_ALL_SURFS
 70
0
 62
7
  6
CONTINUOUS
370
-3
390
F
  0
LAYER
  5
213
100
AcDbSymbolTableRecord
100
AcDbLayerTableRecord
  2
07__ASM_ALL_SKELETONS
 70
0
 62
7
  6
CONTINUOUS
370
-3
390
F
  0
ENDTAB
  0
TABLE
  2
STYLE
  5
3
100
AcDbSymbolTable
 70
1
  0
STYLE
  5
11
100
AcDbSymbolTableRecord
100
AcDbTextStyleTableRecord
  2
STANDARD
 70
0
 40
0.0
 41
0.8
 50
0.0
 71
0
 42
0.2
  3
txt
  4

  0
STYLE
  5
214
100
AcDbSymbolTableRecord
100
AcDbTextStyleTableRecord
  2
TEXTSTYLE_1
 70
0
 40
0.0
 41
0.8
 50
0.0
 71
0
 42
0.2
  3
gdt
  4

  0
ENDTAB
  0
TABLE
  2
VIEW
  5
6
100
AcDbSymbolTable
 70
0
  0
ENDTAB
  0
TABLE
  2
UCS
  5
7
100
AcDbSymbolTable
 70
0
  0
ENDTAB
  0
TABLE
  2
APPID
  5
9
100
AcDbSymbolTable
 70
1
  0
APPID
  5
215
100
AcDbSymbolTableRecord
100
AcDbRegAppTableRecord
  2
ACAD
 70
0
  0
ENDTAB
  0
TABLE
  2
BLOCK_RECORD
  5
1
100
AcDbSymbolTable
 70
0
  0
BLOCK_RECORD
  5
216
100
AcDbSymbolTableRecord
100
AcDbBlockTableRecord
  2
*Model_Space
  0
BLOCK_RECORD
  5
217
100
AcDbSymbolTableRecord
100
AcDbBlockTableRecord
  2
*Paper_Space
  0
BLOCK_RECORD
  5
218
100
AcDbSymbolTableRecord
100
AcDbBlockTableRecord
  2
_CLOSED
  0
ENDTAB
  0
TABLE
  2
DIMSTYLE
  5
A
100
AcDbSymbolTable
 70
1
100
AcDbDimStyleTable
 71
0
  0
DIMSTYLE
105
219
100
AcDbSymbolTableRecord
100
AcDbDimStyleTableRecord
  2
STANDARD
 70
0
  3

  4

 40
1.0
 41
0.1875
 42
0.0625
 43
0.38
 44
0.125
 45
0.0
 46
0.0
 47
0.01
 48
0.01
140
0.15625
141
0.09
142
0.0
143
25.4
144
1.0
145
0.0
146
1.0
147
0.625
 71
0.0
 72
0.0
 73
1
 74
1
 75
0
 76
0
 77
0
 78
8
 79
2
170
0
171
1
172
0
173
0
174
0
175
0
176
0
177
0
178
0
270
2
179
2
271
2
272
2
273
2
274
2
275
0
280
0
281
0
282
0
283
1
284
8
285
0
286
0
287
3
288
0
340
11
278
46
341
218
342
218
343
218
344
218
  0
ENDTAB
  0
ENDSEC
  0
SECTION
  2
BLOCKS
  0
BLOCK
  5
20
100
AcDbEntity
  8
0
100
AcDbBlockBegin
  2
*Model_Space
 70
0
 10
0.0
 20
0.0
 30
0.0
  3
*Model_Space
  1

  0
ENDBLK
  5
21
100
AcDbEntity
  8
0
100
AcDbBlockEnd
  0
BLOCK
  5
1C
100
AcDbEntity
  8
0
100
AcDbBlockBegin
  2
*Paper_Space
 70
0
 10
0.0
 20
0.0
 30
0.0
  3
*Paper_Space
  1

  0
ENDBLK
  5
1D
100
AcDbEntity
  8
0
100
AcDbBlockEnd
  0
BLOCK
  5
21A
100
AcDbEntity
  8
0
100
AcDbBlockBegin
  2
_CLOSED
 70
64
 10
0.0
 20
0.0
  3
_CLOSED
  1

  0
LINE
  5
21B
100
AcDbEntity
  8
0
  6
BYBLOCK
 62
0
100
AcDbLine
 10
0.0
 20
0.0
 11
-1.0
 21
0.1666666667
  0
LINE
  5
21C
100
AcDbEntity
  8
0
  6
BYBLOCK
 62
0
100
AcDbLine
 10
-1.0
 20
0.1666666667
 11
-1.0
 21
-0.1666666667
  0
LINE
  5
21D
100
AcDbEntity
  8
0
  6
BYBLOCK
 62
0
100
AcDbLine
 10
-1.0
 20
-0.1666666667
 11
0.0
 21
0.0
  0
LINE
  5
21E
100
AcDbEntity
  8
0
  6
BYBLOCK
 62
0
100
AcDbLine
 10
-1.0
 20
0.0
 11
0.0
 21
0.0
  0
ENDBLK
  5
21F
100
AcDbEntity
  8
0
  6
BYBLOCK
 62
0
100
AcDbBlockEnd
  0
ENDSEC
  0
SECTION
  2
ENTITIES
  0
LINE
  5
220
100
AcDbEntity
  8
0
100
AcDbLine
 62
7
  6
CONTINUOUS
 10
40.6252181716
 20
186.3460048753
 11
-14.74668456
 21
171.5032627617
  0
LINE
  5
221
100
AcDbEntity
  8
0
100
AcDbLine
 62
7
  6
CONTINUOUS
 10
43.1278140129
 20
187.2699109829
 11
40.5821136391
 21
186.5875220405
  0
LINE
  5
222
100
AcDbEntity
  8
0
100
AcDbLine
 62
7
  6
CONTINUOUS
 10
-15.5498739563
 20
171.5410350118
 11
-18.8556591938
 21
170.6549011544
  0
LWPOLYLINE
  5
223
100
AcDbEntity
  8
0
100
AcDbPolyline
 62
7
  6
CONTINUOUS
 90
4
 70
0
 10
-10.0030639755
 20
266.5972670227
 10
-10.3600115718
 20
266.4880242844
 10
-11.0008934314
 20
265.9337407047
 10
-11.2686269
 20
265.0825248398
  0
LINE
  5
224
100
AcDbEntity
  8
0
100
AcDbLine
 62
7
  6
CONTINUOUS
 10
-23.1901367578
 20
170.6002953556
 11
-20.5128387701
 21
170.4743878552
  0
LINE
  5
225
100
AcDbEntity
  8
0
100
AcDbLine
 62
7
  6
CONTINUOUS
 10
-15.5498739563
 20
171.5410350118
 11
-14.74668456
 21
171.5032627617
  0
LINE
  5
226
100
AcDbEntity
  8
0
100
AcDbLine
 62
7
  6
CONTINUOUS
 10
-29.0361647758
 20
176.430514543
 11
-26.3588667881
 21
176.3046070426
  0
LINE
  5
227
100
AcDbEntity
  8
0
100
AcDbLine
 62
7
  6
CONTINUOUS
 10
-7.0552847421
 20
259.3147177281
 11
-7.5947482539
 21
259.0682036986
  0
LINE
  5
228
100
AcDbEntity
  8
0
100
AcDbLine
 62
7
  6
CONTINUOUS
 10
-21.0536832294
 20
182.580940225
 11
-26.4255842407
 21
181.1409727065
  0
LINE
  5
229
100
AcDbEntity
  8
0
100
AcDbLine
 62
7
  6
CONTINUOUS
 10
44.7655507178
 20
200.2241467503
 11
47.9545836077
 21
201.0789845009
  0
LINE
  5
22A
100
AcDbEntity
  8
0
100
AcDbLine
 62
7
  6
CONTINUOUS
 10
2.883003052
 20
191.1992590438
 11
-7.0982333151
 21
188.5237077153
  0
LINE
  5
22B
100
AcDbEntity
  8
0
100
AcDbLine
 62
7
  6
CONTINUOUS
 10
-16.051544833
 20
178.814469631
 11
-16.8547342295
 21
178.852241882
  0
LINE
  5
22C
100
AcDbEntity
  8
0
100
AcDbLine
 62
7
  6
CONTINUOUS
 10
-27.228773637
 20
181.1787449566
 11
-26.4255842407
 21
181.1409727065
  0
LWPOLYLINE
  5
22D
100
AcDbEntity
  8
0
100
AcDbPolyline
 62
7
  6
CONTINUOUS
 90
4
 70
0
 10
-7.5952886727
 20
259.0679495819
 10
-8.4192011908
 20
258.6273221508
 10
-10.1889528076
 20
257.0286956701
 10
-11.1516774118
 20
255.144350325
  0
LINE
  5
22E
100
AcDbEntity
  8
0
100
AcDbLine
 62
7
  6
CONTINUOUS
 10
-4.8660346054
 20
248.6193628752
 11
-4.9053003903
 21
248.579027575
  0
LINE
  5
22F
100
AcDbEntity
  8
0
100
AcDbLine
 62
7
  6
CONTINUOUS
 10
-4.8613675124
 20
248.6174958389
 11
-4.9053003903
 21
248.579027575
  0
LINE
  5
230
100
AcDbEntity
  8
0
100
AcDbLine
 62
7
  6
CONTINUOUS
 10
16.116085484
 20
183.0200536659
 11
19.6722421413
 21
180.9669238492
  0
LINE
  5
231
100
AcDbEntity
  8
0
100
AcDbLine
 62
7
  6
CONTINUOUS
 10
-7.0982258476
 20
188.5237349047
 11
-9.4636644585
 21
189.8899884362
  0
LINE
  5
232
100
AcDbEntity
  8
0
100
AcDbLine
 62
7
  6
CONTINUOUS
 10
4.7934693898
 20
190.0693958345
 11
2.8715634545
 21
191.1794530097
  0
LINE
  5
233
100
AcDbEntity
  8
0
100
AcDbLine
 62
7
  6
CONTINUOUS
 10
8.6758714934
 20
188.4335043698
 11
17.7973725019
 21
183.1650947892
  0
LINE
  5
234
100
AcDbEntity
  8
0
100
AcDbLine
 62
7
  6
CONTINUOUS
 10
-29.0361647758
 20
176.430514543
 11
-43.8245812071
 21
259.290859082
  0
LINE
  5
235
100
AcDbEntity
  8
0
100
AcDbLine
 62
7
  6
CONTINUOUS
 10
-4.8673591304
 20
248.624338597
 11
-4.9053003489
 21
248.5790271271
  0
LINE
  5
236
100
AcDbEntity
  8
0
100
AcDbLine
 62
7
  6
CONTINUOUS
 10
14.8774110255
 20
187.5872660969
 11
15.8395953635
 21
187.0315262927
  0
LINE
  5
237
100
AcDbEntity
  8
0
100
AcDbLine
 62
7
  6
CONTINUOUS
 10
-1.6433778877
 20
201.3664425357
 11
17.9057111371
 21
190.075251775
  0
LINE
  5
238
100
AcDbEntity
  8
0
100
AcDbLine
 62
7
  6
CONTINUOUS
 10
-2.6402136179
 20
204.3444190474
 11
23.6908353031
 21
189.1360942032
  0
LINE
  5
239
100
AcDbEntity
  8
0
100
AcDbLine
 62
7
  6
CONTINUOUS
 10
9.2948493824
 20
197.8628943305
 11
-2.7635080234
 21
204.8275776238
  0
LINE
  5
23A
100
AcDbEntity
  8
0
100
AcDbLine
 62
7
  6
CONTINUOUS
 10
23.6908353031
 20
191.6259860257
 11
15.9731436306
 21
196.083581405
  0
LINE
  5
23B
100
AcDbEntity
  8
0
100
AcDbLine
 62
7
  6
CONTINUOUS
 10
-26.3588667881
 20
176.3046070426
 11
-27.228773637
 21
181.1787449566
  0
LINE
  5
23C
100
AcDbEntity
  8
0
100
AcDbLine
 62
7
  6
CONTINUOUS
 10
-40.2773763705
 20
254.2908136676
 11
-41.1472832193
 21
259.1649515814
  0
LINE
  5
23D
100
AcDbEntity
  8
0
100
AcDbLine
 62
7
  6
CONTINUOUS
 10
-26.4255842407
 20
181.1409727065
 11
-39.4741869741
 21
254.2530414175
  0
LINE
  5
23E
100
AcDbEntity
  8
0
100
AcDbLine
 62
7
  6
CONTINUOUS
 10
-10.0661915375
 20
266.6055579858
 11
-10.0699697346
 21
266.5767907164
  0
LINE
  5
23F
100
AcDbEntity
  8
0
100
AcDbLine
 62
7
  6
CONTINUOUS
 10
-9.2498654864
 20
272.821081176
 11
-9.2519683296
 21
272.8090421387
  0
LINE
  5
240
100
AcDbEntity
  8
0
100
AcDbLine
 62
7
  6
CONTINUOUS
 10
-8.295455118
 20
272.5112086431
 11
-8.1778145932
 21
273.0879815018
  0
LINE
  5
241
100
AcDbEntity
  8
0
100
AcDbLine
 62
7
  6
CONTINUOUS
 10
81.1521073462
 20
253.151483663
 11
81.2607977995
 21
253.1730532364
  0
LINE
  5
242
100
AcDbEntity
  8
0
100
AcDbLine
 62
7
  6
CONTINUOUS
 10
-32.9480109343
 20
269.0237932931
 11
-31.643150661
 21
261.712586422
  0
LINE
  5
243
100
AcDbEntity
  8
0
100
AcDbLine
 62
7
  6
CONTINUOUS
 10
-16.8547342295
 20
178.852241882
 11
-15.5498739563
 21
171.5410350118
  0
LINE
  5
244
100
AcDbEntity
  8
0
100
AcDbLine
 62
7
  6
CONTINUOUS
 10
-16.051544833
 20
178.814469631
 11
-14.74668456
 21
171.5032627617
  0
LINE
  5
245
100
AcDbEntity
  8
0
100
AcDbLine
 62
7
  6
CONTINUOUS
 10
-30.8399612646
 20
261.6748141719
 11
-32.144821538
 21
268.986021043
  0
LINE
  5
246
100
AcDbEntity
  8
0
100
AcDbLine
 62
7
  6
CONTINUOUS
 10
-11.2691442736
 20
265.076967907
 11
-11.2681858979
 21
265.0880854392
  0
LINE
  5
247
100
AcDbEntity
  8
0
100
AcDbLine
 62
7
  6
CONTINUOUS
 10
-10.1165722073
 20
266.6100372338
 11
-10.1193702539
 21
266.5811651792
  0
LINE
  5
248
100
AcDbEntity
  8
0
100
AcDbLine
 62
7
  6
CONTINUOUS
 10
73.080695881
 20
246.6776929283
 11
73.2016059992
 21
246.6812401398
  0
LINE
  5
249
100
AcDbEntity
  8
0
100
AcDbLine
 62
7
  6
CONTINUOUS
 10
-16.1625317265
 20
264.3491265554
 11
-16.5016659529
 21
266.2493150557
  0
LINE
  5
24A
100
AcDbEntity
  8
0
100
AcDbLine
 62
7
  6
CONTINUOUS
 10
42.0172787977
 20
239.6109156594
 11
41.9862383451
 21
239.5801068269
  0
LINE
  5
24B
100
AcDbEntity
  8
0
100
AcDbLine
 62
7
  6
CONTINUOUS
 10
42.0177776742
 20
239.6108561064
 11
41.9862383451
 21
239.5801068269
  0
LINE
  5
24C
100
AcDbEntity
  8
0
100
AcDbLine
 62
7
  6
CONTINUOUS
 10
-34.1022859629
 20
255.693008936
 11
-39.4741869741
 21
254.2530414175
  0
LINE
  5
24D
100
AcDbEntity
  8
0
100
AcDbLine
 62
7
  6
CONTINUOUS
 10
51.2791247921
 20
259.8234955036
 11
51.2101097545
 21
259.8123239468
  0
LINE
  5
24E
100
AcDbEntity
  8
0
100
AcDbLine
 62
7
  6
CONTINUOUS
 10
51.2791247921
 20
259.8234955036
 11
51.2091511414
 21
259.8132428584
  0
LINE
  5
24F
100
AcDbEntity
  8
0
100
AcDbLine
 62
7
  6
CONTINUOUS
 10
-18.7850277492
 20
244.9928800404
 11
-8.400056871
 21
238.9947137277
  0
LINE
  5
250
100
AcDbEntity
  8
0
100
AcDbLine
 62
7
  6
CONTINUOUS
 10
3.9595073304
 20
275.6735886988
 11
3.9595073304
 21
273.9775677222
  0
LINE
  5
251
100
AcDbEntity
  8
0
100
AcDbLine
 62
7
  6
CONTINUOUS
 10
3.7595180702
 20
274.8963072257
 11
3.7595073304
 21
274.8859913177
  0
LINE
  5
252
100
AcDbEntity
  8
0
100
AcDbLine
 62
7
  6
CONTINUOUS
 10
-34.905475359
 20
255.7307811861
 11
-40.2773763705
 21
254.2908136676
  0
LINE
  5
253
100
AcDbEntity
  8
0
100
AcDbLine
 62
7
  6
CONTINUOUS
 10
-9.6894289965
 20
269.4742356519
 11
-12.0364989545
 21
268.8450906814
  0
LINE
  5
254
100
AcDbEntity
  8
0
100
AcDbLine
 62
7
  6
CONTINUOUS
 10
-9.0782600338
 20
266.7808912662
 11
-10.0166320161
 21
266.5946673026
  0
LINE
  5
255
100
AcDbEntity
  8
0
100
AcDbLine
 62
7
  6
CONTINUOUS
 10
-10.0166320161
 20
266.5946673026
 11
-10.00178314
 21
266.5975223716
  0
LINE
  5
256
100
AcDbEntity
  8
0
100
AcDbLine
 62
7
  6
CONTINUOUS
 10
-40.2773763705
 20
254.2908136676
 11
-39.4741869741
 21
254.2530414175
  0
LINE
  5
257
100
AcDbEntity
  8
0
100
AcDbLine
 62
7
  6
CONTINUOUS
 10
-34.1022859629
 20
255.693008936
 11
-34.9054753591
 21
255.7307811861
  0
LINE
  5
258
100
AcDbEntity
  8
0
100
AcDbLine
 62
7
  6
CONTINUOUS
 10
-41.1472832193
 20
259.1649515815
 11
-43.8245812071
 21
259.290859082
  0
LINE
  5
259
100
AcDbEntity
  8
0
100
AcDbLine
 62
7
  6
CONTINUOUS
 10
-31.643150661
 20
261.712586422
 11
-30.8399612646
 21
261.6748141719
  0
LINE
  5
25A
100
AcDbEntity
  8
0
100
AcDbLine
 62
7
  6
CONTINUOUS
 10
59.327471773
 20
241.9120590279
 11
59.4426280669
 21
241.8971299421
  0
LINE
  5
25B
100
AcDbEntity
  8
0
100
AcDbLine
 62
7
  6
CONTINUOUS
 10
15.8395953635
 20
187.0315262931
 11
15.8395953635
 21
187.5532787552
  0
LINE
  5
25C
100
AcDbEntity
  8
0
100
AcDbLine
 62
7
  6
CONTINUOUS
 10
17.9057111371
 20
190.075251775
 11
17.9057111371
 21
187.5853599526
  0
LINE
  5
25D
100
AcDbEntity
  8
0
100
AcDbLine
 62
7
  6
CONTINUOUS
 10
19.6722421413
 20
180.9669238492
 11
19.6722421413
 21
182.6915570205
  0
LINE
  5
25E
100
AcDbEntity
  8
0
100
AcDbLine
 62
7
  6
CONTINUOUS
 10
16.116085484
 20
183.0200536659
 11
16.138172414
 21
184.1234179458
  0
LINE
  5
25F
100
AcDbEntity
  8
0
100
AcDbLine
 62
7
  6
CONTINUOUS
 10
-7.2619338252
 20
275.6560155193
 11
-32.144821538
 21
268.986021043
  0
LINE
  5
260
100
AcDbEntity
  8
0
100
AcDbLine
 62
7
  6
CONTINUOUS
 10
-36.2537961723
 20
268.1376594355
 11
-32.9480109343
 21
269.0237932931
  0
LINE
  5
261
100
AcDbEntity
  8
0
100
AcDbLine
 62
7
  6
CONTINUOUS
 10
-38.9310941597
 20
268.263566936
 11
-6.4464650373
 21
276.9712498751
  0
LWPOLYLINE
  5
262
100
AcDbEntity
  8
0
100
AcDbPolyline
 62
7
  6
CONTINUOUS
 90
4
 70
0
 10
-8.2812240438
 20
273.6177349472
 10
-8.6745208996
 20
273.5409747161
 10
-9.149214691
 20
273.1182326031
 10
-9.252178173
 20
272.8080312894
  0
LINE
  5
263
100
AcDbEntity
  8
0
100
AcDbLine
 62
7
  6
CONTINUOUS
 10
-9.0826756288
 20
266.7800149611
 11
-8.5210247479
 21
266.8248590403
  0
LINE
  5
264
100
AcDbEntity
  8
0
100
AcDbLine
 62
7
  6
CONTINUOUS
 10
-38.9310941597
 20
268.263566936
 11
-36.2537961721
 21
268.1376594356
  0
LINE
  5
265
100
AcDbEntity
  8
0
100
AcDbLine
 62
7
  6
CONTINUOUS
 10
-32.9480109343
 20
269.0237932931
 11
-32.144821538
 21
268.986021043
  0
LINE
  5
266
100
AcDbEntity
  8
0
100
AcDbLine
 62
7
  6
CONTINUOUS
 10
41.9862387234
 20
239.5801065283
 11
42.0781096906
 21
239.5489739632
  0
LINE
  5
267
100
AcDbEntity
  8
0
100
AcDbLine
 62
7
  6
CONTINUOUS
 10
-16.1625317265
 20
264.3491265554
 11
-11.4697108311
 21
261.63864036
  0
LINE
  5
268
100
AcDbEntity
  8
0
100
AcDbLine
 62
7
  6
CONTINUOUS
 10
32.3016970578
 20
237.6959750849
 11
29.3067569844
 21
239.4257968501
  0
LINE
  5
269
100
AcDbEntity
  8
0
100
AcDbLine
 62
7
  6
CONTINUOUS
 10
23.6970422627
 20
240.0368540583
 11
23.7516412948
 21
239.994257732
  0
LINE
  5
26A
100
AcDbEntity
  8
0
100
AcDbLine
 62
7
  6
CONTINUOUS
 10
7.244246765
 20
243.2127659466
 11
7.2532618147
 21
243.1651906392
  0
LINE
  5
26B
100
AcDbEntity
  8
0
100
AcDbLine
 62
7
  6
CONTINUOUS
 10
22.530132841
 20
239.6007590008
 11
22.530132841
 21
240.1649295161
  0
LINE
  5
26C
100
AcDbEntity
  8
0
100
AcDbLine
 62
7
  6
CONTINUOUS
 10
23.6908353031
 20
189.1360942032
 11
23.6908353031
 21
191.6259860257
  0
LINE
  5
26D
100
AcDbEntity
  8
0
100
AcDbLine
 62
7
  6
CONTINUOUS
 10
25.7569510767
 20
190.2116803278
 11
25.7569510767
 21
189.6899278695
  0
LINE
  5
26E
100
AcDbEntity
  8
0
100
AcDbLine
 62
7
  6
CONTINUOUS
 10
59.3274718149
 20
241.9120592999
 11
59.3610667747
 21
241.9574696601
  0
LINE
  5
26F
100
AcDbEntity
  8
0
100
AcDbLine
 62
7
  6
CONTINUOUS
 10
59.3274718149
 20
241.9120592999
 11
59.361431077
 21
241.9575199489
  0
LINE
  5
270
100
AcDbEntity
  8
0
100
AcDbLine
 62
7
  6
CONTINUOUS
 10
-7.9834997545
 20
273.6328063277
 11
-8.2505138509
 21
273.6249718174
  0
LINE
  5
271
100
AcDbEntity
  8
0
100
AcDbLine
 62
7
  6
CONTINUOUS
 10
7.9797455942
 20
268.9332681392
 11
8.0141122418
 21
268.9141541766
  0
LINE
  5
272
100
AcDbEntity
  8
0
100
AcDbLine
 62
7
  6
CONTINUOUS
 10
7.9797455942
 20
268.9332681392
 11
8.009710871
 21
268.9133134693
  0
LINE
  5
273
100
AcDbEntity
  8
0
100
AcDbLine
 62
7
  6
CONTINUOUS
 10
39.36167971
 20
193.4256832678
 11
40.6252181716
 21
186.3460048753
  0
LINE
  5
274
100
AcDbEntity
  8
0
100
AcDbLine
 62
7
  6
CONTINUOUS
 10
47.1944987439
 20
200.8752395858
 11
48.0213010603
 21
196.2426188369
  0
LINE
  5
275
100
AcDbEntity
  8
0
100
AcDbLine
 62
7
  6
CONTINUOUS
 10
47.3287078813
 20
204.5858020544
 11
47.9545836077
 21
201.0789845009
  0
LINE
  5
276
100
AcDbEntity
  8
0
100
AcDbLine
 62
7
  6
CONTINUOUS
 10
73.1010745912
 20
246.7247634889
 11
73.0806963337
 21
246.677693239
  0
LINE
  5
277
100
AcDbEntity
  8
0
100
AcDbLine
 62
7
  6
CONTINUOUS
 10
73.1022578174
 20
246.7249303455
 11
73.0806963337
 21
246.677693239
  0
LINE
  5
278
100
AcDbEntity
  8
0
100
AcDbLine
 62
7
  6
CONTINUOUS
 10
67.7595073304
 20
274.8859913178
 11
67.7595025096
 21
274.8929027591
  0
LINE
  5
279
100
AcDbEntity
  8
0
100
AcDbLine
 62
7
  6
CONTINUOUS
 10
67.5595073304
 20
275.6735886988
 11
67.5595073304
 21
274.0192307077
  0
LINE
  5
27A
100
AcDbEntity
  8
0
100
AcDbLine
 62
7
  6
CONTINUOUS
 10
81.152108141
 20
253.1514840519
 11
81.1559914559
 21
253.1851444711
  0
LINE
  5
27B
100
AcDbEntity
  8
0
100
AcDbLine
 62
7
  6
CONTINUOUS
 10
81.152108141
 20
253.1514840519
 11
81.1573872429
 21
253.1854425568
  0
LINE
  5
27C
100
AcDbEntity
  8
0
100
AcDbLine
 62
7
  6
CONTINUOUS
 10
80.2607949344
 20
270.9563664447
 11
80.2625796352
 21
270.9275641007
  0
LINE
  5
27D
100
AcDbEntity
  8
0
100
AcDbLine
 62
7
  6
CONTINUOUS
 10
82.2062604297
 20
260.377358447
 11
82.2086687468
 21
260.4188847617
  0
LINE
  5
27E
100
AcDbEntity
  8
0
100
AcDbLine
 62
7
  6
CONTINUOUS
 10
82.1611325167
 20
260.3590509621
 11
82.1642128247
 21
260.4008092535
  0
LINE
  5
27F
100
AcDbEntity
  8
0
100
AcDbLine
 62
7
  6
CONTINUOUS
 10
80.2695356058
 20
270.965954454
 11
80.2734617046
 21
270.9394851265
  0
LINE
  5
280
100
AcDbEntity
  8
0
100
AcDbLine
 62
7
  6
CONTINUOUS
 10
82.5997313328
 20
265.7196310719
 11
82.5994797058
 21
265.7219152786
  0
LINE
  5
281
100
AcDbEntity
  8
0
100
AcDbLine
 62
7
  6
CONTINUOUS
 10
79.6629765865
 20
273.4275614952
 11
79.5579016837
 21
273.6151339832
  0
LWPOLYLINE
  5
282
100
AcDbEntity
  8
0
100
AcDbPolyline
 62
7
  6
CONTINUOUS
 90
4
 70
0
 10
81.1198950715
 20
272.0195115792
 10
79.5451578737
 20
275.1580576154
 10
77.525298421
 20
277.6773380852
 10
77.3229023821
 20
277.8376503162
  0
LWPOLYLINE
  5
283
100
AcDbEntity
  8
0
100
AcDbPolyline
 62
7
  6
CONTINUOUS
 90
3
 70
0
 10
79.9583438022
 20
272.8344413954
 10
79.8503176172
 20
273.0646014712
 10
79.6629765865
 20
273.4275614952
  0
LINE
  5
284
100
AcDbEntity
  8
0
100
AcDbLine
 62
7
  6
CONTINUOUS
 10
79.9583438022
 20
272.8344413954
 11
79.9580578552
 21
272.8350717701
  0
LINE
  5
285
100
AcDbEntity
  8
0
100
AcDbLine
 62
7
  6
CONTINUOUS
 10
81.1023081695
 20
271.127692883
 11
81.0938565436
 21
271.1551711322
  0
LINE
  5
286
100
AcDbEntity
  8
0
100
AcDbLine
 62
7
  6
CONTINUOUS
 10
81.0524231236
 20
271.0864051243
 11
81.0446354351
 21
271.1143814867
  0
LWPOLYLINE
  5
287
100
AcDbEntity
  8
0
100
AcDbPolyline
 62
7
  6
CONTINUOUS
 90
3
 70
0
 10
80.5445772317
 20
270.9450377246
 10
80.3394207571
 20
271.7918657247
 10
79.9584008559
 20
272.8343127174
  0
LINE
  5
288
100
AcDbEntity
  8
0
100
AcDbLine
 62
7
  6
CONTINUOUS
 10
79.7063260342
 20
273.0415759339
 11
79.6968280619
 21
273.0879872298
  0
LINE
  5
289
100
AcDbEntity
  8
0
100
AcDbLine
 62
7
  6
CONTINUOUS
 10
80.5388868187
 20
270.9735985849
 11
80.5445984521
 21
270.9450679488
  0
LINE
  5
28A
100
AcDbEntity
  8
0
100
AcDbLine
 62
7
  6
CONTINUOUS
 10
80.5388875459
 20
270.9735981012
 11
80.5437138213
 21
270.944892559
  0
LWPOLYLINE
  5
28B
100
AcDbEntity
  8
0
100
AcDbPolyline
 62
7
  6
CONTINUOUS
 90
3
 70
0
 10
82.5998117283
 20
265.7188589788
 10
82.2077854824
 20
268.253288704
 10
81.1198950715
 20
272.0195115792
  0
ARC
  5
28C
100
AcDbEntity
  8
0
100
AcDbCircle
 62
7
  6
CONTINUOUS
 10
-1050.242128974
 20
238.8766488307
 40
1091.3826290713
100
AcDbArc
 50
0.6622015332
 51
0.8091124286
  0
ARC
  5
28D
100
AcDbEntity
  8
0
100
AcDbCircle
 62
7
  6
CONTINUOUS
 10
277.0167302171
 20
239.6974710515
 40
253.5980771368
100
AcDbArc
 50
176.5844230027
 51
177.2155074748
  0
ARC
  5
28E
100
AcDbEntity
  8
0
100
AcDbCircle
 62
7
  6
CONTINUOUS
 10
-117.199760487
 20
241.3340830547
 40
175.2396490938
100
AcDbArc
 50
4.0188451405
 51
4.9300257459
  0
ARC
  5
28F
100
AcDbEntity
  8
0
100
AcDbCircle
 62
7
  6
CONTINUOUS
 10
126.1761601048
 20
243.0100397324
 40
118.593929968
100
AcDbArc
 50
172.8022944934
 51
174.1408871812
  0
ARC
  5
290
100
AcDbEntity
  8
0
100
AcDbCircle
 62
7
  6
CONTINUOUS
 10
-29.1797673171
 20
246.0745645937
 40
100.7206186233
100
AcDbArc
 50
6.8400448614
 51
8.4084716971
  0
ARC
  5
291
100
AcDbEntity
  8
0
100
AcDbCircle
 62
7
  6
CONTINUOUS
 10
34.9508175163
 20
201.2056716623
 40
89.4518936627
100
AcDbArc
 50
101.6186216846
 51
101.9607318373
  0
ARC
  5
292
100
AcDbEntity
  8
0
100
AcDbCircle
 62
7
  6
CONTINUOUS
 10
78.8402779942
 20
248.5867899265
 40
82.7944295215
100
AcDbArc
 50
169.9672266968
 51
171.8555409535
  0
ARC
  5
293
100
AcDbEntity
  8
0
100
AcDbCircle
 62
7
  6
CONTINUOUS
 10
67.7975800281
 20
258.5010891954
 40
79.3396332931
100
AcDbArc
 50
175.2456495809
 51
179.9864748108
  0
ARC
  5
294
100
AcDbEntity
  8
0
100
AcDbCircle
 62
7
  6
CONTINUOUS
 10
32.6764507743
 20
212.1048849573
 40
78.318097246
100
AcDbArc
 50
101.0521529816
 51
101.2239783329
  0
ARC
  5
295
100
AcDbEntity
  8
0
100
AcDbCircle
 62
7
  6
CONTINUOUS
 10
6.1487651416
 20
257.308156662
 40
76.91230865
100
AcDbArc
 50
359.9760044727
 51
6.2803862492
  0
ARC
  5
296
100
AcDbEntity
  8
0
100
AcDbCircle
 62
7
  6
CONTINUOUS
 10
3.4028392903
 20
252.6099838302
 40
76.1809118541
100
AcDbArc
 50
8.732186342
 51
10.7684484141
  0
ARC
  5
297
100
AcDbEntity
  8
0
100
AcDbCircle
 62
7
  6
CONTINUOUS
 10
64.5765794353
 20
259.3528186775
 40
75.0448807281
100
AcDbArc
 50
169.6611368781
 51
174.4505364033
  0
ARC
  5
298
100
AcDbEntity
  8
0
100
AcDbCircle
 62
7
  6
CONTINUOUS
 10
32.0062549442
 20
215.5207380937
 40
74.8371212089
100
AcDbArc
 50
101.2297150768
 51
101.6176823815
  0
ARC
  5
299
100
AcDbEntity
  8
0
100
AcDbCircle
 62
7
  6
CONTINUOUS
 10
7.8044249865
 20
256.3996583425
 40
74.1801980075
100
AcDbArc
 50
6.2711564956
 51
11.3079442668
  0
ARC
  5
29A
100
AcDbEntity
  8
0
100
AcDbCircle
 62
7
  6
CONTINUOUS
 10
59.8791509915
 20
255.6266703903
 40
69.3108014411
100
AcDbArc
 50
168.4976855435
 51
170.7022460589
  0
ARC
  5
29B
100
AcDbEntity
  8
0
100
AcDbCircle
 62
7
  6
CONTINUOUS
 10
32.4732560381
 20
229.1229299092
 40
59.0433955182
100
AcDbArc
 50
101.2055319067
 51
104.4282097532
  0
ARC
  5
29C
100
AcDbEntity
  8
0
100
AcDbCircle
 62
7
  6
CONTINUOUS
 10
-26.3905038095
 20
253.0761343276
 40
36.0333485183
100
AcDbArc
 50
341.2124986828
 51
343.2705805485
  0
ARC
  5
29D
100
AcDbEntity
  8
0
100
AcDbCircle
 62
7
  6
CONTINUOUS
 10
14.8633666636
 20
261.489615461
 40
25.5543838881
100
AcDbArc
 50
120.4754873707
 51
122.7271575458
  0
ARC
  5
29E
100
AcDbEntity
  8
0
100
AcDbCircle
 62
7
  6
CONTINUOUS
 10
62.2015238189
 20
265.8261175606
 40
19.4630829587
100
AcDbArc
 50
46.2832654173
 51
49.0323279523
  0
ARC
  5
29F
100
AcDbEntity
  8
0
100
AcDbCircle
 62
7
  6
CONTINUOUS
 10
64.2723377345
 20
266.0914100698
 40
17.56317227
100
AcDbArc
 50
23.3867526883
 51
24.5135549815
  0
ARC
  5
2A0
100
AcDbEntity
  8
0
100
AcDbCircle
 62
7
  6
CONTINUOUS
 10
-5.0226387872
 20
252.7438682009
 40
6.5012765089
100
AcDbArc
 50
158.7132939442
 51
160.2473289754
  0
ARC
  5
2A1
100
AcDbEntity
  8
0
100
AcDbCircle
 62
7
  6
CONTINUOUS
 10
-20.9263327605
 20
179.135957879
 40
3.6075788839
100
AcDbArc
 50
74.6818951237
 51
80.6616708635
  0
ARC
  5
2A2
100
AcDbEntity
  8
0
100
AcDbCircle
 62
7
  6
CONTINUOUS
 10
10.2565763417
 20
287.769407001
 40
27.938606825
100
AcDbArc
 50
239.7542972875
 51
242.3980504929
  0
ARC
  5
2A3
100
AcDbEntity
  8
0
100
AcDbCircle
 62
7
  6
CONTINUOUS
 10
4.587979243
 20
269.8656461279
 40
13.2247982955
100
AcDbArc
 50
146.901561903
 51
150.4969893667
  0
ARC
  5
2A4
100
AcDbEntity
  8
0
100
AcDbCircle
 62
7
  6
CONTINUOUS
 10
2.3319557197
 20
270.9007311534
 40
10.7349585988
100
AcDbArc
 50
165.6404074787
 51
168.2438785446
  0
ARC
  5
2A5
100
AcDbEntity
  8
0
100
AcDbCircle
 62
7
  6
CONTINUOUS
 10
-1.2404193952
 20
271.6435290256
 40
7.0862014837
100
AcDbArc
 50
168.2381889962
 51
172.0109085825
  0
ARC
  5
2A6
100
AcDbEntity
  8
0
100
AcDbCircle
 62
7
  6
CONTINUOUS
 10
-1.3570158086
 20
271.6610571138
 40
6.9683006529
100
AcDbArc
 50
172.0203878698
 51
172.9812169884
  0
ARC
  5
2A7
100
AcDbEntity
  8
0
100
AcDbCircle
 62
7
  6
CONTINUOUS
 10
-1.4272370429
 20
271.6724366097
 40
6.8972156658
100
AcDbArc
 50
173.0037587351
 51
190.7804224971
  0
ARC
  5
2A8
100
AcDbEntity
  8
0
100
AcDbCircle
 62
7
  6
CONTINUOUS
 10
9.1331381181
 20
273.9544849525
 40
5.3806071544
100
AcDbArc
 50
164.745446145
 51
165.8784363573
  0
ARC
  5
2A9
100
AcDbEntity
  8
0
100
AcDbCircle
 62
7
  6
CONTINUOUS
 10
8.9957559348
 20
273.9879467413
 40
5.2392127261
100
AcDbArc
 50
165.8667575864
 51
170.1553376044
  0
ARC
  5
2AA
100
AcDbEntity
  8
0
100
AcDbCircle
 62
7
  6
CONTINUOUS
 10
8.8333343766
 20
274.0166616894
 40
5.074273253
100
AcDbArc
 50
170.1612280406
 51
174.5954241956
  0
ARC
  5
2AB
100
AcDbEntity
  8
0
100
AcDbCircle
 62
7
  6
CONTINUOUS
 10
8.7790395919
 20
274.8827151242
 40
5.0195346025
100
AcDbArc
 50
170.7828374069
 51
179.8448519706
  0
ARC
  5
2AC
100
AcDbEntity
  8
0
100
AcDbCircle
 62
7
  6
CONTINUOUS
 10
-8.3322542611
 20
272.6553602929
 40
0.9324482704
100
AcDbArc
 50
170.5542331852
 51
174.8220715955
  0
ARC
  5
2AD
100
AcDbEntity
  8
0
100
AcDbCircle
 62
7
  6
CONTINUOUS
 10
28.8401960721
 20
353.1413420827
 40
98.4606257429
100
AcDbArc
 50
265.9519999583
 51
267.1060083473
  0
ARC
  5
2AE
100
AcDbEntity
  8
0
100
AcDbCircle
 62
7
  6
CONTINUOUS
 10
30.7604796713
 20
350.9663806814
 40
97.2221650603
100
AcDbArc
 50
274.8970906018
 51
276.0644247264
  0
ARC
  5
2AF
100
AcDbEntity
  8
0
100
AcDbCircle
 62
7
  6
CONTINUOUS
 10
23.2509916642
 20
322.6074858621
 40
66.3939259323
100
AcDbArc
 50
255.6893683795
 51
257.1780587602
  0
ARC
  5
2B0
100
AcDbEntity
  8
0
100
AcDbCircle
 62
7
  6
CONTINUOUS
 10
55.473013452
 20
283.5125001387
 40
27.2081241238
100
AcDbArc
 50
300.6798771215
 51
303.4191781572
  0
ARC
  5
2B1
100
AcDbEntity
  8
0
100
AcDbCircle
 62
7
  6
CONTINUOUS
 10
64.5051597205
 20
266.1981104323
 40
17.3070652457
100
AcDbArc
 50
24.5119563085
 51
26.2917065842
  0
ARC
  5
2B2
100
AcDbEntity
  8
0
100
AcDbCircle
 62
7
  6
CONTINUOUS
 10
55.3252894908
 20
268.9001723642
 40
15.7689438378
100
AcDbArc
 50
52.0425838151
 51
52.7570780123
  0
ARC
  5
2B3
100
AcDbEntity
  8
0
100
AcDbCircle
 62
7
  6
CONTINUOUS
 10
64.9816992138
 20
271.7378454162
 40
12.3032717612
100
AcDbArc
 50
40.5107553506
 51
40.9650005974
  0
ARC
  5
2B4
100
AcDbEntity
  8
0
100
AcDbCircle
 62
7
  6
CONTINUOUS
 10
65.5279709683
 20
272.1994442899
 40
11.588100352
100
AcDbArc
 50
36.683618254
 51
40.530072173
  0
ARC
  5
2B5
100
AcDbEntity
  8
0
100
AcDbCircle
 62
7
  6
CONTINUOUS
 10
69.6297685978
 20
268.790315117
 40
11.1253976935
100
AcDbArc
 50
9.0595599996
 51
11.1641785122
  0
ARC
  5
2B6
100
AcDbEntity
  8
0
100
AcDbCircle
 62
7
  6
CONTINUOUS
 10
69.1619966285
 20
270.8954684802
 40
10.7605674476
100
AcDbArc
 50
11.7563177416
 51
14.6713009922
  0
ARC
  5
2B7
100
AcDbEntity
  8
0
100
AcDbCircle
 62
7
  6
CONTINUOUS
 10
69.9900638669
 20
269.4281311113
 40
10.3938654919
100
AcDbArc
 50
8.5084286441
 51
9.0703967388
  0
ARC
  5
2B8
100
AcDbEntity
  8
0
100
AcDbCircle
 62
7
  6
CONTINUOUS
 10
72.5279155683
 20
271.5979404677
 40
7.3221358908
100
AcDbArc
 50
10.731116329
 51
11.3749173157
  0
ARC
  5
2B9
100
AcDbEntity
  8
0
100
AcDbCircle
 62
7
  6
CONTINUOUS
 10
72.5529965468
 20
271.6041390457
 40
7.2979318647
100
AcDbArc
 50
9.6557166114
 51
10.7186906237
  0
ARC
  5
2BA
100
AcDbEntity
  8
0
100
AcDbCircle
 62
7
  6
CONTINUOUS
 10
72.7588796243
 20
271.6427622815
 40
7.0868623818
100
AcDbArc
 50
9.6382319509
 51
10.7240446179
  0
ARC
  5
2BB
100
AcDbEntity
  8
0
100
AcDbCircle
 62
7
  6
CONTINUOUS
 10
73.9685154041
 20
270.4669442943
 40
6.2724442683
100
AcDbArc
 50
21.8550825631
 51
23.4341263218
  0
ARC
  5
2BC
100
AcDbEntity
  8
0
100
AcDbCircle
 62
7
  6
CONTINUOUS
 10
62.3138403356
 20
273.9363387349
 40
5.4548297897
100
AcDbArc
 50
12.9310458959
 51
18.1705857419
  0
ARC
  5
2BD
100
AcDbEntity
  8
0
100
AcDbCircle
 62
7
  6
CONTINUOUS
 10
62.4508023567
 20
274.8314287969
 40
5.3132184475
100
AcDbArc
 50
9.3943358112
 51
16.0487306432
  0
ARC
  5
2BE
100
AcDbEntity
  8
0
100
AcDbCircle
 62
7
  6
CONTINUOUS
 10
62.5544882995
 20
273.9935855751
 40
5.2074744026
100
AcDbArc
 50
9.5872585697
 51
12.9096647306
  0
ARC
  5
2BF
100
AcDbEntity
  8
0
100
AcDbCircle
 62
7
  6
CONTINUOUS
 10
62.6711539718
 20
274.0137912109
 40
5.089072974
100
AcDbArc
 50
7.2158535614
 51
9.581710123
  0
ARC
  5
2C0
100
AcDbEntity
  8
0
100
AcDbCircle
 62
7
  6
CONTINUOUS
 10
62.726205568
 20
274.0210150856
 40
5.0335500191
100
AcDbArc
 50
6.1785419393
 51
7.2129878941
  0
ARC
  5
2C1
100
AcDbEntity
  8
0
100
AcDbCircle
 62
7
  6
CONTINUOUS
 10
62.7442682716
 20
274.883270483
 40
5.015227421
100
AcDbArc
 50
0.1100426506
 51
9.3572703711
  0
ARC
  5
2C2
100
AcDbEntity
  8
0
100
AcDbCircle
 62
7
  6
CONTINUOUS
 10
63.2669995348
 20
274.893141551
 40
4.4925657889
100
AcDbArc
 50
347.6480056073
 51
359.9885757504
  0
ARC
  5
2C3
100
AcDbEntity
  8
0
100
AcDbCircle
 62
7
  6
CONTINUOUS
 10
34.1866186244
 20
342.7209911367
 40
103.4353718584
100
AcDbArc
 50
264.7675684099
 51
274.3245351458
  0
ARC
  5
2C4
100
AcDbEntity
  8
0
100
AcDbCircle
 62
7
  6
CONTINUOUS
 10
34.9386130036
 20
342.1163099425
 40
103.2637814764
100
AcDbArc
 50
263.0984932738
 51
263.8850729426
  0
ARC
  5
2C5
100
AcDbEntity
  8
0
100
AcDbCircle
 62
7
  6
CONTINUOUS
 10
38.2926154091
 20
340.0096886873
 40
81.230997798
100
AcDbArc
 50
279.1994290707
 51
281.0459769116
  0
ARC
  5
2C6
100
AcDbEntity
  8
0
100
AcDbCircle
 62
7
  6
CONTINUOUS
 10
38.8424871562
 20
337.1487158349
 40
78.3176052584
100
AcDbArc
 50
281.0521401039
 51
281.2241037314
  0
ARC
  5
2C7
100
AcDbEntity
  8
0
100
AcDbCircle
 62
7
  6
CONTINUOUS
 10
39.0638892472
 20
336.0337347591
 40
77.1808503616
100
AcDbArc
 50
281.2239984808
 51
281.6784892269
  0
ARC
  5
2C8
100
AcDbEntity
  8
0
100
AcDbCircle
 62
7
  6
CONTINUOUS
 10
38.9612557677
 20
317.9636426937
 40
64.2689283677
100
AcDbArc
 50
285.1223868914
 51
286.6645929067
  0
ARC
  5
2C9
100
AcDbEntity
  8
0
100
AcDbCircle
 62
7
  6
CONTINUOUS
 10
38.2881192661
 20
325.6448263138
 40
62.8361920348
100
AcDbArc
 50
281.085938655
 51
281.2246719944
  0
ARC
  5
2CA
100
AcDbEntity
  8
0
100
AcDbCircle
 62
7
  6
CONTINUOUS
 10
39.5033496998
 20
318.2682048499
 40
54.7967329836
100
AcDbArc
 50
281.3194946258
 51
284.9757683869
  0
SPLINE
  5
2CB
100
AcDbEntity
  8
0
100
AcDbSpline
 62
7
  6
CONTINUOUS
 70
0
 71
3
 72
15
 73
11
 74
0
 42
0.0000001
 43
0.0000001
 44
0.0000000001
 40
0.0
 40
0.0
 40
0.0
 40
0.0
 40
0.08959202
 40
0.1840944118
 40
0.2875367578
 40
0.4026939208
 40
0.5311705459
 40
0.6736456535
 40
0.8300907988
 40
1.0
 40
1.0
 40
1.0
 40
1.0
 10
3.9595202889
 20
275.6735886987
 30
0.0
 10
3.9595458566
 20
276.1049759189
 30
0.0
 10
4.0791006096
 20
276.9952073919
 30
0.0
 10
4.6039958354
 20
278.2892489997
 30
0.0
 10
5.4587353806
 20
279.542517711
 30
0.0
 10
6.6281057372
 20
280.7455165435
 30
0.0
 10
8.0986020942
 20
281.8907026026
 30
0.0
 10
9.8555275425
 20
282.9688831861
 30
0.0
 10
11.8814361215
 20
283.9703993071
 30
0.0
 10
13.3407789043
 20
284.5572996793
 30
0.0
 10
14.1091191944
 20
284.8383101087
 30
0.0
  0
SPLINE
  5
2CC
100
AcDbEntity
  8
0
100
AcDbSpline
 62
7
  6
CONTINUOUS
 70
0
 71
3
 72
9
 73
5
 74
0
 42
0.0000001
 43
0.0000001
 44
0.0000000001
 40
0.0
 40
0.0
 40
0.0
 40
0.0
 40
0.2413020292
 40
1.0
 40
1.0
 40
1.0
 40
1.0
 10
14.1091191944
 20
284.8383101087
 30
0.0
 10
14.4058062492
 20
284.9468195253
 30
0.0
 10
15.6408920702
 20
285.381242113
 30
0.0
 10
16.896212502
 20
285.7573728452
 30
0.0
 10
17.8556131766
 20
286.0145454561
 30
0.0
  0
SPLINE
  5
2CD
100
AcDbEntity
  8
0
100
AcDbSpline
 62
7
  6
CONTINUOUS
 70
0
 71
3
 72
22
 73
18
 74
0
 42
0.0000001
 43
0.0000001
 44
0.0000000001
 40
0.0
 40
0.0
 40
0.0
 40
0.0
 40
0.069935654
 40
0.1438308151
 40
0.2990280486
 40
0.4562311034
 40
0.5325772142
 40
0.6058484988
 40
0.6749835976
 40
0.7390515351
 40
0.7973018604
 40
0.8492329864
 40
0.8946948897
 40
0.9340516285
 40
0.968419828
 40
0.9844011905
 40
1.0
 40
1.0
 40
1.0
 40
1.0
 10
17.8556131766
 20
286.0145454561
 30
0.0
 10
19.0833690619
 20
286.3436521526
 30
0.0
 10
21.6342872244
 20
286.9263871736
 30
0.0
 10
27.0016463771
 20
287.7979212148
 30
0.0
 10
34.0187785617
 20
288.31517329
 30
0.0
 10
41.0950888506
 20
288.1003840591
 30
0.0
 10
46.638721341
 20
287.4715480616
 30
0.0
 10
50.5586063877
 20
286.7913874722
 30
0.0
 10
54.2096899152
 20
285.9112562069
 30
0.0
 10
57.5266167081
 20
284.8472451184
 30
0.0
 10
60.4508389976
 20
283.6184704562
 30
0.0
 10
62.9322715532
 20
282.2462111783
 30
0.0
 10
64.9300647347
 20
280.7502932127
 30
0.0
 10
66.4115797295
 20
279.1495181729
 30
0.0
 10
67.2040008173
 20
277.6964642643
 30
0.0
 10
67.509275994
 20
276.5322664525
 30
0.0
 10
67.5595111753
 20
275.9571014528
 30
0.0
 10
67.5594943719
 20
275.673588699
 30
0.0
  0
SPLINE
  5
2CE
100
AcDbEntity
  8
0
100
AcDbSpline
 62
7
  6
CONTINUOUS
 70
0
 71
3
 72
9
 73
5
 74
0
 42
0.0000001
 43
0.0000001
 44
0.0000000001
 40
0.0
 40
0.0
 40
0.0
 40
0.0
 40
0.4938554412
 40
1.0
 40
1.0
 40
1.0
 40
1.0
 10
67.5594943719
 20
275.673588699
 30
0.0
 10
67.5594774389
 20
275.387890298
 30
0.0
 10
67.5085662277
 20
274.8083216411
 30
0.0
 10
67.3598891266
 20
274.2462307081
 30
0.0
 10
67.2633160528
 20
273.9698071038
 30
0.0
  0
SPLINE
  5
2CF
100
AcDbEntity
  8
0
100
AcDbSpline
 62
7
  6
CONTINUOUS
 70
0
 71
3
 72
14
 73
10
 74
0
 42
0.0000001
 43
0.0000001
 44
0.0000000001
 40
0.0
 40
0.0
 40
0.0
 40
0.0
 40
0.0858027464
 40
0.1806344519
 40
0.2866275569
 40
0.4049064863
 40
0.5358233071
 40
0.6791443782
 40
1.0
 40
1.0
 40
1.0
 40
1.0
 10
67.2633160528
 20
273.9698071038
 30
0.0
 10
67.1063819778
 20
273.5206106467
 30
0.0
 10
66.655535551
 20
272.6149204943
 30
0.0
 10
65.6697506396
 20
271.3579267012
 30
0.0
 10
64.3635547378
 20
270.1547958652
 30
0.0
 10
62.7515489822
 20
269.0154757175
 30
0.0
 10
60.8500170332
 20
267.9493146064
 30
0.0
 10
57.8404171222
 20
266.5883313733
 30
0.0
 10
55.3820395884
 20
265.7933223082
 30
0.0
 10
53.6634014841
 20
265.3326319416
 30
0.0
  0
SPLINE
  5
2D0
100
AcDbEntity
  8
0
100
AcDbSpline
 62
7
  6
CONTINUOUS
 70
0
 71
3
 72
19
 73
15
 74
0
 42
0.0000001
 43
0.0000001
 44
0.0000000001
 40
0.0
 40
0.0
 40
0.0
 40
0.0
 40
0.1455404413
 40
0.298226876
 40
0.4507882882
 40
0.595963118
 40
0.6637011502
 40
0.7272084819
 40
0.7858844901
 40
0.8392791343
 40
0.8871448622
 40
0.9295131723
 40
0.9668086161
 40
1.0
 40
1.0
 40
1.0
 40
1.0
 10
50.2588405331
 20
264.537381642
 30
0.0
 10
47.9130732507
 20
264.0644596497
 30
0.0
 10
43.0475608783
 20
263.3755269598
 30
0.0
 10
35.6330725979
 20
263.0454090027
 30
0.0
 10
28.2253009787
 20
263.3986302885
 30
0.0
 10
22.2662928472
 20
264.2628395263
 30
0.0
 10
17.8391097546
 20
265.3013667182
 30
0.0
 10
14.8483346812
 20
266.2078499548
 30
0.0
 10
12.151638479
 20
267.2466487128
 30
0.0
 10
9.7857290525
 20
268.4037095702
 30
0.0
 10
7.782053621
 20
269.6638160416
 30
0.0
 10
6.1664169791
 20
271.0133075314
 30
0.0
 10
4.9610845103
 20
272.4383864065
 30
0.0
 10
4.4232510938
 20
273.4816775018
 30
0.0
 10
4.2460055224
 20
273.9978222396
 30
0.0
  0
SPLINE
  5
2D1
100
AcDbEntity
  8
0
100
AcDbSpline
 62
7
  6
CONTINUOUS
 70
0
 71
3
 72
9
 73
5
 74
0
 42
0.0000001
 43
0.0000001
 44
0.0000000001
 40
0.0
 40
0.0
 40
0.0
 40
0.0
 40
0.5059519148
 40
1.0
 40
1.0
 40
1.0
 40
1.0
 10
4.2460055224
 20
273.9978222396
 30
0.0
 10
4.1525603114
 20
274.2699376645
 30
0.0
 10
4.0087202498
 20
274.8229695483
 30
0.0
 10
3.9595036377
 20
275.3926448224
 30
0.0
 10
3.9595202889
 20
275.6735886987
 30
0.0
  0
SPLINE
  5
2D2
100
AcDbEntity
  8
0
100
AcDbSpline
 62
7
  6
CONTINUOUS
 70
0
 71
3
 72
11
 73
7
 74
0
 42
0.0000001
 43
0.0000001
 44
0.0000000001
 40
0.0
 40
0.0
 40
0.0
 40
0.0
 40
0.2634102161
 40
0.5159328297
 40
0.7602045476
 40
1.0
 40
1.0
 40
1.0
 40
1.0
 10
20.7982732201
 20
196.6347917487
 30
0.0
 10
19.7926606888
 20
196.3652317962
 30
0.0
 10
17.7741843806
 20
195.9985315706
 30
0.0
 10
14.7514197312
 20
196.0133781915
 30
0.0
 10
11.8813154287
 20
196.6085731214
 30
0.0
 10
10.1155711518
 20
197.3888694355
 30
0.0
 10
9.2948660962
 20
197.8629231771
 30
0.0
  0
SPLINE
  5
2D3
100
AcDbEntity
  8
0
100
AcDbSpline
 62
7
  6
CONTINUOUS
 70
0
 71
3
 72
11
 73
7
 74
0
 42
0.0000001
 43
0.0000001
 44
0.0000000001
 40
0.0
 40
0.0
 40
0.0
 40
0.0
 40
0.271774877
 40
0.5268700653
 40
0.7676346301
 40
1.0
 40
1.0
 40
1.0
 40
1.0
 10
15.0344609043
 20
227.7260958832
 30
0.0
 10
15.0344609043
 20
227.2493076702
 30
0.0
 10
15.1271608102
 20
226.3210589129
 30
0.0
 10
15.5711426871
 20
225.0352310313
 30
0.0
 10
16.2987067348
 20
223.9653973979
 30
0.0
 10
16.9571325622
 20
223.4357851143
 30
0.0
 10
17.3101435354
 20
223.2319177605
 30
0.0
  0
SPLINE
  5
2D4
100
AcDbEntity
  8
0
100
AcDbSpline
 62
7
  6
CONTINUOUS
 70
0
 71
3
 72
11
 73
7
 74
0
 42
0.0000001
 43
0.0000001
 44
0.0000000001
 40
0.0
 40
0.0
 40
0.0
 40
0.0
 40
0.271774877
 40
0.5268700653
 40
0.7676346301
 40
1.0
 40
1.0
 40
1.0
 40
1.0
 10
25.3650397721
 20
219.0035815201
 30
0.0
 10
25.3650397721
 20
218.5267933071
 30
0.0
 10
25.457739678
 20
217.5985445498
 30
0.0
 10
25.9017215549
 20
216.3127166682
 30
0.0
 10
26.6292856026
 20
215.2428830347
 30
0.0
 10
27.2877114301
 20
214.7132707512
 30
0.0
 10
27.6407224032
 20
214.5094033974
 30
0.0
  0
SPLINE
  5
2D5
100
AcDbEntity
  8
0
100
AcDbSpline
 62
7
  6
CONTINUOUS
 70
0
 71
3
 72
11
 73
7
 74
0
 42
0.0000001
 43
0.0000001
 44
0.0000000001
 40
0.0
 40
0.0
 40
0.0
 40
0.0
 40
0.271774877
 40
0.5268700653
 40
0.7676346301
 40
1.0
 40
1.0
 40
1.0
 40
1.0
 10
4.7038820365
 20
213.4652449105
 30
0.0
 10
4.7038820365
 20
212.9884566975
 30
0.0
 10
4.7965819423
 20
212.0602079403
 30
0.0
 10
5.2405638193
 20
210.7743800587
 30
0.0
 10
5.968127867
 20
209.7045464252
 30
0.0
 10
6.6265536944
 20
209.1749341417
 30
0.0
 10
6.9795646675
 20
208.9710667878
 30
0.0
  0
SPLINE
  5
2D6
100
AcDbEntity
  8
0
100
AcDbSpline
 62
7
  6
CONTINUOUS
 70
0
 71
3
 72
9
 73
5
 74
0
 42
0.0000001
 43
0.0000001
 44
0.0000000001
 40
0.0
 40
0.0
 40
0.0
 40
0.0
 40
0.4936190495
 40
1.0
 40
1.0
 40
1.0
 40
1.0
 10
9.1966472537
 20
219.9594564028
 30
0.0
 10
9.0421421857
 20
220.0487201151
 30
0.0
 10
8.7045170891
 20
220.1897541131
 30
0.0
 10
8.3430382061
 20
220.2429087378
 30
0.0
 10
8.1600893443
 20
220.2490062844
 30
0.0
  0
SPLINE
  5
2D7
100
AcDbEntity
  8
0
100
AcDbSpline
 62
7
  6
CONTINUOUS
 70
0
 71
3
 72
15
 73
11
 74
0
 42
0.0000001
 43
0.0000001
 44
0.0000000001
 40
0.0
 40
0.0
 40
0.0
 40
0.0
 40
0.0524625372
 40
0.1056460033
 40
0.2162145948
 40
0.335328669
 40
0.4632706134
 40
0.5978575783
 40
0.7353249013
 40
1.0
 40
1.0
 40
1.0
 40
1.0
 10
13.955824037
 20
221.0494660181
 30
0.0
 10
13.7433200853
 20
221.1721891672
 30
0.0
 10
13.2915402045
 20
221.3804556989
 30
0.0
 10
12.3073981099
 20
221.6328360713
 30
0.0
 10
10.9579962573
 20
221.614290636
 30
0.0
 10
9.3493824505
 20
221.0835029185
 30
0.0
 10
7.8377719187
 20
220.1022070621
 30
0.0
 10
6.5277218494
 20
218.7435511656
 30
0.0
 10
5.1941711106
 20
216.6052518891
 30
0.0
 10
4.7038820365
 20
214.7032721663
 30
0.0
 10
4.7038820365
 20
213.4652449105
 30
0.0
  0
SPLINE
  5
2D8
100
AcDbEntity
  8
0
100
AcDbSpline
 62
7
  6
CONTINUOUS
 70
0
 71
3
 72
9
 73
5
 74
0
 42
0.0000001
 43
0.0000001
 44
0.0000000001
 40
0.0
 40
0.0
 40
0.0
 40
0.0
 40
0.4936190495
 40
1.0
 40
1.0
 40
1.0
 40
1.0
 10
29.8578049894
 20
225.4977930124
 30
0.0
 10
29.7032999214
 20
225.5870567246
 30
0.0
 10
29.3656748247
 20
225.7280907227
 30
0.0
 10
29.0041959418
 20
225.7812453473
 30
0.0
 10
28.82124708
 20
225.7873428939
 30
0.0
  0
SPLINE
  5
2D9
100
AcDbEntity
  8
0
100
AcDbSpline
 62
7
  6
CONTINUOUS
 70
0
 71
3
 72
15
 73
11
 74
0
 42
0.0000001
 43
0.0000001
 44
0.0000000001
 40
0.0
 40
0.0
 40
0.0
 40
0.0
 40
0.0524625372
 40
0.1056460033
 40
0.2162145948
 40
0.335328669
 40
0.4632706134
 40
0.5978575783
 40
0.7353249013
 40
1.0
 40
1.0
 40
1.0
 40
1.0
 10
34.6169817727
 20
226.5878026276
 30
0.0
 10
34.4044778209
 20
226.7105257768
 30
0.0
 10
33.9526979401
 20
226.9187923085
 30
0.0
 10
32.9685558456
 20
227.1711726808
 30
0.0
 10
31.619153993
 20
227.1526272456
 30
0.0
 10
30.0105401862
 20
226.621839528
 30
0.0
 10
28.4989296543
 20
225.6405436717
 30
0.0
 10
27.1888795851
 20
224.2818877752
 30
0.0
 10
25.8553288463
 20
222.1435884986
 30
0.0
 10
25.3650397721
 20
220.2416087759
 30
0.0
 10
25.3650397721
 20
219.0035815201
 30
0.0
  0
SPLINE
  5
2DA
100
AcDbEntity
  8
0
100
AcDbSpline
 62
7
  6
CONTINUOUS
 70
0
 71
3
 72
9
 73
5
 74
0
 42
0.0000001
 43
0.0000001
 44
0.0000000001
 40
0.0
 40
0.0
 40
0.0
 40
0.0
 40
0.4936190495
 40
1.0
 40
1.0
 40
1.0
 40
1.0
 10
19.5272261215
 20
234.2203073755
 30
0.0
 10
19.3727210535
 20
234.3095710877
 30
0.0
 10
19.0350959569
 20
234.4506050858
 30
0.0
 10
18.673617074
 20
234.5037597104
 30
0.0
 10
18.4906682121
 20
234.5098572571
 30
0.0
  0
SPLINE
  5
2DB
100
AcDbEntity
  8
0
100
AcDbSpline
 62
7
  6
CONTINUOUS
 70
0
 71
3
 72
15
 73
11
 74
0
 42
0.0000001
 43
0.0000001
 44
0.0000000001
 40
0.0
 40
0.0
 40
0.0
 40
0.0
 40
0.0524625372
 40
0.1056460033
 40
0.2162145948
 40
0.335328669
 40
0.4632706134
 40
0.5978575783
 40
0.7353249013
 40
1.0
 40
1.0
 40
1.0
 40
1.0
 10
24.2864029048
 20
235.3103169907
 30
0.0
 10
24.0738989531
 20
235.4330401399
 30
0.0
 10
23.6221190723
 20
235.6413066716
 30
0.0
 10
22.6379769778
 20
235.893687044
 30
0.0
 10
21.2885751251
 20
235.8751416087
 30
0.0
 10
19.6799613183
 20
235.3443538911
 30
0.0
 10
18.1683507865
 20
234.3630580348
 30
0.0
 10
16.8583007173
 20
233.0044021383
 30
0.0
 10
15.5247499785
 20
230.8661028618
 30
0.0
 10
15.0344609043
 20
228.964123139
 30
0.0
 10
15.0344609043
 20
227.7260958832
 30
0.0
  0
SPLINE
  5
2DC
100
AcDbEntity
  8
0
100
AcDbSpline
 62
7
  6
CONTINUOUS
 70
0
 71
3
 72
10
 73
6
 74
0
 42
0.0000001
 43
0.0000001
 44
0.0000000001
 40
0.0
 40
0.0
 40
0.0
 40
0.0
 40
0.2403281524
 40
0.485096085
 40
1.0
 40
1.0
 40
1.0
 40
1.0
 10
21.9979361786
 20
210.9647347424
 30
0.0
 10
21.831989919
 20
211.0605514195
 30
0.0
 10
21.4748565364
 20
211.2182482803
 30
0.0
 10
20.6899520853
 20
211.3816782604
 30
0.0
 10
20.0687932652
 20
211.319330334
 30
0.0
 10
19.6722421413
 20
211.2130326311
 30
0.0
  0
SPLINE
  5
2DD
100
AcDbEntity
  8
0
100
AcDbSpline
 62
7
  6
CONTINUOUS
 70
0
 71
3
 72
11
 73
7
 74
0
 42
0.0000001
 43
0.0000001
 44
0.0000000001
 40
0.0
 40
0.0
 40
0.0
 40
0.0
 40
0.2717668072
 40
0.5268680782
 40
0.7676307415
 40
1.0
 40
1.0
 40
1.0
 40
1.0
 10
15.8292668024
 20
205.9079960749
 30
0.0
 10
15.8292668021
 20
205.5901097414
 30
0.0
 10
15.8910815386
 20
204.9712114166
 30
0.0
 10
16.1870691462
 20
204.1138820548
 30
0.0
 10
16.6721857252
 20
203.4005841186
 30
0.0
 10
17.111164514
 20
203.0474281163
 30
0.0
 10
17.3465481039
 20
202.9115186149
 30
0.0
  0
SPLINE
  5
2DE
100
AcDbEntity
  8
0
100
AcDbSpline
 62
7
  6
CONTINUOUS
 70
0
 71
3
 72
12
 73
8
 74
0
 42
0.0000001
 43
0.0000001
 44
0.0000000001
 40
0.0
 40
0.0
 40
0.0
 40
0.0
 40
0.2349899833
 40
0.4894752595
 40
0.6202667695
 40
0.7503904793
 40
1.0
 40
1.0
 40
1.0
 40
1.0
 10
19.6722421413
 20
211.2130326311
 30
0.0
 10
19.1450821644
 20
211.071724509
 30
0.0
 10
18.1059405382
 20
210.5408349322
 30
0.0
 10
17.0873141095
 20
209.4909533437
 30
0.0
 10
16.4576229439
 20
208.4681248459
 30
0.0
 10
15.9907055864
 20
207.3754686112
 30
0.0
 10
15.8292668031
 20
206.4877210231
 30
0.0
 10
15.8292668024
 20
205.9079960749
 30
0.0
  0
SPLINE
  5
2DF
100
AcDbEntity
  8
0
100
AcDbSpline
 62
7
  6
CONTINUOUS
 70
0
 71
3
 72
9
 73
5
 74
0
 42
0.0000001
 43
0.0000001
 44
0.0000000001
 40
0.0
 40
0.0
 40
0.0
 40
0.0
 40
0.5063725991
 40
1.0
 40
1.0
 40
1.0
 40
1.0
 10
15.1084246654
 20
228.65045534
 30
0.0
 10
15.2051136113
 20
228.4954223709
 30
0.0
 10
15.4314496722
 20
228.2094649279
 30
0.0
 10
15.7219241426
 20
227.9880899351
 30
0.0
 10
15.876149385
 20
227.8989878892
 30
0.0
  0
SPLINE
  5
2E0
100
AcDbEntity
  8
0
100
AcDbSpline
 62
7
  6
CONTINUOUS
 70
0
 71
3
 72
9
 73
5
 74
0
 42
0.0000001
 43
0.0000001
 44
0.0000000001
 40
0.0
 40
0.0
 40
0.0
 40
0.0
 40
0.5063725991
 40
1.0
 40
1.0
 40
1.0
 40
1.0
 10
25.4390035332
 20
219.9279409769
 30
0.0
 10
25.5356924791
 20
219.7729080078
 30
0.0
 10
25.76202854
 20
219.4869505648
 30
0.0
 10
26.0525030105
 20
219.265575572
 30
0.0
 10
26.2067282528
 20
219.1764735261
 30
0.0
  0
SPLINE
  5
2E1
100
AcDbEntity
  8
0
100
AcDbSpline
 62
7
  6
CONTINUOUS
 70
0
 71
3
 72
9
 73
5
 74
0
 42
0.0000001
 43
0.0000001
 44
0.0000000001
 40
0.0
 40
0.0
 40
0.0
 40
0.0
 40
0.5063725991
 40
1.0
 40
1.0
 40
1.0
 40
1.0
 10
4.7778457976
 20
214.3896043674
 30
0.0
 10
4.8745347435
 20
214.2345713983
 30
0.0
 10
5.1008708044
 20
213.9486139552
 30
0.0
 10
5.3913452748
 20
213.7272389624
 30
0.0
 10
5.5455705172
 20
213.6381369166
 30
0.0
  0
SPLINE
  5
2E2
100
AcDbEntity
  8
0
100
AcDbSpline
 62
7
  6
CONTINUOUS
 70
0
 71
3
 72
20
 73
16
 74
0
 42
0.0000001
 43
0.0000001
 44
0.0000000001
 40
0.0
 40
0.0
 40
0.0
 40
0.0
 40
0.0524886434
 40
0.1058788304
 40
0.1609446359
 40
0.2182401375
 40
0.340076149
 40
0.4047856399
 40
0.4714397647
 40
0.6080573039
 40
0.7449175056
 40
0.8118575972
 40
0.8769396555
 40
0.9397340303
 40
1.0
 40
1.0
 40
1.0
 40
1.0
 10
32.301680344
 20
237.6959462384
 30
0.0
 10
33.0880983626
 20
237.2416972951
 30
0.0
 10
34.5840174396
 20
236.1581059284
 30
0.0
 10
36.475380388
 20
234.0906964891
 30
0.0
 10
37.9796020928
 20
231.6288193964
 30
0.0
 10
39.4511844536
 20
227.8345336738
 30
0.0
 10
39.9665106341
 20
223.5696383007
 30
0.0
 10
39.6026139108
 20
219.1961649996
 30
0.0
 10
38.6237567725
 20
214.6514155262
 30
0.0
 10
36.3247711904
 20
209.1699382522
 30
0.0
 10
32.8193154436
 20
204.3629846998
 30
0.0
 10
29.4309728232
 20
201.1597114546
 30
0.0
 10
26.6970551623
 20
199.1703288586
 30
0.0
 10
23.8193715622
 20
197.626785026
 30
0.0
 10
21.8054649515
 20
196.9047750144
 30
0.0
 10
20.7982732201
 20
196.6347917487
 30
0.0
  0
SPLINE
  5
2E3
100
AcDbEntity
  8
0
100
AcDbSpline
 62
7
  6
CONTINUOUS
 70
0
 71
3
 72
14
 73
10
 74
0
 42
0.0000001
 43
0.0000001
 44
0.0000000001
 40
0.0
 40
0.0
 40
0.0
 40
0.0
 40
0.2346073929
 40
0.3603379301
 40
0.4894684284
 40
0.6200482101
 40
0.7499714674
 40
0.8772023527
 40
1.0
 40
1.0
 40
1.0
 40
1.0
 10
20.7982732201
 20
212.4013272191
 30
0.0
 10
20.0443954831
 20
212.1992461585
 30
0.0
 10
18.9456677092
 20
211.6376504767
 30
0.0
 10
17.714062184
 20
210.5678747809
 30
0.0
 10
16.8828903041
 20
209.5839263268
 30
0.0
 10
16.2010593801
 20
208.476172936
 30
0.0
 10
15.6927087129
 20
207.2852476037
 30
0.0
 10
15.3773655736
 20
206.0562181487
 30
0.0
 10
15.3024052629
 20
205.2230779932
 30
0.0
 10
15.3024052624
 20
204.8145545017
 30
0.0
  0
SPLINE
  5
2E4
100
AcDbEntity
  8
0
100
AcDbSpline
 62
7
  6
CONTINUOUS
 70
0
 71
3
 72
11
 73
7
 74
0
 42
0.0000001
 43
0.0000001
 44
0.0000000001
 40
0.0
 40
0.0
 40
0.0
 40
0.0
 40
0.271774877
 40
0.5268700653
 40
0.7676346301
 40
1.0
 40
1.0
 40
1.0
 40
1.0
 10
26.5620855359
 20
230.816138868
 30
0.0
 10
26.5620855359
 20
231.292927081
 30
0.0
 10
26.46938563
 20
232.2211758383
 30
0.0
 10
26.0254037531
 20
233.5070037199
 30
0.0
 10
25.2978397054
 20
234.5768373533
 30
0.0
 10
24.639413878
 20
235.1064496369
 30
0.0
 10
24.2864029048
 20
235.3103169907
 30
0.0
  0
SPLINE
  5
2E5
100
AcDbEntity
  8
0
100
AcDbSpline
 62
7
  6
CONTINUOUS
 70
0
 71
3
 72
15
 73
11
 74
0
 42
0.0000001
 43
0.0000001
 44
0.0000000001
 40
0.0
 40
0.0
 40
0.0
 40
0.0
 40
0.0524625372
 40
0.1056460033
 40
0.2162145948
 40
0.335328669
 40
0.4632706134
 40
0.5978575783
 40
0.7353249013
 40
1.0
 40
1.0
 40
1.0
 40
1.0
 10
6.9795646675
 20
208.9710667878
 30
0.0
 10
7.1920686193
 20
208.8483436386
 30
0.0
 10
7.6438485001
 20
208.6400771069
 30
0.0
 10
8.6279905946
 20
208.3876967346
 30
0.0
 10
9.9773924472
 20
208.4062421699
 30
0.0
 10
11.5860062541
 20
208.9370298874
 30
0.0
 10
13.0976167859
 20
209.9183257438
 30
0.0
 10
14.4076668551
 20
211.2769816403
 30
0.0
 10
15.7412175939
 20
213.4152809168
 30
0.0
 10
16.2315066681
 20
215.3172606395
 30
0.0
 10
16.2315066681
 20
216.5552878953
 30
0.0
  0
SPLINE
  5
2E6
100
AcDbEntity
  8
0
100
AcDbSpline
 62
7
  6
CONTINUOUS
 70
0
 71
3
 72
9
 73
5
 74
0
 42
0.0000001
 43
0.0000001
 44
0.0000000001
 40
0.0
 40
0.0
 40
0.0
 40
0.0
 40
0.2538336966
 40
1.0
 40
1.0
 40
1.0
 40
1.0
 10
20.7982732201
 20
238.9240776667
 30
0.0
 10
21.0339895383
 20
238.9872627182
 30
0.0
 10
21.9673110376
 20
239.2181783216
 30
0.0
 10
22.9190455809
 20
239.3758511797
 30
0.0
 10
23.6328323886
 20
239.4474712776
 30
0.0
  0
SPLINE
  5
2E7
100
AcDbEntity
  8
0
100
AcDbSpline
 62
7
  6
CONTINUOUS
 70
0
 71
3
 72
11
 73
7
 74
0
 42
0.0000001
 43
0.0000001
 44
0.0000000001
 40
0.0
 40
0.0
 40
0.0
 40
0.0
 40
0.2581627984
 40
0.5095353535
 40
0.7560421791
 40
1.0
 40
1.0
 40
1.0
 40
1.0
 10
23.971347896
 20
239.4779529916
 30
0.0
 10
24.7127375626
 20
239.5370610672
 30
0.0
 10
26.1862755447
 20
239.554854164
 30
0.0
 10
28.3527618929
 20
239.263546878
 30
0.0
 10
30.4108643917
 20
238.6575979992
 30
0.0
 10
31.6930917245
 20
238.0474777785
 30
0.0
 10
32.301680344
 20
237.6959462384
 30
0.0
  0
SPLINE
  5
2E8
100
AcDbEntity
  8
0
100
AcDbSpline
 62
7
  6
CONTINUOUS
 70
0
 71
3
 72
11
 73
7
 74
0
 42
0.0000001
 43
0.0000001
 44
0.0000000001
 40
0.0
 40
0.0
 40
0.0
 40
0.0
 40
0.271774877
 40
0.5268700653
 40
0.7676346301
 40
1.0
 40
1.0
 40
1.0
 40
1.0
 10
36.8926644037
 20
222.0936245049
 30
0.0
 10
36.8926644037
 20
222.5704127179
 30
0.0
 10
36.7999644979
 20
223.4986614751
 30
0.0
 10
36.3559826209
 20
224.7844893567
 30
0.0
 10
35.6284185733
 20
225.8543229902
 30
0.0
 10
34.9699927458
 20
226.3839352738
 30
0.0
 10
34.6169817727
 20
226.5878026276
 30
0.0
  0
SPLINE
  5
2E9
100
AcDbEntity
  8
0
100
AcDbSpline
 62
7
  6
CONTINUOUS
 70
0
 71
3
 72
9
 73
5
 74
0
 42
0.0000001
 43
0.0000001
 44
0.0000000001
 40
0.0
 40
0.0
 40
0.0
 40
0.0
 40
0.480151452
 40
1.0
 40
1.0
 40
1.0
 40
1.0
 10
12.1935337233
 20
221.6030827227
 30
0.0
 10
12.5080868019
 20
221.1527590545
 30
0.0
 10
12.9927324223
 20
220.0899364559
 30
0.0
 10
13.1349212012
 20
218.9385366763
 30
0.0
 10
13.1349212012
 20
218.3438181521
 30
0.0
  0
SPLINE
  5
2EA
100
AcDbEntity
  8
0
100
AcDbSpline
 62
7
  6
CONTINUOUS
 70
0
 71
3
 72
14
 73
10
 74
0
 42
0.0000001
 43
0.0000001
 44
0.0000000001
 40
0.0
 40
0.0
 40
0.0
 40
0.0
 40
0.1052606218
 40
0.2158761856
 40
0.3350397663
 40
0.4630361708
 40
0.5976782969
 40
0.7352099851
 40
1.0
 40
1.0
 40
1.0
 40
1.0
 10
26.2067282528
 20
219.1764735261
 30
0.0
 10
26.4297521148
 20
219.0476237862
 30
0.0
 10
26.9412607258
 20
218.8683144126
 30
0.0
 10
27.7751139033
 20
218.8812016563
 30
0.0
 10
28.6176642815
 20
219.1585581728
 30
0.0
 10
29.408559312
 20
219.672254205
 30
0.0
 10
30.0942491943
 20
220.3832743142
 30
0.0
 10
30.7921804682
 20
221.5023728428
 30
0.0
 10
31.0487956505
 20
222.497798129
 30
0.0
 10
31.0487956505
 20
223.1457304142
 30
0.0
  0
SPLINE
  5
2EB
100
AcDbEntity
  8
0
100
AcDbSpline
 62
7
  6
CONTINUOUS
 70
0
 71
3
 72
14
 73
10
 74
0
 42
0.0000001
 43
0.0000001
 44
0.0000000001
 40
0.0
 40
0.0
 40
0.0
 40
0.0
 40
0.2686164723
 40
0.3932530389
 40
0.5129262831
 40
0.6303784462
 40
0.7488454196
 40
0.8713344666
 40
1.0
 40
1.0
 40
1.0
 40
1.0
 10
15.3024052624
 20
204.8145545017
 30
0.0
 10
15.3024052615
 20
204.0590966685
 30
0.0
 10
15.4909625561
 20
202.9302720284
 30
0.0
 10
16.1863152144
 20
201.6540264428
 30
0.0
 10
16.8792374316
 20
200.8940896382
 30
0.0
 10
17.7288608972
 20
200.3453992235
 30
0.0
 10
18.6985933748
 20
200.0319055592
 30
0.0
 10
19.7455024237
 20
199.9647307091
 30
0.0
 10
20.4487532069
 20
200.0804861047
 30
0.0
 10
20.7982732201
 20
200.1741768605
 30
0.0
  0
SPLINE
  5
2EC
100
AcDbEntity
  8
0
100
AcDbSpline
 62
7
  6
CONTINUOUS
 70
0
 71
3
 72
12
 73
8
 74
0
 42
0.0000001
 43
0.0000001
 44
0.0000000001
 40
0.0
 40
0.0
 40
0.0
 40
0.0
 40
0.2349899832
 40
0.4894752595
 40
0.6202667695
 40
0.7503904793
 40
1.0
 40
1.0
 40
1.0
 40
1.0
 10
19.6722421351
 20
202.6632207245
 30
0.0
 10
20.1994021132
 20
202.8045288455
 30
0.0
 10
21.2385437416
 20
203.3354184229
 30
0.0
 10
22.2571701724
 20
204.3853000126
 30
0.0
 10
22.8868613392
 20
205.4081285123
 30
0.0
 10
23.3537786971
 20
206.500784749
 30
0.0
 10
23.5152174803
 20
207.3885323388
 30
0.0
 10
23.5152174801
 20
207.968257288
 30
0.0
  0
SPLINE
  5
2ED
100
AcDbEntity
  8
0
100
AcDbSpline
 62
7
  6
CONTINUOUS
 70
0
 71
3
 72
11
 73
7
 74
0
 42
0.0000001
 43
0.0000001
 44
0.0000000001
 40
0.0
 40
0.0
 40
0.0
 40
0.0
 40
0.2717668072
 40
0.5268680781
 40
0.7676307415
 40
1.0
 40
1.0
 40
1.0
 40
1.0
 10
23.5152174801
 20
207.968257288
 30
0.0
 10
23.51521748
 20
208.2861436209
 30
0.0
 10
23.453402743
 20
208.9050419447
 30
0.0
 10
23.157415135
 20
209.7623713048
 30
0.0
 10
22.6722985563
 20
210.4756692395
 30
0.0
 10
22.2333197682
 20
210.8288252411
 30
0.0
 10
21.9979361786
 20
210.9647347424
 30
0.0
  0
SPLINE
  5
2EE
100
AcDbEntity
  8
0
100
AcDbSpline
 62
7
  6
CONTINUOUS
 70
0
 71
3
 72
15
 73
11
 74
0
 42
0.0000001
 43
0.0000001
 44
0.0000000001
 40
0.0
 40
0.0
 40
0.0
 40
0.0
 40
0.0524625372
 40
0.1056460033
 40
0.2162145948
 40
0.335328669
 40
0.4632706134
 40
0.5978575783
 40
0.7353249013
 40
1.0
 40
1.0
 40
1.0
 40
1.0
 10
27.6407224032
 20
214.5094033974
 30
0.0
 10
27.8532263549
 20
214.3866802482
 30
0.0
 10
28.3050062357
 20
214.1784137165
 30
0.0
 10
29.2891483303
 20
213.9260333441
 30
0.0
 10
30.6385501829
 20
213.9445787794
 30
0.0
 10
32.2471639897
 20
214.4753664969
 30
0.0
 10
33.7587745216
 20
215.4566623533
 30
0.0
 10
35.0688245908
 20
216.8153182498
 30
0.0
 10
36.4023753296
 20
218.9536175263
 30
0.0
 10
36.8926644037
 20
220.8555972491
 30
0.0
 10
36.8926644037
 20
222.0936245049
 30
0.0
  0
SPLINE
  5
2EF
100
AcDbEntity
  8
0
100
AcDbSpline
 62
7
  6
CONTINUOUS
 70
0
 71
3
 72
11
 73
7
 74
0
 42
0.0000001
 43
0.0000001
 44
0.0000000001
 40
0.0
 40
0.0
 40
0.0
 40
0.0
 40
0.271774877
 40
0.5268700653
 40
0.7676346301
 40
1.0
 40
1.0
 40
1.0
 40
1.0
 10
16.2315066681
 20
216.5552878953
 30
0.0
 10
16.2315066681
 20
217.0320761083
 30
0.0
 10
16.1388067622
 20
217.9603248656
 30
0.0
 10
15.6948248853
 20
219.2461527472
 30
0.0
 10
14.9672608376
 20
220.3159863807
 30
0.0
 10
14.3088350101
 20
220.8455986642
 30
0.0
 10
13.955824037
 20
221.0494660181
 30
0.0
  0
SPLINE
  5
2F0
100
AcDbEntity
  8
0
100
AcDbSpline
 62
7
  6
CONTINUOUS
 70
0
 71
3
 72
14
 73
10
 74
0
 42
0.0000001
 43
0.0000001
 44
0.0000000001
 40
0.0
 40
0.0
 40
0.0
 40
0.0
 40
0.2562060773
 40
0.3897701936
 40
0.5226491793
 40
0.6519161974
 40
0.7752021917
 40
0.8911819368
 40
1.0
 40
1.0
 40
1.0
 40
1.0
 10
23.4655000691
 20
232.6046691247
 30
0.0
 10
23.4655000691
 20
231.564623758
 30
0.0
 10
23.1189614057
 20
229.9687257907
 30
0.0
 10
22.1451912385
 20
228.077352892
 30
0.0
 10
21.1661351709
 20
226.7917962487
 30
0.0
 10
20.0013830314
 20
225.7336828083
 30
0.0
 10
18.709453246
 20
224.9578109498
 30
0.0
 10
17.3571495148
 20
224.5078701748
 30
0.0
 10
16.4336611472
 20
224.4442285821
 30
0.0
 10
15.9932325972
 20
224.4782040612
 30
0.0
  0
SPLINE
  5
2F1
100
AcDbEntity
  8
0
100
AcDbSpline
 62
7
  6
CONTINUOUS
 70
0
 71
3
 72
11
 73
7
 74
0
 42
0.0000001
 43
0.0000001
 44
0.0000000001
 40
0.0
 40
0.0
 40
0.0
 40
0.0
 40
0.2717571886
 40
0.5268814665
 40
0.7676360547
 40
1.0
 40
1.0
 40
1.0
 40
1.0
 10
20.7182167827
 20
231.8682447774
 30
0.0
 10
20.7182167827
 20
232.1177587753
 30
0.0
 10
20.6696753492
 20
232.6035677542
 30
0.0
 10
20.4373724756
 20
233.2765365546
 30
0.0
 10
20.0565470435
 20
233.836439047
 30
0.0
 10
19.7119572146
 20
234.1135808885
 30
0.0
 10
19.5272261215
 20
234.2203073755
 30
0.0
  0
SPLINE
  5
2F2
100
AcDbEntity
  8
0
100
AcDbSpline
 62
7
  6
CONTINUOUS
 70
0
 71
3
 72
9
 73
5
 74
0
 42
0.0000001
 43
0.0000001
 44
0.0000000001
 40
0.0
 40
0.0
 40
0.0
 40
0.0
 40
0.480151452
 40
1.0
 40
1.0
 40
1.0
 40
1.0
 10
32.854691459
 20
227.1414193322
 30
0.0
 10
33.1692445375
 20
226.691095664
 30
0.0
 10
33.6538901579
 20
225.6282730655
 30
0.0
 10
33.7960789369
 20
224.4768732859
 30
0.0
 10
33.7960789369
 20
223.8821547616
 30
0.0
  0
SPLINE
  5
2F3
100
AcDbEntity
  8
0
100
AcDbSpline
 62
7
  6
CONTINUOUS
 70
0
 71
3
 72
14
 73
10
 74
0
 42
0.0000001
 43
0.0000001
 44
0.0000000001
 40
0.0
 40
0.0
 40
0.0
 40
0.0
 40
0.1052606218
 40
0.2158761856
 40
0.3350397663
 40
0.4630361708
 40
0.5976782969
 40
0.7352099851
 40
1.0
 40
1.0
 40
1.0
 40
1.0
 10
15.876149385
 20
227.8989878892
 30
0.0
 10
16.0991732469
 20
227.7701381493
 30
0.0
 10
16.610681858
 20
227.5908287757
 30
0.0
 10
17.4445350354
 20
227.6037160194
 30
0.0
 10
18.2870854137
 20
227.881072536
 30
0.0
 10
19.0779804442
 20
228.3947685681
 30
0.0
 10
19.7636703264
 20
229.1057886773
 30
0.0
 10
20.4616016004
 20
230.2248872059
 30
0.0
 10
20.7182167827
 20
231.2203124921
 30
0.0
 10
20.7182167827
 20
231.8682447774
 30
0.0
  0
SPLINE
  5
2F4
100
AcDbEntity
  8
0
100
AcDbSpline
 62
7
  6
CONTINUOUS
 70
0
 71
3
 72
14
 73
10
 74
0
 42
0.0000001
 43
0.0000001
 44
0.0000000001
 40
0.0
 40
0.0
 40
0.0
 40
0.0
 40
0.2346073929
 40
0.3603379301
 40
0.4894684284
 40
0.6200482101
 40
0.7499714674
 40
0.8772023527
 40
1.0
 40
1.0
 40
1.0
 40
1.0
 10
20.7982732201
 20
200.1741768605
 30
0.0
 10
21.5521509571
 20
200.3762579212
 30
0.0
 10
22.650878731
 20
200.9378536029
 30
0.0
 10
23.8824842563
 20
202.0076292987
 30
0.0
 10
24.7136561361
 20
202.9915777528
 30
0.0
 10
25.3954870601
 20
204.0993311437
 30
0.0
 10
25.9038377273
 20
205.2902564759
 30
0.0
 10
26.2191808665
 20
206.5192859309
 30
0.0
 10
26.2941411776
 20
207.3524260864
 30
0.0
 10
26.2941411778
 20
207.760949578
 30
0.0
  0
SPLINE
  5
2F5
100
AcDbEntity
  8
0
100
AcDbSpline
 62
7
  6
CONTINUOUS
 70
0
 71
3
 72
14
 73
10
 74
0
 42
0.0000001
 43
0.0000001
 44
0.0000000001
 40
0.0
 40
0.0
 40
0.0
 40
0.0
 40
0.2562060773
 40
0.3897701936
 40
0.5226491793
 40
0.6519161974
 40
0.7752021917
 40
0.8911819368
 40
1.0
 40
1.0
 40
1.0
 40
1.0
 10
33.7960789369
 20
223.8821547616
 30
0.0
 10
33.7960789369
 20
222.8421093949
 30
0.0
 10
33.4495402736
 20
221.2462114276
 30
0.0
 10
32.4757701063
 20
219.3548385289
 30
0.0
 10
31.4967140387
 20
218.0692818856
 30
0.0
 10
30.3319618992
 20
217.0111684452
 30
0.0
 10
29.0400321138
 20
216.2352965867
 30
0.0
 10
27.6877283826
 20
215.7853558117
 30
0.0
 10
26.764240015
 20
215.721714219
 30
0.0
 10
26.323811465
 20
215.755689698
 30
0.0
  0
SPLINE
  5
2F6
100
AcDbEntity
  8
0
100
AcDbSpline
 62
7
  6
CONTINUOUS
 70
0
 71
3
 72
11
 73
7
 74
0
 42
0.0000001
 43
0.0000001
 44
0.0000000001
 40
0.0
 40
0.0
 40
0.0
 40
0.0
 40
0.2717571886
 40
0.5268814665
 40
0.7676360547
 40
1.0
 40
1.0
 40
1.0
 40
1.0
 10
31.0487956505
 20
223.1457304142
 30
0.0
 10
31.0487956505
 20
223.3952444122
 30
0.0
 10
31.000254217
 20
223.8810533911
 30
0.0
 10
30.7679513435
 20
224.5540221915
 30
0.0
 10
30.3871259114
 20
225.1139246839
 30
0.0
 10
30.0425360824
 20
225.3910665254
 30
0.0
 10
29.8578049894
 20
225.4977930124
 30
0.0
  0
SPLINE
  5
2F7
100
AcDbEntity
  8
0
100
AcDbSpline
 62
7
  6
CONTINUOUS
 70
0
 71
3
 72
14
 73
10
 74
0
 42
0.0000001
 43
0.0000001
 44
0.0000000001
 40
0.0
 40
0.0
 40
0.0
 40
0.0
 40
0.2562060773
 40
0.3897701936
 40
0.5226491793
 40
0.6519161974
 40
0.7752021917
 40
0.8911819368
 40
1.0
 40
1.0
 40
1.0
 40
1.0
 10
13.1349212012
 20
218.3438181521
 30
0.0
 10
13.1349212012
 20
217.3037727853
 30
0.0
 10
12.7883825379
 20
215.7078748181
 30
0.0
 10
11.8146123706
 20
213.8165019193
 30
0.0
 10
10.835556303
 20
212.530945276
 30
0.0
 10
9.6708041636
 20
211.4728318357
 30
0.0
 10
8.3788743782
 20
210.6969599772
 30
0.0
 10
7.0265706469
 20
210.2470192021
 30
0.0
 10
6.1030822793
 20
210.1833776094
 30
0.0
 10
5.6626537294
 20
210.2173530885
 30
0.0
  0
SPLINE
  5
2F8
100
AcDbEntity
  8
0
100
AcDbSpline
 62
7
  6
CONTINUOUS
 70
0
 71
3
 72
11
 73
7
 74
0
 42
0.0000001
 43
0.0000001
 44
0.0000000001
 40
0.0
 40
0.0
 40
0.0
 40
0.0
 40
0.2717571886
 40
0.5268814665
 40
0.7676360547
 40
1.0
 40
1.0
 40
1.0
 40
1.0
 10
10.3876379148
 20
217.6073938047
 30
0.0
 10
10.3876379148
 20
217.8569078026
 30
0.0
 10
10.3390964813
 20
218.3427167816
 30
0.0
 10
10.1067936078
 20
219.015685582
 30
0.0
 10
9.7259681757
 20
219.5755880744
 30
0.0
 10
9.3813783467
 20
219.8527299159
 30
0.0
 10
9.1966472537
 20
219.9594564028
 30
0.0
  0
SPLINE
  5
2F9
100
AcDbEntity
  8
0
100
AcDbSpline
 62
7
  6
CONTINUOUS
 70
0
 71
3
 72
15
 73
11
 74
0
 42
0.0000001
 43
0.0000001
 44
0.0000000001
 40
0.0
 40
0.0
 40
0.0
 40
0.0
 40
0.0524625372
 40
0.1056460033
 40
0.2162145948
 40
0.335328669
 40
0.4632706134
 40
0.5978575783
 40
0.7353249013
 40
1.0
 40
1.0
 40
1.0
 40
1.0
 10
17.3101435354
 20
223.2319177605
 30
0.0
 10
17.5226474871
 20
223.1091946113
 30
0.0
 10
17.9744273679
 20
222.9009280796
 30
0.0
 10
18.9585694625
 20
222.6485477072
 30
0.0
 10
20.3079713151
 20
222.6670931425
 30
0.0
 10
21.9165851219
 20
223.1978808601
 30
0.0
 10
23.4281956537
 20
224.1791767164
 30
0.0
 10
24.7382457229
 20
225.5378326129
 30
0.0
 10
26.0717964617
 20
227.6761318894
 30
0.0
 10
26.5620855359
 20
229.5781116122
 30
0.0
 10
26.5620855359
 20
230.816138868
 30
0.0
  0
SPLINE
  5
2FA
100
AcDbEntity
  8
0
100
AcDbSpline
 62
7
  6
CONTINUOUS
 70
0
 71
3
 72
14
 73
10
 74
0
 42
0.0000001
 43
0.0000001
 44
0.0000000001
 40
0.0
 40
0.0
 40
0.0
 40
0.0
 40
0.2686164723
 40
0.3932530389
 40
0.5129262831
 40
0.6303784462
 40
0.7488454196
 40
0.8713344666
 40
1.0
 40
1.0
 40
1.0
 40
1.0
 10
26.2941411778
 20
207.760949578
 30
0.0
 10
26.2941411781
 20
208.5164074112
 30
0.0
 10
26.1055838842
 20
209.6452320512
 30
0.0
 10
25.4102312258
 20
210.9214776368
 30
0.0
 10
24.7173090086
 20
211.6814144414
 30
0.0
 10
23.867685543
 20
212.2301048561
 30
0.0
 10
22.8979530654
 20
212.5435985204
 30
0.0
 10
21.8510440165
 20
212.6107733705
 30
0.0
 10
21.1477932333
 20
212.495017975
 30
0.0
 10
20.7982732201
 20
212.4013272191
 30
0.0
  0
SPLINE
  5
2FB
100
AcDbEntity
  8
0
100
AcDbSpline
 62
7
  6
CONTINUOUS
 70
0
 71
3
 72
20
 73
16
 74
0
 42
0.0000001
 43
0.0000001
 44
0.0000000001
 40
0.0
 40
0.0
 40
0.0
 40
0.0
 40
0.0524886434
 40
0.1058788304
 40
0.1609446359
 40
0.2182401375
 40
0.340076149
 40
0.4047856399
 40
0.4714397647
 40
0.6080573039
 40
0.7449175056
 40
0.8118575972
 40
0.8769396555
 40
0.9397340303
 40
1.0
 40
1.0
 40
1.0
 40
1.0
 10
9.2948660962
 20
197.8629231771
 30
0.0
 10
8.5084480776
 20
198.3171721203
 30
0.0
 10
7.0125290006
 20
199.400763487
 30
0.0
 10
5.1211660522
 20
201.4681729263
 30
0.0
 10
3.6169443474
 20
203.930050019
 30
0.0
 10
2.1453619866
 20
207.7243357416
 30
0.0
 10
1.6300358061
 20
211.9892311147
 30
0.0
 10
1.9939325294
 20
216.3627044159
 30
0.0
 10
2.9727896677
 20
220.9074538892
 30
0.0
 10
5.2717752498
 20
226.3889311632
 30
0.0
 10
8.7772309966
 20
231.1958847156
 30
0.0
 10
12.1655736171
 20
234.3991579608
 30
0.0
 10
14.8994912779
 20
236.3885405568
 30
0.0
 10
17.777174878
 20
237.9320843894
 30
0.0
 10
19.7910814887
 20
238.654094401
 30
0.0
 10
20.7982732201
 20
238.9240776667
 30
0.0
  0
SPLINE
  5
2FC
100
AcDbEntity
  8
0
100
AcDbSpline
 62
7
  6
CONTINUOUS
 70
0
 71
3
 72
9
 73
5
 74
0
 42
0.0000001
 43
0.0000001
 44
0.0000000001
 40
0.0
 40
0.0
 40
0.0
 40
0.0
 40
0.480151452
 40
1.0
 40
1.0
 40
1.0
 40
1.0
 10
22.5241125912
 20
235.8639336953
 30
0.0
 10
22.8386656697
 20
235.4136100271
 30
0.0
 10
23.3233112901
 20
234.3507874286
 30
0.0
 10
23.4655000691
 20
233.199387649
 30
0.0
 10
23.4655000691
 20
232.6046691247
 30
0.0
  0
SPLINE
  5
2FD
100
AcDbEntity
  8
0
100
AcDbSpline
 62
7
  6
CONTINUOUS
 70
0
 71
3
 72
10
 73
6
 74
0
 42
0.0000001
 43
0.0000001
 44
0.0000000001
 40
0.0
 40
0.0
 40
0.0
 40
0.0
 40
0.2403281525
 40
0.4850960851
 40
1.0
 40
1.0
 40
1.0
 40
1.0
 10
17.3465481039
 20
202.9115186149
 30
0.0
 10
17.5124943631
 20
202.815701938
 30
0.0
 10
17.8696277448
 20
202.6580050775
 30
0.0
 10
18.6545321937
 20
202.4945750972
 30
0.0
 10
19.2756910121
 20
202.5569230229
 30
0.0
 10
19.6722421351
 20
202.6632207245
 30
0.0
  0
SPLINE
  5
2FE
100
AcDbEntity
  8
0
100
AcDbSpline
 62
7
  6
CONTINUOUS
 70
0
 71
3
 72
14
 73
10
 74
0
 42
0.0000001
 43
0.0000001
 44
0.0000000001
 40
0.0
 40
0.0
 40
0.0
 40
0.0
 40
0.1052606218
 40
0.2158761856
 40
0.3350397663
 40
0.4630361708
 40
0.5976782969
 40
0.7352099851
 40
1.0
 40
1.0
 40
1.0
 40
1.0
 10
5.5455705172
 20
213.6381369166
 30
0.0
 10
5.7685943791
 20
213.5092871766
 30
0.0
 10
6.2801029901
 20
213.329977803
 30
0.0
 10
7.1139561676
 20
213.3428650468
 30
0.0
 10
7.9565065459
 20
213.6202215633
 30
0.0
 10
8.7474015763
 20
214.1339175954
 30
0.0
 10
9.4330914586
 20
214.8449377046
 30
0.0
 10
10.1310227326
 20
215.9640362332
 30
0.0
 10
10.3876379148
 20
216.9594615194
 30
0.0
 10
10.3876379148
 20
217.6073938047
 30
0.0
  0
SPLINE
  5
2FF
100
AcDbEntity
  8
0
100
AcDbSpline
 62
7
  6
CONTINUOUS
 70
0
 71
3
 72
10
 73
6
 74
0
 42
0.0000001
 43
0.0000001
 44
0.0000000001
 40
0.0
 40
0.0
 40
0.0
 40
0.0
 40
0.443973856
 40
0.7068752535
 40
1.0
 40
1.0
 40
1.0
 40
1.0
 10
-11.1413850854
 20
254.9410474723
 30
0.0
 10
-10.630991838
 20
253.7072287121
 30
0.0
 10
-9.3099860629
 20
251.9533048082
 30
0.0
 10
-7.0239102817
 20
250.002199117
 30
0.0
 10
-5.624731952
 20
249.0754696247
 30
0.0
 10
-4.8673591304
 20
248.624338597
 30
0.0
  0
SPLINE
  5
300
100
AcDbEntity
  8
0
100
AcDbSpline
 62
7
  6
CONTINUOUS
 70
0
 71
3
 72
10
 73
6
 74
0
 42
0.0000001
 43
0.0000001
 44
0.0000000001
 40
0.0
 40
0.0
 40
0.0
 40
0.0
 40
0.2197222459
 40
0.4605270538
 40
1.0
 40
1.0
 40
1.0
 40
1.0
 10
-4.6956370986
 20
248.1039201664
 30
0.0
 10
-3.8956468625
 20
247.5951446073
 30
0.0
 10
-2.1590064599
 20
246.6215421632
 30
0.0
 10
1.7771270526
 20
244.8453737646
 30
0.0
 10
4.9946788606
 20
243.8109786218
 30
0.0
 10
7.244246765
 20
243.2127659466
 30
0.0
  0
SPLINE
  5
301
100
AcDbEntity
  8
0
100
AcDbSpline
 62
7
  6
CONTINUOUS
 70
0
 71
3
 72
9
 73
5
 74
0
 42
0.0000001
 43
0.0000001
 44
0.0000000001
 40
0.0
 40
0.0
 40
0.0
 40
0.0
 40
0.480989657
 40
1.0
 40
1.0
 40
1.0
 40
1.0
 10
7.9090399012
 20
242.7578195318
 30
0.0
 10
10.3832585977
 20
242.0568346917
 30
0.0
 10
15.6168493169
 20
240.9093838385
 30
0.0
 10
20.93109425
 20
240.2593075727
 30
0.0
 10
23.6970422627
 20
240.0368540583
 30
0.0
  0
SPLINE
  5
302
100
AcDbEntity
  8
0
100
AcDbSpline
 62
7
  6
CONTINUOUS
 70
0
 71
3
 72
9
 73
5
 74
0
 42
0.0000001
 43
0.0000001
 44
0.0000000001
 40
0.0
 40
0.0
 40
0.0
 40
0.0
 40
0.517064877
 40
1.0
 40
1.0
 40
1.0
 40
1.0
 10
43.2738909894
 20
239.4433762293
 30
0.0
 10
46.0706892343
 20
239.6224997447
 30
0.0
 10
51.4680869803
 20
240.1918476105
 30
0.0
 10
56.7941075795
 20
241.2535790538
 30
0.0
 10
59.327471773
 20
241.9120590279
 30
0.0
  0
SPLINE
  5
303
100
AcDbEntity
  8
0
100
AcDbSpline
 62
7
  6
CONTINUOUS
 70
0
 71
3
 72
10
 73
6
 74
0
 42
0.0000001
 43
0.0000001
 44
0.0000000001
 40
0.0
 40
0.0
 40
0.0
 40
0.0
 40
0.5372535993
 40
0.7786977364
 40
1.0
 40
1.0
 40
1.0
 40
1.0
 10
60.6500870822
 20
241.9796275083
 30
0.0
 10
62.9689969326
 20
242.5441486699
 30
0.0
 10
66.2969806324
 20
243.5308869141
 30
0.0
 10
70.4008557411
 20
245.2396666409
 30
0.0
 10
72.2311107113
 20
246.1830539528
 30
0.0
 10
73.080695881
 20
246.6776929283
 30
0.0
  0
SPLINE
  5
304
100
AcDbEntity
  8
0
100
AcDbSpline
 62
7
  6
CONTINUOUS
 70
0
 71
3
 72
10
 73
6
 74
0
 42
0.0000001
 43
0.0000001
 44
0.0000000001
 40
0.0
 40
0.0
 40
0.0
 40
0.0
 40
0.2925934178
 40
0.5558497114
 40
1.0
 40
1.0
 40
1.0
 40
1.0
 10
74.2369180427
 20
246.9392734996
 30
0.0
 10
75.0414790412
 20
247.3789430097
 30
0.0
 10
76.536107253
 20
248.2839406524
 30
0.0
 10
79.0157882533
 20
250.1961796904
 30
0.0
 10
80.510529745
 20
251.9164128758
 30
0.0
 10
81.1521073462
 20
253.151483663
 30
0.0
  0
SPLINE
  5
305
100
AcDbEntity
  8
0
100
AcDbSpline
 62
7
  6
CONTINUOUS
 70
0
 71
3
 72
9
 73
5
 74
0
 42
0.0000001
 43
0.0000001
 44
0.0000000001
 40
0.0
 40
0.0
 40
0.0
 40
0.0
 40
0.51654783
 40
1.0
 40
1.0
 40
1.0
 40
1.0
 10
81.9661966091
 20
253.5677300942
 30
0.0
 10
82.311325928
 20
254.1443051593
 30
0.0
 10
82.8618475156
 20
255.3400246869
 30
0.0
 10
83.0610994405
 20
256.647022898
 30
0.0
 10
83.0610944601
 20
257.2759457335
 30
0.0
  0
SPLINE
  5
306
100
AcDbEntity
  8
0
100
AcDbSpline
 62
7
  6
CONTINUOUS
 70
0
 71
3
 72
13
 73
9
 74
0
 42
0.0000001
 43
0.0000001
 44
0.0000000001
 40
0.0
 40
0.0
 40
0.0
 40
0.0
 40
0.3260097697
 40
0.4723853445
 40
0.6058531446
 40
0.7254705851
 40
0.8307972035
 40
1.0
 40
1.0
 40
1.0
 40
1.0
 10
50.3489059915
 20
264.0843973504
 30
0.0
 10
52.4410959097
 20
264.4996014556
 30
0.0
 10
55.4490030881
 20
265.2541948879
 30
0.0
 10
59.1737319509
 20
266.6202596893
 30
0.0
 10
61.5492069259
 20
267.716375779
 30
0.0
 10
63.5785154643
 20
268.9061678913
 30
0.0
 10
65.6276037645
 20
270.4662919237
 30
0.0
 10
66.8361098389
 20
271.8797887384
 30
0.0
 10
67.299870188
 20
272.8850147948
 30
0.0
  0
SPLINE
  5
307
100
AcDbEntity
  8
0
100
AcDbSpline
 62
7
  6
CONTINUOUS
 70
0
 71
3
 72
9
 73
5
 74
0
 42
0.0000001
 43
0.0000001
 44
0.0000000001
 40
0.0
 40
0.0
 40
0.0
 40
0.0
 40
0.2584979172
 40
1.0
 40
1.0
 40
1.0
 40
1.0
 10
67.299870188
 20
272.8850147948
 30
0.0
 10
67.3398314017
 20
272.9716329226
 30
0.0
 10
67.4860834075
 20
273.3104569951
 30
0.0
 10
67.5972086326
 20
273.6647702799
 30
0.0
 10
67.6555707493
 20
273.9321056191
 30
0.0
  0
SPLINE
  5
308
100
AcDbEntity
  8
0
100
AcDbSpline
 62
7
  6
CONTINUOUS
 70
0
 71
3
 72
9
 73
5
 74
0
 42
0.0000001
 43
0.0000001
 44
0.0000000001
 40
0.0
 40
0.0
 40
0.0
 40
0.0
 40
0.247941539
 40
1.0
 40
1.0
 40
1.0
 40
1.0
 10
3.7593803128
 20
274.8953912524
 30
0.0
 10
3.7592812754
 20
274.8136103897
 30
0.0
 10
3.768026382
 20
274.4838117086
 30
0.0
 10
3.8137965816
 20
274.1550892466
 30
0.0
 10
3.8676721561
 20
273.9129518908
 30
0.0
  0
SPLINE
  5
309
100
AcDbEntity
  8
0
100
AcDbSpline
 62
7
  6
CONTINUOUS
 70
0
 71
3
 72
9
 73
5
 74
0
 42
0.0000001
 43
0.0000001
 44
0.0000000001
 40
0.0
 40
0.0
 40
0.0
 40
0.0
 40
0.2418692074
 40
1.0
 40
1.0
 40
1.0
 40
1.0
 10
3.8676721561
 20
273.9129518908
 30
0.0
 10
3.8891082673
 20
273.816609841
 30
0.0
 10
3.990340886
 20
273.4211278253
 30
0.0
 10
4.1416211915
 20
273.0390292786
 30
0.0
 10
4.2778340132
 20
272.7612647857
 30
0.0
  0
SPLINE
  5
30A
100
AcDbEntity
  8
0
100
AcDbSpline
 62
7
  6
CONTINUOUS
 70
0
 71
3
 72
10
 73
6
 74
0
 42
0.0000001
 43
0.0000001
 44
0.0000000001
 40
0.0
 40
0.0
 40
0.0
 40
0.0
 40
0.4458577147
 40
0.7087544005
 40
1.0
 40
1.0
 40
1.0
 40
1.0
 10
4.2778340132
 20
272.7612647857
 30
0.0
 10
4.6294908774
 20
272.0441678978
 30
0.0
 10
5.4160288227
 20
271.0141637464
 30
0.0
 10
6.7423478236
 20
269.810243835
 30
0.0
 10
7.5457879816
 20
269.2228728321
 30
0.0
 10
7.9797455942
 20
268.9332681392
 30
0.0
  0
SPLINE
  5
30B
100
AcDbEntity
  8
0
100
AcDbSpline
 62
7
  6
CONTINUOUS
 70
0
 71
3
 72
15
 73
11
 74
0
 42
0.0000001
 43
0.0000001
 44
0.0000000001
 40
0.0
 40
0.0
 40
0.0
 40
0.0
 40
0.092063521
 40
0.2000238755
 40
0.3213841211
 40
0.452846557
 40
0.5905904349
 40
0.7304976719
 40
0.8683380235
 40
1.0
 40
1.0
 40
1.0
 40
1.0
 10
8.009710871
 20
268.9133134693
 30
0.0
 10
9.1199069243
 20
268.175587584
 30
0.0
 10
11.7008852962
 20
266.8266559786
 30
0.0
 10
16.0871287827
 20
265.2470680565
 30
0.0
 10
21.1691373819
 20
264.0025228392
 30
0.0
 10
26.7646562763
 20
263.1436457796
 30
0.0
 10
32.6772951509
 20
262.7031163181
 30
0.0
 10
38.6985080939
 20
262.6979348947
 30
0.0
 10
44.6157505339
 20
263.1280585516
 30
0.0
 10
48.4790810843
 20
263.7133225399
 30
0.0
 10
50.3489059915
 20
264.0843973504
 30
0.0
  0
SPLINE
  5
30C
100
AcDbEntity
  8
0
100
AcDbSpline
 62
7
  6
CONTINUOUS
 70
0
 71
3
 72
9
 73
5
 74
0
 42
0.0000001
 43
0.0000001
 44
0.0000000001
 40
0.0
 40
0.0
 40
0.0
 40
0.0
 40
0.4900871296
 40
1.0
 40
1.0
 40
1.0
 40
1.0
 10
-11.5420795347
 20
258.5198042598
 30
0.0
 10
-11.5420898383
 20
258.0438035518
 30
0.0
 10
-11.4309755239
 20
257.0696856294
 30
0.0
 10
-11.1129130065
 20
256.1440278004
 30
0.0
 10
-10.9092905697
 20
255.692566831
 30
0.0
  0
SPLINE
  5
30D
100
AcDbEntity
  8
0
100
AcDbSpline
 62
7
  6
CONTINUOUS
 70
0
 71
3
 72
9
 73
5
 74
0
 42
0.0000001
 43
0.0000001
 44
0.0000000001
 40
0.0
 40
0.0
 40
0.0
 40
0.0
 40
0.2580544797
 40
1.0
 40
1.0
 40
1.0
 40
1.0
 10
-11.1413850854
 20
254.9410474723
 30
0.0
 10
-11.1481574832
 20
254.9574222734
 30
0.0
 10
-11.1698517185
 20
255.0226694578
 30
0.0
 10
-11.1673857252
 20
255.0958845594
 30
0.0
 10
-11.1516776457
 20
255.1443503238
 30
0.0
  0
SPLINE
  5
30E
100
AcDbEntity
  8
0
100
AcDbSpline
 62
7
  6
CONTINUOUS
 70
0
 71
3
 72
11
 73
7
 74
0
 42
0.0000001
 43
0.0000001
 44
0.0000000001
 40
0.0
 40
0.0
 40
0.0
 40
0.0
 40
0.3063172099
 40
0.5599665494
 40
0.7749502755
 40
1.0
 40
1.0
 40
1.0
 40
1.0
 10
-4.6956370986
 20
248.1039201664
 30
0.0
 10
-4.746388185
 20
248.1361989954
 30
0.0
 10
-4.8350279344
 20
248.2025831774
 30
0.0
 10
-4.9335606542
 20
248.3211447944
 30
0.0
 10
-4.9726223789
 20
248.459336881
 30
0.0
 10
-4.9336693522
 20
248.545146548
 30
0.0
 10
-4.9053003489
 20
248.5790271271
 30
0.0
  0
SPLINE
  5
30F
100
AcDbEntity
  8
0
100
AcDbSpline
 62
7
  6
CONTINUOUS
 70
0
 71
3
 72
10
 73
6
 74
0
 42
0.0000001
 43
0.0000001
 44
0.0000000001
 40
0.0
 40
0.0
 40
0.0
 40
0.0
 40
0.5943300905
 40
0.8240083977
 40
1.0
 40
1.0
 40
1.0
 40
1.0
 10
7.9090399012
 20
242.7578195318
 30
0.0
 10
7.7573765301
 20
242.8007910182
 30
0.0
 10
7.5478823679
 20
242.8764296782
 30
0.0
 10
7.3293474145
 20
243.0261531727
 30
0.0
 10
7.2619533136
 20
243.1193288995
 30
0.0
 10
7.2532618147
 20
243.1651906392
 30
0.0
  0
SPLINE
  5
310
100
AcDbEntity
  8
0
100
AcDbSpline
 62
7
  6
CONTINUOUS
 70
0
 71
3
 72
10
 73
6
 74
0
 42
0.0000001
 43
0.0000001
 44
0.0000000001
 40
0.0
 40
0.0
 40
0.0
 40
0.0
 40
0.5581490796
 40
0.8008084813
 40
1.0
 40
1.0
 40
1.0
 40
1.0
 10
24.7536981018
 20
239.7166409281
 30
0.0
 10
24.5593971605
 20
239.7346529153
 30
0.0
 10
24.2805524295
 20
239.7771434219
 30
0.0
 10
23.9471547814
 20
239.8820496202
 30
0.0
 10
23.8065480154
 20
239.951422384
 30
0.0
 10
23.7516412948
 20
239.994257732
 30
0.0
  0
SPLINE
  5
311
100
AcDbEntity
  8
0
100
AcDbSpline
 62
7
  6
CONTINUOUS
 70
0
 71
3
 72
10
 73
6
 74
0
 42
0.0000001
 43
0.0000001
 44
0.0000000001
 40
0.0
 40
0.0
 40
0.0
 40
0.0
 40
0.5207813813
 40
0.771998886
 40
1.0
 40
1.0
 40
1.0
 40
1.0
 10
43.2738909894
 20
239.4433762293
 30
0.0
 10
43.0649696378
 20
239.4299983532
 30
0.0
 10
42.7531644788
 20
239.4299984309
 30
0.0
 10
42.3537156942
 20
239.4768377437
 30
0.0
 10
42.1649154472
 20
239.5195584451
 30
0.0
 10
42.0781096906
 20
239.5489739632
 30
0.0
  0
SPLINE
  5
312
100
AcDbEntity
  8
0
100
AcDbSpline
 62
7
  6
CONTINUOUS
 70
0
 71
3
 72
9
 73
5
 74
0
 42
0.0000001
 43
0.0000001
 44
0.0000000001
 40
0.0
 40
0.0
 40
0.0
 40
0.0
 40
0.4860436554
 40
1.0
 40
1.0
 40
1.0
 40
1.0
 10
60.6500870822
 20
241.9796275083
 30
0.0
 10
60.458872408
 20
241.9330810432
 30
0.0
 10
60.0571811766
 20
241.8723028149
 30
0.0
 10
59.6490013942
 20
241.8703761885
 30
0.0
 10
59.4426280669
 20
241.8971299421
 30
0.0
  0
SPLINE
  5
313
100
AcDbEntity
  8
0
100
AcDbSpline
 62
7
  6
CONTINUOUS
 70
0
 71
3
 72
9
 73
5
 74
0
 42
0.0000001
 43
0.0000001
 44
0.0000000001
 40
0.0
 40
0.0
 40
0.0
 40
0.0
 40
0.4486283349
 40
1.0
 40
1.0
 40
1.0
 40
1.0
 10
74.2369180427
 20
246.9392734996
 30
0.0
 10
74.0960447996
 20
246.8622954762
 30
0.0
 10
73.75561152
 20
246.7403894068
 30
0.0
 10
73.3988190078
 20
246.687026662
 30
0.0
 10
73.2016059992
 20
246.6812401398
 30
0.0
  0
SPLINE
  5
314
100
AcDbEntity
  8
0
100
AcDbSpline
 62
7
  6
CONTINUOUS
 70
0
 71
3
 72
9
 73
5
 74
0
 42
0.0000001
 43
0.0000001
 44
0.0000000001
 40
0.0
 40
0.0
 40
0.0
 40
0.0
 40
0.4079562767
 40
1.0
 40
1.0
 40
1.0
 40
1.0
 10
81.9661966091
 20
253.5677300942
 30
0.0
 10
81.9086747827
 20
253.471633864
 30
0.0
 10
81.6838529299
 20
253.2919488946
 30
0.0
 10
81.4202230432
 20
253.2046918714
 30
0.0
 10
81.2607977995
 20
253.1730532364
 30
0.0
  0
SPLINE
  5
315
100
AcDbEntity
  8
0
100
AcDbSpline
 62
7
  6
CONTINUOUS
 70
0
 71
3
 72
14
 73
10
 74
0
 42
0.0000001
 43
0.0000001
 44
0.0000000001
 40
0.0
 40
0.0
 40
0.0
 40
0.0
 40
0.2967593557
 40
0.4335362676
 40
0.5618652467
 40
0.6817559851
 40
0.7937828665
 40
0.8991971676
 40
1.0
 40
1.0
 40
1.0
 40
1.0
 10
16.897973952
 20
289.0145506825
 30
0.0
 10
14.2914749227
 20
288.497279718
 30
0.0
 10
10.513151929
 20
287.5569671381
 30
0.0
 10
5.7687067205
 20
285.8730004857
 30
0.0
 10
2.6098022451
 20
284.4830225746
 30
0.0
 10
-0.2235641796
 20
282.9311339027
 30
0.0
 10
-2.7127163156
 20
281.2078416765
 30
0.0
 10
-4.8356593785
 20
279.2935359404
 30
0.0
 10
-5.9982224979
 20
277.8437698876
 30
0.0
 10
-6.4908786852
 20
277.0874324002
 30
0.0
  0
SPLINE
  5
316
100
AcDbEntity
  8
0
100
AcDbSpline
 62
7
  6
CONTINUOUS
 70
0
 71
3
 72
9
 73
5
 74
0
 42
0.0000001
 43
0.0000001
 44
0.0000000001
 40
0.0
 40
0.0
 40
0.0
 40
0.0
 40
0.2511325374
 40
1.0
 40
1.0
 40
1.0
 40
1.0
 10
-6.9219570786
 20
276.3784531901
 30
0.0
 10
-7.0473848581
 20
276.1566043894
 30
0.0
 10
-7.5205116106
 20
275.2587488655
 30
0.0
 10
-7.879166577
 20
274.2992907355
 30
0.0
 10
-8.0676246001
 20
273.5630732218
 30
0.0
  0
SPLINE
  5
317
100
AcDbEntity
  8
0
100
AcDbSpline
 62
7
  6
CONTINUOUS
 70
0
 71
3
 72
10
 73
6
 74
0
 42
0.0000001
 43
0.0000001
 44
0.0000000001
 40
0.0
 40
0.0
 40
0.0
 40
0.0
 40
0.2448779986
 40
0.4909773046
 40
1.0
 40
1.0
 40
1.0
 40
1.0
 10
79.5717129422
 20
273.6208341549
 30
0.0
 10
79.4171130222
 20
274.2113971107
 30
0.0
 10
79.0047591407
 20
275.3710781311
 30
0.0
 10
77.8086026854
 20
277.566464794
 30
0.0
 10
76.5693489975
 20
279.0162397708
 30
0.0
 10
75.6523347435
 20
279.8933590716
 30
0.0
  0
SPLINE
  5
318
100
AcDbEntity
  8
0
100
AcDbSpline
 62
7
  6
CONTINUOUS
 70
0
 71
3
 72
16
 73
12
 74
0
 42
0.0000001
 43
0.0000001
 44
0.0000000001
 40
0.0
 40
0.0
 40
0.0
 40
0.0
 40
0.0455191059
 40
0.093938138
 40
0.2004036186
 40
0.3196809809
 40
0.4497097885
 40
0.5870558396
 40
0.7275261661
 40
0.8666213918
 40
1.0
 40
1.0
 40
1.0
 40
1.0
 10
74.962165145
 20
280.5222949956
 30
0.0
 10
74.2728254924
 20
281.1214477875
 30
0.0
 10
72.7666674826
 20
282.2633705568
 30
0.0
 10
69.320860831
 20
284.346101442
 30
0.0
 10
64.252409801
 20
286.5452344666
 30
0.0
 10
57.3860561669
 20
288.5437123562
 30
0.0
 10
49.7451526381
 20
289.9528180815
 30
0.0
 10
41.590105914
 20
290.7346690235
 30
0.0
 10
33.216928646
 20
290.8642263272
 30
0.0
 10
24.9397782148
 20
290.3373941005
 30
0.0
 10
19.5229935115
 20
289.5354971261
 30
0.0
 10
16.897973952
 20
289.0145506825
 30
0.0
  0
SPLINE
  5
319
100
AcDbEntity
  8
0
100
AcDbSpline
 62
7
  6
CONTINUOUS
 70
0
 71
3
 72
18
 73
14
 74
0
 42
0.0000001
 43
0.0000001
 44
0.0000000001
 40
0.0
 40
0.0
 40
0.0
 40
0.0
 40
0.0913169354
 40
0.1913384694
 40
0.3011600333
 40
0.3600454108
 40
0.4216333754
 40
0.4858823415
 40
0.552731195
 40
0.6221186946
 40
0.6938782872
 40
0.8436246115
 40
1.0
 40
1.0
 40
1.0
 40
1.0
 10
-4.6956289501
 20
248.1039170509
 30
0.0
 10
-4.0735975976
 20
248.6954903016
 30
0.0
 10
-2.6960878136
 20
249.8615745763
 30
0.0
 10
-0.2854396591
 20
251.3630365091
 30
0.0
 10
2.0186618486
 20
252.4156715018
 30
0.0
 10
4.0617741378
 20
253.1340653746
 30
0.0
 10
5.7265574277
 20
253.6299537458
 30
0.0
 10
7.4840477593
 20
254.0709445317
 30
0.0
 10
9.3338438535
 20
254.4363312646
 30
0.0
 10
11.2698543821
 20
254.7153981837
 30
0.0
 10
13.9913319306
 20
254.9884544214
 30
0.0
 10
17.544530941
 20
255.132734252
 30
0.0
 10
20.42315559
 20
255.0277541583
 30
0.0
 10
21.889649567
 20
254.9263522064
 30
0.0
  0
SPLINE
  5
31A
100
AcDbEntity
  8
0
100
AcDbSpline
 62
7
  6
CONTINUOUS
 70
0
 71
3
 72
10
 73
6
 74
0
 42
0.0000001
 43
0.0000001
 44
0.0000000001
 40
0.0
 40
0.0
 40
0.0
 40
0.0
 40
0.5849697212
 40
0.8257070146
 40
1.0
 40
1.0
 40
1.0
 40
1.0
 10
21.8896471162
 20
254.9263498926
 30
0.0
 10
21.8881129061
 20
254.9819430499
 30
0.0
 10
21.8959996443
 20
255.0618663707
 30
0.0
 10
21.9275309947
 20
255.1513006796
 30
0.0
 10
21.9489576743
 20
255.1860729586
 30
0.0
 10
21.9617624118
 20
255.1965904245
 30
0.0
  0
SPLINE
  5
31B
100
AcDbEntity
  8
0
100
AcDbSpline
 62
7
  6
CONTINUOUS
 70
0
 71
3
 72
8
 73
4
 74
0
 42
0.0000001
 43
0.0000001
 44
0.0000000001
 40
0.0
 40
0.0
 40
0.0
 40
0.0
 40
1.0
 40
1.0
 40
1.0
 40
1.0
 10
21.9622630308
 20
255.1975554087
 30
0.0
 10
22.0259025362
 20
255.1897190725
 30
0.0
 10
22.0894478973
 20
255.1811359338
 30
0.0
 10
22.1530514313
 20
255.173012802
 30
0.0
  0
SPLINE
  5
31C
100
AcDbEntity
  8
0
100
AcDbSpline
 62
7
  6
CONTINUOUS
 70
0
 71
3
 72
17
 73
13
 74
0
 42
0.0000001
 43
0.0000001
 44
0.0000000001
 40
0.0
 40
0.0
 40
0.0
 40
0.0
 40
0.2482073099
 40
0.3726938891
 40
0.4974530251
 40
0.6225109559
 40
0.7479280986
 40
0.8108131281
 40
0.8738668076
 40
0.9371835532
 40
0.9690528784
 40
1.0
 40
1.0
 40
1.0
 40
1.0
 10
22.1530570781
 20
255.1730952965
 30
0.0
 10
22.2984560494
 20
255.1545256533
 30
0.0
 10
22.5166342755
 20
255.125462359
 30
0.0
 10
22.8072873242
 20
255.082706665
 30
0.0
 10
23.0255914056
 20
255.0480137782
 30
0.0
 10
23.2439324129
 20
255.0098947923
 30
0.0
 10
23.4253492034
 20
254.9737991758
 30
0.0
 10
23.5702136897
 20
254.9402424789
 30
0.0
 10
23.6775032198
 20
254.9116156409
 30
0.0
 10
23.7685530988
 20
254.8814355816
 30
0.0
 10
23.8320070537
 20
254.8520250829
 30
0.0
 10
23.8701449503
 20
254.8245247505
 30
0.0
 10
23.8691276082
 20
254.8062771207
 30
0.0
  0
SPLINE
  5
31D
100
AcDbEntity
  8
0
100
AcDbSpline
 62
7
  6
CONTINUOUS
 70
0
 71
3
 72
9
 73
5
 74
0
 42
0.0000001
 43
0.0000001
 44
0.0000000001
 40
0.0
 40
0.0
 40
0.0
 40
0.0
 40
0.4950699661
 40
1.0
 40
1.0
 40
1.0
 40
1.0
 10
22.1530570781
 20
255.1730952965
 30
0.0
 10
24.9217640241
 20
254.8195909212
 30
0.0
 10
30.5460464827
 20
254.340351808
 30
0.0
 10
36.1897918154
 20
254.2908093083
 30
0.0
 10
39.0353428094
 20
254.3742398913
 30
0.0
  0
SPLINE
  5
31E
100
AcDbEntity
  8
0
100
AcDbSpline
 62
7
  6
CONTINUOUS
 70
0
 71
3
 72
9
 73
5
 74
0
 42
0.0000001
 43
0.0000001
 44
0.0000000001
 40
0.0
 40
0.0
 40
0.0
 40
0.0
 40
0.2541136293
 40
1.0
 40
1.0
 40
1.0
 40
1.0
 10
39.0354625463
 20
254.3736086801
 30
0.0
 10
37.7214168966
 20
254.3350027215
 30
0.0
 10
32.5564452736
 20
254.0218947415
 30
0.0
 10
27.4288506784
 20
253.0753789812
 30
0.0
 10
23.7180929135
 20
252.0171042487
 30
0.0
  0
SPLINE
  5
31F
100
AcDbEntity
  8
0
100
AcDbSpline
 62
7
  6
CONTINUOUS
 70
0
 71
3
 72
15
 73
11
 74
0
 42
0.0000001
 43
0.0000001
 44
0.0000000001
 40
0.0
 40
0.0
 40
0.0
 40
0.0
 40
0.2730229703
 40
0.5385182808
 40
0.6019963019
 40
0.6640779873
 40
0.7244831413
 40
0.7830800826
 40
0.8951042257
 40
1.0
 40
1.0
 40
1.0
 40
1.0
 10
39.0354625463
 20
254.3736086801
 30
0.0
 10
35.9331942406
 20
254.1651576634
 30
0.0
 10
29.8339153855
 20
253.3397249679
 30
0.0
 10
23.2106444912
 20
251.4735336267
 30
0.0
 10
19.0515848774
 20
249.8792433252
 30
0.0
 10
17.1059867109
 20
249.0412095457
 30
0.0
 10
15.2420230871
 20
248.1579654453
 30
0.0
 10
12.9056169126
 20
246.9470565767
 30
0.0
 10
10.2087093746
 20
245.3368044294
 30
0.0
 10
8.1928807279
 20
243.9028532476
 30
0.0
 10
7.2532619112
 20
243.1651912701
 30
0.0
  0
SPLINE
  5
320
100
AcDbEntity
  8
0
100
AcDbSpline
 62
7
  6
CONTINUOUS
 70
0
 71
3
 72
18
 73
14
 74
0
 42
0.0000001
 43
0.0000001
 44
0.0000000001
 40
0.0
 40
0.0
 40
0.0
 40
0.0
 40
0.1055734109
 40
0.2181958269
 40
0.3376419872
 40
0.399773353
 40
0.4633426076
 40
0.5281784496
 40
0.5941109541
 40
0.6609673276
 40
0.7285015575
 40
0.8645246164
 40
1.0
 40
1.0
 40
1.0
 40
1.0
 10
7.9090517563
 20
242.7578179819
 30
0.0
 10
8.8562054874
 20
243.464015527
 30
0.0
 10
10.8486250791
 20
244.8791049036
 30
0.0
 10
14.0961796438
 20
246.8179317743
 30
0.0
 10
17.0428714003
 20
248.293945311
 30
0.0
 10
19.5633533276
 20
249.378393111
 30
0.0
 10
21.5474186144
 20
250.160177983
 30
0.0
 10
23.593106176
 20
250.8993934868
 30
0.0
 10
25.6994906707
 20
251.575184869
 30
0.0
 10
27.8598729066
 20
252.1757388823
 30
0.0
 10
30.8015719262
 20
252.8873032584
 30
0.0
 10
34.5305610675
 20
253.6026681754
 30
0.0
 10
37.5496542805
 20
253.9672089954
 30
0.0
 10
39.0599770693
 20
254.0991143203
 30
0.0
  0
SPLINE
  5
321
100
AcDbEntity
  8
0
100
AcDbSpline
 62
7
  6
CONTINUOUS
 70
0
 71
3
 72
9
 73
5
 74
0
 42
0.0000001
 43
0.0000001
 44
0.0000000001
 40
0.0
 40
0.0
 40
0.0
 40
0.0
 40
0.3107848773
 40
1.0
 40
1.0
 40
1.0
 40
1.0
 10
39.059979096
 20
254.099112276
 30
0.0
 10
39.0570803298
 20
254.1274600092
 30
0.0
 10
39.0482742568
 20
254.2187129454
 30
0.0
 10
39.0386273075
 20
254.3099645547
 30
0.0
 10
39.0354663673
 20
254.3730789027
 30
0.0
  0
SPLINE
  5
322
100
AcDbEntity
  8
0
100
AcDbSpline
 62
7
  6
CONTINUOUS
 70
0
 71
3
 72
8
 73
4
 74
0
 42
0.0000001
 43
0.0000001
 44
0.0000000001
 40
0.0
 40
0.0
 40
0.0
 40
0.0
 40
1.0
 40
1.0
 40
1.0
 40
1.0
 10
39.0353451093
 20
254.3740784902
 30
0.0
 10
39.1016228463
 20
254.3764323498
 30
0.0
 10
39.1679256728
 20
254.3780182896
 30
0.0
 10
39.234213105
 20
254.3800811497
 30
0.0
  0
SPLINE
  5
323
100
AcDbEntity
  8
0
100
AcDbSpline
 62
7
  6
CONTINUOUS
 70
0
 71
3
 72
17
 73
13
 74
0
 42
0.0000001
 43
0.0000001
 44
0.0000000001
 40
0.0
 40
0.0
 40
0.0
 40
0.0
 40
0.2512049878
 40
0.3766962544
 40
0.5020958925
 40
0.6273839776
 40
0.7525209331
 40
0.8150124561
 40
0.8774185527
 40
0.9396556744
 40
0.9706278865
 40
1.0
 40
1.0
 40
1.0
 40
1.0
 10
39.2342160115
 20
254.3801671751
 30
0.0
 10
39.3863308624
 20
254.3849009839
 30
0.0
 10
39.614479163
 20
254.3907995094
 30
0.0
 10
39.9186506756
 20
254.3945754598
 30
0.0
 10
40.1465479792
 20
254.394811886
 30
0.0
 10
40.3742652004
 20
254.3916092358
 30
0.0
 10
40.563609912
 20
254.3845464224
 30
0.0
 10
40.7150248179
 20
254.3741250615
 30
0.0
 10
40.8270078116
 20
254.36280053
 30
0.0
 10
40.9227510837
 20
254.3469454083
 30
0.0
 10
40.9893945168
 20
254.3284889439
 30
0.0
 10
41.0313564407
 20
254.306080045
 30
0.0
 10
41.0316791997
 20
254.288288351
 30
0.0
  0
SPLINE
  5
324
100
AcDbEntity
  8
0
100
AcDbSpline
 62
7
  6
CONTINUOUS
 70
0
 71
3
 72
9
 73
5
 74
0
 42
0.0000001
 43
0.0000001
 44
0.0000000001
 40
0.0
 40
0.0
 40
0.0
 40
0.0
 40
0.4888339085
 40
1.0
 40
1.0
 40
1.0
 40
1.0
 10
55.3622678874
 20
256.13460838
 30
0.0
 10
52.9588439895
 20
255.6463313943
 30
0.0
 10
48.1040247132
 20
254.3309745399
 30
0.0
 10
43.4156645061
 20
252.5214479051
 30
0.0
 10
41.0676120829
 20
251.4901200057
 30
0.0
  0
SPLINE
  5
325
100
AcDbEntity
  8
0
100
AcDbSpline
 62
7
  6
CONTINUOUS
 70
0
 71
3
 72
9
 73
5
 74
0
 42
0.0000001
 43
0.0000001
 44
0.0000000001
 40
0.0
 40
0.0
 40
0.0
 40
0.0
 40
0.5110462426
 40
1.0
 40
1.0
 40
1.0
 40
1.0
 10
39.2342160115
 20
254.3801671751
 30
0.0
 10
41.9987033613
 20
254.4661714746
 30
0.0
 10
47.4038856627
 20
254.8355137307
 30
0.0
 10
52.7651077621
 20
255.6276087829
 30
0.0
 10
55.3622794464
 20
256.134938192
 30
0.0
  0
SPLINE
  5
326
100
AcDbEntity
  8
0
100
AcDbSpline
 62
7
  6
CONTINUOUS
 70
0
 71
3
 72
8
 73
4
 74
0
 42
0.0000001
 43
0.0000001
 44
0.0000000001
 40
0.0
 40
0.0
 40
0.0
 40
0.0
 40
1.0
 40
1.0
 40
1.0
 40
1.0
 10
55.3622678874
 20
256.13460838
 30
0.0
 10
55.4451179432
 20
256.1514400877
 30
0.0
 10
55.528091138
 20
256.1676599775
 30
0.0
 10
55.6110158489
 20
256.1841199429
 30
0.0
  0
SPLINE
  5
327
100
AcDbEntity
  8
0
100
AcDbSpline
 62
7
  6
CONTINUOUS
 70
0
 71
3
 72
9
 73
5
 74
0
 42
0.0000001
 43
0.0000001
 44
0.0000000001
 40
0.0
 40
0.0
 40
0.0
 40
0.0
 40
0.4887396799
 40
1.0
 40
1.0
 40
1.0
 40
1.0
 10
23.6970415243
 20
240.0368544427
 30
0.0
 10
26.2991641533
 20
242.2177055225
 30
0.0
 10
31.8830142968
 20
246.3764060429
 30
0.0
 10
37.896439182
 20
249.8908667437
 30
0.0
 10
41.0676120829
 20
251.4901200057
 30
0.0
  0
SPLINE
  5
328
100
AcDbEntity
  8
0
100
AcDbSpline
 62
7
  6
CONTINUOUS
 70
0
 71
3
 72
18
 73
14
 74
0
 42
0.0000001
 43
0.0000001
 44
0.0000000001
 40
0.0
 40
0.0
 40
0.0
 40
0.0
 40
0.1194777424
 40
0.243375766
 40
0.3707482739
 40
0.4353636305
 40
0.5003040308
 40
0.5653337919
 40
0.6301958917
 40
0.6946294115
 40
0.7583732402
 40
0.882474879
 40
1.0
 40
1.0
 40
1.0
 40
1.0
 10
23.7516414507
 20
239.9942583819
 30
0.0
 10
24.8737715249
 20
240.8859560406
 30
0.0
 10
27.213364093
 20
242.6348813077
 30
0.0
 10
30.8899911179
 20
245.1400202451
 30
0.0
 10
34.1228558857
 20
247.1199208593
 30
0.0
 10
36.8018009039
 20
248.6445013999
 30
0.0
 10
38.8617786977
 20
249.7431684031
 30
0.0
 10
40.9547878712
 20
250.783962278
 30
0.0
 10
43.0655784588
 20
251.773826275
 30
0.0
 10
45.1869848345
 20
252.7033059326
 30
0.0
 10
47.9959258681
 20
253.830817176
 30
0.0
 10
51.4524899181
 20
255.0504572298
 30
0.0
 10
54.2424346817
 20
255.8454635677
 30
0.0
 10
55.6110158489
 20
256.1841199429
 30
0.0
  0
SPLINE
  5
329
100
AcDbEntity
  8
0
100
AcDbSpline
 62
7
  6
CONTINUOUS
 70
0
 71
3
 72
9
 73
5
 74
0
 42
0.0000001
 43
0.0000001
 44
0.0000000001
 40
0.0
 40
0.0
 40
0.0
 40
0.0
 40
0.4920683863
 40
1.0
 40
1.0
 40
1.0
 40
1.0
 10
57.6089780517
 20
253.6156705945
 30
0.0
 10
54.9199424028
 20
251.4722166707
 30
0.0
 10
49.6077475281
 20
246.9238318399
 30
0.0
 10
44.5368735824
 20
242.1112525098
 30
0.0
 10
42.0172787977
 20
239.6109156594
 30
0.0
  0
SPLINE
  5
32A
100
AcDbEntity
  8
0
100
AcDbSpline
 62
7
  6
CONTINUOUS
 70
0
 71
3
 72
17
 73
13
 74
0
 42
0.0000001
 43
0.0000001
 44
0.0000000001
 40
0.0
 40
0.0
 40
0.0
 40
0.0
 40
0.1201894192
 40
0.2446111896
 40
0.3723021715
 40
0.4369699384
 40
0.5019121599
 40
0.5668853057
 40
0.6316297884
 40
0.7593865941
 40
0.8829430418
 40
1.0
 40
1.0
 40
1.0
 40
1.0
 10
24.7537118587
 20
239.7166413829
 30
0.0
 10
25.872761524
 20
240.5728856848
 30
0.0
 10
28.1618666218
 20
242.3012200565
 30
0.0
 10
31.7602902198
 20
244.774067584
 30
0.0
 10
34.9114537627
 20
246.7422756019
 30
0.0
 10
37.5298992635
 20
248.2404435123
 30
0.0
 10
39.5319191782
 20
249.3342208285
 30
0.0
 10
41.5543484317
 20
250.3918934554
 30
0.0
 10
44.2655237246
 20
251.7198380044
 30
0.0
 10
47.6640140201
 20
253.2011359772
 30
0.0
 10
51.7057891317
 20
254.7280465601
 30
0.0
 10
54.4037139986
 20
255.5597738309
 30
0.0
 10
55.7278382893
 20
255.9202995542
 30
0.0
  0
SPLINE
  5
32B
100
AcDbEntity
  8
0
100
AcDbSpline
 62
7
  6
CONTINUOUS
 70
0
 71
3
 72
9
 73
5
 74
0
 42
0.0000001
 43
0.0000001
 44
0.0000000001
 40
0.0
 40
0.0
 40
0.0
 40
0.0
 40
0.5782958922
 40
1.0
 40
1.0
 40
1.0
 40
1.0
 10
55.7278445369
 20
255.9202977276
 30
0.0
 10
55.7193562162
 20
255.975799013
 30
0.0
 10
55.6907054848
 20
256.0684390504
 30
0.0
 10
55.6424936909
 20
256.1573654496
 30
0.0
 10
55.6110213801
 20
256.1835539312
 30
0.0
  0
SPLINE
  5
32C
100
AcDbEntity
  8
0
100
AcDbSpline
 62
7
  6
CONTINUOUS
 70
0
 71
3
 72
8
 73
4
 74
0
 42
0.0000001
 43
0.0000001
 44
0.0000000001
 40
0.0
 40
0.0
 40
0.0
 40
0.0
 40
1.0
 40
1.0
 40
1.0
 40
1.0
 10
55.6118606139
 20
256.1844085099
 30
0.0
 10
55.6720936212
 20
256.1967987719
 30
0.0
 10
55.7324500954
 20
256.2085810556
 30
0.0
 10
55.7927444934
 20
256.2206690382
 30
0.0
  0
SPLINE
  5
32D
100
AcDbEntity
  8
0
100
AcDbSpline
 62
7
  6
CONTINUOUS
 70
0
 71
3
 72
17
 73
13
 74
0
 42
0.0000001
 43
0.0000001
 44
0.0000000001
 40
0.0
 40
0.0
 40
0.0
 40
0.0
 40
0.2539102875
 40
0.3802068194
 40
0.5060054788
 40
0.631237804
 40
0.7557649578
 40
0.8176894711
 40
0.8792874596
 40
0.9403752054
 40
0.9706125982
 40
1.0
 40
1.0
 40
1.0
 40
1.0
 10
55.7917953904
 20
256.2206362578
 30
0.0
 10
55.9270035219
 20
256.2477415408
 30
0.0
 10
56.1297161596
 20
256.2871054668
 30
0.0
 10
56.4001830446
 20
256.3358143405
 30
0.0
 10
56.6023000285
 20
256.3696221488
 30
0.0
 10
56.8040400317
 20
256.3999510952
 30
0.0
 10
56.9719596966
 20
256.4208370906
 30
0.0
 10
57.1063800261
 20
256.4327063288
 30
0.0
 10
57.2058877097
 20
256.4380701963
 30
0.0
 10
57.291082381
 20
256.4359273983
 30
0.0
 10
57.3522146405
 20
256.4282881771
 30
0.0
 10
57.3901451464
 20
256.4099074093
 30
0.0
 10
57.3915714408
 20
256.3940110159
 30
0.0
  0
SPLINE
  5
32E
100
AcDbEntity
  8
0
100
AcDbSpline
 62
7
  6
CONTINUOUS
 70
0
 71
3
 72
9
 73
5
 74
0
 42
0.0000001
 43
0.0000001
 44
0.0000000001
 40
0.0
 40
0.0
 40
0.0
 40
0.0
 40
0.5293899019
 40
1.0
 40
1.0
 40
1.0
 40
1.0
 10
55.7917953904
 20
256.2206362578
 30
0.0
 10
58.2168146185
 20
256.7074041204
 30
0.0
 10
62.7607544678
 20
257.826460834
 30
0.0
 10
67.1620823128
 20
259.4385919281
 30
0.0
 10
69.1620316293
 20
260.3522432772
 30
0.0
  0
SPLINE
  5
32F
100
AcDbEntity
  8
0
100
AcDbSpline
 62
7
  6
CONTINUOUS
 70
0
 71
3
 72
9
 73
5
 74
0
 42
0.0000001
 43
0.0000001
 44
0.0000000001
 40
0.0
 40
0.0
 40
0.0
 40
0.0
 40
0.4658458395
 40
1.0
 40
1.0
 40
1.0
 40
1.0
 10
69.1632596318
 20
260.351790392
 30
0.0
 10
67.2726618223
 20
259.4879152656
 30
0.0
 10
63.3323459578
 20
257.3754066174
 30
0.0
 10
59.5764129818
 20
254.9609716806
 30
0.0
 10
57.6089780517
 20
253.6156705945
 30
0.0
  0
SPLINE
  5
330
100
AcDbEntity
  8
0
100
AcDbSpline
 62
7
  6
CONTINUOUS
 70
0
 71
3
 72
19
 73
15
 74
0
 42
0.0000001
 43
0.0000001
 44
0.0000000001
 40
0.0
 40
0.0
 40
0.0
 40
0.0
 40
0.0977777687
 40
0.2085144465
 40
0.267918859
 40
0.3295254456
 40
0.3930149471
 40
0.4581064063
 40
0.5244265834
 40
0.5916223951
 40
0.6594650438
 40
0.7277084601
 40
0.8643786075
 40
1.0
 40
1.0
 40
1.0
 40
1.0
 10
69.1632596318
 20
260.351790392
 30
0.0
 10
68.1881658999
 20
259.8101548888
 30
0.0
 10
66.1397077698
 20
258.5989996741
 30
0.0
 10
63.5770412651
 20
256.9320606459
 30
0.0
 10
61.3997991999
 20
255.4322271621
 30
0.0
 10
59.6890253645
 20
254.2059675092
 30
0.0
 10
57.946567609
 20
252.9131639983
 30
0.0
 10
56.1755541987
 20
251.568852139
 30
0.0
 10
54.3908920974
 20
250.1728663737
 30
0.0
 10
52.607386423
 20
248.7251263734
 30
0.0
 10
50.8207791439
 20
247.2466831373
 30
0.0
 10
48.4379434689
 20
245.2456243578
 30
0.0
 10
45.5139848149
 20
242.6874526564
 30
0.0
 10
43.2113618949
 20
240.6022441605
 30
0.0
 10
42.078109882
 20
239.5489746409
 30
0.0
  0
SPLINE
  5
331
100
AcDbEntity
  8
0
100
AcDbSpline
 62
7
  6
CONTINUOUS
 70
0
 71
3
 72
14
 73
10
 74
0
 42
0.0000001
 43
0.0000001
 44
0.0000000001
 40
0.0
 40
0.0
 40
0.0
 40
0.0
 40
0.1362542043
 40
0.2733190359
 40
0.4095685749
 40
0.5430119214
 40
0.6713926728
 40
0.7919825243
 40
1.0
 40
1.0
 40
1.0
 40
1.0
 10
43.2739045539
 20
239.4433788224
 30
0.0
 10
44.3934610623
 20
240.4621996362
 30
0.0
 10
46.6290339206
 20
242.517159914
 30
0.0
 10
50.0345339779
 20
245.5352469047
 30
0.0
 10
53.4726392596
 20
248.4685786545
 30
0.0
 10
56.9075596378
 20
251.2543322194
 30
0.0
 10
60.2407428347
 20
253.8898310149
 30
0.0
 10
64.3386773813
 20
256.8871376612
 30
0.0
 10
67.371101259
 20
258.9285536205
 30
0.0
 10
69.3557016481
 20
260.1126561171
 30
0.0
  0
SPLINE
  5
332
100
AcDbEntity
  8
0
100
AcDbSpline
 62
7
  6
CONTINUOUS
 70
0
 71
3
 72
9
 73
5
 74
0
 42
0.0000001
 43
0.0000001
 44
0.0000000001
 40
0.0
 40
0.0
 40
0.0
 40
0.0
 40
0.2672338556
 40
1.0
 40
1.0
 40
1.0
 40
1.0
 10
69.3557111186
 20
260.1126556128
 30
0.0
 10
69.3500967148
 20
260.1400053647
 30
0.0
 10
69.3161523332
 20
260.2380084845
 30
0.0
 10
69.2367804102
 20
260.3298457711
 30
0.0
 10
69.1632795696
 20
260.3512642354
 30
0.0
  0
SPLINE
  5
333
100
AcDbEntity
  8
0
100
AcDbSpline
 62
7
  6
CONTINUOUS
 70
0
 71
3
 72
8
 73
4
 74
0
 42
0.0000001
 43
0.0000001
 44
0.0000000001
 40
0.0
 40
0.0
 40
0.0
 40
0.0
 40
1.0
 40
1.0
 40
1.0
 40
1.0
 10
69.1620549755
 20
260.3520867884
 30
0.0
 10
69.206224423
 20
260.3727003881
 30
0.0
 10
69.2506813205
 20
260.3926925695
 30
0.0
 10
69.2949485108
 20
260.4130954233
 30
0.0
  0
SPLINE
  5
334
100
AcDbEntity
  8
0
100
AcDbSpline
 62
7
  6
CONTINUOUS
 70
0
 71
3
 72
14
 73
10
 74
0
 42
0.0000001
 43
0.0000001
 44
0.0000000001
 40
0.0
 40
0.0
 40
0.0
 40
0.0
 40
0.2594408771
 40
0.5144196378
 40
0.6398563964
 40
0.7634625939
 40
0.8843760128
 40
0.9431828952
 40
1.0
 40
1.0
 40
1.0
 40
1.0
 10
69.2949232719
 20
260.4132638581
 30
0.0
 10
69.3930085389
 20
260.4584715916
 30
0.0
 10
69.5881757161
 20
260.5467918869
 30
0.0
 10
69.8326792515
 20
260.6519276765
 30
0.0
 10
70.0284384207
 20
260.7289106873
 30
0.0
 10
70.1716861741
 20
260.7812188406
 30
0.0
 10
70.2982906361
 20
260.8159706439
 30
0.0
 10
70.3850888962
 20
260.8350824835
 30
0.0
 10
70.4546579495
 20
260.8262590929
 30
0.0
 10
70.4581774224
 20
260.8028701294
 30
0.0
  0
SPLINE
  5
335
100
AcDbEntity
  8
0
100
AcDbSpline
 62
7
  6
CONTINUOUS
 70
0
 71
3
 72
11
 73
7
 74
0
 42
0.0000001
 43
0.0000001
 44
0.0000000001
 40
0.0
 40
0.0
 40
0.0
 40
0.0
 40
0.2863063623
 40
0.5482503976
 40
0.7857876383
 40
1.0
 40
1.0
 40
1.0
 40
1.0
 10
69.2949232719
 20
260.4132638581
 30
0.0
 10
70.1828341149
 20
260.8227146839
 30
0.0
 10
71.8562149608
 20
261.6677301355
 30
0.0
 10
74.1403871007
 20
263.0841363518
 30
0.0
 10
76.068923157
 20
264.5826456159
 30
0.0
 10
77.1596066459
 20
265.6829532393
 30
0.0
 10
77.6293001941
 20
266.243818228
 30
0.0
  0
SPLINE
  5
336
100
AcDbEntity
  8
0
100
AcDbSpline
 62
7
  6
CONTINUOUS
 70
0
 71
3
 72
9
 73
5
 74
0
 42
0.0000001
 43
0.0000001
 44
0.0000000001
 40
0.0
 40
0.0
 40
0.0
 40
0.0
 40
0.2001391038
 40
1.0
 40
1.0
 40
1.0
 40
1.0
 10
77.6308381167
 20
266.2435593709
 30
0.0
 10
77.1752818355
 20
265.6994970054
 30
0.0
 10
74.8995186782
 20
262.9807079813
 30
0.0
 10
72.6369948033
 20
260.2508756643
 30
0.0
 10
70.8239593458
 20
258.0701703584
 30
0.0
  0
SPLINE
  5
337
100
AcDbEntity
  8
0
100
AcDbSpline
 62
7
  6
CONTINUOUS
 70
0
 71
3
 72
19
 73
15
 74
0
 42
0.0000001
 43
0.0000001
 44
0.0000000001
 40
0.0
 40
0.0
 40
0.0
 40
0.0
 40
0.0783015731
 40
0.1754076603
 40
0.2302474504
 40
0.2887740071
 40
0.3506425335
 40
0.4155490136
 40
0.4830504472
 40
0.5527100452
 40
0.6242789323
 40
0.6974663291
 40
0.8472828853
 40
1.0
 40
1.0
 40
1.0
 40
1.0
 10
77.6308381167
 20
266.2435593709
 30
0.0
 10
77.233596101
 20
265.5564631256
 30
0.0
 10
76.279691694
 20
264.0547032456
 30
0.0
 10
74.9593700167
 20
262.1302372165
 30
0.0
 10
73.7230017254
 20
260.3916224373
 30
0.0
 10
72.6836086095
 20
258.9513162716
 30
0.0
 10
71.5735969886
 20
257.4361572134
 30
0.0
 10
70.3905026181
 20
255.8619595316
 30
0.0
 10
69.1522024189
 20
254.2305408228
 30
0.0
 10
67.8754767398
 20
252.5434960666
 30
0.0
 10
66.548923043
 20
250.8219403084
 30
0.0
 10
64.7028260489
 20
248.4752568191
 30
0.0
 10
62.3430345324
 20
245.4861277763
 30
0.0
 10
60.4153907218
 20
243.101227303
 30
0.0
 10
59.4426282647
 20
241.8971306503
 30
0.0
  0
SPLINE
  5
338
100
AcDbEntity
  8
0
100
AcDbSpline
 62
7
  6
CONTINUOUS
 70
0
 71
3
 72
14
 73
10
 74
0
 42
0.0000001
 43
0.0000001
 44
0.0000000001
 40
0.0
 40
0.0
 40
0.0
 40
0.0
 40
0.2667647574
 40
0.3976950063
 40
0.5260705713
 40
0.6512672793
 40
0.7725914946
 40
0.8891288718
 40
1.0
 40
1.0
 40
1.0
 40
1.0
 10
59.361431077
 20
241.9575199489
 30
0.0
 10
60.4137363408
 20
243.3664463074
 30
0.0
 10
61.9688960232
 20
245.4770374617
 30
0.0
 10
64.0150321993
 20
248.2769941342
 30
0.0
 10
65.4869225952
 20
250.3405603017
 30
0.0
 10
66.9082953696
 20
252.3622419283
 30
0.0
 10
68.2830987984
 20
254.3212874848
 30
0.0
 10
69.584931196
 20
256.2160861229
 30
0.0
 10
70.4193473286
 20
257.461517857
 30
0.0
 10
70.8239593458
 20
258.0701703584
 30
0.0
  0
SPLINE
  5
339
100
AcDbEntity
  8
0
100
AcDbSpline
 62
7
  6
CONTINUOUS
 70
0
 71
3
 72
9
 73
5
 74
0
 42
0.0000001
 43
0.0000001
 44
0.0000000001
 40
0.0
 40
0.0
 40
0.0
 40
0.0
 40
0.2538369848
 40
1.0
 40
1.0
 40
1.0
 40
1.0
 10
77.868860559
 20
266.0379303247
 30
0.0
 10
77.9038998505
 20
266.1044185719
 30
0.0
 10
78.0386730866
 20
266.3680544143
 30
0.0
 10
78.1601058454
 20
266.6385483299
 30
0.0
 10
78.2422170636
 20
266.8436463388
 30
0.0
  0
SPLINE
  5
33A
100
AcDbEntity
  8
0
100
AcDbSpline
 62
7
  6
CONTINUOUS
 70
0
 71
3
 72
11
 73
7
 74
0
 42
0.0000001
 43
0.0000001
 44
0.0000000001
 40
0.0
 40
0.0
 40
0.0
 40
0.0
 40
0.2204334688
 40
0.4639537324
 40
0.7254341552
 40
1.0
 40
1.0
 40
1.0
 40
1.0
 10
78.7006993488
 20
264.1754583579
 30
0.0
 10
78.5177148955
 20
262.8371679043
 30
0.0
 10
77.9613198031
 20
260.0432865865
 30
0.0
 10
76.7257721897
 20
255.7695699351
 30
0.0
 10
75.0935921859
 20
251.2769238077
 30
0.0
 10
73.8004980671
 20
248.2556456657
 30
0.0
 10
73.1022578174
 20
246.7249303455
 30
0.0
  0
SPLINE
  5
33B
100
AcDbEntity
  8
0
100
AcDbSpline
 62
7
  6
CONTINUOUS
 70
0
 71
3
 72
15
 73
11
 74
0
 42
0.0000001
 43
0.0000001
 44
0.0000000001
 40
0.0
 40
0.0
 40
0.0
 40
0.0
 40
0.1527949946
 40
0.3025593782
 40
0.4470530751
 40
0.5838079673
 40
0.7104182361
 40
0.8235048675
 40
0.920813604
 40
1.0
 40
1.0
 40
1.0
 40
1.0
 10
60.6500983892
 20
241.979632048
 30
0.0
 10
61.6037891996
 20
243.1482189429
 30
0.0
 10
63.4552194658
 20
245.4922823195
 30
0.0
 10
66.1553049271
 20
248.9831378321
 30
0.0
 10
68.717090113
 20
252.3803765826
 30
0.0
 10
71.1082700371
 20
255.6201138126
 30
0.0
 10
73.2336283998
 20
258.668827883
 30
0.0
 10
75.1049713228
 20
261.4198737259
 30
0.0
 10
76.6326537956
 20
263.8365373192
 30
0.0
 10
77.5058783205
 20
265.3456019362
 30
0.0
 10
77.8688492702
 20
266.0379293202
 30
0.0
  0
SPLINE
  5
33C
100
AcDbEntity
  8
0
100
AcDbSpline
 62
7
  6
CONTINUOUS
 70
0
 71
3
 72
9
 73
5
 74
0
 42
0.0000001
 43
0.0000001
 44
0.0000000001
 40
0.0
 40
0.0
 40
0.0
 40
0.0
 40
0.4969357479
 40
1.0
 40
1.0
 40
1.0
 40
1.0
 10
77.8688605592
 20
266.0379303252
 30
0.0
 10
77.8572492593
 20
266.0912518336
 30
0.0
 10
77.7934019187
 20
266.1908329405
 30
0.0
 10
77.6858942112
 20
266.2382013661
 30
0.0
 10
77.6308623458
 20
266.2430392698
 30
0.0
  0
LINE
  5
33D
100
AcDbEntity
  8
0
100
AcDbLine
 62
7
  6
CONTINUOUS
 10
77.6293312542
 20
266.2436565092
 11
77.692828211
 21
266.3200778372
  0
SPLINE
  5
33E
100
AcDbEntity
  8
0
100
AcDbSpline
 62
7
  6
CONTINUOUS
 70
0
 71
3
 72
17
 73
13
 74
0
 42
0.0000001
 43
0.0000001
 44
0.0000000001
 40
0.0
 40
0.0
 40
0.0
 40
0.0
 40
0.2731406963
 40
0.5353914842
 40
0.6610332395
 40
0.7812724871
 40
0.8385138962
 40
0.8927734356
 40
0.9183519953
 40
0.9425037509
 40
0.9652542576
 40
1.0
 40
1.0
 40
1.0
 40
1.0
 10
77.6927965191
 20
266.3202425282
 30
0.0
 10
77.7389818314
 20
266.3762351855
 30
0.0
 10
77.829927335
 20
266.4856415295
 30
0.0
 10
77.9442006728
 20
266.6190836521
 30
0.0
 10
78.0350504864
 20
266.7189937719
 30
0.0
 10
78.0913612989
 20
266.7766392715
 30
0.0
 10
78.1368750104
 20
266.8181899812
 30
0.0
 10
78.1653502895
 20
266.8408916181
 30
0.0
 10
78.1888243521
 20
266.8558375344
 30
0.0
 10
78.205957303
 20
266.863847213
 30
0.0
 10
78.2290700047
 20
266.8692538082
 30
0.0
 10
78.2404899188
 20
266.8527211133
 30
0.0
 10
78.242227284
 20
266.8436529163
 30
0.0
  0
SPLINE
  5
33F
100
AcDbEntity
  8
0
100
AcDbSpline
 62
7
  6
CONTINUOUS
 70
0
 71
3
 72
11
 73
7
 74
0
 42
0.0000001
 43
0.0000001
 44
0.0000000001
 40
0.0
 40
0.0
 40
0.0
 40
0.0
 40
0.2750734419
 40
0.5273331659
 40
0.7653809257
 40
1.0
 40
1.0
 40
1.0
 40
1.0
 10
77.6927965191
 20
266.3202425282
 30
0.0
 10
78.1031507964
 20
266.8179999178
 30
0.0
 10
78.8201835096
 20
267.834478413
 30
0.0
 10
79.5603148282
 20
269.4839882135
 30
0.0
 10
79.8938609276
 20
271.1668467554
 30
0.0
 10
79.8378235022
 20
272.2868312786
 30
0.0
 10
79.745707664
 20
272.8292918276
 30
0.0
  0
SPLINE
  5
340
100
AcDbEntity
  8
0
100
AcDbSpline
 62
7
  6
CONTINUOUS
 70
0
 71
3
 72
11
 73
7
 74
0
 42
0.0000001
 43
0.0000001
 44
0.0000000001
 40
0.0
 40
0.0
 40
0.0
 40
0.0
 40
0.1961948429
 40
0.4289682511
 40
0.6977426779
 40
1.0
 40
1.0
 40
1.0
 40
1.0
 10
79.7475415196
 20
272.8282028253
 30
0.0
 10
79.8438399329
 20
272.2624865909
 30
0.0
 10
79.9175941123
 20
271.0026017485
 30
0.0
 10
79.7630167675
 20
268.9642636228
 30
0.0
 10
79.3537593567
 20
266.6459492887
 30
0.0
 10
78.9422336802
 20
265.0259023195
 30
0.0
 10
78.7006993488
 20
264.1754583579
 30
0.0
  0
SPLINE
  5
341
100
AcDbEntity
  8
0
100
AcDbSpline
 62
7
  6
CONTINUOUS
 70
0
 71
3
 72
9
 73
5
 74
0
 42
0.0000001
 43
0.0000001
 44
0.0000000001
 40
0.0
 40
0.0
 40
0.0
 40
0.0
 40
0.2367884939
 40
1.0
 40
1.0
 40
1.0
 40
1.0
 10
79.7901489113
 20
272.80192618
 30
0.0
 10
79.8430013267
 20
272.6701927857
 30
0.0
 10
80.0477227142
 20
272.1064532337
 30
0.0
 10
80.1818249653
 20
271.5184786277
 30
0.0
 10
80.2539581366
 20
271.0667019166
 30
0.0
  0
SPLINE
  5
342
100
AcDbEntity
  8
0
100
AcDbSpline
 62
7
  6
CONTINUOUS
 70
0
 71
3
 72
17
 73
13
 74
0
 42
0.0000001
 43
0.0000001
 44
0.0000000001
 40
0.0
 40
0.0
 40
0.0
 40
0.0
 40
0.086769753
 40
0.1867876893
 40
0.2994493331
 40
0.4235137376
 40
0.4892758404
 40
0.5572391327
 40
0.6272278965
 40
0.6990111851
 40
0.8470871813
 40
1.0
 40
1.0
 40
1.0
 40
1.0
 10
80.2734617046
 20
270.9394851265
 30
0.0
 10
80.3810595913
 20
270.207693018
 30
0.0
 10
80.4515135487
 20
268.6082896484
 30
0.0
 10
80.220973334
 20
266.0620474161
 30
0.0
 10
79.6971613376
 20
263.2355345812
 30
0.0
 10
79.0091022302
 20
260.7483563545
 30
0.0
 10
78.3546669745
 20
258.6505373985
 30
0.0
 10
77.7874508155
 20
257.0088560357
 30
0.0
 10
77.1488412697
 20
255.338680374
 30
0.0
 10
76.2140420554
 20
253.0514392822
 30
0.0
 10
74.9275189191
 20
250.1448131575
 30
0.0
 10
73.7924958695
 20
247.8431081235
 30
0.0
 10
73.2016061733
 20
246.6812408771
 30
0.0
  0
SPLINE
  5
343
100
AcDbEntity
  8
0
100
AcDbSpline
 62
7
  6
CONTINUOUS
 70
0
 71
3
 72
15
 73
11
 74
0
 42
0.0000001
 43
0.0000001
 44
0.0000000001
 40
0.0
 40
0.0
 40
0.0
 40
0.0
 40
0.1514292151
 40
0.2983301015
 40
0.4390656749
 40
0.5718951618
 40
0.6958670692
 40
0.8093330802
 40
0.9106690828
 40
1.0
 40
1.0
 40
1.0
 40
1.0
 10
74.2369253707
 20
246.9392794979
 30
0.0
 10
74.8014031947
 20
248.0543896088
 30
0.0
 10
75.8592026874
 20
250.2789445659
 30
0.0
 10
77.2836534618
 20
253.6122334644
 30
0.0
 10
78.4996463553
 20
256.8639782561
 30
0.0
 10
79.4933247161
 20
259.9929488352
 30
0.0
 10
80.2219134704
 20
262.9636819571
 30
0.0
 10
80.6714642587
 20
265.7270295611
 30
0.0
 10
80.8365172548
 20
268.236217192
 30
0.0
 10
80.7326664253
 20
269.8140553404
 30
0.0
 10
80.6163790747
 20
270.5421324783
 30
0.0
  0
SPLINE
  5
344
100
AcDbEntity
  8
0
100
AcDbSpline
 62
7
  6
CONTINUOUS
 70
0
 71
3
 72
11
 73
7
 74
0
 42
0.0000001
 43
0.0000001
 44
0.0000000001
 40
0.0
 40
0.0
 40
0.0
 40
0.0
 40
0.1603428254
 40
0.378109906
 40
0.657964062
 40
1.0
 40
1.0
 40
1.0
 40
1.0
 10
-9.2608974323
 20
272.739512758
 30
0.0
 10
-9.2740711657
 20
272.596054447
 30
0.0
 10
-9.2401803789
 20
272.2534210523
 30
0.0
 10
-9.0851425782
 20
271.6825667375
 30
0.0
 10
-8.8164582155
 20
270.9763946585
 30
0.0
 10
-8.5837600895
 20
270.4681775671
 30
0.0
 10
-8.4497490834
 20
270.1916306889
 30
0.0
  0
SPLINE
  5
345
100
AcDbEntity
  8
0
100
AcDbSpline
 62
7
  6
CONTINUOUS
 70
0
 71
3
 72
9
 73
5
 74
0
 42
0.0000001
 43
0.0000001
 44
0.0000000001
 40
0.0
 40
0.0
 40
0.0
 40
0.0
 40
0.2613159248
 40
1.0
 40
1.0
 40
1.0
 40
1.0
 10
-8.2513714543
 20
273.6249918275
 30
0.0
 10
-8.2637371014
 20
273.6246249586
 30
0.0
 10
-8.3110222138
 20
273.6223588004
 30
0.0
 10
-8.3581802045
 20
273.616474934
 30
0.0
 10
-8.3924675705
 20
273.6095969757
 30
0.0
  0
SPLINE
  5
346
100
AcDbEntity
  8
0
100
AcDbSpline
 62
7
  6
CONTINUOUS
 70
0
 71
3
 72
8
 73
4
 74
0
 42
0.0000001
 43
0.0000001
 44
0.0000000001
 40
0.0
 40
0.0
 40
0.0
 40
0.0
 40
1.0
 40
1.0
 40
1.0
 40
1.0
 10
-8.3924675705
 20
273.6095969757
 30
0.0
 10
-8.4265964912
 20
273.602750801
 30
0.0
 10
-8.4603600689
 20
273.5933352181
 30
0.0
 10
-8.4928785161
 20
273.5809173304
 30
0.0
  0
SPLINE
  5
347
100
AcDbEntity
  8
0
100
AcDbSpline
 62
7
  6
CONTINUOUS
 70
0
 71
3
 72
14
 73
10
 74
0
 42
0.0000001
 43
0.0000001
 44
0.0000000001
 40
0.0
 40
0.0
 40
0.0
 40
0.0
 40
0.0646278005
 40
0.1338266719
 40
0.2179875617
 40
0.3230017683
 40
0.452432809
 40
0.608072349
 40
1.0
 40
1.0
 40
1.0
 40
1.0
 10
-8.4928785161
 20
273.5809173304
 30
0.0
 10
-8.5623364169
 20
273.5543932961
 30
0.0
 10
-8.6965040768
 20
273.4666114528
 30
0.0
 10
-8.8261099447
 20
273.2444858951
 30
0.0
 10
-8.8887284619
 20
272.9506391142
 30
0.0
 10
-8.8848690991
 20
272.5821015425
 30
0.0
 10
-8.813266865
 20
272.1380108461
 30
0.0
 10
-8.6128718945
 20
271.3845496027
 30
0.0
 10
-8.3827063512
 20
270.7959914884
 30
0.0
 10
-8.2034833593
 20
270.3822547646
 30
0.0
  0
SPLINE
  5
348
100
AcDbEntity
  8
0
100
AcDbSpline
 62
7
  6
CONTINUOUS
 70
0
 71
3
 72
11
 73
7
 74
0
 42
0.0000001
 43
0.0000001
 44
0.0000000001
 40
0.0
 40
0.0
 40
0.0
 40
0.0
 40
0.2603249852
 40
0.5143215185
 40
0.7610823354
 40
1.0
 40
1.0
 40
1.0
 40
1.0
 10
81.1573872429
 20
253.1854425568
 30
0.0
 10
81.3084287122
 20
254.1591240878
 30
0.0
 10
81.552291155
 20
256.091645444
 30
0.0
 10
81.7566796882
 20
258.9666494023
 30
0.0
 10
81.7706546589
 20
261.7687649765
 30
0.0
 10
81.6351966313
 20
263.6041947728
 30
0.0
 10
81.5357546842
 20
264.503011068
 30
0.0
  0
SPLINE
  5
349
100
AcDbEntity
  8
0
100
AcDbSpline
 62
7
  6
CONTINUOUS
 70
0
 71
3
 72
9
 73
5
 74
0
 42
0.0000001
 43
0.0000001
 44
0.0000000001
 40
0.0
 40
0.0
 40
0.0
 40
0.0
 40
0.5082299613
 40
1.0
 40
1.0
 40
1.0
 40
1.0
 10
81.2607978986
 20
253.1730540026
 30
0.0
 10
81.5000273526
 20
254.3812240312
 30
0.0
 10
81.8934529011
 20
256.7741242965
 30
0.0
 10
82.1366629391
 20
259.1876536482
 30
0.0
 10
82.2062604297
 20
260.377358447
 30
0.0
  0
SPLINE
  5
34A
100
AcDbEntity
  8
0
100
AcDbSpline
 62
7
  6
CONTINUOUS
 70
0
 71
3
 72
11
 73
7
 74
0
 42
0.0000001
 43
0.0000001
 44
0.0000000001
 40
0.0
 40
0.0
 40
0.0
 40
0.0
 40
0.265525743
 40
0.5213616471
 40
0.7663984517
 40
1.0
 40
1.0
 40
1.0
 40
1.0
 10
82.2086687468
 20
260.4188847617
 30
0.0
 10
82.2636167133
 20
261.3746771834
 30
0.0
 10
82.3034335544
 20
263.2562716699
 30
0.0
 10
82.1372420169
 20
266.0177330379
 30
0.0
 10
81.7557369765
 20
268.6413126856
 30
0.0
 10
81.3493597539
 20
270.3224741673
 30
0.0
 10
81.1023081695
 20
271.127692883
 30
0.0
  0
SPLINE
  5
34B
100
AcDbEntity
  8
0
100
AcDbSpline
 62
7
  6
CONTINUOUS
 70
0
 71
3
 72
9
 73
5
 74
0
 42
0.0000001
 43
0.0000001
 44
0.0000000001
 40
0.0
 40
0.0
 40
0.0
 40
0.0
 40
0.2537633862
 40
1.0
 40
1.0
 40
1.0
 40
1.0
 10
81.0938565436
 20
271.1551711322
 30
0.0
 10
81.0431853184
 20
271.3195075312
 30
0.0
 10
80.8354769021
 20
271.9645883063
 30
0.0
 10
80.5933759749
 20
272.5986980841
 30
0.0
 10
80.3926326212
 20
273.0628599155
 30
0.0
  0
SPLINE
  5
34C
100
AcDbEntity
  8
0
100
AcDbSpline
 62
7
  6
CONTINUOUS
 70
0
 71
3
 72
9
 73
5
 74
0
 42
0.0000001
 43
0.0000001
 44
0.0000000001
 40
0.0
 40
0.0
 40
0.0
 40
0.0
 40
0.2552684846
 40
1.0
 40
1.0
 40
1.0
 40
1.0
 10
80.0218186616
 20
273.8641265245
 30
0.0
 10
79.9196355263
 20
274.0709285514
 30
0.0
 10
79.5029845782
 20
274.8728090301
 30
0.0
 10
79.0217187023
 20
275.6416742195
 30
0.0
 10
78.6258528918
 20
276.1858920818
 30
0.0
  0
SPLINE
  5
34D
100
AcDbEntity
  8
0
100
AcDbSpline
 62
7
  6
CONTINUOUS
 70
0
 71
3
 72
9
 73
5
 74
0
 42
0.0000001
 43
0.0000001
 44
0.0000000001
 40
0.0
 40
0.0
 40
0.0
 40
0.0
 40
0.5160785118
 40
1.0
 40
1.0
 40
1.0
 40
1.0
 10
81.966216622
 20
253.5677510061
 30
0.0
 10
82.3496866733
 20
255.6310443157
 30
0.0
 10
82.8736031387
 20
259.6747126553
 30
0.0
 10
82.8148073102
 20
263.7624496266
 30
0.0
 10
82.5995483793
 20
265.7185002455
 30
0.0
  0
SPLINE
  5
34E
100
AcDbEntity
  8
0
100
AcDbSpline
 62
7
  6
CONTINUOUS
 70
0
 71
3
 72
9
 73
5
 74
0
 42
0.0000001
 43
0.0000001
 44
0.0000000001
 40
0.0
 40
0.0
 40
0.0
 40
0.0
 40
0.4832079133
 40
1.0
 40
1.0
 40
1.0
 40
1.0
 10
79.9579784816
 20
272.8350160032
 30
0.0
 10
79.9392960426
 20
272.8758134429
 30
0.0
 10
79.8682986388
 20
272.946997828
 30
0.0
 10
79.7714883456
 20
272.9643245531
 30
0.0
 10
79.7236173895
 20
272.9609416257
 30
0.0
  0
SPLINE
  5
34F
100
AcDbEntity
  8
0
100
AcDbSpline
 62
7
  6
CONTINUOUS
 70
0
 71
3
 72
13
 73
9
 74
0
 42
0.0000001
 43
0.0000001
 44
0.0000000001
 40
0.0
 40
0.0
 40
0.0
 40
0.0
 40
0.184449948
 40
0.2916630421
 40
0.4108500194
 40
0.5411801791
 40
0.6830959174
 40
1.0
 40
1.0
 40
1.0
 40
1.0
 10
-7.5734176364
 20
259.0779563025
 30
0.0
 10
-6.7441030171
 20
259.4566484443
 30
0.0
 10
-5.3293318585
 20
259.8348193593
 30
0.0
 10
-3.3079994778
 20
260.0323629348
 30
0.0
 10
-1.5418632686
 20
260.0448985878
 30
0.0
 10
0.3888201402
 20
259.8952316956
 30
0.0
 10
3.2719238377
 20
259.4744648836
 30
0.0
 10
5.4833146478
 20
258.9489590162
 30
0.0
 10
6.9920961791
 20
258.5281345794
 30
0.0
  0
SPLINE
  5
350
100
AcDbEntity
  8
0
100
AcDbSpline
 62
7
  6
CONTINUOUS
 70
0
 71
3
 72
9
 73
5
 74
0
 42
0.0000001
 43
0.0000001
 44
0.0000000001
 40
0.0
 40
0.0
 40
0.0
 40
0.0
 40
0.5645991447
 40
1.0
 40
1.0
 40
1.0
 40
1.0
 10
-8.2034833593
 20
270.3822547646
 30
0.0
 10
-8.2784773305
 20
270.7779244638
 30
0.0
 10
-8.3776733857
 20
271.485482517
 30
0.0
 10
-8.3561725132
 20
272.2066364921
 30
0.0
 10
-8.2953877532
 20
272.511190053
 30
0.0
  0
SPLINE
  5
351
100
AcDbEntity
  8
0
100
AcDbSpline
 62
7
  6
CONTINUOUS
 70
0
 71
3
 72
17
 73
13
 74
0
 42
0.0000001
 43
0.0000001
 44
0.0000000001
 40
0.0
 40
0.0
 40
0.0
 40
0.0
 40
0.0658860896
 40
0.0955092029
 40
0.1261335541
 40
0.1601405052
 40
0.1990936772
 40
0.295875874
 40
0.4230906262
 40
0.5828086422
 40
0.7754327694
 40
1.0
 40
1.0
 40
1.0
 40
1.0
 10
-11.2686303091
 20
265.0830634827
 30
0.0
 10
-11.2519080887
 20
265.2702342309
 30
0.0
 10
-11.1838831242
 20
265.5483233157
 30
0.0
 10
-10.9519084882
 20
265.8300722531
 30
0.0
 10
-10.7254648829
 20
265.9809922179
 30
0.0
 10
-10.4457328091
 20
266.0825053234
 30
0.0
 10
-9.9651146525
 20
266.1589230316
 30
0.0
 10
-9.208774012
 20
266.0839494178
 30
0.0
 10
-8.157287515
 20
265.7740450884
 30
0.0
 10
-6.8868099637
 20
265.2627109736
 30
0.0
 10
-5.4090558172
 20
264.5367752995
 30
0.0
 10
-4.3698427999
 20
263.9562937235
 30
0.0
 10
-3.8163467533
 20
263.63399204
 30
0.0
  0
SPLINE
  5
352
100
AcDbEntity
  8
0
100
AcDbSpline
 62
7
  6
CONTINUOUS
 70
0
 71
3
 72
9
 73
5
 74
0
 42
0.0000001
 43
0.0000001
 44
0.0000000001
 40
0.0
 40
0.0
 40
0.0
 40
0.0
 40
0.2457722602
 40
1.0
 40
1.0
 40
1.0
 40
1.0
 10
-8.4497605179
 20
270.1916314852
 30
0.0
 10
-8.4194586684
 20
270.1289689183
 30
0.0
 10
-8.2926679887
 20
269.8757078309
 30
0.0
 10
-8.1521914547
 20
269.629344901
 30
0.0
 10
-8.0396618255
 20
269.4477867456
 30
0.0
  0
SPLINE
  5
353
100
AcDbEntity
  8
0
100
AcDbSpline
 62
7
  6
CONTINUOUS
 70
0
 71
3
 72
9
 73
5
 74
0
 42
0.0000001
 43
0.0000001
 44
0.0000000001
 40
0.0
 40
0.0
 40
0.0
 40
0.0
 40
0.2277305179
 40
1.0
 40
1.0
 40
1.0
 40
1.0
 10
-10.0029007387
 20
266.5973882702
 30
0.0
 10
-9.9692608298
 20
266.6036525654
 30
0.0
 10
-9.8204233932
 20
266.6252092346
 30
0.0
 10
-9.6690464841
 20
266.6247809012
 30
0.0
 10
-9.5532557957
 20
266.6171905818
 30
0.0
  0
SPLINE
  5
354
100
AcDbEntity
  8
0
100
AcDbSpline
 62
7
  6
CONTINUOUS
 70
0
 71
3
 72
11
 73
7
 74
0
 42
0.0000001
 43
0.0000001
 44
0.0000000001
 40
0.0
 40
0.0
 40
0.0
 40
0.0
 40
0.1593279956
 40
0.3770226502
 40
0.6577353409
 40
1.0
 40
1.0
 40
1.0
 40
1.0
 10
-9.5532557957
 20
266.6171905818
 30
0.0
 10
-9.2033455734
 20
266.5942532419
 30
0.0
 10
-8.3875558982
 20
266.3966097766
 30
0.0
 10
-7.0533058815
 20
265.8321396782
 30
0.0
 10
-5.4149047715
 20
264.9682715836
 30
0.0
 10
-4.2405143759
 20
264.2599027322
 30
0.0
 10
-3.6018907329
 20
263.8604106961
 30
0.0
  0
SPLINE
  5
355
100
AcDbEntity
  8
0
100
AcDbSpline
 62
7
  6
CONTINUOUS
 70
0
 71
3
 72
9
 73
5
 74
0
 42
0.0000001
 43
0.0000001
 44
0.0000000001
 40
0.0
 40
0.0
 40
0.0
 40
0.0
 40
0.4893109115
 40
1.0
 40
1.0
 40
1.0
 40
1.0
 10
-8.4497605239
 20
270.1916314976
 30
0.0
 10
-8.4378181897
 20
270.2439688301
 30
0.0
 10
-8.3723825407
 20
270.3434393954
 30
0.0
 10
-8.2595256763
 20
270.3828931815
 30
0.0
 10
-8.2035105681
 20
270.3816933729
 30
0.0
  0
LINE
  5
356
100
AcDbEntity
  8
0
100
AcDbLine
 62
7
  6
CONTINUOUS
 10
-8.202750231
 20
270.3822208878
 11
-8.1873415257
 21
270.3033498672
  0
SPLINE
  5
357
100
AcDbEntity
  8
0
100
AcDbSpline
 62
7
  6
CONTINUOUS
 70
0
 71
3
 72
16
 73
12
 74
0
 42
0.0000001
 43
0.0000001
 44
0.0000000001
 40
0.0
 40
0.0
 40
0.0
 40
0.0
 40
0.1835886282
 40
0.3492017517
 40
0.4949721688
 40
0.6203871035
 40
0.7270424146
 40
0.8197144403
 40
0.8635801351
 40
0.9074327243
 40
1.0
 40
1.0
 40
1.0
 40
1.0
 10
17.7616055461
 20
286.3041321886
 30
0.0
 10
16.4316454389
 20
285.9603417486
 30
0.0
 10
13.9249812489
 20
285.2097862547
 30
0.0
 10
10.4872224571
 20
283.8145796924
 30
0.0
 10
7.6165276705
 20
282.2318198736
 30
0.0
 10
5.3713993168
 20
280.4885810313
 30
0.0
 10
3.7958827451
 20
278.606018614
 30
0.0
 10
3.0853307299
 20
276.8870399769
 30
0.0
 10
2.9510492775
 20
275.5355193802
 30
0.0
 10
3.0798871539
 20
274.1854099586
 30
0.0
 10
3.4757175004
 20
273.2151237648
 30
0.0
 10
3.8268403273
 20
272.6180999731
 30
0.0
  0
SPLINE
  5
358
100
AcDbEntity
  8
0
100
AcDbSpline
 62
7
  6
CONTINUOUS
 70
0
 71
3
 72
9
 73
5
 74
0
 42
0.0000001
 43
0.0000001
 44
0.0000000001
 40
0.0
 40
0.0
 40
0.0
 40
0.0
 40
0.4667863932
 40
1.0
 40
1.0
 40
1.0
 40
1.0
 10
3.8268403273
 20
272.6180999731
 30
0.0
 10
4.1544859957
 20
272.0609950391
 30
0.0
 10
5.0145118574
 20
270.9590489383
 30
0.0
 10
6.0627129597
 20
270.0447127486
 30
0.0
 10
6.6504287531
 20
269.5978841185
 30
0.0
  0
SPLINE
  5
359
100
AcDbEntity
  8
0
100
AcDbSpline
 62
7
  6
CONTINUOUS
 70
0
 71
3
 72
9
 73
5
 74
0
 42
0.0000001
 43
0.0000001
 44
0.0000000001
 40
0.0
 40
0.0
 40
0.0
 40
0.0
 40
0.2427357533
 40
1.0
 40
1.0
 40
1.0
 40
1.0
 10
6.6504287531
 20
269.5978841185
 30
0.0
 10
6.7471564327
 20
269.5243439873
 30
0.0
 10
7.1490978069
 20
269.2259322095
 30
0.0
 10
7.5641319011
 20
268.9452818463
 30
0.0
 10
7.8839664388
 20
268.7418086729
 30
0.0
  0
SPLINE
  5
35A
100
AcDbEntity
  8
0
100
AcDbSpline
 62
7
  6
CONTINUOUS
 70
0
 71
3
 72
15
 73
11
 74
0
 42
0.0000001
 43
0.0000001
 44
0.0000000001
 40
0.0
 40
0.0
 40
0.0
 40
0.0
 40
0.0943914441
 40
0.2034534522
 40
0.3250272101
 40
0.4560798996
 40
0.5930287471
 40
0.7319795626
 40
0.8689297311
 40
1.0
 40
1.0
 40
1.0
 40
1.0
 10
7.8839664388
 20
268.7418086729
 30
0.0
 10
9.039948607
 20
268.0063929116
 30
0.0
 10
11.6885243771
 20
266.6669834683
 30
0.0
 10
16.1483394938
 20
265.102608328
 30
0.0
 10
21.2618855906
 20
263.8787756767
 30
0.0
 10
26.8597660062
 20
263.0384422377
 30
0.0
 10
32.756550906
 20
262.6105568978
 30
0.0
 10
38.7543056941
 20
262.6103184074
 30
0.0
 10
44.650994268
 20
263.0374997099
 30
0.0
 10
48.5033599152
 20
263.6153524297
 30
0.0
 10
50.3703335933
 20
263.9811650019
 30
0.0
  0
SPLINE
  5
35B
100
AcDbEntity
  8
0
100
AcDbSpline
 62
7
  6
CONTINUOUS
 70
0
 71
3
 72
29
 73
25
 74
0
 42
0.0000001
 43
0.0000001
 44
0.0000000001
 40
0.0
 40
0.0
 40
0.0
 40
0.0
 40
0.0839714751
 40
0.1706007527
 40
0.2581059617
 40
0.3446731304
 40
0.4285223776
 40
0.5079761065
 40
0.5815319701
 40
0.6479511798
 40
0.7063765163
 40
0.7565153115
 40
0.7786524241
 40
0.7990384942
 40
0.8179627117
 40
0.8358242084
 40
0.8531241213
 40
0.8704263459
 40
0.8882950726
 40
0.907229433
 40
0.9276320953
 40
0.9497814758
 40
0.9738782486
 40
1.0
 40
1.0
 40
1.0
 40
1.0
 10
51.2101097545
 20
259.8123239468
 30
0.0
 10
49.1964780081
 20
259.4872221431
 30
0.0
 10
45.0808810155
 20
258.9724864564
 30
0.0
 10
38.8190033861
 20
258.5936928869
 30
0.0
 10
32.4824102386
 20
258.6003399805
 30
0.0
 10
26.2255711842
 20
258.9923384659
 30
0.0
 10
20.2003250371
 20
259.7598255045
 30
0.0
 10
14.5523642922
 20
260.8836396342
 30
0.0
 10
9.4173504334
 20
262.3357296187
 30
0.0
 10
4.9154142181
 20
264.0812808968
 30
0.0
 10
1.1512157808
 20
266.0788218575
 30
0.0
 10
-1.4056793199
 20
267.9967193809
 30
0.0
 10
-2.9553954662
 20
269.6362661287
 30
0.0
 10
-3.8330511999
 20
270.8497577064
 30
0.0
 10
-4.467923936
 20
272.0919660705
 30
0.0
 10
-4.852631729
 20
273.35615918
 30
0.0
 10
-4.9809370627
 20
274.6326081867
 30
0.0
 10
-4.8504638393
 20
275.9090313499
 30
0.0
 10
-4.4634263819
 20
277.1729771698
 30
0.0
 10
-3.8266986669
 20
278.4151919136
 30
0.0
 10
-2.9463663643
 20
279.6278350644
 30
0.0
 10
-1.8312912133
 20
280.8068672956
 30
0.0
 10
-0.4869543162
 20
281.9439513672
 30
0.0
 10
0.5139519258
 20
282.6442104589
 30
0.0
 10
1.0476668855
 20
282.9873589599
 30
0.0
  0
SPLINE
  5
35C
100
AcDbEntity
  8
0
100
AcDbSpline
 62
7
  6
CONTINUOUS
 70
0
 71
3
 72
11
 73
7
 74
0
 42
0.0000001
 43
0.0000001
 44
0.0000000001
 40
0.0
 40
0.0
 40
0.0
 40
0.0
 40
0.2180586292
 40
0.4586546833
 40
0.7201864368
 40
1.0
 40
1.0
 40
1.0
 40
1.0
 10
1.9029577322
 20
283.5135646126
 30
0.0
 10
2.8719423696
 20
284.0845854445
 30
0.0
 10
4.9829284146
 20
285.163440912
 30
0.0
 10
8.4341704231
 20
286.5477608157
 30
0.0
 10
12.2857955601
 20
287.7554742231
 30
0.0
 10
15.000751602
 20
288.4165981411
 30
0.0
 10
16.4126943604
 20
288.7155526455
 30
0.0
  0
SPLINE
  5
35D
100
AcDbEntity
  8
0
100
AcDbSpline
 62
7
  6
CONTINUOUS
 70
0
 71
3
 72
13
 73
9
 74
0
 42
0.0000001
 43
0.0000001
 44
0.0000000001
 40
0.0
 40
0.0
 40
0.0
 40
0.0
 40
0.214666302
 40
0.440281967
 40
0.683783586
 40
0.8196343862
 40
0.8968761548
 40
1.0
 40
1.0
 40
1.0
 40
1.0
 10
-8.1873107282
 20
270.3034365017
 30
0.0
 10
-8.1750383779
 20
270.242404153
 30
0.0
 10
-8.1492095235
 20
270.1173658765
 30
0.0
 10
-8.1080018273
 20
269.9233609471
 30
0.0
 10
-8.0727140446
 20
269.7516168819
 30
0.0
 10
-8.0494421606
 20
269.6209956714
 30
0.0
 10
-8.0384548474
 20
269.5303546769
 30
0.0
 10
-8.0337186405
 20
269.4770759819
 30
0.0
 10
-8.0396573915
 20
269.4477652902
 30
0.0
  0
SPLINE
  5
35E
100
AcDbEntity
  8
0
100
AcDbSpline
 62
7
  6
CONTINUOUS
 70
0
 71
3
 72
11
 73
7
 74
0
 42
0.0000001
 43
0.0000001
 44
0.0000000001
 40
0.0
 40
0.0
 40
0.0
 40
0.0
 40
0.2176498128
 40
0.4528575812
 40
0.712261414
 40
1.0
 40
1.0
 40
1.0
 40
1.0
 10
-8.1873107282
 20
270.3034365017
 30
0.0
 10
-8.0719022751
 20
269.7298718124
 30
0.0
 10
-7.6826650461
 20
268.5632407338
 30
0.0
 10
-6.7006859026
 20
266.9065338465
 30
0.0
 10
-5.3227856579
 20
265.3062882816
 30
0.0
 10
-4.2110650436
 20
264.3363439194
 30
0.0
 10
-3.6012127229
 20
263.8606048766
 30
0.0
  0
SPLINE
  5
35F
100
AcDbEntity
  8
0
100
AcDbSpline
 62
7
  6
CONTINUOUS
 70
0
 71
3
 72
15
 73
11
 74
0
 42
0.0000001
 43
0.0000001
 44
0.0000000001
 40
0.0
 40
0.0
 40
0.0
 40
0.0
 40
0.0898658691
 40
0.19597546
 40
0.3163198712
 40
0.447697588
 40
0.5861692128
 40
0.727372427
 40
0.8667843646
 40
1.0
 40
1.0
 40
1.0
 40
1.0
 10
64.8685857005
 20
281.4534622602
 30
0.0
 10
63.7908837451
 20
282.2728176236
 30
0.0
 10
61.2226746317
 20
283.7722724167
 30
0.0
 10
56.7798044316
 20
285.5245957854
 30
0.0
 10
51.5611456607
 20
286.9160497416
 30
0.0
 10
45.7573020305
 20
287.8919513203
 30
0.0
 10
39.5806117957
 20
288.4153531011
 30
0.0
 10
33.2612157553
 20
288.4654227768
 30
0.0
 10
27.0356668235
 20
288.0404316602
 30
0.0
 10
22.9678752817
 20
287.4313963169
 30
0.0
 10
20.9994083981
 20
287.0407456022
 30
0.0
  0
SPLINE
  5
360
100
AcDbEntity
  8
0
100
AcDbSpline
 62
7
  6
CONTINUOUS
 70
0
 71
3
 72
17
 73
13
 74
0
 42
0.0000001
 43
0.0000001
 44
0.0000000001
 40
0.0
 40
0.0
 40
0.0
 40
0.0
 40
0.1385764381
 40
0.2835662797
 40
0.42948736
 40
0.5707968894
 40
0.7022617453
 40
0.8193756522
 40
0.8715145781
 40
0.9190012459
 40
0.9617738041
 40
1.0
 40
1.0
 40
1.0
 40
1.0
 10
17.6626717557
 20
288.9704285342
 30
0.0
 10
20.3424274279
 20
289.4938896572
 30
0.0
 10
25.8832282191
 20
290.2836754006
 30
0.0
 10
34.3418790687
 20
290.7493960005
 30
0.0
 10
42.8646277317
 20
290.5147270568
 30
0.0
 10
51.0735392559
 20
289.5911111616
 30
0.0
 10
58.605244838
 20
288.0209570894
 30
0.0
 10
64.2537355406
 20
286.1690785907
 30
0.0
 10
68.1359814894
 20
284.3794135748
 30
0.0
 10
70.572710476
 20
282.9791000964
 30
0.0
 10
72.6223469974
 20
281.4839716278
 30
0.0
 10
73.7782481585
 20
280.3725830108
 30
0.0
 10
74.2720251674
 20
279.8038444062
 30
0.0
  0
SPLINE
  5
361
100
AcDbEntity
  8
0
100
AcDbSpline
 62
7
  6
CONTINUOUS
 70
0
 71
3
 72
15
 73
11
 74
0
 42
0.0000001
 43
0.0000001
 44
0.0000000001
 40
0.0
 40
0.0
 40
0.0
 40
0.0
 40
0.1174764709
 40
0.2250095837
 40
0.328904086
 40
0.4362921844
 40
0.5535096325
 40
0.6850553555
 40
0.8335250675
 40
1.0
 40
1.0
 40
1.0
 40
1.0
 10
74.8210072752
 20
279.1221277267
 30
0.0
 10
75.2288770452
 20
278.5733891697
 30
0.0
 10
75.914393228
 20
277.4425822056
 30
0.0
 10
76.4752564701
 20
275.5879946475
 30
0.0
 10
76.4811818276
 20
273.7052084421
 30
0.0
 10
75.9312113592
 20
271.8490520055
 30
0.0
 10
74.8560236162
 20
270.0563623959
 30
0.0
 10
73.2866099613
 20
268.3423854277
 30
0.0
 10
71.2475150362
 20
266.7186213849
 30
0.0
 10
69.6800798661
 20
265.7600512486
 30
0.0
 10
68.830623824
 20
265.2940283744
 30
0.0
  0
SPLINE
  5
362
100
AcDbEntity
  8
0
100
AcDbSpline
 62
7
  6
CONTINUOUS
 70
0
 71
3
 72
10
 73
6
 74
0
 42
0.0000001
 43
0.0000001
 44
0.0000000001
 40
0.0
 40
0.0
 40
0.0
 40
0.0
 40
0.220501712
 40
0.461992737
 40
1.0
 40
1.0
 40
1.0
 40
1.0
 10
68.830623824
 20
265.2940283744
 30
0.0
 10
67.864305629
 20
264.7638933701
 30
0.0
 10
65.7792636403
 20
263.7615677186
 30
0.0
 10
61.1047072867
 20
261.98084629
 30
0.0
 10
57.320381418
 20
260.9950064453
 30
0.0
 10
54.6868097879
 20
260.4506148425
 30
0.0
  0
SPLINE
  5
363
100
AcDbEntity
  8
0
100
AcDbSpline
 62
7
  6
CONTINUOUS
 70
0
 71
3
 72
11
 73
7
 74
0
 42
0.0000001
 43
0.0000001
 44
0.0000000001
 40
0.0
 40
0.0
 40
0.0
 40
0.0
 40
0.2810401292
 40
0.5432130327
 40
0.7835598662
 40
1.0
 40
1.0
 40
1.0
 40
1.0
 10
50.5196072353
 20
264.0106013717
 30
0.0
 10
51.748386113
 20
264.2544578338
 30
0.0
 10
54.1103010728
 20
264.7965365593
 30
0.0
 10
57.4557594048
 20
265.8112023481
 30
0.0
 10
60.4414942009
 20
266.9856888123
 30
0.0
 10
62.2596638601
 20
267.9132088414
 30
0.0
 10
63.0890399306
 20
268.4061067864
 30
0.0
  0
SPLINE
  5
364
100
AcDbEntity
  8
0
100
AcDbSpline
 62
7
  6
CONTINUOUS
 70
0
 71
3
 72
9
 73
5
 74
0
 42
0.0000001
 43
0.0000001
 44
0.0000000001
 40
0.0
 40
0.0
 40
0.0
 40
0.0
 40
0.5472481873
 40
1.0
 40
1.0
 40
1.0
 40
1.0
 10
63.0890399306
 20
268.4061067864
 30
0.0
 10
64.0756854887
 20
268.9924699397
 30
0.0
 10
65.8048244091
 20
270.200630751
 30
0.0
 10
67.2139927266
 20
271.8036884333
 30
0.0
 10
67.6947424763
 20
272.6225415419
 30
0.0
  0
SPLINE
  5
365
100
AcDbEntity
  8
0
100
AcDbSpline
 62
7
  6
CONTINUOUS
 70
0
 71
3
 72
14
 73
10
 74
0
 42
0.0000001
 43
0.0000001
 44
0.0000000001
 40
0.0
 40
0.0
 40
0.0
 40
0.0
 40
0.1208697452
 40
0.23484537
 40
0.346048503
 40
0.4589883797
 40
0.7053537084
 40
0.8458705526
 40
1.0
 40
1.0
 40
1.0
 40
1.0
 10
67.6947424763
 20
272.6225415419
 30
0.0
 10
67.9000173429
 20
272.9721828319
 30
0.0
 10
68.2435436635
 20
273.6870328886
 30
0.0
 10
68.5292633262
 20
274.8208092936
 30
0.0
 10
68.5592727763
 20
275.964238267
 30
0.0
 10
68.2488982777
 20
277.5238144438
 30
0.0
 10
67.3999390518
 20
279.0198576321
 30
0.0
 10
66.1824063197
 20
280.3672292829
 30
0.0
 10
65.4320193015
 20
281.0154647585
 30
0.0
 10
65.024382617
 20
281.3334817502
 30
0.0
  0
SPLINE
  5
366
100
AcDbEntity
  8
0
100
AcDbSpline
 62
7
  6
CONTINUOUS
 70
0
 71
3
 72
12
 73
8
 74
0
 42
0.0000001
 43
0.0000001
 44
0.0000000001
 40
0.0
 40
0.0
 40
0.0
 40
0.0
 40
0.3556959961
 40
0.6409435632
 40
0.8545955748
 40
0.9354078923
 40
1.0
 40
1.0
 40
1.0
 40
1.0
 10
-3.6018907329
 20
263.8604106961
 30
0.0
 10
-4.1423983383
 20
264.2820989373
 30
0.0
 10
-5.1294686265
 20
265.0261005297
 30
0.0
 10
-6.4991372819
 20
265.9415388055
 30
0.0
 10
-7.4797270818
 20
266.4849085705
 30
0.0
 10
-8.124699662
 20
266.7379979607
 30
0.0
 10
-8.3977477558
 20
266.8075211592
 30
0.0
 10
-8.5210247479
 20
266.8248590403
 30
0.0
  0
SPLINE
  5
367
100
AcDbEntity
  8
0
100
AcDbSpline
 62
7
  6
CONTINUOUS
 70
0
 71
3
 72
9
 73
5
 74
0
 42
0.0000001
 43
0.0000001
 44
0.0000000001
 40
0.0
 40
0.0
 40
0.0
 40
0.0
 40
0.2738899351
 40
1.0
 40
1.0
 40
1.0
 40
1.0
 10
-3.1190670908
 20
260.3162142002
 30
0.0
 10
-3.4886895252
 20
260.277491668
 30
0.0
 10
-4.8322594547
 20
260.0933906468
 30
0.0
 10
-6.1588043958
 20
259.724291853
 30
0.0
 10
-7.0549740535
 20
259.3148586715
 30
0.0
  0
SPLINE
  5
368
100
AcDbEntity
  8
0
100
AcDbSpline
 62
7
  6
CONTINUOUS
 70
0
 71
3
 72
9
 73
5
 74
0
 42
0.0000001
 43
0.0000001
 44
0.0000000001
 40
0.0
 40
0.0
 40
0.0
 40
0.0
 40
0.5143380268
 40
1.0
 40
1.0
 40
1.0
 40
1.0
 10
-3.8163565999
 20
263.633990913
 30
0.0
 10
-3.8036274773
 20
263.6882070282
 30
0.0
 10
-3.7539651431
 20
263.7892609056
 30
0.0
 10
-3.654005213
 20
263.8526583847
 30
0.0
 10
-3.6019137817
 20
263.8598495151
 30
0.0
  0
LINE
  5
369
100
AcDbEntity
  8
0
100
AcDbLine
 62
7
  6
CONTINUOUS
 10
-3.601234669
 20
263.8604820017
 11
-3.5101925809
 21
263.7898490032
  0
SPLINE
  5
36A
100
AcDbEntity
  8
0
100
AcDbSpline
 62
7
  6
CONTINUOUS
 70
0
 71
3
 72
16
 73
12
 74
0
 42
0.0000001
 43
0.0000001
 44
0.0000000001
 40
0.0
 40
0.0
 40
0.0
 40
0.0
 40
0.2316295193
 40
0.4696623589
 40
0.5918018749
 40
0.7169958681
 40
0.7812804987
 40
0.8474429215
 40
0.917103417
 40
0.9551411955
 40
1.0
 40
1.0
 40
1.0
 40
1.0
 10
-3.5102399343
 20
263.7900119197
 30
0.0
 10
-3.4402262724
 20
263.7359786462
 30
0.0
 10
-3.2989100615
 20
263.6255776375
 30
0.0
 10
-3.1234057502
 20
263.4832149049
 30
0.0
 10
-2.9825754866
 20
263.3627250746
 30
0.0
 10
-2.8944074278
 20
263.2828222702
 30
0.0
 10
-2.8244733109
 20
263.2146345855
 30
0.0
 10
-2.7720743602
 20
263.1592214083
 30
0.0
 10
-2.7291631277
 20
263.107741948
 30
0.0
 10
-2.6983819194
 20
263.0594566864
 30
0.0
 10
-2.6851352751
 20
263.0274009589
 30
0.0
 10
-2.6880810349
 20
263.0105284792
 30
0.0
  0
SPLINE
  5
36B
100
AcDbEntity
  8
0
100
AcDbSpline
 62
7
  6
CONTINUOUS
 70
0
 71
3
 72
10
 73
6
 74
0
 42
0.0000001
 43
0.0000001
 44
0.0000000001
 40
0.0
 40
0.0
 40
0.0
 40
0.0
 40
0.2186772746
 40
0.4586852105
 40
1.0
 40
1.0
 40
1.0
 40
1.0
 10
-3.5102399343
 20
263.7900119197
 30
0.0
 10
-2.8296690898
 20
263.2650780353
 30
0.0
 10
-1.3350917575
 20
262.2496082966
 30
0.0
 10
2.1133173691
 20
260.3558594051
 30
0.0
 10
4.9775293632
 20
259.2111902169
 30
0.0
 10
6.9925904612
 20
258.5283973066
 30
0.0
  0
SPLINE
  5
36C
100
AcDbEntity
  8
0
100
AcDbSpline
 62
7
  6
CONTINUOUS
 70
0
 71
3
 72
11
 73
7
 74
0
 42
0.0000001
 43
0.0000001
 44
0.0000000001
 40
0.0
 40
0.0
 40
0.0
 40
0.0
 40
0.2927142046
 40
0.5576144577
 40
0.7933127883
 40
1.0
 40
1.0
 40
1.0
 40
1.0
 10
6.9920961791
 20
258.5281345794
 30
0.0
 10
6.0380947826
 20
258.8514377677
 30
0.0
 10
4.2014522874
 20
259.4130936819
 30
0.0
 10
1.5349742274
 20
260.0129129914
 30
0.0
 10
-0.8818976625
 20
260.3298867108
 30
0.0
 10
-2.4089928003
 20
260.357214994
 30
0.0
 10
-3.1190670908
 20
260.3162142002
 30
0.0
  0
SPLINE
  5
36D
100
AcDbEntity
  8
0
100
AcDbSpline
 62
7
  6
CONTINUOUS
 70
0
 71
3
 72
11
 73
7
 74
0
 42
0.0000001
 43
0.0000001
 44
0.0000000001
 40
0.0
 40
0.0
 40
0.0
 40
0.0
 40
0.2330885762
 40
0.471802888
 40
0.7242886959
 40
1.0
 40
1.0
 40
1.0
 40
1.0
 10
-11.0803688605
 20
255.1040594226
 30
0.0
 10
-10.9343641192
 20
255.4787622618
 30
0.0
 10
-10.5673510899
 20
256.2125685575
 30
0.0
 10
-9.774341132
 20
257.1911482802
 30
0.0
 10
-8.7318709246
 20
258.0212566145
 30
0.0
 10
-7.9145835665
 20
258.4384959492
 30
0.0
 10
-7.4741914031
 20
258.6182909142
 30
0.0
  0
SPLINE
  5
36E
100
AcDbEntity
  8
0
100
AcDbSpline
 62
7
  6
CONTINUOUS
 70
0
 71
3
 72
14
 73
10
 74
0
 42
0.0000001
 43
0.0000001
 44
0.0000000001
 40
0.0
 40
0.0
 40
0.0
 40
0.0
 40
0.0899819532
 40
0.1892026755
 40
0.2983425039
 40
0.4179873269
 40
0.548310335
 40
0.6890942134
 40
1.0
 40
1.0
 40
1.0
 40
1.0
 10
-7.4741914031
 20
258.6182909142
 30
0.0
 10
-7.0706016125
 20
258.7830609041
 30
0.0
 10
-6.1959210196
 20
259.0662537442
 30
0.0
 10
-4.7800620562
 20
259.3664565837
 30
0.0
 10
-3.1978157184
 20
259.541464516
 30
0.0
 10
-1.4559983484
 20
259.561316329
 30
0.0
 10
0.4347734668
 20
259.4450895511
 30
0.0
 10
3.2347239725
 20
259.1007947113
 30
0.0
 10
5.3800413483
 20
258.6448348283
 30
0.0
 10
6.8398169668
 20
258.2736759806
 30
0.0
  0
SPLINE
  5
36F
100
AcDbEntity
  8
0
100
AcDbSpline
 62
7
  6
CONTINUOUS
 70
0
 71
3
 72
11
 73
7
 74
0
 42
0.0000001
 43
0.0000001
 44
0.0000000001
 40
0.0
 40
0.0
 40
0.0
 40
0.0
 40
0.2879713006
 40
0.5493846038
 40
0.7856064857
 40
1.0
 40
1.0
 40
1.0
 40
1.0
 10
8.201790719
 20
255.1164184878
 30
0.0
 10
6.8118442668
 20
254.8254280199
 30
0.0
 10
4.1867900555
 20
254.1248088932
 30
0.0
 10
0.5933073767
 20
252.6447926449
 30
0.0
 10
-2.4327685752
 20
250.8370689362
 30
0.0
 10
-4.133502217
 20
249.385402379
 30
0.0
 10
-4.8673599599
 20
248.6243390199
 30
0.0
  0
SPLINE
  5
370
100
AcDbEntity
  8
0
100
AcDbSpline
 62
7
  6
CONTINUOUS
 70
0
 71
3
 72
10
 73
6
 74
0
 42
0.0000001
 43
0.0000001
 44
0.0000000001
 40
0.0
 40
0.0
 40
0.0
 40
0.0
 40
0.2774280592
 40
0.6775188912
 40
1.0
 40
1.0
 40
1.0
 40
1.0
 10
6.839810448
 20
258.2736744984
 30
0.0
 10
6.8483292592
 20
258.3005017867
 30
0.0
 10
6.8700099767
 20
258.365576349
 30
0.0
 10
6.903897205
 20
258.4621491451
 30
0.0
 10
6.9615302658
 20
258.5158594804
 30
0.0
 10
6.9920807503
 20
258.5275709579
 30
0.0
  0
SPLINE
  5
371
100
AcDbEntity
  8
0
100
AcDbSpline
 62
7
  6
CONTINUOUS
 70
0
 71
3
 72
8
 73
4
 74
0
 42
0.0000001
 43
0.0000001
 44
0.0000000001
 40
0.0
 40
0.0
 40
0.0
 40
0.0
 40
1.0
 40
1.0
 40
1.0
 40
1.0
 10
6.9925750852
 20
258.5282766614
 30
0.0
 10
7.0435080211
 20
258.5114564349
 30
0.0
 10
7.0941968477
 20
258.4939056069
 30
0.0
 10
7.1450427502
 20
258.4768240909
 30
0.0
  0
SPLINE
  5
372
100
AcDbEntity
  8
0
100
AcDbSpline
 62
7
  6
CONTINUOUS
 70
0
 71
3
 72
17
 73
13
 74
0
 42
0.0000001
 43
0.0000001
 44
0.0000000001
 40
0.0
 40
0.0
 40
0.0
 40
0.0
 40
0.2429835592
 40
0.3655274584
 40
0.4888631552
 40
0.6131123492
 40
0.7385476209
 40
0.8018891305
 40
0.8658925256
 40
0.9310882813
 40
0.9647781557
 40
1.0
 40
1.0
 40
1.0
 40
1.0
 10
7.1452389129
 20
258.4768568312
 30
0.0
 10
7.2616630118
 20
258.4377449688
 30
0.0
 10
7.436442458
 20
258.3778150987
 30
0.0
 10
7.6690209553
 20
258.2943357768
 30
0.0
 10
7.8442880877
 20
258.2288941
 30
0.0
 10
8.0198277885
 20
258.1599910022
 30
0.0
 10
8.1655170559
 20
258.0983632619
 30
0.0
 10
8.2815773054
 20
258.0445388893
 30
0.0
 10
8.3679099506
 20
258.0005467096
 30
0.0
 10
8.4401575764
 20
257.9578936049
 30
0.0
 10
8.4915865636
 20
257.9181626351
 30
0.0
 10
8.5189865496
 20
257.8867549921
 30
0.0
 10
8.5167835501
 20
257.8690886262
 30
0.0
  0
SPLINE
  5
373
100
AcDbEntity
  8
0
100
AcDbSpline
 62
7
  6
CONTINUOUS
 70
0
 71
3
 72
9
 73
5
 74
0
 42
0.0000001
 43
0.0000001
 44
0.0000000001
 40
0.0
 40
0.0
 40
0.0
 40
0.0
 40
0.4779983526
 40
1.0
 40
1.0
 40
1.0
 40
1.0
 10
7.1452389129
 20
258.4768568312
 30
0.0
 10
9.4401134645
 20
257.7063891246
 30
0.0
 10
14.3416243361
 20
256.3892720548
 30
0.0
 10
19.3406115672
 20
255.5376392553
 30
0.0
 10
21.9622723546
 20
255.1977102042
 30
0.0
  0
SPLINE
  5
374
100
AcDbEntity
  8
0
100
AcDbSpline
 62
7
  6
CONTINUOUS
 70
0
 71
3
 72
9
 73
5
 74
0
 42
0.0000001
 43
0.0000001
 44
0.0000000001
 40
0.0
 40
0.0
 40
0.0
 40
0.0
 40
0.526591149
 40
1.0
 40
1.0
 40
1.0
 40
1.0
 10
21.961767642
 20
255.1971197901
 30
0.0
 10
19.5600534671
 20
255.5083787444
 30
0.0
 10
14.957308793
 20
255.8251980103
 30
0.0
 10
10.348976013
 20
255.4767708831
 30
0.0
 10
8.201790719
 20
255.1164184878
 30
0.0
  0
SPLINE
  5
375
100
AcDbEntity
  8
0
100
AcDbSpline
 62
7
  6
CONTINUOUS
 70
0
 71
3
 72
12
 73
8
 74
0
 42
0.0000001
 43
0.0000001
 44
0.0000000001
 40
0.0
 40
0.0
 40
0.0
 40
0.0
 40
0.3097534541
 40
0.451883402
 40
0.5190907326
 40
0.5834115222
 40
1.0
 40
1.0
 40
1.0
 40
1.0
 10
21.961767642
 20
255.1971197901
 30
0.0
 10
19.0498204584
 20
255.457632054
 30
0.0
 10
14.763400933
 20
255.5679064168
 30
0.0
 10
9.8858079076
 20
255.0564666516
 30
0.0
 10
7.340884222
 20
254.5973826171
 30
0.0
 10
2.3139726012
 20
253.4397429896
 30
0.0
 10
-2.1180964129
 20
251.4316395184
 30
0.0
 10
-4.8660346054
 20
248.6193628752
 30
0.0
  0
SPLINE
  5
376
100
AcDbEntity
  8
0
100
AcDbSpline
 62
7
  6
CONTINUOUS
 70
0
 71
3
 72
9
 73
5
 74
0
 42
0.0000001
 43
0.0000001
 44
0.0000000001
 40
0.0
 40
0.0
 40
0.0
 40
0.0
 40
0.5303241229
 40
1.0
 40
1.0
 40
1.0
 40
1.0
 10
23.7180929135
 20
252.0171042487
 30
0.0
 10
20.5718662648
 20
250.9711473435
 30
0.0
 10
14.7840573965
 20
248.5198390694
 30
0.0
 10
9.5145691539
 20
245.0749924611
 30
0.0
 10
7.2442457773
 20
243.2127664678
 30
0.0
  0
SPLINE
  5
377
100
AcDbEntity
  8
0
100
AcDbSpline
 62
7
  6
CONTINUOUS
 70
0
 71
3
 72
14
 73
10
 74
0
 42
0.0000001
 43
0.0000001
 44
0.0000000001
 40
0.0
 40
0.0
 40
0.0
 40
0.0
 40
0.2622991254
 40
0.3931837643
 40
0.5218008882
 40
0.6470978931
 40
0.768470162
 40
0.8859214785
 40
1.0
 40
1.0
 40
1.0
 40
1.0
 10
48.0213010603
 20
196.2426188369
 30
0.0
 10
48.192581239
 20
195.2829261825
 30
0.0
 10
48.2050597651
 20
193.7860553976
 30
0.0
 10
47.7432534121
 20
191.8962160929
 30
0.0
 10
47.1714954019
 20
190.5768944444
 30
0.0
 10
46.394564629
 20
189.4093421348
 30
0.0
 10
45.4406957465
 20
188.4370440314
 30
0.0
 10
44.3453272438
 20
187.6992573633
 30
0.0
 10
43.5373389537
 20
187.3796863886
 30
0.0
 10
43.1278140129
 20
187.2699109829
 30
0.0
  0
SPLINE
  5
378
100
AcDbEntity
  8
0
100
AcDbSpline
 62
7
  6
CONTINUOUS
 70
0
 71
3
 72
9
 73
5
 74
0
 42
0.0000001
 43
0.0000001
 44
0.0000000001
 40
0.0
 40
0.0
 40
0.0
 40
0.0
 40
0.2515482121
 40
1.0
 40
1.0
 40
1.0
 40
1.0
 10
-18.8556591938
 20
170.6549011544
 30
0.0
 10
-18.9909696603
 20
170.618630442
 30
0.0
 10
-19.5341342694
 20
170.4948665927
 30
0.0
 10
-20.0964855079
 20
170.4548048159
 30
0.0
 10
-20.5128388141
 20
170.4743853544
 30
0.0
  0
SPLINE
  5
379
100
AcDbEntity
  8
0
100
AcDbSpline
 62
7
  6
CONTINUOUS
 70
0
 71
3
 72
14
 73
10
 74
0
 42
0.0000001
 43
0.0000001
 44
0.0000000001
 40
0.0
 40
0.0
 40
0.0
 40
0.0
 40
0.114078535
 40
0.2315298708
 40
0.3529021462
 40
0.4781991557
 40
0.6068162768
 40
0.7377009109
 40
1.0
 40
1.0
 40
1.0
 40
1.0
 10
-38.9310941597
 20
268.263566936
 30
0.0
 10
-39.3406191492
 20
268.1537915173
 30
0.0
 10
-40.1486075362
 20
267.8342204543
 30
0.0
 10
-41.243976162
 20
267.0964337011
 30
0.0
 10
-42.1978450357
 20
266.1241354255
 30
0.0
 10
-42.9747757744
 20
264.9565830613
 30
0.0
 10
-43.5465337228
 20
263.6372613956
 30
0.0
 10
-44.0083399032
 20
261.7474222178
 30
0.0
 10
-43.9958613621
 20
260.2505516036
 30
0.0
 10
-43.8245812071
 20
259.2908590819
 30
0.0
  0
SPLINE
  5
37A
100
AcDbEntity
  8
0
100
AcDbSpline
 62
7
  6
CONTINUOUS
 70
0
 71
3
 72
13
 73
9
 74
0
 42
0.0000001
 43
0.0000001
 44
0.0000000001
 40
0.0
 40
0.0
 40
0.0
 40
0.0
 40
0.2677119729
 40
0.5230960123
 40
0.6460400319
 40
0.7659508074
 40
0.8835849436
 40
1.0
 40
1.0
 40
1.0
 40
1.0
 10
-29.0361647758
 20
176.430514543
 30
0.0
 10
-28.8967583658
 20
175.6494124406
 30
0.0
 10
-28.4117278151
 20
174.1511529037
 30
0.0
 10
-27.2868548129
 20
172.5587504553
 30
0.0
 10
-26.1530391062
 20
171.6021962171
 30
0.0
 10
-25.222134181
 20
171.0655043813
 30
0.0
 10
-24.2263581255
 20
170.716854684
 30
0.0
 10
-23.5347868467
 20
170.6165012978
 30
0.0
 10
-23.1901368015
 20
170.6002928578
 30
0.0
  0
SPLINE
  5
37B
100
AcDbEntity
  8
0
100
AcDbSpline
 62
7
  6
CONTINUOUS
 70
0
 71
3
 72
17
 73
13
 74
0
 42
0.0000001
 43
0.0000001
 44
0.0000000001
 40
0.0
 40
0.0
 40
0.0
 40
0.0
 40
0.053830033
 40
0.1093793375
 40
0.2259963653
 40
0.3500819306
 40
0.4800233082
 40
0.6131324854
 40
0.6799460927
 40
0.7463329035
 40
0.8761254441
 40
1.0
 40
1.0
 40
1.0
 40
1.0
 10
43.2022508714
 20
239.4165456474
 30
0.0
 10
43.7786350868
 20
238.5488078257
 30
0.0
 10
44.819962255
 20
236.6959547382
 30
0.0
 10
46.4214472897
 20
232.6142891799
 30
0.0
 10
47.4444042182
 20
226.9094948329
 30
0.0
 10
47.099492594
 20
219.6935981294
 30
0.0
 10
45.2470694334
 20
212.3867164825
 30
0.0
 10
42.5379574361
 20
206.5632668132
 30
0.0
 10
39.7420556141
 20
202.2264943069
 30
0.0
 10
36.5964750973
 20
198.2173521423
 30
0.0
 10
32.1039306148
 20
193.897297429
 30
0.0
 10
27.9177766738
 20
191.249731112
 30
0.0
 10
25.7569510767
 20
190.2116803278
 30
0.0
  0
SPLINE
  5
37C
100
AcDbEntity
  8
0
100
AcDbSpline
 62
7
  6
CONTINUOUS
 70
0
 71
3
 72
11
 73
7
 74
0
 42
0.0000001
 43
0.0000001
 44
0.0000000001
 40
0.0
 40
0.0
 40
0.0
 40
0.0
 40
0.2575230999
 40
0.5088224588
 40
0.7555701369
 40
1.0
 40
1.0
 40
1.0
 40
1.0
 10
15.8395953635
 20
187.5532787552
 30
0.0
 10
14.8555960944
 20
187.4984547284
 30
0.0
 10
12.901391239
 20
187.5174760459
 30
0.0
 10
10.0327365303
 20
187.9508836482
 30
0.0
 10
7.3057202882
 20
188.7843703354
 30
0.0
 10
5.6035006817
 20
189.6015745699
 30
0.0
 10
4.793474009
 20
190.0694038631
 30
0.0
  0
SPLINE
  5
37D
100
AcDbEntity
  8
0
100
AcDbSpline
 62
7
  6
CONTINUOUS
 70
0
 71
3
 72
14
 73
10
 74
0
 42
0.0000001
 43
0.0000001
 44
0.0000000001
 40
0.0
 40
0.0
 40
0.0
 40
0.0
 40
0.2647836295
 40
0.4023089476
 40
0.5369530529
 40
0.6649530914
 40
0.7841200342
 40
0.8947373298
 40
1.0
 40
1.0
 40
1.0
 40
1.0
 10
25.7569510767
 20
189.6899278695
 30
0.0
 10
25.7569510767
 20
188.624858438
 30
0.0
 10
25.3351383331
 20
186.9885952977
 30
0.0
 10
24.1879212325
 20
185.1489939457
 30
0.0
 10
23.0608167548
 20
183.9801392316
 30
0.0
 10
21.7606705684
 20
183.1356884791
 30
0.0
 10
20.3756207637
 20
182.6797895914
 30
0.0
 10
19.0048541239
 20
182.6585512632
 30
0.0
 10
18.1640503918
 20
182.9533794827
 30
0.0
 10
17.7973825462
 20
183.1651122615
 30
0.0
  0
SPLINE
  5
37E
100
AcDbEntity
  8
0
100
AcDbSpline
 62
7
  6
CONTINUOUS
 70
0
 71
3
 72
11
 73
7
 74
0
 42
0.0000001
 43
0.0000001
 44
0.0000000001
 40
0.0
 40
0.0
 40
0.0
 40
0.0
 40
0.2717350397
 40
0.5268969419
 40
0.7676331593
 40
1.0
 40
1.0
 40
1.0
 40
1.0
 10
17.9057111371
 20
187.5853599526
 30
0.0
 10
17.9057111371
 20
187.3461214974
 30
0.0
 10
17.9522962
 20
186.8802782038
 30
0.0
 10
18.1749848255
 20
186.2349407477
 30
0.0
 10
18.5402488462
 20
185.6981003244
 30
0.0
 10
18.870619932
 20
185.4323036232
 30
0.0
 10
19.0477718949
 20
185.3299832922
 30
0.0
  0
SPLINE
  5
37F
100
AcDbEntity
  8
0
100
AcDbSpline
 62
7
  6
CONTINUOUS
 70
0
 71
3
 72
19
 73
15
 74
0
 42
0.0000001
 43
0.0000001
 44
0.0000000001
 40
0.0
 40
0.0
 40
0.0
 40
0.0
 40
0.1312176856
 40
0.2673547522
 40
0.3361303443
 40
0.4046061514
 40
0.5384257976
 40
0.6654987158
 40
0.7259482105
 40
0.7841665703
 40
0.8402881989
 40
0.8946252369
 40
0.9476581317
 40
1.0
 40
1.0
 40
1.0
 40
1.0
 10
13.1824856196
 20
241.5012029921
 30
0.0
 10
11.031193318
 20
240.1375515691
 30
0.0
 10
6.9769516321
 20
236.8159256723
 30
0.0
 10
2.8928095613
 20
231.6664792768
 30
0.0
 10
0.2632744959
 20
227.0473878434
 30
0.0
 10
-1.8581413404
 20
222.2235087887
 30
0.0
 10
-3.5102569792
 20
215.9946006024
 30
0.0
 10
-3.7271775897
 20
209.6946345594
 30
0.0
 10
-2.9624153158
 20
204.9732113367
 30
0.0
 10
-1.9592152365
 20
201.7195407219
 30
0.0
 10
-0.5335063014
 20
198.7575694321
 30
0.0
 10
1.2911074581
 20
196.1429683126
 30
0.0
 10
3.4812149329
 20
193.9276614237
 30
0.0
 10
5.1640736068
 20
192.7424589732
 30
0.0
 10
6.0438630016
 20
192.2342741583
 30
0.0
  0
SPLINE
  5
380
100
AcDbEntity
  8
0
100
AcDbSpline
 62
7
  6
CONTINUOUS
 70
0
 71
3
 72
9
 73
5
 74
0
 42
0.0000001
 43
0.0000001
 44
0.0000000001
 40
0.0
 40
0.0
 40
0.0
 40
0.0
 40
0.748453333
 40
1.0
 40
1.0
 40
1.0
 40
1.0
 10
-19.9488966116
 20
182.701287712
 30
0.0
 10
-20.2264660958
 20
182.7143434102
 30
0.0
 10
-20.601367165
 20
182.6876304488
 30
0.0
 10
-20.9634767626
 20
182.605120563
 30
0.0
 10
-21.0536832294
 20
182.580940225
 30
0.0
  0
SPLINE
  5
381
100
AcDbEntity
  8
0
100
AcDbSpline
 62
7
  6
CONTINUOUS
 70
0
 71
3
 72
9
 73
5
 74
0
 42
0.0000001
 43
0.0000001
 44
0.0000000001
 40
0.0
 40
0.0
 40
0.0
 40
0.0
 40
0.487466269
 40
1.0
 40
1.0
 40
1.0
 40
1.0
 10
51.0971640954
 20
240.3248419292
 30
0.0
 10
51.8575273181
 20
238.3336298211
 30
0.0
 10
52.9977951483
 20
234.0804515
 30
0.0
 10
53.3499292504
 20
229.6983553904
 30
0.0
 10
53.3499292504
 20
227.4572980201
 30
0.0
  0
SPLINE
  5
382
100
AcDbEntity
  8
0
100
AcDbSpline
 62
7
  6
CONTINUOUS
 70
0
 71
3
 72
15
 73
11
 74
0
 42
0.0000001
 43
0.0000001
 44
0.0000000001
 40
0.0
 40
0.0
 40
0.0
 40
0.0
 40
0.1226793102
 40
0.2497804871
 40
0.3795759387
 40
0.5100271139
 40
0.6390304753
 40
0.7646372387
 40
0.8852762652
 40
1.0
 40
1.0
 40
1.0
 40
1.0
 10
53.3499292504
 20
227.4572980201
 30
0.0
 10
53.3499292504
 20
224.9538780299
 30
0.0
 10
52.8906272272
 20
219.8485687012
 30
0.0
 10
50.9580982845
 20
212.3172806972
 30
0.0
 10
47.8434911282
 20
205.0196985971
 30
0.0
 10
43.663891836
 20
198.2309420949
 30
0.0
 10
38.5757384093
 20
192.2038052048
 30
0.0
 10
32.7658214175
 20
187.164680347
 30
0.0
 10
26.4513598924
 20
183.3052101243
 30
0.0
 10
21.933488619
 20
181.5730633652
 30
0.0
 10
19.6722421413
 20
180.9669238492
 30
0.0
  0
SPLINE
  5
383
100
AcDbEntity
  8
0
100
AcDbSpline
 62
7
  6
CONTINUOUS
 70
0
 71
3
 72
9
 73
5
 74
0
 42
0.0000001
 43
0.0000001
 44
0.0000000001
 40
0.0
 40
0.0
 40
0.0
 40
0.0
 40
0.512250521
 40
1.0
 40
1.0
 40
1.0
 40
1.0
 10
-16.5016659529
 20
266.2493150557
 30
0.0
 10
-15.8615244892
 20
266.8663539189
 30
0.0
 10
-14.4753610594
 20
267.9419020122
 30
0.0
 10
-12.8542156227
 20
268.6258996504
 30
0.0
 10
-12.0364975143
 20
268.8450853549
 30
0.0
  0
SPLINE
  5
384
100
AcDbEntity
  8
0
100
AcDbSpline
 62
7
  6
CONTINUOUS
 70
0
 71
3
 72
12
 73
8
 74
0
 42
0.0000001
 43
0.0000001
 44
0.0000000001
 40
0.0
 40
0.0
 40
0.0
 40
0.0
 40
0.2425574852
 40
0.4938888477
 40
0.6212578433
 40
0.7486317596
 40
1.0
 40
1.0
 40
1.0
 40
1.0
 10
-16.8201074491
 20
211.0204307554
 30
0.0
 10
-16.8830833219
 20
214.2174755516
 30
0.0
 10
-16.2766029941
 20
220.7564871046
 30
0.0
 10
-13.8983750576
 20
228.6482722377
 30
0.0
 10
-11.0823690875
 20
234.7068310176
 30
0.0
 10
-7.7042864704
 20
240.4684099678
 30
0.0
 10
-4.5654885193
 20
244.4053303959
 30
0.0
 10
-2.2474046283
 20
246.773426359
 30
0.0
  0
SPLINE
  5
385
100
AcDbEntity
  8
0
100
AcDbSpline
 62
7
  6
CONTINUOUS
 70
0
 71
3
 72
11
 73
7
 74
0
 42
0.0000001
 43
0.0000001
 44
0.0000000001
 40
0.0
 40
0.0
 40
0.0
 40
0.0
 40
0.2351186587
 40
0.479482629
 40
0.7344019751
 40
1.0
 40
1.0
 40
1.0
 40
1.0
 10
-9.463664723
 20
189.8899625149
 30
0.0
 10
-10.6228935842
 20
191.2487875633
 30
0.0
 10
-12.7098773011
 20
194.266953119
 30
0.0
 10
-14.9886248566
 20
199.3902040099
 30
0.0
 10
-16.4203514565
 20
205.0478296841
 30
0.0
 10
-16.7803709963
 20
209.00316265
 30
0.0
 10
-16.8201074491
 20
211.0204307554
 30
0.0
  0
SPLINE
  5
386
100
AcDbEntity
  8
0
100
AcDbSpline
 62
7
  6
CONTINUOUS
 70
0
 71
3
 72
17
 73
13
 74
0
 42
0.0000001
 43
0.0000001
 44
0.0000000001
 40
0.0
 40
0.0
 40
0.0
 40
0.0
 40
0.1232162235
 40
0.2533723289
 40
0.3874768065
 40
0.5217394965
 40
0.6523401892
 40
0.7761889116
 40
0.8351294685
 40
0.891953313
 40
0.946807855
 40
1.0
 40
1.0
 40
1.0
 40
1.0
 10
23.6908353031
 20
191.6259860257
 30
0.0
 10
25.8869702866
 20
192.5065776293
 30
0.0
 10
30.1753357856
 20
194.9204589246
 30
0.0
 10
35.7283728814
 20
199.9507247718
 30
0.0
 10
40.2727905378
 20
206.1726047695
 30
0.0
 10
43.5066526293
 20
213.1745415297
 30
0.0
 10
45.2174252153
 20
220.4946501871
 30
0.0
 10
45.2683929654
 20
226.575195718
 30
0.0
 10
44.4260593289
 20
231.1107377635
 30
0.0
 10
43.392815582
 20
234.2318440352
 30
0.0
 10
41.9646822427
 20
237.0702106012
 30
0.0
 10
40.7475205179
 20
238.7637528363
 30
0.0
 10
40.0839474444
 20
239.540292378
 30
0.0
  0
SPLINE
  5
387
100
AcDbEntity
  8
0
100
AcDbSpline
 62
7
  6
CONTINUOUS
 70
0
 71
3
 72
14
 73
10
 74
0
 42
0.0000001
 43
0.0000001
 44
0.0000000001
 40
0.0
 40
0.0
 40
0.0
 40
0.0
 40
0.2622991254
 40
0.3931837643
 40
0.5218008882
 40
0.6470978931
 40
0.768470162
 40
0.8859214785
 40
1.0
 40
1.0
 40
1.0
 40
1.0
 10
-41.1472832193
 20
259.1649515814
 30
0.0
 10
-41.318563398
 20
260.1246442357
 30
0.0
 10
-41.3310419242
 20
261.6215150206
 30
0.0
 10
-40.8692355713
 20
263.5113543253
 30
0.0
 10
-40.2974775611
 20
264.8306759739
 30
0.0
 10
-39.5205467883
 20
265.9982282835
 30
0.0
 10
-38.5666779058
 20
266.970526387
 30
0.0
 10
-37.4713094031
 20
267.7083130551
 30
0.0
 10
-36.6633211131
 20
268.0278840298
 30
0.0
 10
-36.2537961723
 20
268.1376594355
 30
0.0
  0
SPLINE
  5
388
100
AcDbEntity
  8
0
100
AcDbSpline
 62
7
  6
CONTINUOUS
 70
0
 71
3
 72
9
 73
5
 74
0
 42
0.0000001
 43
0.0000001
 44
0.0000000001
 40
0.0
 40
0.0
 40
0.0
 40
0.0
 40
0.2485309185
 40
1.0
 40
1.0
 40
1.0
 40
1.0
 10
-12.0364975143
 20
268.8450853549
 30
0.0
 10
-11.8519337431
 20
268.8945568535
 30
0.0
 10
-11.1033712749
 20
269.070935918
 30
0.0
 10
-10.3333530039
 20
269.1545544291
 30
0.0
 10
-9.7557247672
 20
269.1666641652
 30
0.0
  0
SPLINE
  5
389
100
AcDbEntity
  8
0
100
AcDbSpline
 62
7
  6
CONTINUOUS
 70
0
 71
3
 72
13
 73
9
 74
0
 42
0.0000001
 43
0.0000001
 44
0.0000000001
 40
0.0
 40
0.0
 40
0.0
 40
0.0
 40
0.1164150736
 40
0.234049218
 40
0.3539600012
 40
0.4769040233
 40
0.732288058
 40
1.0
 40
1.0
 40
1.0
 40
1.0
 10
-20.5128388141
 20
170.4743853544
 30
0.0
 10
-20.8574889108
 20
170.490593787
 30
0.0
 10
-21.5490602687
 20
170.5909471949
 30
0.0
 10
-22.5448363905
 20
170.9395969982
 30
0.0
 10
-23.475741356
 20
171.4762888708
 30
0.0
 10
-24.6095570428
 20
172.4328431654
 30
0.0
 10
-25.7344298846
 20
174.0252456024
 30
0.0
 10
-26.2194603941
 20
175.5235050298
 30
0.0
 10
-26.3588667881
 20
176.3046070426
 30
0.0
  0
SPLINE
  5
38A
100
AcDbEntity
  8
0
100
AcDbSpline
 62
7
  6
CONTINUOUS
 70
0
 71
3
 72
11
 73
7
 74
0
 42
0.0000001
 43
0.0000001
 44
0.0000000001
 40
0.0
 40
0.0
 40
0.0
 40
0.0
 40
0.2342429697
 40
0.4783622923
 40
0.7341736475
 40
1.0
 40
1.0
 40
1.0
 40
1.0
 10
-19.9732904102
 20
182.6153738763
 30
0.0
 10
-19.586473173
 20
182.5094450906
 30
0.0
 10
-18.8282222565
 20
182.1582684619
 30
0.0
 10
-17.8898944742
 20
181.2959648433
 30
0.0
 10
-17.1970989396
 20
180.165113504
 30
0.0
 10
-16.9347003411
 20
179.3002965876
 30
0.0
 10
-16.8547342295
 20
178.852241882
 30
0.0
  0
SPLINE
  5
38B
100
AcDbEntity
  8
0
100
AcDbSpline
 62
7
  6
CONTINUOUS
 70
0
 71
3
 72
11
 73
7
 74
0
 42
0.0000001
 43
0.0000001
 44
0.0000000001
 40
0.0
 40
0.0
 40
0.0
 40
0.0
 40
0.2323607738
 40
0.473124485
 40
0.7282307521
 40
1.0
 40
1.0
 40
1.0
 40
1.0
 10
17.7973825462
 20
183.1651122615
 30
0.0
 10
17.4936805773
 20
183.3404853208
 30
0.0
 10
16.9272563068
 20
183.7961428149
 30
0.0
 10
16.3012892918
 20
184.7165188181
 30
0.0
 10
15.9193609047
 20
185.8227586159
 30
0.0
 10
15.8395953635
 20
186.6213472655
 30
0.0
 10
15.8395953635
 20
187.0315262931
 30
0.0
  0
SPLINE
  5
38C
100
AcDbEntity
  8
0
100
AcDbSpline
 62
7
  6
CONTINUOUS
 70
0
 71
3
 72
12
 73
8
 74
0
 42
0.0000001
 43
0.0000001
 44
0.0000000001
 40
0.0
 40
0.0
 40
0.0
 40
0.0
 40
0.2628401161
 40
0.5219246848
 40
0.7679923073
 40
0.8856858454
 40
1.0
 40
1.0
 40
1.0
 40
1.0
 10
-31.643150661
 20
261.712586422
 30
0.0
 10
-31.5289630982
 20
261.0727869659
 30
0.0
 10
-31.5177628666
 20
259.7542952524
 30
0.0
 10
-32.1228778385
 20
257.9194147736
 30
0.0
 10
-33.1068613604
 20
256.6812749898
 30
0.0
 10
-34.0937346012
 20
256.0171410349
 30
0.0
 10
-34.6324560463
 20
255.8039655098
 30
0.0
 10
-34.905475359
 20
255.7307811861
 30
0.0
  0
SPLINE
  5
38D
100
AcDbEntity
  8
0
100
AcDbSpline
 62
7
  6
CONTINUOUS
 70
0
 71
3
 72
11
 73
7
 74
0
 42
0.0000001
 43
0.0000001
 44
0.0000000001
 40
0.0
 40
0.0
 40
0.0
 40
0.0
 40
0.2682595766
 40
0.5241619233
 40
0.7665488161
 40
1.0
 40
1.0
 40
1.0
 40
1.0
 10
-16.0515448329
 20
178.8144696305
 30
0.0
 10
-16.1444834398
 20
179.3352099704
 30
0.0
 10
-16.4683882978
 20
180.3344475266
 30
0.0
 10
-17.3540515159
 20
181.5898349234
 30
0.0
 10
-18.5517067319
 20
182.4467608201
 30
0.0
 10
-19.48907318
 20
182.6796595567
 30
0.0
 10
-19.9488966116
 20
182.701287712
 30
0.0
  0
SPLINE
  5
38E
100
AcDbEntity
  8
0
100
AcDbSpline
 62
7
  6
CONTINUOUS
 70
0
 71
3
 72
19
 73
15
 74
0
 42
0.0000001
 43
0.0000001
 44
0.0000000001
 40
0.0
 40
0.0
 40
0.0
 40
0.0
 40
0.0523977571
 40
0.1054386745
 40
0.1596995216
 40
0.215639366
 40
0.3333708274
 40
0.3955828213
 40
0.4597936797
 40
0.5928957757
 40
0.6611977683
 40
0.729992694
 40
0.8669130294
 40
1.0
 40
1.0
 40
1.0
 40
1.0
 10
4.793474009
 20
190.0694038631
 30
0.0
 10
3.8738450645
 20
190.6005337303
 30
0.0
 10
2.1124010931
 20
191.8325455768
 30
0.0
 10
-0.1955996113
 20
194.1224328894
 30
0.0
 10
-2.1387863473
 20
196.8185053513
 30
0.0
 10
-4.2329500446
 20
200.9533573585
 30
0.0
 10
-5.4186428677
 20
205.6573954794
 30
0.0
 10
-5.723051492
 20
210.6040622994
 30
0.0
 10
-5.4292662997
 20
215.8666025782
 30
0.0
 10
-4.2253607472
 20
221.1628714358
 30
0.0
 10
-2.2191618851
 20
226.2655708636
 30
0.0
 10
0.3219385971
 20
231.213433588
 30
0.0
 10
4.3505641755
 20
236.8311087838
 30
0.0
 10
8.4048338904
 20
240.5776154125
 30
0.0
 10
10.5792426315
 20
242.1737990122
 30
0.0
  0
SPLINE
  5
38F
100
AcDbEntity
  8
0
100
AcDbSpline
 62
7
  6
CONTINUOUS
 70
0
 71
3
 72
13
 73
9
 74
0
 42
0.0000001
 43
0.0000001
 44
0.0000000001
 40
0.0
 40
0.0
 40
0.0
 40
0.0
 40
0.1054228116
 40
0.2162092768
 40
0.3355568365
 40
0.4637520711
 40
0.7347891091
 40
1.0
 40
1.0
 40
1.0
 40
1.0
 10
19.0477718949
 20
185.3299832922
 30
0.0
 10
19.2616384711
 20
185.2064571483
 30
0.0
 10
19.7521077837
 20
185.0345077769
 30
0.0
 10
20.5516344613
 20
185.0468576691
 30
0.0
 10
21.3597164317
 20
185.3127464923
 30
0.0
 10
22.3872651586
 20
185.9809155599
 30
0.0
 10
23.3669800993
 20
187.2516828535
 30
0.0
 10
23.6908353031
 20
188.5147772452
 30
0.0
 10
23.6908353031
 20
189.1360942032
 30
0.0
  0
SPLINE
  5
390
100
AcDbEntity
  8
0
100
AcDbSpline
 62
7
  6
CONTINUOUS
 70
0
 71
3
 72
11
 73
7
 74
0
 42
0.0000001
 43
0.0000001
 44
0.0000000001
 40
0.0
 40
0.0
 40
0.0
 40
0.0
 40
0.2428150626
 40
0.4886753198
 40
0.7403772572
 40
1.0
 40
1.0
 40
1.0
 40
1.0
 10
6.0438630016
 20
192.2342741583
 30
0.0
 10
6.9035501553
 20
191.7377008196
 30
0.0
 10
8.7256029603
 20
190.8889339758
 30
0.0
 10
11.6626879363
 20
190.0996313078
 30
0.0
 10
14.7577019369
 20
189.8028066052
 30
0.0
 10
16.8537540483
 20
189.9330928036
 30
0.0
 10
17.9057111371
 20
190.075251775
 30
0.0
  0
SPLINE
  5
391
100
AcDbEntity
  8
0
100
AcDbSpline
 62
7
  6
CONTINUOUS
 70
0
 71
3
 72
12
 73
8
 74
0
 42
0.0000001
 43
0.0000001
 44
0.0000000001
 40
0.0
 40
0.0
 40
0.0
 40
0.0
 40
0.1143141546
 40
0.2320076927
 40
0.4780753152
 40
0.7371598839
 40
1.0
 40
1.0
 40
1.0
 40
1.0
 10
-34.1022859629
 20
255.693008936
 30
0.0
 10
-33.8292666501
 20
255.7661932596
 30
0.0
 10
-33.290545205
 20
255.9793687848
 30
0.0
 10
-32.3036719641
 20
256.6435027396
 30
0.0
 10
-31.3196884422
 20
257.8816425234
 30
0.0
 10
-30.7145734703
 20
259.7165230023
 30
0.0
 10
-30.7257737019
 20
261.0350147158
 30
0.0
 10
-30.8399612646
 20
261.6748141719
 30
0.0
  0
SPLINE
  5
392
100
AcDbEntity
  8
0
100
AcDbSpline
 62
7
  6
CONTINUOUS
 70
0
 71
3
 72
18
 73
14
 74
0
 42
0.0000001
 43
0.0000001
 44
0.0000000001
 40
0.0
 40
0.0
 40
0.0
 40
0.0
 40
0.1342377749
 40
0.2713291558
 40
0.3399366172
 40
0.4079463188
 40
0.5403919398
 40
0.6661513713
 40
0.7838752853
 40
0.8399431298
 40
0.8943706531
 40
0.9475626719
 40
1.0
 40
1.0
 40
1.0
 40
1.0
 10
7.7229712398
 20
241.4712635612
 30
0.0
 10
5.7380644232
 20
239.8209294311
 30
0.0
 10
2.0650113191
 20
236.0601584959
 30
0.0
 10
-1.5582768019
 20
230.5720117528
 30
0.0
 10
-3.8182686451
 20
225.8106051747
 30
0.0
 10
-5.5850712899
 20
220.9408697099
 30
0.0
 10
-6.8636890219
 20
214.7525407376
 30
0.0
 10
-6.8194335051
 20
207.4673963721
 30
0.0
 10
-5.4090480618
 20
201.809399306
 30
0.0
 10
-3.4815422133
 20
197.8519248635
 30
0.0
 10
-1.6985690408
 20
195.2429471999
 30
0.0
 10
0.4174477873
 20
192.9911340922
 30
0.0
 10
2.0359850924
 20
191.7463884529
 30
0.0
 10
2.883003052
 20
191.1992590438
 30
0.0
  0
SPLINE
  5
393
100
AcDbEntity
  8
0
100
AcDbSpline
 62
7
  6
CONTINUOUS
 70
0
 71
3
 72
11
 73
7
 74
0
 42
0.0000001
 43
0.0000001
 44
0.0000000001
 40
0.0
 40
0.0
 40
0.0
 40
0.0
 40
0.2343782593
 40
0.4782977068
 40
0.733392442
 40
1.0
 40
1.0
 40
1.0
 40
1.0
 10
-7.0982333151
 20
188.5237077153
 30
0.0
 10
-8.2252528099
 20
189.8640958118
 30
0.0
 10
-10.2449206702
 20
192.8460080124
 30
0.0
 10
-12.4128755914
 20
197.9101162751
 30
0.0
 10
-13.7258939827
 20
203.5045505212
 30
0.0
 10
-14.0054137291
 20
207.4101823326
 30
0.0
 10
-14.0054137291
 20
209.4022257224
 30
0.0
  0
SPLINE
  5
394
100
AcDbEntity
  8
0
100
AcDbSpline
 62
7
  6
CONTINUOUS
 70
0
 71
3
 72
11
 73
7
 74
0
 42
0.0000001
 43
0.0000001
 44
0.0000000001
 40
0.0
 40
0.0
 40
0.0
 40
0.0
 40
0.2412517249
 40
0.4924263834
 40
0.7475629121
 40
1.0
 40
1.0
 40
1.0
 40
1.0
 10
-14.0054137291
 20
209.4022257224
 30
0.0
 10
-14.0054137291
 20
212.6093027774
 30
0.0
 10
-13.2499968976
 20
219.1707891983
 30
0.0
 10
-10.1428696964
 20
228.6727851572
 30
0.0
 10
-5.2299656273
 20
237.5476836692
 30
0.0
 10
-0.8778374308
 20
242.7692617782
 30
0.0
 10
1.518964961
 20
245.1179907051
 30
0.0
  0
ELLIPSE
  5
395
100
AcDbEntity
  8
0
100
AcDbEllipse
 62
7
  6
CONTINUOUS
 10
35.7595073304
 20
249.1399435004
 30
0.0
 11
44.9524959861
 21
20.133630804
 31
0.0
 40
0.0855556505
 41
-1.8749896831
 42
-1.8589718013
  0
ELLIPSE
  5
396
100
AcDbEntity
  8
0
100
AcDbEllipse
 62
7
  6
CONTINUOUS
 10
4.3044592361
 20
227.3059553465
 30
0.0
 11
-0.3871289045
 21
33.5557073063
 31
0.0
 40
0.8071250907
 41
1.0063374982
 42
2.2598766912
  0
ELLIPSE
  5
397
100
AcDbEntity
  8
0
100
AcDbEllipse
 62
7
  6
CONTINUOUS
 10
-20.9191298082
 20
177.3644857425
 30
0.0
 11
-0.0199613341
 21
1.730216158
 31
0.0
 40
0.8071250907
 41
0.0
 42
6.2831853072
  0
ELLIPSE
  5
398
100
AcDbEntity
  8
0
100
AcDbEllipse
 62
7
  6
CONTINUOUS
 10
42.7172360176
 20
194.4225624999
 30
0.0
 11
-0.0189843569
 21
1.6455333516
 31
0.0
 40
0.8071250907
 41
0.0
 42
6.2831853072
  0
ELLIPSE
  5
399
100
AcDbEntity
  8
0
100
AcDbEllipse
 62
7
  6
CONTINUOUS
 10
-35.7075462395
 20
260.2248302816
 30
0.0
 11
-0.0199613341
 21
1.730216158
 31
0.0
 40
0.8071250907
 41
0.0
 42
6.2831853072
  0
ELLIPSE
  5
39A
100
AcDbEntity
  8
0
100
AcDbEllipse
 62
7
  6
CONTINUOUS
 10
-36.8236894622
 20
258.8107899459
 30
0.0
 11
-0.3024444566
 21
26.2153963331
 31
0.0
 40
0.8071250907
 41
-2.1352551554
 42
-1.367250466
  0
ENDSEC
  0
SECTION
  2
OBJECTS
  0
DICTIONARY
  5
C
100
AcDbDictionary
280
0
281
1
  3
ACAD_GROUP
350
D
  3
ACAD_MLINESTYLE
350
17
  3
ACAD_LAYOUT
350
1A
  3
ACAD_PLOTSETTINGS
350
19
  3
ACAD_PLOTSTYLENAME
350
E
  0
DICTIONARY
  5
D
102
{ACAD_REACTORS
330
C
102
}
100
AcDbDictionary
280
0
281
1
  0
ACDBDICTIONARYWDFLT
  5
E
102
{ACAD_REACTORS
330
C
102
}
100
AcDbDictionary
281
1
  3
Normal
350
F
100
AcDbDictionaryWithDefault
340
F
  0
DICTIONARY
  5
17
102
{ACAD_REACTORS
330
C
102
}
100
AcDbDictionary
280
0
281
1
  3
Standard
350
18
  0
DICTIONARY
  5
19
102
{ACAD_REACTORS
330
C
102
}
100
AcDbDictionary
281
1
  0
DICTIONARY
  5
1A
102
{ACAD_REACTORS
330
C
102
}
100
AcDbDictionary
281
1
  3
Model
350
39B
  3
Layout1
350
39C
  0
ACDBPLACEHOLDER
  5
F
102
{ACAD_REACTORS
330
E
102
}
  0
MLINESTYLE
  5
18
102
{ACAD_REACTORS
330
17
102
}
100
AcDbMlineStyle
  2
STANDARD
 70
0
  3

 62
256
 51
90.0
 52
90.0
 71
2
 49
0.5
 62
256
  6
BYLAYER
 49
-0.5
 62
256
  6
BYLAYER
  0
LAYOUT
  5
39B
102
{ACAD_REACTORS
330
1A
102
}
100
AcDbPlotSettings
  1

  2
none_device
  4
ANSI_C_(22.00_x_17.00_Inches)
  6

 40
0.0
 41
0.0
 42
0.0
 43
0.0
 44
558.8
 45
431.8
 46
0.0
 47
0.0
 48
0.0
 49
0.0
140
0.0
141
0.0
142
1.0
143
1.0
 70
1024
 72
1
 73
0
 74
0
  7

 75
0
147
1.0
148
0.0
149
0.0
100
AcDbLayout
  1
Model
 70
0
 71
0
 10
0.0
 20
0.0
 11
558.8
 21
431.8
 12
0.0
 22
0.0
 32
0.0
 14
0.0
 24
0.0
 34
0.0
 15
0.0
 25
0.0
 35
0.0
146
0.0
 13
0.0
 23
0.0
 33
0.0
 16
1.0
 26
0.0
 36
0.0
 17
0.0
 27
1.0
 37
0.0
 76
0
330
216
345
0
346
0
  0
LAYOUT
  5
39C
102
{ACAD_REACTORS
330
1A
102
}
100
AcDbPlotSettings
  1

  2
none_device
  4
ANSI_C_(22.00_x_17.00_Inches)
  6

 40
0.0
 41
0.0
 42
0.0
 43
0.0
 44
558.8
 45
431.8
 46
0.0
 47
0.0
 48
0.0
 49
0.0
140
0.0
141
0.0
142
1.0
143
1.0
 70
0
 72
1
 73
0
 74
0
  7

 75
0
147
1.0
148
0.0
149
0.0
100
AcDbLayout
  1
Layout1
 70
0
 71
1
 10
0.0
 20
0.0
 11
558.8
 21
431.8
 12
0.0
 22
0.0
 32
0.0
 14
0.0
 24
0.0
 34
0.0
 15
0.0
 25
0.0
 35
0.0
146
0.0
 13
0.0
 23
0.0
 33
0.0
 16
1.0
 26
0.0
 36
0.0
 17
0.0
 27
1.0
 37
0.0
 76
0
330
217
345
0
346
0
  0
ENDSEC
  0
EOF
