999
DXF file: Y:\3D PRATIKA-KAEDRA_OLGA\TRAVAIL_PHASE_5\CAD3D\PKF32F735_3D-Simplified\PKF32F735_2D-isometric.dxf
999
Pro/ENGINEER 2018260 by Parametric Technology Corporation
  0
SECTION
  2
HEADER
  9
$ACADVER
  1
AC1027
  9
$DWGCODEPAGE
  3
ANSI_1252
  9
$EXTMAX
 10
558.8
 20
431.8
 30
0.0
  9
$EXTMIN
 10
0.0
 20
0.0
 30
0.0
  9
$LIMMIN
 10
0.0
 20
0.0
  9
$LIMMAX
 10
558.8
 20
431.8
  9
$VIEWCTR
 10
279.4
 20
215.9
  9
$VIEWSIZE
 40
431.8
  9
$CLAYER
  8
0
  9
$LTSCALE
 40
30.734
  9
$CELTYPE
  6
BYLAYER
  9
$DIMSCALE
 40
1.0
  9
$DIMASZ
 40
0.1875
  9
$DIMEXO
 40
0.0625
  9
$DIMDLI
 40
21.2344
  9
$DIMEXE
 40
0.125
  9
$DIMCEN
 40
5.0292
  9
$DIMLFAC
 40
1.0
  9
$DIMBLK
  1
_CLOSED
  9
$DIMALT
 70
0
  9
$DIMALTF
 40
0.0393700787
  9
$DIMTXT
 40
0.15625
  9
$DIMTOL
 70
0
  9
$DIMLIM
 70
0
  9
$DIMTFAC
 40
1.0
  9
$DIMGAP
 40
0.625
  9
$DIMDSEP
 70
46
  9
$AUNITS
 70
0
  9
$PDMODE
 70
3
  9
$PDSIZE
 40
0.3125
  9
$HANDSEED
  5
3BA
  9
$TILEMODE
 70
1
  9
$MEASUREMENT
 70
1
  9
$INSUNITS
 70
4
  0
ENDSEC
  0
SECTION
  2
CLASSES
  0
CLASS
  1
ACDBDICTIONARYWDFLT
  2
AcDbDictionaryWithDefault
  3
AutoCAD 2000
 90
0
 91
1
280
0
281
0
  0
CLASS
  1
ACDBPLACEHOLDER
  2
AcDbPlaceHolder
  3
AutoCAD 2000
 90
0
 91
1
280
0
281
0
  0
CLASS
  1
LAYOUT
  2
AcDbLayout
  3
AutoCAD 2000
 90
0
 91
0
280
0
281
0
  0
ENDSEC
  0
SECTION
  2
TABLES
  0
TABLE
  2
VPORT
  5
8
100
AcDbSymbolTable
 70
2
  0
VPORT
  5
1F4
100
AcDbSymbolTableRecord
100
AcDbViewportTableRecord
  2
*ACTIVE
 70
0
 10
0.0
 20
0.0
 11
1.0
 21
1.0
 12
279.4
 22
215.9
 13
0.0
 23
0.0
 14
1.0
 24
1.0
 15
0.0
 25
0.0
 16
0.0
 26
0.0
 36
1.0
 17
0.0
 27
0.0
 37
0.0
 40
431.8
 41
1.2941176471
 42
50.0
 43
0.0
 44
0.0
 50
0.0
 51
0.0
 71
0
 72
100
 73
1
 74
1
 75
0
 76
0
 77
0
 78
0
  0
ENDTAB
  0
TABLE
  2
LTYPE
  5
5
100
AcDbSymbolTable
 70
6
  0
LTYPE
  5
14
100
AcDbSymbolTableRecord
100
AcDbLinetypeTableRecord
  2
BYBLOCK
 70
0
  3

 72
65
 73
0
 40
0.0
  0
LTYPE
  5
15
100
AcDbSymbolTableRecord
100
AcDbLinetypeTableRecord
  2
BYLAYER
 70
0
  3

 72
65
 73
0
 40
0.0
  0
LTYPE
  5
16
100
AcDbSymbolTableRecord
100
AcDbLinetypeTableRecord
  2
CONTINUOUS
 70
64
  3
Solid line
 72
65
 73
0
 40
0.0
  0
LTYPE
  5
1F5
100
AcDbSymbolTableRecord
100
AcDbLinetypeTableRecord
  2
CENTER
 70
64
  3
____ _ ____ _ ____ _ ____ _ ____ _ ____ _ ____
 72
65
 73
4
 40
0.6
 49
0.375
 74
0
 49
-0.075
 74
0
 49
0.075
 74
0
 49
-0.075
 74
0
  0
LTYPE
  5
1F6
100
AcDbSymbolTableRecord
100
AcDbLinetypeTableRecord
  2
HIDDEN
 70
64
  3
- - - - - - - - - - - - - - - - - - - -
 72
65
 73
2
 40
0.2
 49
0.1
 74
0
 49
-0.1
 74
0
  0
LTYPE
  5
1F7
100
AcDbSymbolTableRecord
100
AcDbLinetypeTableRecord
  2
PHANTOM
 70
64
  3
_____ _ _ _____ _ _ _____ _ _ _____
 72
65
 73
6
 40
0.8
 49
0.45
 74
0
 49
-0.05
 74
0
 49
0.1
 74
0
 49
-0.05
 74
0
 49
0.1
 74
0
 49
-0.05
 74
0
  0
LTYPE
  5
1F8
100
AcDbSymbolTableRecord
100
AcDbLinetypeTableRecord
  2
DOT
 70
64
  3
. . . . . . . . . . . . . . . . . . . .
 72
65
 73
2
 40
0.2
 49
0.1
 74
0
 49
-0.1
 74
0
  0
LTYPE
  5
1F9
100
AcDbSymbolTableRecord
100
AcDbLinetypeTableRecord
  2
DASHED
 70
64
  3
- - - - - - - - - - - - - - - - - - - -
 72
65
 73
2
 40
0.2
 49
0.1
 74
0
 49
-0.1
 74
0
  0
ENDTAB
  0
TABLE
  2
LAYER
  5
2
100
AcDbSymbolTable
 70
36
  0
LAYER
  5
10
100
AcDbSymbolTableRecord
100
AcDbLayerTableRecord
  2
0
 70
0
 62
7
  6
CONTINUOUS
370
-3
390
F
  0
LAYER
  5
1FA
100
AcDbSymbolTableRecord
100
AcDbLayerTableRecord
  2
DEFAULT_1
 70
0
 62
7
  6
CENTER
370
-3
390
F
  0
LAYER
  5
1FB
100
AcDbSymbolTableRecord
100
AcDbLayerTableRecord
  2
DEFAULT_2
 70
0
 62
8
  6
HIDDEN
370
-3
390
F
  0
LAYER
  5
1FC
100
AcDbSymbolTableRecord
100
AcDbLayerTableRecord
  2
DEFAULT_3
 70
0
 62
7
  6
PHANTOM
370
-3
390
F
  0
LAYER
  5
1FD
100
AcDbSymbolTableRecord
100
AcDbLayerTableRecord
  2
01_ALL_DTM_PLN
 70
0
 62
7
  6
CONTINUOUS
370
-3
390
F
  0
LAYER
  5
1FE
100
AcDbSymbolTableRecord
100
AcDbLayerTableRecord
  2
01__ASM_ALL_DTM_PLN
 70
0
 62
7
  6
CONTINUOUS
370
-3
390
F
  0
LAYER
  5
1FF
100
AcDbSymbolTableRecord
100
AcDbLayerTableRecord
  2
01__ASM_DEF_DTM_PLN
 70
0
 62
7
  6
CONTINUOUS
370
-3
390
F
  0
LAYER
  5
200
100
AcDbSymbolTableRecord
100
AcDbLayerTableRecord
  2
01___PRT_ALL_DTM_PLN
 70
0
 62
7
  6
CONTINUOUS
370
-3
390
F
  0
LAYER
  5
201
100
AcDbSymbolTableRecord
100
AcDbLayerTableRecord
  2
01___PRT_DEF_DTM_PLN
 70
0
 62
7
  6
CONTINUOUS
370
-3
390
F
  0
LAYER
  5
202
100
AcDbSymbolTableRecord
100
AcDbLayerTableRecord
  2
02_ALL_AXES
 70
0
 62
7
  6
CONTINUOUS
370
-3
390
F
  0
LAYER
  5
203
100
AcDbSymbolTableRecord
100
AcDbLayerTableRecord
  2
02__ASM_ALL_AXES
 70
0
 62
7
  6
CONTINUOUS
370
-3
390
F
  0
LAYER
  5
204
100
AcDbSymbolTableRecord
100
AcDbLayerTableRecord
  2
02___PRT_ALL_AXES
 70
0
 62
7
  6
CONTINUOUS
370
-3
390
F
  0
LAYER
  5
205
100
AcDbSymbolTableRecord
100
AcDbLayerTableRecord
  2
03_ALL_CURVES
 70
0
 62
7
  6
CONTINUOUS
370
-3
390
F
  0
LAYER
  5
206
100
AcDbSymbolTableRecord
100
AcDbLayerTableRecord
  2
03__ASM_ALL_CURVES
 70
0
 62
7
  6
CONTINUOUS
370
-3
390
F
  0
LAYER
  5
207
100
AcDbSymbolTableRecord
100
AcDbLayerTableRecord
  2
03___PRT_ALL_CURVES
 70
0
 62
7
  6
CONTINUOUS
370
-3
390
F
  0
LAYER
  5
208
100
AcDbSymbolTableRecord
100
AcDbLayerTableRecord
  2
04_ALL_DTM_PNT
 70
0
 62
7
  6
CONTINUOUS
370
-3
390
F
  0
LAYER
  5
209
100
AcDbSymbolTableRecord
100
AcDbLayerTableRecord
  2
04__ASM_ALL_DTM_PNT
 70
0
 62
7
  6
CONTINUOUS
370
-3
390
F
  0
LAYER
  5
20A
100
AcDbSymbolTableRecord
100
AcDbLayerTableRecord
  2
04___PRT_ALL_DTM_PNT
 70
0
 62
7
  6
CONTINUOUS
370
-3
390
F
  0
LAYER
  5
20B
100
AcDbSymbolTableRecord
100
AcDbLayerTableRecord
  2
05_ALL_DTM_CSYS
 70
0
 62
7
  6
CONTINUOUS
370
-3
390
F
  0
LAYER
  5
20C
100
AcDbSymbolTableRecord
100
AcDbLayerTableRecord
  2
05__ASM_ALL_DTM_CSYS
 70
0
 62
7
  6
CONTINUOUS
370
-3
390
F
  0
LAYER
  5
20D
100
AcDbSymbolTableRecord
100
AcDbLayerTableRecord
  2
05__ASM_DEF_DTM_CSYS
 70
0
 62
7
  6
CONTINUOUS
370
-3
390
F
  0
LAYER
  5
20E
100
AcDbSymbolTableRecord
100
AcDbLayerTableRecord
  2
05___PRT_ALL_DTM_CSYS
 70
0
 62
7
  6
CONTINUOUS
370
-3
390
F
  0
LAYER
  5
20F
100
AcDbSymbolTableRecord
100
AcDbLayerTableRecord
  2
05___PRT_DEF_DTM_CSYS
 70
0
 62
7
  6
CONTINUOUS
370
-3
390
F
  0
LAYER
  5
210
100
AcDbSymbolTableRecord
100
AcDbLayerTableRecord
  2
06_ALL_SURFS
 70
0
 62
7
  6
CONTINUOUS
370
-3
390
F
  0
LAYER
  5
211
100
AcDbSymbolTableRecord
100
AcDbLayerTableRecord
  2
06__ASM_ALL_SURFS
 70
0
 62
7
  6
CONTINUOUS
370
-3
390
F
  0
LAYER
  5
212
100
AcDbSymbolTableRecord
100
AcDbLayerTableRecord
  2
06___PRT_ALL_SURFS
 70
0
 62
7
  6
CONTINUOUS
370
-3
390
F
  0
LAYER
  5
213
100
AcDbSymbolTableRecord
100
AcDbLayerTableRecord
  2
07__ASM_ALL_SKELETONS
 70
0
 62
7
  6
CONTINUOUS
370
-3
390
F
  0
ENDTAB
  0
TABLE
  2
STYLE
  5
3
100
AcDbSymbolTable
 70
1
  0
STYLE
  5
11
100
AcDbSymbolTableRecord
100
AcDbTextStyleTableRecord
  2
STANDARD
 70
0
 40
0.0
 41
0.8
 50
0.0
 71
0
 42
0.2
  3
txt
  4

  0
STYLE
  5
214
100
AcDbSymbolTableRecord
100
AcDbTextStyleTableRecord
  2
TEXTSTYLE_1
 70
0
 40
0.0
 41
0.8
 50
0.0
 71
0
 42
0.2
  3
gdt
  4

  0
ENDTAB
  0
TABLE
  2
VIEW
  5
6
100
AcDbSymbolTable
 70
0
  0
ENDTAB
  0
TABLE
  2
UCS
  5
7
100
AcDbSymbolTable
 70
0
  0
ENDTAB
  0
TABLE
  2
APPID
  5
9
100
AcDbSymbolTable
 70
1
  0
APPID
  5
215
100
AcDbSymbolTableRecord
100
AcDbRegAppTableRecord
  2
ACAD
 70
0
  0
ENDTAB
  0
TABLE
  2
BLOCK_RECORD
  5
1
100
AcDbSymbolTable
 70
0
  0
BLOCK_RECORD
  5
216
100
AcDbSymbolTableRecord
100
AcDbBlockTableRecord
  2
*Model_Space
  0
BLOCK_RECORD
  5
217
100
AcDbSymbolTableRecord
100
AcDbBlockTableRecord
  2
*Paper_Space
  0
BLOCK_RECORD
  5
218
100
AcDbSymbolTableRecord
100
AcDbBlockTableRecord
  2
_CLOSED
  0
ENDTAB
  0
TABLE
  2
DIMSTYLE
  5
A
100
AcDbSymbolTable
 70
1
100
AcDbDimStyleTable
 71
0
  0
DIMSTYLE
105
219
100
AcDbSymbolTableRecord
100
AcDbDimStyleTableRecord
  2
STANDARD
 70
0
  3

  4

 40
1.0
 41
0.1875
 42
0.0625
 43
0.38
 44
0.125
 45
0.0
 46
0.0
 47
0.01
 48
0.01
140
0.15625
141
0.09
142
0.0
143
25.4
144
1.0
145
0.0
146
1.0
147
0.625
 71
0.0
 72
0.0
 73
1
 74
1
 75
0
 76
0
 77
0
 78
8
 79
2
170
0
171
1
172
0
173
0
174
0
175
0
176
0
177
0
178
0
270
2
179
2
271
2
272
2
273
2
274
2
275
0
280
0
281
0
282
0
283
1
284
8
285
0
286
0
287
3
288
0
340
11
278
46
341
218
342
218
343
218
344
218
  0
ENDTAB
  0
ENDSEC
  0
SECTION
  2
BLOCKS
  0
BLOCK
  5
20
100
AcDbEntity
  8
0
100
AcDbBlockBegin
  2
*Model_Space
 70
0
 10
0.0
 20
0.0
 30
0.0
  3
*Model_Space
  1

  0
ENDBLK
  5
21
100
AcDbEntity
  8
0
100
AcDbBlockEnd
  0
BLOCK
  5
1C
100
AcDbEntity
  8
0
100
AcDbBlockBegin
  2
*Paper_Space
 70
0
 10
0.0
 20
0.0
 30
0.0
  3
*Paper_Space
  1

  0
ENDBLK
  5
1D
100
AcDbEntity
  8
0
100
AcDbBlockEnd
  0
BLOCK
  5
21A
100
AcDbEntity
  8
0
100
AcDbBlockBegin
  2
_CLOSED
 70
64
 10
0.0
 20
0.0
  3
_CLOSED
  1

  0
LINE
  5
21B
100
AcDbEntity
  8
0
  6
BYBLOCK
 62
0
100
AcDbLine
 10
0.0
 20
0.0
 11
-1.0
 21
0.1666666667
  0
LINE
  5
21C
100
AcDbEntity
  8
0
  6
BYBLOCK
 62
0
100
AcDbLine
 10
-1.0
 20
0.1666666667
 11
-1.0
 21
-0.1666666667
  0
LINE
  5
21D
100
AcDbEntity
  8
0
  6
BYBLOCK
 62
0
100
AcDbLine
 10
-1.0
 20
-0.1666666667
 11
0.0
 21
0.0
  0
LINE
  5
21E
100
AcDbEntity
  8
0
  6
BYBLOCK
 62
0
100
AcDbLine
 10
-1.0
 20
0.0
 11
0.0
 21
0.0
  0
ENDBLK
  5
21F
100
AcDbEntity
  8
0
  6
BYBLOCK
 62
0
100
AcDbBlockEnd
  0
ENDSEC
  0
SECTION
  2
ENTITIES
  0
LWPOLYLINE
  5
220
100
AcDbEntity
  8
0
100
AcDbPolyline
 62
7
  6
CONTINUOUS
 90
4
 70
0
 10
-25.6597555742
 20
286.6968610015
 10
-25.6924383125
 20
286.6849892857
 10
-26.7175822011
 20
285.6292351423
 10
-27.3271746887
 20
284.0190324586
  0
LWPOLYLINE
  5
221
100
AcDbEntity
  8
0
100
AcDbPolyline
 62
7
  6
CONTINUOUS
 90
5
 70
0
 10
-28.6851901542
 20
272.3710313428
 10
-29.4905039217
 20
272.0577423805
 10
-30.5857102503
 20
271.0812763235
 10
-31.1971713625
 20
269.5330437585
 10
-31.2867430305
 20
268.579962003
  0
LINE
  5
222
100
AcDbEntity
  8
0
100
AcDbLine
 62
7
  6
CONTINUOUS
 10
-24.4776593501
 20
264.0625414468
 11
-24.9095818645
 21
263.8030826838
  0
LINE
  5
223
100
AcDbEntity
  8
0
100
AcDbLine
 62
7
  6
CONTINUOUS
 10
-24.6209275006
 20
263.383697699
 11
-24.6585917083
 21
263.3622472297
  0
LINE
  5
224
100
AcDbEntity
  8
0
100
AcDbLine
 62
7
  6
CONTINUOUS
 10
-24.6400674194
 20
263.3958508501
 11
-24.6780436572
 21
263.3745737813
  0
LINE
  5
225
100
AcDbEntity
  8
0
100
AcDbLine
 62
7
  6
CONTINUOUS
 10
23.4117916325
 20
193.5002461126
 11
18.2326747609
 21
192.1119554397
  0
LINE
  5
226
100
AcDbEntity
  8
0
100
AcDbLine
 62
7
  6
CONTINUOUS
 10
-0.416300956
 20
187.1129952525
 11
-31.9601110991
 21
178.657503999
  0
LINE
  5
227
100
AcDbEntity
  8
0
100
AcDbLine
 62
7
  6
CONTINUOUS
 10
-40.4035632969
 20
177.7545365929
 11
-37.7262653092
 21
177.6286290925
  0
LINE
  5
228
100
AcDbEntity
  8
0
100
AcDbLine
 62
7
  6
CONTINUOUS
 10
-24.9096357235
 20
263.8030475575
 11
-26.7923096996
 21
262.364589795
  0
LINE
  5
229
100
AcDbEntity
  8
0
100
AcDbLine
 62
7
  6
CONTINUOUS
 10
25.9143874738
 20
194.4241522202
 11
23.3686871
 21
193.7417632778
  0
LINE
  5
22A
100
AcDbEntity
  8
0
100
AcDbLine
 62
7
  6
CONTINUOUS
 10
-32.7633004954
 20
178.6952762491
 11
-36.069085733
 21
177.8091423916
  0
LINE
  5
22B
100
AcDbEntity
  8
0
100
AcDbLine
 62
7
  6
CONTINUOUS
 10
-32.7633004954
 20
178.6952762491
 11
-31.9601110991
 21
178.657503999
  0
LINE
  5
22C
100
AcDbEntity
  8
0
100
AcDbLine
 62
7
  6
CONTINUOUS
 10
-46.2495913149
 20
183.5847557802
 11
-43.5722933272
 21
183.4588482798
  0
LINE
  5
22D
100
AcDbEntity
  8
0
100
AcDbLine
 62
7
  6
CONTINUOUS
 10
-33.2649713724
 20
185.9687108701
 11
-34.0681607688
 21
186.0064831202
  0
LINE
  5
22E
100
AcDbEntity
  8
0
100
AcDbLine
 62
7
  6
CONTINUOUS
 10
-44.4422001761
 20
188.3329861939
 11
-43.6390107797
 21
188.2952139438
  0
LINE
  5
22F
100
AcDbEntity
  8
0
100
AcDbLine
 62
7
  6
CONTINUOUS
 10
-26.7923096996
 20
262.364589795
 11
-28.3136631859
 21
260.4816346528
  0
LINE
  5
230
100
AcDbEntity
  8
0
100
AcDbLine
 62
7
  6
CONTINUOUS
 10
-18.282552026
 20
253.9328843029
 11
-18.3409643052
 21
253.8866126053
  0
LINE
  5
231
100
AcDbEntity
  8
0
100
AcDbLine
 62
7
  6
CONTINUOUS
 10
-15.8525686353
 20
195.4196942626
 11
-26.0116883526
 21
192.6964777014
  0
LINE
  5
232
100
AcDbEntity
  8
0
100
AcDbLine
 62
7
  6
CONTINUOUS
 10
-38.2671097685
 20
189.7351814622
 11
-43.6390107797
 21
188.2952139438
  0
LINE
  5
233
100
AcDbEntity
  8
0
100
AcDbLine
 62
7
  6
CONTINUOUS
 10
-27.1261370431
 20
283.9456387712
 11
-27.1317384562
 21
283.9301549689
  0
LINE
  5
234
100
AcDbEntity
  8
0
100
AcDbLine
 62
7
  6
CONTINUOUS
 10
-27.2327311812
 20
283.9864470974
 11
-27.2385970854
 21
283.9710276316
  0
LINE
  5
235
100
AcDbEntity
  8
0
100
AcDbLine
 62
7
  6
CONTINUOUS
 10
-18.2879511625
 20
253.9351545066
 11
-18.3409643052
 21
253.8866126053
  0
LINE
  5
236
100
AcDbEntity
  8
0
100
AcDbLine
 62
7
  6
CONTINUOUS
 10
-26.0116809604
 20
192.6965049952
 11
-28.3836640011
 21
194.0665415431
  0
LINE
  5
237
100
AcDbEntity
  8
0
100
AcDbLine
 62
7
  6
CONTINUOUS
 10
-61.0380077461
 20
266.4451003191
 11
-46.2495913149
 21
183.5847557802
  0
LINE
  5
238
100
AcDbEntity
  8
0
100
AcDbLine
 62
7
  6
CONTINUOUS
 10
-43.5722933272
 20
183.4588482798
 11
-44.4422001761
 21
188.3329861939
  0
LINE
  5
239
100
AcDbEntity
  8
0
100
AcDbLine
 62
7
  6
CONTINUOUS
 10
-57.4908029095
 20
261.4450549049
 11
-58.3607097584
 21
266.3191928189
  0
LINE
  5
23A
100
AcDbEntity
  8
0
100
AcDbLine
 62
7
  6
CONTINUOUS
 10
-43.6390107797
 20
188.2952139438
 11
-56.6876135132
 21
261.4072826547
  0
LINE
  5
23B
100
AcDbEntity
  8
0
100
AcDbLine
 62
7
  6
CONTINUOUS
 10
-57.0205448546
 20
239.2481974153
 11
-56.8398796539
 21
237.9087359856
  0
LINE
  5
23C
100
AcDbEntity
  8
0
100
AcDbLine
 62
7
  6
CONTINUOUS
 10
-27.3306235539
 20
284.0021035485
 11
-27.3650933031
 21
283.8186225941
  0
LINE
  5
23D
100
AcDbEntity
  8
0
100
AcDbLine
 62
7
  6
CONTINUOUS
 10
-27.3272947812
 20
284.0184095002
 11
-27.3306235539
 21
284.0021035485
  0
LINE
  5
23E
100
AcDbEntity
  8
0
100
AcDbLine
 62
7
  6
CONTINUOUS
 10
-27.7499720363
 20
282.2212755732
 11
-27.7499980756
 21
282.2211499401
  0
LINE
  5
23F
100
AcDbEntity
  8
0
100
AcDbLine
 62
7
  6
CONTINUOUS
 10
-18.3050085395
 20
253.9612328661
 11
-18.3409643173
 21
253.8866120321
  0
LINE
  5
240
100
AcDbEntity
  8
0
100
AcDbLine
 62
7
  6
CONTINUOUS
 10
50.4325914721
 20
277.2242896634
 11
50.4654031281
 21
277.245698712
  0
LINE
  5
241
100
AcDbEntity
  8
0
100
AcDbLine
 62
7
  6
CONTINUOUS
 10
-0.428096739
 20
186.4653470832
 11
3.1199448073
 21
184.4168202718
  0
LINE
  5
242
100
AcDbEntity
  8
0
100
AcDbLine
 62
7
  6
CONTINUOUS
 10
-15.9370193356
 20
195.3970567161
 11
-13.3843158332
 21
193.9226625811
  0
LINE
  5
243
100
AcDbEntity
  8
0
100
AcDbLine
 62
7
  6
CONTINUOUS
 10
-7.6706259064
 20
191.7645345725
 11
1.245075168
 21
186.6149912118
  0
LINE
  5
244
100
AcDbEntity
  8
0
100
AcDbLine
 62
7
  6
CONTINUOUS
 10
-1.9514012077
 20
191.196872391
 11
-0.7127019704
 21
190.4814227165
  0
LINE
  5
245
100
AcDbEntity
  8
0
100
AcDbLine
 62
7
  6
CONTINUOUS
 10
-50.1614374734
 20
276.1780345304
 11
-48.8565772
 21
268.8668276593
  0
LINE
  5
246
100
AcDbEntity
  8
0
100
AcDbLine
 62
7
  6
CONTINUOUS
 10
-34.0681607688
 20
186.0064831202
 11
-32.7633004954
 21
178.6952762491
  0
LINE
  5
247
100
AcDbEntity
  8
0
100
AcDbLine
 62
7
  6
CONTINUOUS
 10
-33.2649713724
 20
185.9687108701
 11
-31.9601110991
 21
178.657503999
  0
LINE
  5
248
100
AcDbEntity
  8
0
100
AcDbLine
 62
7
  6
CONTINUOUS
 10
-48.0533878037
 20
268.8290554092
 11
-49.3582480771
 21
276.1402622803
  0
LINE
  5
249
100
AcDbEntity
  8
0
100
AcDbLine
 62
7
  6
CONTINUOUS
 10
-31.2867543883
 20
268.5792517642
 11
-31.2993046187
 21
267.1490948102
  0
LINE
  5
24A
100
AcDbEntity
  8
0
100
AcDbLine
 62
7
  6
CONTINUOUS
 10
-31.2867543883
 20
268.5792517642
 11
-31.2867573192
 21
268.579085697
  0
LINE
  5
24B
100
AcDbEntity
  8
0
100
AcDbLine
 62
7
  6
CONTINUOUS
 10
50.4325914721
 20
277.2242896634
 11
50.4615504585
 21
277.2466110611
  0
LINE
  5
24C
100
AcDbEntity
  8
0
100
AcDbLine
 62
7
  6
CONTINUOUS
 10
-20.6534484136
 20
206.677779626
 11
1.3534138032
 21
193.9670247146
  0
LINE
  5
24D
100
AcDbEntity
  8
0
100
AcDbLine
 62
7
  6
CONTINUOUS
 10
-8.8829396163
 20
201.7161545398
 11
-21.4060535866
 21
208.9492725934
  0
LINE
  5
24E
100
AcDbEntity
  8
0
100
AcDbLine
 62
7
  6
CONTINUOUS
 10
-7.5646842898
 20
201.0782987387
 11
7.1385379692
 21
192.5859906258
  0
LINE
  5
24F
100
AcDbEntity
  8
0
100
AcDbLine
 62
7
  6
CONTINUOUS
 10
7.1385379692
 20
195.5177589653
 11
-0.1051080554
 21
199.7015543822
  0
LINE
  5
250
100
AcDbEntity
  8
0
100
AcDbLine
 62
7
  6
CONTINUOUS
 10
16.2112900167
 20
247.2024956894
 11
16.2394167384
 21
247.2288931946
  0
LINE
  5
251
100
AcDbEntity
  8
0
100
AcDbLine
 62
7
  6
CONTINUOUS
 10
16.2112900167
 20
247.2024956894
 11
16.2405214275
 21
247.2286196645
  0
LINE
  5
252
100
AcDbEntity
  8
0
100
AcDbLine
 62
7
  6
CONTINUOUS
 10
-33.778299715
 20
273.7577099852
 11
-33.9110498458
 21
274.5015165735
  0
LINE
  5
253
100
AcDbEntity
  8
0
100
AcDbLine
 62
7
  6
CONTINUOUS
 10
-15.3124190951
 20
282.8053141968
 11
-15.3124190951
 21
283.9016134328
  0
LINE
  5
254
100
AcDbEntity
  8
0
100
AcDbLine
 62
7
  6
CONTINUOUS
 10
-15.4624137252
 20
283.9016134328
 11
-15.4624190951
 21
283.8939683854
  0
LINE
  5
255
100
AcDbEntity
  8
0
100
AcDbLine
 62
7
  6
CONTINUOUS
 10
69.9409254618
 20
265.6081736208
 11
70.1007710439
 21
265.6510206123
  0
LINE
  5
256
100
AcDbEntity
  8
0
100
AcDbLine
 62
7
  6
CONTINUOUS
 10
-0.7127019704
 20
190.4814227171
 11
-0.7127019704
 21
191.1841542501
  0
LINE
  5
257
100
AcDbEntity
  8
0
100
AcDbLine
 62
7
  6
CONTINUOUS
 10
-0.428096739
 20
186.4653470832
 11
-0.4079816701
 21
187.5697661414
  0
LINE
  5
258
100
AcDbEntity
  8
0
100
AcDbLine
 62
7
  6
CONTINUOUS
 10
35.7549355391
 20
248.2405766471
 11
35.7070295807
 21
248.1842156679
  0
LINE
  5
259
100
AcDbEntity
  8
0
100
AcDbLine
 62
7
  6
CONTINUOUS
 10
35.7555233754
 20
248.240284064
 11
35.7070295807
 21
248.1842156679
  0
LINE
  5
25A
100
AcDbEntity
  8
0
100
AcDbLine
 62
7
  6
CONTINUOUS
 10
64.7852986688
 20
258.1452966985
 11
64.9742672225
 21
258.160781888
  0
LINE
  5
25B
100
AcDbEntity
  8
0
100
AcDbLine
 62
7
  6
CONTINUOUS
 10
-25.1758809085
 20
249.9714173267
 11
-36.7618445915
 21
256.6632547789
  0
LINE
  5
25C
100
AcDbEntity
  8
0
100
AcDbLine
 62
7
  6
CONTINUOUS
 10
1.3534138032
 20
191.0352563752
 11
1.3534138032
 21
193.9670247146
  0
LINE
  5
25D
100
AcDbEntity
  8
0
100
AcDbLine
 62
7
  6
CONTINUOUS
 10
3.1199448073
 20
184.4168202718
 11
3.1199448073
 21
186.1414556557
  0
LINE
  5
25E
100
AcDbEntity
  8
0
100
AcDbLine
 62
7
  6
CONTINUOUS
 10
7.1385379692
 20
195.5177589653
 11
7.1385379692
 21
192.5859906258
  0
LINE
  5
25F
100
AcDbEntity
  8
0
100
AcDbLine
 62
7
  6
CONTINUOUS
 10
9.2046537427
 20
193.8425558227
 11
9.2046537427
 21
193.1398242868
  0
LINE
  5
260
100
AcDbEntity
  8
0
100
AcDbLine
 62
7
  6
CONTINUOUS
 10
-57.4908029095
 20
261.4450549049
 11
-56.6876135132
 21
261.4072826547
  0
LINE
  5
261
100
AcDbEntity
  8
0
100
AcDbLine
 62
7
  6
CONTINUOUS
 10
52.763953158
 20
252.0268162272
 11
52.9535977619
 21
252.0126683603
  0
LINE
  5
262
100
AcDbEntity
  8
0
100
AcDbLine
 62
7
  6
CONTINUOUS
 10
-2.7552149555
 20
249.2311140819
 11
-2.7158601356
 21
249.1567593089
  0
LINE
  5
263
100
AcDbEntity
  8
0
100
AcDbLine
 62
7
  6
CONTINUOUS
 10
-51.3157125019
 20
262.8472501733
 11
-56.6876135132
 21
261.4072826547
  0
LINE
  5
264
100
AcDbEntity
  8
0
100
AcDbLine
 62
7
  6
CONTINUOUS
 10
-52.1189018983
 20
262.8850224233
 11
-57.4908029095
 21
261.4450549049
  0
LINE
  5
265
100
AcDbEntity
  8
0
100
AcDbLine
 62
7
  6
CONTINUOUS
 10
-27.7681272516
 20
272.6168978126
 11
-28.6998997527
 21
272.3671310851
  0
LINE
  5
266
100
AcDbEntity
  8
0
100
AcDbLine
 62
7
  6
CONTINUOUS
 10
-27.76956424
 20
272.6165126188
 11
-27.0451806491
 21
272.7579159979
  0
LINE
  5
267
100
AcDbEntity
  8
0
100
AcDbLine
 62
7
  6
CONTINUOUS
 10
-51.3157125019
 20
262.8472501733
 11
-52.1189018982
 21
262.8850224234
  0
LINE
  5
268
100
AcDbEntity
  8
0
100
AcDbLine
 62
7
  6
CONTINUOUS
 10
-58.3607097584
 20
266.3191928189
 11
-61.0380077462
 21
266.4451003193
  0
LINE
  5
269
100
AcDbEntity
  8
0
100
AcDbLine
 62
7
  6
CONTINUOUS
 10
-48.8565772
 20
268.8668276593
 11
-48.0533878037
 21
268.8290554092
  0
LINE
  5
26A
100
AcDbEntity
  8
0
100
AcDbLine
 62
7
  6
CONTINUOUS
 10
35.7070298104
 20
248.1842153999
 11
35.8684789254
 21
248.1425883274
  0
LINE
  5
26B
100
AcDbEntity
  8
0
100
AcDbLine
 62
7
  6
CONTINUOUS
 10
-33.778299715
 20
273.7577099852
 11
-30.4791588297
 21
271.8521874805
  0
LINE
  5
26C
100
AcDbEntity
  8
0
100
AcDbLine
 62
7
  6
CONTINUOUS
 10
16.2112905832
 20
247.2024953591
 11
16.3199648895
 21
247.1397264367
  0
LINE
  5
26D
100
AcDbEntity
  8
0
100
AcDbLine
 62
7
  6
CONTINUOUS
 10
22.927488085
 20
196.2138266367
 11
23.4117916325
 21
193.5002461126
  0
LINE
  5
26E
100
AcDbEntity
  8
0
100
AcDbLine
 62
7
  6
CONTINUOUS
 10
52.7639533001
 20
252.0268164873
 11
52.8046090017
 21
252.0978915438
  0
LINE
  5
26F
100
AcDbEntity
  8
0
100
AcDbLine
 62
7
  6
CONTINUOUS
 10
52.7639533001
 20
252.0268164873
 11
52.805645755
 21
252.0982575456
  0
LINE
  5
270
100
AcDbEntity
  8
0
100
AcDbLine
 62
7
  6
CONTINUOUS
 10
-27.8105668805
 20
281.9162363641
 11
-49.3582480771
 21
276.1402622803
  0
LINE
  5
271
100
AcDbEntity
  8
0
100
AcDbLine
 62
7
  6
CONTINUOUS
 10
-53.4672227111
 20
275.2919006729
 11
-50.1614374734
 21
276.1780345304
  0
LINE
  5
272
100
AcDbEntity
  8
0
100
AcDbLine
 62
7
  6
CONTINUOUS
 10
-27.4975956924
 20
283.0967734831
 11
-56.144520699
 21
275.4178081732
  0
LWPOLYLINE
  5
273
100
AcDbEntity
  8
0
100
AcDbPolyline
 62
7
  6
CONTINUOUS
 90
6
 70
0
 10
-29.2208878778
 20
280.0516523244
 10
-29.2615259661
 20
280.0468042058
 10
-29.4391775783
 20
279.9863281135
 10
-29.5932918826
 20
279.8598430052
 10
-29.6858125532
 20
279.7002588289
 10
-29.7132583976
 20
279.5935375446
  0
LINE
  5
274
100
AcDbEntity
  8
0
100
AcDbLine
 62
7
  6
CONTINUOUS
 10
-28.1500640572
 20
280.1394040729
 11
-29.22281437
 21
280.0514944721
  0
LINE
  5
275
100
AcDbEntity
  8
0
100
AcDbLine
 62
7
  6
CONTINUOUS
 10
-56.1445206989
 20
275.4178081732
 11
-53.4672227111
 21
275.2919006729
  0
LINE
  5
276
100
AcDbEntity
  8
0
100
AcDbLine
 62
7
  6
CONTINUOUS
 10
-50.1614374734
 20
276.1780345304
 11
-49.3582480771
 21
276.1402622803
  0
LINE
  5
277
100
AcDbEntity
  8
0
100
AcDbLine
 62
7
  6
CONTINUOUS
 10
-6.1741910631
 20
269.5728772862
 11
-6.253025832
 21
269.5937799565
  0
LINE
  5
278
100
AcDbEntity
  8
0
100
AcDbLine
 62
7
  6
CONTINUOUS
 10
-6.1760643765
 20
269.5718567209
 11
-6.253025832
 21
269.5937799565
  0
LINE
  5
279
100
AcDbEntity
  8
0
100
AcDbLine
 62
7
  6
CONTINUOUS
 10
30.4444894582
 20
205.4329274019
 11
30.8078745212
 21
203.3968600742
  0
LINE
  5
27A
100
AcDbEntity
  8
0
100
AcDbLine
 62
7
  6
CONTINUOUS
 10
54.6875809049
 20
282.8328546357
 11
54.6875809049
 21
283.8850820426
  0
LINE
  5
27B
100
AcDbEntity
  8
0
100
AcDbLine
 62
7
  6
CONTINUOUS
 10
64.8015781518
 20
258.2066225536
 11
64.7852991609
 21
258.1452970083
  0
LINE
  5
27C
100
AcDbEntity
  8
0
100
AcDbLine
 62
7
  6
CONTINUOUS
 10
64.8036611571
 20
258.2071422678
 11
64.7852991609
 21
258.1452970083
  0
LWPOLYLINE
  5
27D
100
AcDbEntity
  8
0
100
AcDbPolyline
 62
7
  6
CONTINUOUS
 90
3
 70
0
 10
70.6408250622
 20
266.1944320079
 10
70.4004316613
 20
272.5288344054
 10
69.3479226505
 20
278.0027235559
  0
LINE
  5
27E
100
AcDbEntity
  8
0
100
AcDbLine
 62
7
  6
CONTINUOUS
 10
70.6480752351
 20
268.8701353015
 11
70.674466442
 21
266.8025008016
  0
LINE
  5
27F
100
AcDbEntity
  8
0
100
AcDbLine
 62
7
  6
CONTINUOUS
 10
69.9409262281
 20
265.6081740057
 11
69.9408985262
 21
265.650916998
  0
LINE
  5
280
100
AcDbEntity
  8
0
100
AcDbLine
 62
7
  6
CONTINUOUS
 10
70.6368441538
 20
266.0901714722
 11
70.6376078548
 21
266.2792059073
  0
LINE
  5
281
100
AcDbEntity
  8
0
100
AcDbLine
 62
7
  6
CONTINUOUS
 10
70.6368524102
 20
266.0901628513
 11
70.6426683458
 21
266.2809972994
  0
LINE
  5
282
100
AcDbEntity
  8
0
100
AcDbLine
 62
7
  6
CONTINUOUS
 10
68.7489458792
 20
279.0181663543
 11
67.7913910165
 21
282.2637526165
  0
LINE
  5
283
100
AcDbEntity
  8
0
100
AcDbLine
 62
7
  6
CONTINUOUS
 10
67.1251338416
 20
282.2212755943
 11
67.2197450456
 21
281.7574545621
  0
LINE
  5
284
100
AcDbEntity
  8
0
100
AcDbLine
 62
7
  6
CONTINUOUS
 10
68.7489150571
 20
279.0181884853
 11
68.7494656856
 21
279.0151472894
  0
LINE
  5
285
100
AcDbEntity
  8
0
100
AcDbLine
 62
7
  6
CONTINUOUS
 10
66.4923190061
 20
284.4448068938
 11
66.4922072607
 21
284.4449461864
  0
LINE
  5
286
100
AcDbEntity
  8
0
100
AcDbLine
 62
7
  6
CONTINUOUS
 10
67.4629414646
 20
282.8151971475
 11
65.9727353289
 21
285.1767237156
  0
LINE
  5
287
100
AcDbEntity
  8
0
100
AcDbLine
 62
7
  6
CONTINUOUS
 10
67.7913910165
 20
282.2637526165
 11
66.4923180113
 21
284.4448081238
  0
LINE
  5
288
100
AcDbEntity
  8
0
100
AcDbLine
 62
7
  6
CONTINUOUS
 10
69.3479226505
 20
278.0027235559
 11
68.0237703491
 21
281.4761140188
  0
ARC
  5
289
100
AcDbEntity
  8
0
100
AcDbCircle
 62
7
  6
CONTINUOUS
 10
13.1165342548
 20
229.7581687883
 40
70.675703501
100
AcDbArc
 50
104.8105647395
 51
105.0043763438
  0
ARC
  5
28A
100
AcDbEntity
  8
0
100
AcDbCircle
 62
7
  6
CONTINUOUS
 10
12.73610266
 20
231.1766594959
 40
69.2070741758
100
AcDbArc
 50
105.0041796301
 51
105.5985307693
  0
ARC
  5
28B
100
AcDbEntity
  8
0
100
AcDbCircle
 62
7
  6
CONTINUOUS
 10
21.6234566534
 20
215.093297782
 40
54.5919031668
100
AcDbArc
 50
135.6353366752
 51
135.8700922681
  0
ARC
  5
28C
100
AcDbEntity
  8
0
100
AcDbCircle
 62
7
  6
CONTINUOUS
 10
-3.1500298414
 20
211.633098248
 40
20.4548112905
100
AcDbArc
 50
231.8964216002
 51
239.9777768308
  0
ARC
  5
28D
100
AcDbEntity
  8
0
100
AcDbCircle
 62
7
  6
CONTINUOUS
 10
-38.1397592996
 20
186.2901991163
 40
3.6075788839
100
AcDbArc
 50
74.6818951275
 51
80.6616708647
  0
ARC
  5
28E
100
AcDbEntity
  8
0
100
AcDbCircle
 62
7
  6
CONTINUOUS
 10
-358.4226733563
 20
247.3092716131
 40
390.0618553711
100
AcDbArc
 50
1.7179899581
 51
2.2141552596
  0
ARC
  5
28F
100
AcDbEntity
  8
0
100
AcDbCircle
 62
7
  6
CONTINUOUS
 10
-89.389434191
 20
250.6651016997
 40
138.3205445143
100
AcDbArc
 50
4.773749485
 51
6.164335741
  0
ARC
  5
290
100
AcDbEntity
  8
0
100
AcDbCircle
 62
7
  6
CONTINUOUS
 10
-34.3947125722
 20
292.8069498391
 40
105.2356929885
100
AcDbArc
 50
340.7782880765
 51
341.1050853185
  0
ARC
  5
291
100
AcDbEntity
  8
0
100
AcDbCircle
 62
7
  6
CONTINUOUS
 10
-27.7819687962
 20
256.4637735215
 40
89.5451144342
100
AcDbArc
 50
7.1863975427
 51
9.3068286958
  0
ARC
  5
292
100
AcDbEntity
  8
0
100
AcDbCircle
 62
7
  6
CONTINUOUS
 10
-4.9011113054
 20
265.7106092626
 40
74.8426174253
100
AcDbArc
 50
0.2302925357
 51
10.2397186444
  0
ARC
  5
293
100
AcDbEntity
  8
0
100
AcDbCircle
 62
7
  6
CONTINUOUS
 10
-3.6783921435
 20
263.8825741657
 40
71.8571436117
100
AcDbArc
 50
8.6063950701
 51
11.1955903175
  0
ARC
  5
294
100
AcDbEntity
  8
0
100
AcDbCircle
 62
7
  6
CONTINUOUS
 10
11.8020443364
 20
268.2659037136
 40
58.3573401668
100
AcDbArc
 50
357.4318242436
 51
357.7910698115
  0
ARC
  5
295
100
AcDbEntity
  8
0
100
AcDbCircle
 62
7
  6
CONTINUOUS
 10
14.4027380164
 20
240.4782563588
 40
57.7046602592
100
AcDbArc
 50
104.5646759131
 51
105.0047781736
  0
ARC
  5
296
100
AcDbEntity
  8
0
100
AcDbCircle
 62
7
  6
CONTINUOUS
 10
20.2894507412
 20
265.8074937445
 40
49.6518751052
100
AcDbArc
 50
359.8193677047
 51
0.235328703
  0
ARC
  5
297
100
AcDbEntity
  8
0
100
AcDbCircle
 62
7
  6
CONTINUOUS
 10
22.3117319383
 20
267.6733556911
 40
48.3509883655
100
AcDbArc
 50
358.3498312626
 51
1.4239005191
  0
ARC
  5
298
100
AcDbEntity
  8
0
100
AcDbCircle
 62
7
  6
CONTINUOUS
 10
-2.9717496993
 20
308.3219951569
 40
41.9498614662
100
AcDbArc
 50
246.2890328788
 51
248.2571207012
  0
ARC
  5
299
100
AcDbEntity
  8
0
100
AcDbCircle
 62
7
  6
CONTINUOUS
 10
3.7339914335
 20
300.4113297884
 40
27.508925282
100
AcDbArc
 50
240.5380616961
 51
243.4278857245
  0
ARC
  5
29A
100
AcDbEntity
  8
0
100
AcDbCircle
 62
7
  6
CONTINUOUS
 10
-5.3791285479
 20
269.8446098767
 40
26.6804165994
100
AcDbArc
 50
125.1370749308
 51
127.5238227151
  0
ARC
  5
29B
100
AcDbEntity
  8
0
100
AcDbCircle
 62
7
  6
CONTINUOUS
 10
36.654418411
 20
270.4670191236
 40
25.4345073942
100
AcDbArc
 50
59.9913983982
 51
60.5198343144
  0
ARC
  5
29C
100
AcDbEntity
  8
0
100
AcDbCircle
 62
7
  6
CONTINUOUS
 10
2.4685218375
 20
298.1595350649
 40
24.9259121646
100
AcDbArc
 50
239.2844049153
 51
240.5249313773
  0
ARC
  5
29D
100
AcDbEntity
  8
0
100
AcDbCircle
 62
7
  6
CONTINUOUS
 10
-32.1446662096
 20
241.2322753761
 40
24.9178252235
100
AcDbArc
 50
184.5626831756
 51
187.6649252778
  0
ARC
  5
29E
100
AcDbEntity
  8
0
100
AcDbCircle
 62
7
  6
CONTINUOUS
 10
37.9095786584
 20
296.4808272281
 40
22.9704176913
100
AcDbArc
 50
300.7672218989
 51
303.036966537
  0
ARC
  5
29F
100
AcDbEntity
  8
0
100
AcDbCircle
 62
7
  6
CONTINUOUS
 10
1.1290137915
 20
295.9355071397
 40
22.3297014662
100
AcDbArc
 50
236.5438091396
 51
239.3244603556
  0
ARC
  5
2A0
100
AcDbEntity
  8
0
100
AcDbCircle
 62
7
  6
CONTINUOUS
 10
-8.8186494311
 20
277.3315710967
 40
17.8835251429
100
AcDbArc
 50
130.1363983978
 51
132.5700134783
  0
ARC
  5
2A1
100
AcDbEntity
  8
0
100
AcDbCircle
 62
7
  6
CONTINUOUS
 10
-9.4664456305
 20
278.0407722471
 40
16.923005233
100
AcDbArc
 50
132.5791467409
 51
133.2057428267
  0
ARC
  5
2A2
100
AcDbEntity
  8
0
100
AcDbCircle
 62
7
  6
CONTINUOUS
 10
-18.3286549666
 20
252.0809263028
 40
12.9561354061
100
AcDbArc
 50
117.0855810331
 51
119.1525755228
  0
ARC
  5
2A3
100
AcDbEntity
  8
0
100
AcDbCircle
 62
7
  6
CONTINUOUS
 10
-16.1445468803
 20
279.7592404768
 40
11.8666381503
100
AcDbArc
 50
159.211045687
 51
160.1025416796
  0
ARC
  5
2A4
100
AcDbEntity
  8
0
100
AcDbCircle
 62
7
  6
CONTINUOUS
 10
-16.5640982022
 20
279.90030954
 40
11.4241260504
100
AcDbArc
 50
160.0516787151
 51
168.2789841168
  0
ARC
  5
2A5
100
AcDbEntity
  8
0
100
AcDbCircle
 62
7
  6
CONTINUOUS
 10
-19.983880848
 20
254.6788517
 40
9.893966221
100
AcDbArc
 50
145.2204368387
 51
146.6155961558
  0
ARC
  5
2A6
100
AcDbEntity
  8
0
100
AcDbCircle
 62
7
  6
CONTINUOUS
 10
-15.3611196834
 20
282.8690602296
 40
9.2697800049
100
AcDbArc
 50
150.739635896
 51
153.7662195404
  0
ARC
  5
2A7
100
AcDbEntity
  8
0
100
AcDbCircle
 62
7
  6
CONTINUOUS
 10
-21.0447048641
 20
282.7256398598
 40
6.4142036052
100
AcDbArc
 50
170.188889562
 51
170.6581397113
  0
ARC
  5
2A8
100
AcDbEntity
  8
0
100
AcDbCircle
 62
7
  6
CONTINUOUS
 10
-21.1026232786
 20
282.7348839571
 40
6.3555528005
100
AcDbArc
 50
170.6556146145
 51
172.9498683558
  0
ARC
  5
2A9
100
AcDbEntity
  8
0
100
AcDbCircle
 62
7
  6
CONTINUOUS
 10
-9.8128215864
 20
283.008208976
 40
5.6510476306
100
AcDbArc
 50
169.381146268
 51
171.0792785877
  0
ARC
  5
2AA
100
AcDbEntity
  8
0
100
AcDbCircle
 62
7
  6
CONTINUOUS
 10
-9.8206020574
 20
283.8715987976
 40
5.6431594945
100
AcDbArc
 50
168.7252792732
 51
172.329221294
  0
ARC
  5
2AB
100
AcDbEntity
  8
0
100
AcDbCircle
 62
7
  6
CONTINUOUS
 10
-9.924088935
 20
283.0248907404
 40
5.5385394402
100
AcDbArc
 50
171.0712717164
 51
176.3188098947
  0
ARC
  5
2AC
100
AcDbEntity
  8
0
100
AcDbCircle
 62
7
  6
CONTINUOUS
 10
-9.9736623449
 20
283.8918956462
 40
5.4887596519
100
AcDbArc
 50
172.3259290906
 51
179.8985584207
  0
ARC
  5
2AD
100
AcDbEntity
  8
0
100
AcDbCircle
 62
7
  6
CONTINUOUS
 10
-9.8596309293
 20
284.6214065301
 40
5.4527739939
100
AcDbArc
 50
180.0104418421
 51
186.9701502736
  0
ARC
  5
2AE
100
AcDbEntity
  8
0
100
AcDbCircle
 62
7
  6
CONTINUOUS
 10
19.6827261287
 20
381.9654949215
 40
119.9941844051
100
AcDbArc
 50
265.877686668
 51
274.6435429599
  0
ARC
  5
2AF
100
AcDbEntity
  8
0
100
AcDbCircle
 62
7
  6
CONTINUOUS
 10
12.6692454147
 20
370.6516903926
 40
108.6452837261
100
AcDbArc
 50
269.0146773269
 51
270.0633282442
  0
ARC
  5
2B0
100
AcDbEntity
  8
0
100
AcDbCircle
 62
7
  6
CONTINUOUS
 10
16.2408915377
 20
355.084277989
 40
93.9279261716
100
AcDbArc
 50
278.0961584863
 51
279.2554581202
  0
ARC
  5
2B1
100
AcDbEntity
  8
0
100
AcDbCircle
 62
7
  6
CONTINUOUS
 10
8.8283898912
 20
347.6985444058
 40
84.3371406622
100
AcDbArc
 50
259.5166202549
 51
260.7562600498
  0
ARC
  5
2B2
100
AcDbEntity
  8
0
100
AcDbCircle
 62
7
  6
CONTINUOUS
 10
26.2172641491
 20
340.8978094781
 40
78.343901874
100
AcDbArc
 50
283.7866723444
 51
284.8042533916
  0
ARC
  5
2B3
100
AcDbEntity
  8
0
100
AcDbCircle
 62
7
  6
CONTINUOUS
 10
26.2577736715
 20
337.5609043238
 40
70.6736862802
100
AcDbArc
 50
284.8117061282
 51
285.005518351
  0
ARC
  5
2B4
100
AcDbEntity
  8
0
100
AcDbCircle
 62
7
  6
CONTINUOUS
 10
25.0734438347
 20
328.2102598643
 40
57.3117570671
100
AcDbArc
 50
284.8098791827
 51
285.0055022624
  0
ARC
  5
2B5
100
AcDbEntity
  8
0
100
AcDbCircle
 62
7
  6
CONTINUOUS
 10
28.7034392515
 20
315.6478545003
 40
53.7628226731
100
AcDbArc
 50
289.4982919303
 51
291.183901694
  0
ARC
  5
2B6
100
AcDbEntity
  8
0
100
AcDbCircle
 62
7
  6
CONTINUOUS
 10
26.1390563124
 20
324.313481917
 40
53.2719621617
100
AcDbArc
 50
284.9836125886
 51
288.2257078878
  0
ARC
  5
2B7
100
AcDbEntity
  8
0
100
AcDbCircle
 62
7
  6
CONTINUOUS
 10
209.2898790576
 20
89.0278222933
 40
235.3560939107
100
AcDbArc
 50
137.2630930691
 51
137.4635050331
  0
ARC
  5
2B8
100
AcDbEntity
  8
0
100
AcDbCircle
 62
7
  6
CONTINUOUS
 10
79.2982113689
 20
175.5984929236
 40
95.312159208
100
AcDbArc
 50
130.9310008055
 51
131.357687541
  0
ARC
  5
2B9
100
AcDbEntity
  8
0
100
AcDbCircle
 62
7
  6
CONTINUOUS
 10
66.5645958485
 20
204.6196759874
 40
63.8410328574
100
AcDbArc
 50
108.3318005162
 51
109.855233495
  0
ARC
  5
2BA
100
AcDbEntity
  8
0
100
AcDbCircle
 62
7
  6
CONTINUOUS
 10
66.8043756039
 20
208.4779112356
 40
59.9798121653
100
AcDbArc
 50
111.3549483257
 51
111.5069271308
  0
ARC
  5
2BB
100
AcDbEntity
  8
0
100
AcDbCircle
 62
7
  6
CONTINUOUS
 10
65.1934624508
 20
212.67524976
 40
55.4840545333
100
AcDbArc
 50
109.5264926721
 51
111.38399305
  0
ARC
  5
2BC
100
AcDbEntity
  8
0
100
AcDbCircle
 62
7
  6
CONTINUOUS
 10
59.9544335267
 20
215.0267287483
 40
51.970921143
100
AcDbArc
 50
105.3059666578
 51
106.8881041672
  0
ARC
  5
2BD
100
AcDbEntity
  8
0
100
AcDbCircle
 62
7
  6
CONTINUOUS
 10
438.5639907065
 20
246.9694443845
 40
426.0400573821
100
AcDbArc
 50
177.9773342688
 51
178.431661988
  0
ARC
  5
2BE
100
AcDbEntity
  8
0
100
AcDbCircle
 62
7
  6
CONTINUOUS
 10
136.6827870619
 20
249.6004950358
 40
142.1800675457
100
AcDbArc
 50
174.0023456092
 51
175.3557532206
  0
ARC
  5
2BF
100
AcDbEntity
  8
0
100
AcDbCircle
 62
7
  6
CONTINUOUS
 10
71.114888322
 20
254.8602486463
 40
90.7913514273
100
AcDbArc
 50
170.8124505052
 51
172.9053634377
  0
ARC
  5
2C0
100
AcDbEntity
  8
0
100
AcDbCircle
 62
7
  6
CONTINUOUS
 10
45.7121464429
 20
268.2086962344
 40
76.2796396218
100
AcDbArc
 50
171.4162682815
 51
177.7819670825
  0
ARC
  5
2C1
100
AcDbEntity
  8
0
100
AcDbCircle
 62
7
  6
CONTINUOUS
 10
45.669645547
 20
267.0035577178
 40
74.9801252523
100
AcDbArc
 50
168.2901427975
 51
170.0138992072
  0
ARC
  5
2C2
100
AcDbEntity
  8
0
100
AcDbCircle
 62
7
  6
CONTINUOUS
 10
44.4752065606
 20
261.9839267705
 40
72.327368846
100
AcDbArc
 50
168.8580706802
 51
171.4332435242
  0
ARC
  5
2C3
100
AcDbEntity
  8
0
100
AcDbCircle
 62
7
  6
CONTINUOUS
 10
42.5627117194
 20
297.6084808864
 40
27.367001613
100
AcDbArc
 50
301.7930501302
 51
302.8750453764
  0
ARC
  5
2C4
100
AcDbEntity
  8
0
100
AcDbCircle
 62
7
  6
CONTINUOUS
 10
45.6199900141
 20
274.1681106423
 40
21.9624854817
100
AcDbArc
 50
51.6239934182
 51
54.1650724735
  0
ARC
  5
2C5
100
AcDbEntity
  8
0
100
AcDbCircle
 62
7
  6
CONTINUOUS
 10
46.7091157911
 20
275.5643017857
 40
20.1917901351
100
AcDbArc
 50
50.9435170884
 51
51.5872218678
  0
ARC
  5
2C6
100
AcDbEntity
  8
0
100
AcDbCircle
 62
7
  6
CONTINUOUS
 10
47.452324516
 20
285.5005938381
 40
19.6038909416
100
AcDbArc
 50
308.7501572272
 51
312.0570466841
  0
ARC
  5
2C7
100
AcDbEntity
  8
0
100
AcDbCircle
 62
7
  6
CONTINUOUS
 10
54.8461476667
 20
279.4773586195
 40
12.597038839
100
AcDbArc
 50
23.1269041254
 51
27.0001645852
  0
ARC
  5
2C8
100
AcDbEntity
  8
0
100
AcDbCircle
 62
7
  6
CONTINUOUS
 10
57.0204598911
 20
278.0921508549
 40
11.3364725409
100
AcDbArc
 50
19.8630952618
 51
22.1639806089
  0
ARC
  5
2C9
100
AcDbEntity
  8
0
100
AcDbCircle
 62
7
  6
CONTINUOUS
 10
57.6804706863
 20
278.3597968164
 40
10.6242596104
100
AcDbArc
 50
22.1700516228
 51
23.9847207675
  0
ARC
  5
2CA
100
AcDbEntity
  8
0
100
AcDbCircle
 62
7
  6
CONTINUOUS
 10
59.6311130677
 20
280.6661344282
 40
7.6536695276
100
AcDbArc
 50
8.1874756452
 51
11.7224605861
  0
ARC
  5
2CB
100
AcDbEntity
  8
0
100
AcDbCircle
 62
7
  6
CONTINUOUS
 10
59.5574829708
 20
278.3979640524
 40
7.2756886843
100
AcDbArc
 50
349.1231432636
 51
355.5563976018
  0
ARC
  5
2CC
100
AcDbEntity
  8
0
100
AcDbCircle
 62
7
  6
CONTINUOUS
 10
56.8078680845
 20
283.682219866
 40
7.0510438244
100
AcDbArc
 50
349.5601764496
 51
352.940502459
  0
ARC
  5
2CD
100
AcDbEntity
  8
0
100
AcDbCircle
 62
7
  6
CONTINUOUS
 10
63.8685251423
 20
266.8054372267
 40
6.8060083226
100
AcDbArc
 50
353.9673426277
 51
354.8481759984
  0
ARC
  5
2CE
100
AcDbEntity
  8
0
100
AcDbCircle
 62
7
  6
CONTINUOUS
 10
63.9079248301
 20
266.8020451192
 40
6.7664632066
100
AcDbArc
 50
354.8468254328
 51
0.0038586209
  0
ARC
  5
2CF
100
AcDbEntity
  8
0
100
AcDbCircle
 62
7
  6
CONTINUOUS
 10
49.0243345673
 20
282.9760802329
 40
5.8177789484
100
AcDbArc
 50
9.6617335389
 51
16.0537220916
  0
ARC
  5
2D0
100
AcDbEntity
  8
0
100
AcDbCircle
 62
7
  6
CONTINUOUS
 10
49.2169532425
 20
283.0124741788
 40
5.6217855072
100
AcDbArc
 50
8.6210728204
 51
9.6255494077
  0
ARC
  5
2D1
100
AcDbEntity
  8
0
100
AcDbCircle
 62
7
  6
CONTINUOUS
 10
49.2269876508
 20
283.8762421563
 40
5.6116262366
100
AcDbArc
 50
7.7497232724
 51
9.9497804406
  0
ARC
  5
2D2
100
AcDbEntity
  8
0
100
AcDbCircle
 62
7
  6
CONTINUOUS
 10
49.2907872619
 20
283.0232698014
 40
5.5471674761
100
AcDbArc
 50
5.3927948218
 51
8.6251423663
  0
ARC
  5
2D3
100
AcDbEntity
  8
0
100
AcDbCircle
 62
7
  6
CONTINUOUS
 10
49.3242908012
 20
283.8892389778
 40
5.5134592338
100
AcDbArc
 50
3.9081539071
 51
7.7522468514
  0
ARC
  5
2D4
100
AcDbEntity
  8
0
100
AcDbCircle
 62
7
  6
CONTINUOUS
 10
49.22196516
 20
284.6223827526
 40
5.4656018375
100
AcDbArc
 50
352.6296926629
 51
359.9793489487
  0
ARC
  5
2D5
100
AcDbEntity
  8
0
100
AcDbCircle
 62
7
  6
CONTINUOUS
 10
49.3877203149
 20
283.8941189069
 40
5.4498446444
100
AcDbArc
 50
359.9984175263
 51
3.9024199756
  0
SPLINE
  5
2D6
100
AcDbEntity
  8
0
100
AcDbSpline
 62
7
  6
CONTINUOUS
 70
0
 71
3
 72
12
 73
8
 74
0
 42
0.0000001
 43
0.0000001
 44
0.0000000001
 40
0.0
 40
0.0
 40
0.0
 40
0.0
 40
0.0995758362
 40
0.2022786082
 40
0.4270231409
 40
0.6906304138
 40
1.0
 40
1.0
 40
1.0
 40
1.0
 10
-15.3124048326
 20
284.6204127919
 30
0.0
 10
-15.3123838196
 20
284.9749509784
 30
0.0
 10
-15.2406298731
 20
285.6970285506
 30
0.0
 10
-14.8026170286
 20
287.1613385158
 30
0.0
 10
-13.6646230305
 20
288.9757491956
 30
0.0
 10
-11.5765611309
 20
290.9293549994
 30
0.0
 10
-9.8513109169
 20
292.0364760411
 30
0.0
 10
-8.8887666865
 20
292.572034622
 30
0.0
  0
SPLINE
  5
2D7
100
AcDbEntity
  8
0
100
AcDbSpline
 62
7
  6
CONTINUOUS
 70
0
 71
3
 72
9
 73
5
 74
0
 42
0.0000001
 43
0.0000001
 44
0.0000000001
 40
0.0
 40
0.0
 40
0.0
 40
0.0
 40
0.4677504405
 40
1.0
 40
1.0
 40
1.0
 40
1.0
 10
-8.8887666865
 20
292.572034622
 30
0.0
 10
-7.5905865103
 20
293.2943406844
 30
0.0
 10
-4.6841187873
 20
294.6043026475
 30
0.0
 10
-1.6507678683
 20
295.5642866676
 30
0.0
 10
-0.017962975
 20
296.0019689714
 30
0.0
  0
SPLINE
  5
2D8
100
AcDbEntity
  8
0
100
AcDbSpline
 62
7
  6
CONTINUOUS
 70
0
 71
3
 72
19
 73
15
 74
0
 42
0.0000001
 43
0.0000001
 44
0.0000000001
 40
0.0
 40
0.0
 40
0.0
 40
0.0
 40
0.1437927501
 40
0.2990289408
 40
0.4562714565
 40
0.6058605483
 40
0.6750130013
 40
0.7390970209
 40
0.7973619681
 40
0.8493061298
 40
0.8947794449
 40
0.9341460629
 40
0.9685228895
 40
1.0
 40
1.0
 40
1.0
 40
1.0
 10
-0.017962975
 20
296.0019689714
 30
0.0
 10
2.7597175631
 20
296.7465414688
 30
0.0
 10
8.6553106811
 20
297.8608711816
 30
0.0
 10
17.7713269956
 20
298.5346571915
 30
0.0
 10
27.0243557426
 20
298.2520217628
 30
0.0
 10
34.4914232705
 20
297.2141422661
 30
0.0
 10
39.994365655
 20
295.8884088873
 30
0.0
 10
43.645094294
 20
294.7171606571
 30
0.0
 10
46.8635793582
 20
293.3648375793
 30
0.0
 10
49.5946941797
 20
291.8542681281
 30
0.0
 10
51.7935933238
 20
290.2084741573
 30
0.0
 10
53.4239781282
 20
288.4446298626
 30
0.0
 10
54.447378623
 20
286.5753728477
 30
0.0
 10
54.6876039531
 20
285.2499304669
 30
0.0
 10
54.6875666424
 20
284.6204127922
 30
0.0
  0
SPLINE
  5
2D9
100
AcDbEntity
  8
0
100
AcDbSpline
 62
7
  6
CONTINUOUS
 70
0
 71
3
 72
9
 73
5
 74
0
 42
0.0000001
 43
0.0000001
 44
0.0000000001
 40
0.0
 40
0.0
 40
0.0
 40
0.0
 40
0.2470281697
 40
1.0
 40
1.0
 40
1.0
 40
1.0
 10
54.6424089684
 20
283.9212462713
 30
0.0
 10
54.6309976389
 20
283.8329086526
 30
0.0
 10
54.5762000657
 20
283.4764537997
 30
0.0
 10
54.4870372273
 20
283.125423789
 30
0.0
 10
54.4028369415
 20
282.8673091641
 30
0.0
  0
SPLINE
  5
2DA
100
AcDbEntity
  8
0
100
AcDbSpline
 62
7
  6
CONTINUOUS
 70
0
 71
3
 72
14
 73
10
 74
0
 42
0.0000001
 43
0.0000001
 44
0.0000000001
 40
0.0
 40
0.0
 40
0.0
 40
0.0
 40
0.0855180905
 40
0.1799841277
 40
0.2856657836
 40
0.4037704892
 40
0.5346928282
 40
0.678211881
 40
1.0
 40
1.0
 40
1.0
 40
1.0
 10
54.4028369415
 20
282.8673091641
 30
0.0
 10
54.2398268676
 20
282.3676043982
 30
0.0
 10
53.7596946017
 20
281.3581455433
 30
0.0
 10
52.6878673526
 20
279.9558017241
 30
0.0
 10
51.2549409879
 20
278.6136452225
 30
0.0
 10
49.4774455997
 20
277.3427824613
 30
0.0
 10
47.3737196885
 20
276.153713885
 30
0.0
 10
44.0346911784
 20
274.6355607293
 30
0.0
 10
41.3034913988
 20
273.7509408574
 30
0.0
 10
39.3931247848
 20
273.2388566126
 30
0.0
  0
SPLINE
  5
2DB
100
AcDbEntity
  8
0
100
AcDbSpline
 62
7
  6
CONTINUOUS
 70
0
 71
3
 72
19
 73
15
 74
0
 42
0.0000001
 43
0.0000001
 44
0.0000000001
 40
0.0
 40
0.0
 40
0.0
 40
0.0
 40
0.1392623917
 40
0.2894822208
 40
0.4425426512
 40
0.5900444972
 40
0.6592465972
 40
0.724214548
 40
0.7842088722
 40
0.8386595275
 40
0.8872272293
 40
0.9298960904
 40
0.9671164127
 40
1.0
 40
1.0
 40
1.0
 40
1.0
 10
39.3931247848
 20
273.2388566126
 30
0.0
 10
36.7784475702
 20
272.5379780498
 30
0.0
 10
31.2374556316
 20
271.4665416278
 30
0.0
 10
22.6514287987
 20
270.7519674049
 30
0.0
 10
13.8763154212
 20
270.892562916
 30
0.0
 10
6.7221436879
 20
271.7299869897
 30
0.0
 10
1.3584547245
 20
272.8444412531
 30
0.0
 10
-2.2819294247
 20
273.852071549
 30
0.0
 10
-5.5676412168
 20
275.0322098928
 30
0.0
 10
-8.44731827
 20
276.3663920269
 30
0.0
 10
-10.8771665601
 20
277.8343499327
 30
0.0
 10
-12.8215838342
 20
279.4180331041
 30
0.0
 10
-14.2505756117
 20
281.0997066557
 30
0.0
 10
-14.8643433727
 20
282.3393647979
 30
0.0
 10
-15.0539111044
 20
282.9497992464
 30
0.0
  0
SPLINE
  5
2DC
100
AcDbEntity
  8
0
100
AcDbSpline
 62
7
  6
CONTINUOUS
 70
0
 71
3
 72
9
 73
5
 74
0
 42
0.0000001
 43
0.0000001
 44
0.0000000001
 40
0.0
 40
0.0
 40
0.0
 40
0.0
 40
0.253386886
 40
1.0
 40
1.0
 40
1.0
 40
1.0
 10
-15.0539111044
 20
282.9497992464
 30
0.0
 10
-15.0798116183
 20
283.0332025019
 30
0.0
 10
-15.1749511741
 20
283.3645010372
 30
0.0
 10
-15.2409119654
 20
283.7042702102
 30
0.0
 10
-15.2721062402
 20
283.9597002236
 30
0.0
  0
SPLINE
  5
2DD
100
AcDbEntity
  8
0
100
AcDbSpline
 62
7
  6
CONTINUOUS
 70
0
 71
3
 72
11
 73
7
 74
0
 42
0.0000001
 43
0.0000001
 44
0.0000000001
 40
0.0
 40
0.0
 40
0.0
 40
0.0
 40
0.2634102731
 40
0.5159328529
 40
0.7602044305
 40
1.0
 40
1.0
 40
1.0
 40
1.0
 10
4.2459758862
 20
200.3145148843
 30
0.0
 10
3.0982649983
 20
200.0068646882
 30
0.0
 10
0.7945677171
 20
199.588347974
 30
0.0
 10
-2.6553282637
 20
199.605292387
 30
0.0
 10
-5.9309924143
 20
200.284591415
 30
0.0
 10
-7.9462452909
 20
201.1751472359
 30
0.0
 10
-8.8829204743
 20
201.716187561
 30
0.0
  0
SPLINE
  5
2DE
100
AcDbEntity
  8
0
100
AcDbSpline
 62
7
  6
CONTINUOUS
 70
0
 71
3
 72
11
 73
7
 74
0
 42
0.0000001
 43
0.0000001
 44
0.0000000001
 40
0.0
 40
0.0
 40
0.0
 40
0.0
 40
0.271774827
 40
0.5268698584
 40
0.7676346552
 40
1.0
 40
1.0
 40
1.0
 40
1.0
 10
-13.4236966105
 20
215.4065858985
 30
0.0
 10
-13.4236966105
 20
214.9299629297
 30
0.0
 10
-13.3310290072
 20
214.0020360306
 30
0.0
 10
-12.8872007557
 20
212.7166536393
 30
0.0
 10
-12.1598890846
 20
211.6471901202
 30
0.0
 10
-11.5016908323
 20
211.1177614399
 30
0.0
 10
-11.1488023736
 20
210.9139643877
 30
0.0
  0
SPLINE
  5
2DF
100
AcDbEntity
  8
0
100
AcDbSpline
 62
7
  6
CONTINUOUS
 70
0
 71
3
 72
11
 73
7
 74
0
 42
0.0000001
 43
0.0000001
 44
0.0000000001
 40
0.0
 40
0.0
 40
0.0
 40
0.0
 40
0.271774827
 40
0.5268698584
 40
0.7676346552
 40
1.0
 40
1.0
 40
1.0
 40
1.0
 10
-8.8753000494
 20
232.1976958086
 30
0.0
 10
-8.8753000494
 20
231.7210728398
 30
0.0
 10
-8.782632446
 20
230.7931459407
 30
0.0
 10
-8.3388041946
 20
229.5077635494
 30
0.0
 10
-7.6114925234
 20
228.4383000303
 30
0.0
 10
-6.9532942712
 20
227.90887135
 30
0.0
 10
-6.6004058125
 20
227.7050742978
 30
0.0
  0
SPLINE
  5
2E0
100
AcDbEntity
  8
0
100
AcDbSpline
 62
7
  6
CONTINUOUS
 70
0
 71
3
 72
11
 73
7
 74
0
 42
0.0000001
 43
0.0000001
 44
0.0000000001
 40
0.0
 40
0.0
 40
0.0
 40
0.0
 40
0.271774827
 40
0.5268698584
 40
0.7676346552
 40
1.0
 40
1.0
 40
1.0
 40
1.0
 10
5.8436204111
 20
236.1431831372
 30
0.0
 10
5.8436204111
 20
235.6665601684
 30
0.0
 10
5.9362880145
 20
234.7386332693
 30
0.0
 10
6.380116266
 20
233.453250878
 30
0.0
 10
7.1074279371
 20
232.3837873589
 30
0.0
 10
7.7656261894
 20
231.8543586786
 30
0.0
 10
8.118514648
 20
231.6505616264
 30
0.0
  0
SPLINE
  5
2E1
100
AcDbEntity
  8
0
100
AcDbSpline
 62
7
  6
CONTINUOUS
 70
0
 71
3
 72
11
 73
7
 74
0
 42
0.0000001
 43
0.0000001
 44
0.0000000001
 40
0.0
 40
0.0
 40
0.0
 40
0.0
 40
0.271774827
 40
0.5268698584
 40
0.7676346552
 40
1.0
 40
1.0
 40
1.0
 40
1.0
 10
10.3929358855
 20
221.791285652
 30
0.0
 10
10.3929358855
 20
221.3146626832
 30
0.0
 10
10.4856034888
 20
220.3867357841
 30
0.0
 10
10.9294317403
 20
219.1013533928
 30
0.0
 10
11.6567434114
 20
218.0318898737
 30
0.0
 10
12.3149416637
 20
217.5024611934
 30
0.0
 10
12.6678301223
 20
217.2986641412
 30
0.0
  0
SPLINE
  5
2E2
100
AcDbEntity
  8
0
100
AcDbSpline
 62
7
  6
CONTINUOUS
 70
0
 71
3
 72
10
 73
6
 74
0
 42
0.0000001
 43
0.0000001
 44
0.0000000001
 40
0.0
 40
0.0
 40
0.0
 40
0.0
 40
0.2403281524
 40
0.485096085
 40
1.0
 40
1.0
 40
1.0
 40
1.0
 10
5.4456388447
 20
215.1960655864
 30
0.0
 10
5.2796925851
 20
215.2918822635
 30
0.0
 10
4.9225592024
 20
215.4495791243
 30
0.0
 10
4.1376547514
 20
215.6130091044
 30
0.0
 10
3.5164959312
 20
215.550661178
 30
0.0
 10
3.1199448073
 20
215.4443634751
 30
0.0
  0
SPLINE
  5
2E3
100
AcDbEntity
  8
0
100
AcDbSpline
 62
7
  6
CONTINUOUS
 70
0
 71
3
 72
9
 73
5
 74
0
 42
0.0000001
 43
0.0000001
 44
0.0000000001
 40
0.0
 40
0.0
 40
0.0
 40
0.0
 40
0.4872206454
 40
1.0
 40
1.0
 40
1.0
 40
1.0
 10
15.1652122907
 20
228.1223683317
 30
0.0
 10
14.9383178216
 20
228.2534541
 30
0.0
 10
14.4169686262
 20
228.4344819851
 30
0.0
 10
13.8682383163
 20
228.4209612765
 30
0.0
 10
13.5964952091
 20
228.3739160245
 30
0.0
  0
SPLINE
  5
2E4
100
AcDbEntity
  8
0
100
AcDbSpline
 62
7
  6
CONTINUOUS
 70
0
 71
3
 72
15
 73
11
 74
0
 42
0.0000001
 43
0.0000001
 44
0.0000000001
 40
0.0
 40
0.0
 40
0.0
 40
0.0
 40
0.0524624495
 40
0.1056459492
 40
0.2162146554
 40
0.3353288405
 40
0.4632709937
 40
0.5978579402
 40
0.7353253112
 40
1.0
 40
1.0
 40
1.0
 40
1.0
 10
19.6416730592
 20
229.3728797429
 30
0.0
 10
19.429243191
 20
229.49556038
 30
0.0
 10
18.9776197836
 20
229.7037541344
 30
0.0
 10
17.9938185816
 20
229.956047967
 30
0.0
 10
16.6448827581
 20
229.9375083473
 30
0.0
 10
15.0368243852
 20
229.406903537
 30
0.0
 10
13.5257368287
 20
228.4259458363
 30
0.0
 10
12.2161404601
 20
227.067759173
 30
0.0
 10
10.8830538811
 20
224.9302012408
 30
0.0
 10
10.3929358855
 20
223.0288821419
 30
0.0
 10
10.3929358855
 20
221.791285652
 30
0.0
  0
SPLINE
  5
2E5
100
AcDbEntity
  8
0
100
AcDbSpline
 62
7
  6
CONTINUOUS
 70
0
 71
3
 72
9
 73
5
 74
0
 42
0.0000001
 43
0.0000001
 44
0.0000000001
 40
0.0
 40
0.0
 40
0.0
 40
0.0
 40
0.4872206454
 40
1.0
 40
1.0
 40
1.0
 40
1.0
 10
10.6158968163
 20
242.4742658168
 30
0.0
 10
10.3890023473
 20
242.6053515851
 30
0.0
 10
9.8676531518
 20
242.7863794703
 30
0.0
 10
9.318922842
 20
242.7728587617
 30
0.0
 10
9.0471797348
 20
242.7258135096
 30
0.0
  0
SPLINE
  5
2E6
100
AcDbEntity
  8
0
100
AcDbSpline
 62
7
  6
CONTINUOUS
 70
0
 71
3
 72
15
 73
11
 74
0
 42
0.0000001
 43
0.0000001
 44
0.0000000001
 40
0.0
 40
0.0
 40
0.0
 40
0.0
 40
0.0524624495
 40
0.1056459492
 40
0.2162146554
 40
0.3353288405
 40
0.4632709937
 40
0.5978579402
 40
0.7353253112
 40
1.0
 40
1.0
 40
1.0
 40
1.0
 10
15.0923575849
 20
243.7247772281
 30
0.0
 10
14.8799277166
 20
243.8474578652
 30
0.0
 10
14.4283043093
 20
244.0556516196
 30
0.0
 10
13.4445031072
 20
244.3079454522
 30
0.0
 10
12.0955672837
 20
244.2894058325
 30
0.0
 10
10.4875089109
 20
243.7588010221
 30
0.0
 10
8.9764213544
 20
242.7778433214
 30
0.0
 10
7.6668249858
 20
241.4196566581
 30
0.0
 10
6.3337384068
 20
239.282098726
 30
0.0
 10
5.8436204111
 20
237.3807796271
 30
0.0
 10
5.8436204111
 20
236.1431831372
 30
0.0
  0
SPLINE
  5
2E7
100
AcDbEntity
  8
0
100
AcDbSpline
 62
7
  6
CONTINUOUS
 70
0
 71
3
 72
9
 73
5
 74
0
 42
0.0000001
 43
0.0000001
 44
0.0000000001
 40
0.0
 40
0.0
 40
0.0
 40
0.0
 40
0.4872206454
 40
1.0
 40
1.0
 40
1.0
 40
1.0
 10
-4.1030236442
 20
238.5287784883
 30
0.0
 10
-4.3299181132
 20
238.6598642566
 30
0.0
 10
-4.8512673087
 20
238.8408921417
 30
0.0
 10
-5.3999976186
 20
238.8273714331
 30
0.0
 10
-5.6717407257
 20
238.7803261811
 30
0.0
  0
SPLINE
  5
2E8
100
AcDbEntity
  8
0
100
AcDbSpline
 62
7
  6
CONTINUOUS
 70
0
 71
3
 72
15
 73
11
 74
0
 42
0.0000001
 43
0.0000001
 44
0.0000000001
 40
0.0
 40
0.0
 40
0.0
 40
0.0
 40
0.0524624495
 40
0.1056459492
 40
0.2162146554
 40
0.3353288405
 40
0.4632709937
 40
0.5978579402
 40
0.7353253112
 40
1.0
 40
1.0
 40
1.0
 40
1.0
 10
0.3734371243
 20
239.7792898995
 30
0.0
 10
0.1610072561
 20
239.9019705366
 30
0.0
 10
-0.2906161512
 20
240.110164291
 30
0.0
 10
-1.2744173533
 20
240.3624581236
 30
0.0
 10
-2.6233531768
 20
240.3439185039
 30
0.0
 10
-4.2314115496
 20
239.8133136936
 30
0.0
 10
-5.7424991062
 20
238.8323559929
 30
0.0
 10
-7.0520954747
 20
237.4741693295
 30
0.0
 10
-8.3851820537
 20
235.3366113974
 30
0.0
 10
-8.8753000494
 20
233.4352922985
 30
0.0
 10
-8.8753000494
 20
232.1976958086
 30
0.0
  0
SPLINE
  5
2E9
100
AcDbEntity
  8
0
100
AcDbSpline
 62
7
  6
CONTINUOUS
 70
0
 71
3
 72
9
 73
5
 74
0
 42
0.0000001
 43
0.0000001
 44
0.0000000001
 40
0.0
 40
0.0
 40
0.0
 40
0.0
 40
0.4872206454
 40
1.0
 40
1.0
 40
1.0
 40
1.0
 10
-8.6514202053
 20
221.7376685782
 30
0.0
 10
-8.8783146744
 20
221.8687543465
 30
0.0
 10
-9.3996638698
 20
222.0497822316
 30
0.0
 10
-9.9483941797
 20
222.036261523
 30
0.0
 10
-10.2201372869
 20
221.989216271
 30
0.0
  0
SPLINE
  5
2EA
100
AcDbEntity
  8
0
100
AcDbSpline
 62
7
  6
CONTINUOUS
 70
0
 71
3
 72
15
 73
11
 74
0
 42
0.0000001
 43
0.0000001
 44
0.0000000001
 40
0.0
 40
0.0
 40
0.0
 40
0.0
 40
0.0524624495
 40
0.1056459492
 40
0.2162146554
 40
0.3353288405
 40
0.4632709937
 40
0.5978579402
 40
0.7353253112
 40
1.0
 40
1.0
 40
1.0
 40
1.0
 10
-4.1749594368
 20
222.9881799894
 30
0.0
 10
-4.387389305
 20
223.1108606265
 30
0.0
 10
-4.8390127124
 20
223.3190543809
 30
0.0
 10
-5.8228139144
 20
223.5713482135
 30
0.0
 10
-7.1717497379
 20
223.5528085938
 30
0.0
 10
-8.7798081108
 20
223.0222037835
 30
0.0
 10
-10.2908956673
 20
222.0412460828
 30
0.0
 10
-11.6004920359
 20
220.6830594194
 30
0.0
 10
-12.9335786149
 20
218.5455014873
 30
0.0
 10
-13.4236966105
 20
216.6441823884
 30
0.0
 10
-13.4236966105
 20
215.4065858985
 30
0.0
  0
SPLINE
  5
2EB
100
AcDbEntity
  8
0
100
AcDbSpline
 62
7
  6
CONTINUOUS
 70
0
 71
3
 72
9
 73
5
 74
0
 42
0.0000001
 43
0.0000001
 44
0.0000000001
 40
0.0
 40
0.0
 40
0.0
 40
0.0
 40
0.5134609316
 40
1.0
 40
1.0
 40
1.0
 40
1.0
 10
-13.3225453681
 20
216.7006811548
 30
0.0
 10
-13.2293482016
 20
216.4310026878
 30
0.0
 10
-12.9661594338
 20
215.9279811263
 30
0.0
 10
-12.5366030055
 20
215.5516011471
 30
0.0
 10
-12.3024969994
 20
215.416348993
 30
0.0
  0
SPLINE
  5
2EC
100
AcDbEntity
  8
0
100
AcDbSpline
 62
7
  6
CONTINUOUS
 70
0
 71
3
 72
9
 73
5
 74
0
 42
0.0000001
 43
0.0000001
 44
0.0000000001
 40
0.0
 40
0.0
 40
0.0
 40
0.0
 40
0.5134609316
 40
1.0
 40
1.0
 40
1.0
 40
1.0
 10
-8.7741488069
 20
233.4917910649
 30
0.0
 10
-8.6809516405
 20
233.2221125979
 30
0.0
 10
-8.4177628726
 20
232.7190910364
 30
0.0
 10
-7.9882064444
 20
232.3427110572
 30
0.0
 10
-7.7541004382
 20
232.2074589031
 30
0.0
  0
SPLINE
  5
2ED
100
AcDbEntity
  8
0
100
AcDbSpline
 62
7
  6
CONTINUOUS
 70
0
 71
3
 72
9
 73
5
 74
0
 42
0.0000001
 43
0.0000001
 44
0.0000000001
 40
0.0
 40
0.0
 40
0.0
 40
0.0
 40
0.5134609316
 40
1.0
 40
1.0
 40
1.0
 40
1.0
 10
5.9447716536
 20
237.4372783935
 30
0.0
 10
6.03796882
 20
237.1675999265
 30
0.0
 10
6.3011575879
 20
236.6645783649
 30
0.0
 10
6.7307140162
 20
236.2881983858
 30
0.0
 10
6.9648200223
 20
236.1529462317
 30
0.0
  0
SPLINE
  5
2EE
100
AcDbEntity
  8
0
100
AcDbSpline
 62
7
  6
CONTINUOUS
 70
0
 71
3
 72
9
 73
5
 74
0
 42
0.0000001
 43
0.0000001
 44
0.0000000001
 40
0.0
 40
0.0
 40
0.0
 40
0.0
 40
0.5134609316
 40
1.0
 40
1.0
 40
1.0
 40
1.0
 10
10.4940871279
 20
223.0853809083
 30
0.0
 10
10.5872842943
 20
222.8157024413
 30
0.0
 10
10.8504730622
 20
222.3126808798
 30
0.0
 10
11.2800294905
 20
221.9363009006
 30
0.0
 10
11.5141354966
 20
221.8010487465
 30
0.0
  0
SPLINE
  5
2EF
100
AcDbEntity
  8
0
100
AcDbSpline
 62
7
  6
CONTINUOUS
 70
0
 71
3
 72
11
 73
7
 74
0
 42
0.0000001
 43
0.0000001
 44
0.0000000001
 40
0.0
 40
0.0
 40
0.0
 40
0.0
 40
0.2717668072
 40
0.5268680782
 40
0.7676307415
 40
1.0
 40
1.0
 40
1.0
 40
1.0
 10
-0.7230305315
 20
210.1393269197
 30
0.0
 10
-0.7230305319
 20
209.8214405862
 30
0.0
 10
-0.6612157955
 20
209.2025422611
 30
0.0
 10
-0.3652281879
 20
208.3452128991
 30
0.0
 10
0.1198883912
 20
207.6319149628
 30
0.0
 10
0.55886718
 20
207.2787589604
 30
0.0
 10
0.7942507699
 20
207.1428494589
 30
0.0
  0
SPLINE
  5
2F0
100
AcDbEntity
  8
0
100
AcDbSpline
 62
7
  6
CONTINUOUS
 70
0
 71
3
 72
12
 73
8
 74
0
 42
0.0000001
 43
0.0000001
 44
0.0000000001
 40
0.0
 40
0.0
 40
0.0
 40
0.0
 40
0.2349899833
 40
0.4894752595
 40
0.6202667695
 40
0.7503904793
 40
1.0
 40
1.0
 40
1.0
 40
1.0
 10
3.1199448073
 20
215.4443634751
 30
0.0
 10
2.5927848305
 20
215.3030553531
 30
0.0
 10
1.5536432045
 20
214.7721657763
 30
0.0
 10
0.5350167759
 20
213.722284188
 30
0.0
 10
-0.0946743898
 20
212.6994556904
 30
0.0
 10
-0.5615917473
 20
211.6067994559
 30
0.0
 10
-0.7230305307
 20
210.7190518679
 30
0.0
 10
-0.7230305315
 20
210.1393269197
 30
0.0
  0
SPLINE
  5
2F1
100
AcDbEntity
  8
0
100
AcDbSpline
 62
7
  6
CONTINUOUS
 70
0
 71
3
 72
20
 73
16
 74
0
 42
0.0000001
 43
0.0000001
 44
0.0000000001
 40
0.0
 40
0.0
 40
0.0
 40
0.0
 40
0.0524831487
 40
0.1059704164
 40
0.1611975175
 40
0.2186783158
 40
0.3408374707
 40
0.4056327789
 40
0.4723142823
 40
0.6088282645
 40
0.7454354697
 40
0.8122267153
 40
0.8771656704
 40
0.9398347411
 40
1.0
 40
1.0
 40
1.0
 40
1.0
 10
17.7538970979
 20
246.9514658777
 30
0.0
 10
18.6293571515
 20
246.4112135681
 30
0.0
 10
20.2897405175
 20
245.1353258811
 30
0.0
 10
22.3750061401
 20
242.7362320103
 30
0.0
 10
24.020991306
 20
239.9032509022
 30
0.0
 10
25.6109742494
 20
235.5625069121
 30
0.0
 10
26.1267822043
 20
230.7142558039
 30
0.0
 10
25.6583753083
 20
225.7562848069
 30
0.0
 10
24.5008133359
 20
220.6186275176
 30
0.0
 10
21.8545476084
 20
214.4351789959
 30
0.0
 10
17.8614626438
 20
209.0192735704
 30
0.0
 10
14.0166982654
 20
205.4128881125
 30
0.0
 10
10.9196473262
 20
203.1733151431
 30
0.0
 10
7.6627898942
 20
201.4345379038
 30
0.0
 10
5.385079235
 20
200.6198577823
 30
0.0
 10
4.2459758862
 20
200.3145148843
 30
0.0
  0
SPLINE
  5
2F2
100
AcDbEntity
  8
0
100
AcDbSpline
 62
7
  6
CONTINUOUS
 70
0
 71
3
 72
9
 73
5
 74
0
 42
0.0000001
 43
0.0000001
 44
0.0000000001
 40
0.0
 40
0.0
 40
0.0
 40
0.0
 40
0.5108746771
 40
1.0
 40
1.0
 40
1.0
 40
1.0
 10
-56.8398515683
 20
237.9087480383
 30
0.0
 10
-56.6788138423
 20
236.7148529019
 30
0.0
 10
-56.189008081
 20
234.3970510576
 30
0.0
 10
-55.3212603304
 20
232.1897066122
 30
0.0
 10
-54.8022694051
 20
231.1596462963
 30
0.0
  0
SPLINE
  5
2F3
100
AcDbEntity
  8
0
100
AcDbSpline
 62
7
  6
CONTINUOUS
 70
0
 71
3
 72
9
 73
5
 74
0
 42
0.0000001
 43
0.0000001
 44
0.0000000001
 40
0.0
 40
0.0
 40
0.0
 40
0.0
 40
0.25549851
 40
1.0
 40
1.0
 40
1.0
 40
1.0
 10
-57.1514999138
 20
244.5560667618
 30
0.0
 10
-57.1870554826
 20
244.104806434
 30
0.0
 10
-57.2820764109
 20
242.3355726606
 30
0.0
 10
-57.1968211489
 20
240.5553876368
 30
0.0
 10
-57.0205048604
 20
239.248214593
 30
0.0
  0
SPLINE
  5
2F4
100
AcDbEntity
  8
0
100
AcDbSpline
 62
7
  6
CONTINUOUS
 70
0
 71
3
 72
11
 73
7
 74
0
 42
0.0000001
 43
0.0000001
 44
0.0000000001
 40
0.0
 40
0.0
 40
0.0
 40
0.0
 40
0.271774827
 40
0.5268698584
 40
0.7676346552
 40
1.0
 40
1.0
 40
1.0
 40
1.0
 10
17.3672518218
 20
239.2321557172
 30
0.0
 10
17.3672518218
 20
239.7087786861
 30
0.0
 10
17.2745842184
 20
240.6367055851
 30
0.0
 10
16.8307559669
 20
241.9220879764
 30
0.0
 10
16.1034442958
 20
242.9915514955
 30
0.0
 10
15.4452460435
 20
243.5209801759
 30
0.0
 10
15.0923575849
 20
243.7247772281
 30
0.0
  0
SPLINE
  5
2F5
100
AcDbEntity
  8
0
100
AcDbSpline
 62
7
  6
CONTINUOUS
 70
0
 71
3
 72
9
 73
5
 74
0
 42
0.0000001
 43
0.0000001
 44
0.0000000001
 40
0.0
 40
0.0
 40
0.0
 40
0.0
 40
0.4792511153
 40
1.0
 40
1.0
 40
1.0
 40
1.0
 10
-5.7486991369
 20
223.5072326654
 30
0.0
 10
-5.4043435221
 20
223.0493728151
 30
0.0
 10
-4.8705862031
 20
221.9481276825
 30
0.0
 10
-4.715142897
 20
220.744003705
 30
0.0
 10
-4.715142897
 20
220.1214950756
 30
0.0
  0
SPLINE
  5
2F6
100
AcDbEntity
  8
0
100
AcDbSpline
 62
7
  6
CONTINUOUS
 70
0
 71
3
 72
14
 73
10
 74
0
 42
0.0000001
 43
0.0000001
 44
0.0000000001
 40
0.0
 40
0.0
 40
0.0
 40
0.0
 40
0.1052603002
 40
0.2158757457
 40
0.3350391856
 40
0.4630355292
 40
0.5976775257
 40
0.7352094838
 40
1.0
 40
1.0
 40
1.0
 40
1.0
 10
11.5141354966
 20
221.8010487465
 30
0.0
 10
11.7371587485
 20
221.6721995311
 30
0.0
 10
12.2486660044
 20
221.4928900181
 30
0.0
 10
13.0825177977
 20
221.5057764554
 30
0.0
 10
13.925067694
 20
221.7831317522
 30
0.0
 10
14.7159626308
 20
222.2968263933
 30
0.0
 10
15.4016536587
 20
223.0078456675
 30
0.0
 10
16.0995864943
 20
224.1269450913
 30
0.0
 10
16.356202923
 20
225.1223721811
 30
0.0
 10
16.356202923
 20
225.7703056841
 30
0.0
  0
SPLINE
  5
2F7
100
AcDbEntity
  8
0
100
AcDbSpline
 62
7
  6
CONTINUOUS
 70
0
 71
3
 72
11
 73
7
 74
0
 42
0.0000001
 43
0.0000001
 44
0.0000000001
 40
0.0
 40
0.0
 40
0.0
 40
0.0
 40
0.271774827
 40
0.5268698584
 40
0.7676346552
 40
1.0
 40
1.0
 40
1.0
 40
1.0
 10
21.9165672961
 20
224.880258232
 30
0.0
 10
21.9165672961
 20
225.3568812009
 30
0.0
 10
21.8238996927
 20
226.2848081
 30
0.0
 10
21.3800714413
 20
227.5701904913
 30
0.0
 10
20.6527597701
 20
228.6396540104
 30
0.0
 10
19.9945615179
 20
229.1690826907
 30
0.0
 10
19.6416730592
 20
229.3728797429
 30
0.0
  0
SPLINE
  5
2F8
100
AcDbEntity
  8
0
100
AcDbSpline
 62
7
  6
CONTINUOUS
 70
0
 71
3
 72
15
 73
11
 74
0
 42
0.0000001
 43
0.0000001
 44
0.0000000001
 40
0.0
 40
0.0
 40
0.0
 40
0.0
 40
0.0524624495
 40
0.1056459492
 40
0.2162146554
 40
0.3353288405
 40
0.4632709937
 40
0.5978579402
 40
0.7353253112
 40
1.0
 40
1.0
 40
1.0
 40
1.0
 10
12.6678301223
 20
217.2986641412
 30
0.0
 10
12.8802599906
 20
217.1759835041
 30
0.0
 10
13.3318833979
 20
216.9677897497
 30
0.0
 10
14.3156846
 20
216.7154959171
 30
0.0
 10
15.6646204235
 20
216.7340355368
 30
0.0
 10
17.2726787963
 20
217.2646403471
 30
0.0
 10
18.7837663529
 20
218.2455980478
 30
0.0
 10
20.0933627214
 20
219.6037847111
 30
0.0
 10
21.4264493004
 20
221.7413426433
 30
0.0
 10
21.9165672961
 20
223.6426617421
 30
0.0
 10
21.9165672961
 20
224.880258232
 30
0.0
  0
SPLINE
  5
2F9
100
AcDbEntity
  8
0
100
AcDbSpline
 62
7
  6
CONTINUOUS
 70
0
 71
3
 72
11
 73
7
 74
0
 42
0.0000001
 43
0.0000001
 44
0.0000000001
 40
0.0
 40
0.0
 40
0.0
 40
0.0
 40
0.271774827
 40
0.5268698584
 40
0.7676346552
 40
1.0
 40
1.0
 40
1.0
 40
1.0
 10
2.6483313612
 20
235.2866683886
 30
0.0
 10
2.6483313612
 20
235.7632913575
 30
0.0
 10
2.5556637579
 20
236.6912182566
 30
0.0
 10
2.1118355064
 20
237.9766006479
 30
0.0
 10
1.3845238353
 20
239.046064167
 30
0.0
 10
0.726325583
 20
239.5754928473
 30
0.0
 10
0.3734371243
 20
239.7792898995
 30
0.0
  0
SPLINE
  5
2FA
100
AcDbEntity
  8
0
100
AcDbSpline
 62
7
  6
CONTINUOUS
 70
0
 71
3
 72
9
 73
5
 74
0
 42
0.0000001
 43
0.0000001
 44
0.0000000001
 40
0.0
 40
0.0
 40
0.0
 40
0.0
 40
0.4792511153
 40
1.0
 40
1.0
 40
1.0
 40
1.0
 10
18.0679333591
 20
229.8919324189
 30
0.0
 10
18.4122889738
 20
229.4340725686
 30
0.0
 10
18.9460462929
 20
228.332827436
 30
0.0
 10
19.101489599
 20
227.1287034585
 30
0.0
 10
19.101489599
 20
226.5061948291
 30
0.0
  0
SPLINE
  5
2FB
100
AcDbEntity
  8
0
100
AcDbSpline
 62
7
  6
CONTINUOUS
 70
0
 71
3
 72
14
 73
10
 74
0
 42
0.0000001
 43
0.0000001
 44
0.0000000001
 40
0.0
 40
0.0
 40
0.0
 40
0.0
 40
0.1052603002
 40
0.2158757457
 40
0.3350391856
 40
0.4630355292
 40
0.5976775257
 40
0.7352094838
 40
1.0
 40
1.0
 40
1.0
 40
1.0
 10
6.9648200223
 20
236.1529462317
 30
0.0
 10
7.1878432742
 20
236.0240970162
 30
0.0
 10
7.69935053
 20
235.8447875033
 30
0.0
 10
8.5332023234
 20
235.8576739406
 30
0.0
 10
9.3757522197
 20
236.1350292373
 30
0.0
 10
10.1666471565
 20
236.6487238785
 30
0.0
 10
10.8523381844
 20
237.3597431527
 30
0.0
 10
11.55027102
 20
238.4788425765
 30
0.0
 10
11.8068874487
 20
239.4742696663
 30
0.0
 10
11.8068874487
 20
240.1222031693
 30
0.0
  0
SPLINE
  5
2FC
100
AcDbEntity
  8
0
100
AcDbSpline
 62
7
  6
CONTINUOUS
 70
0
 71
3
 72
14
 73
10
 74
0
 42
0.0000001
 43
0.0000001
 44
0.0000000001
 40
0.0
 40
0.0
 40
0.0
 40
0.0
 40
0.2686164723
 40
0.3932530389
 40
0.5129262831
 40
0.6303784462
 40
0.7488454196
 40
0.8713344666
 40
1.0
 40
1.0
 40
1.0
 40
1.0
 10
-1.2498920715
 20
209.0458853457
 30
0.0
 10
-1.2498920725
 20
208.2904275125
 30
0.0
 10
-1.0613347778
 20
207.1616028725
 30
0.0
 10
-0.3659821195
 20
205.8853572868
 30
0.0
 10
0.3269400977
 20
205.1254204822
 30
0.0
 10
1.1765635633
 20
204.5767300675
 30
0.0
 10
2.1462960409
 20
204.2632364032
 30
0.0
 10
3.1932050898
 20
204.1960615531
 30
0.0
 10
3.896455873
 20
204.3118169487
 30
0.0
 10
4.2459758862
 20
204.4055077045
 30
0.0
  0
SPLINE
  5
2FD
100
AcDbEntity
  8
0
100
AcDbSpline
 62
7
  6
CONTINUOUS
 70
0
 71
3
 72
15
 73
11
 74
0
 42
0.0000001
 43
0.0000001
 44
0.0000000001
 40
0.0
 40
0.0
 40
0.0
 40
0.0
 40
0.0524624495
 40
0.1056459492
 40
0.2162146554
 40
0.3353288405
 40
0.4632709937
 40
0.5978579402
 40
0.7353253112
 40
1.0
 40
1.0
 40
1.0
 40
1.0
 10
8.118514648
 20
231.6505616264
 30
0.0
 10
8.3309445163
 20
231.5278809892
 30
0.0
 10
8.7825679236
 20
231.3196872349
 30
0.0
 10
9.7663691257
 20
231.0673934022
 30
0.0
 10
11.1153049492
 20
231.0859330219
 30
0.0
 10
12.723363322
 20
231.6165378323
 30
0.0
 10
14.2344508785
 20
232.597495533
 30
0.0
 10
15.5440472471
 20
233.9556821963
 30
0.0
 10
16.8771338261
 20
236.0932401285
 30
0.0
 10
17.3672518218
 20
237.9945592273
 30
0.0
 10
17.3672518218
 20
239.2321557172
 30
0.0
  0
SPLINE
  5
2FE
100
AcDbEntity
  8
0
100
AcDbSpline
 62
7
  6
CONTINUOUS
 70
0
 71
3
 72
14
 73
10
 74
0
 42
0.0000001
 43
0.0000001
 44
0.0000000001
 40
0.0
 40
0.0
 40
0.0
 40
0.0
 40
0.2346073929
 40
0.3603379301
 40
0.4894684284
 40
0.6200482101
 40
0.7499714674
 40
0.8772023527
 40
1.0
 40
1.0
 40
1.0
 40
1.0
 10
4.2459758862
 20
204.4055077045
 30
0.0
 10
4.9998536232
 20
204.6075887652
 30
0.0
 10
6.0985813971
 20
205.1691844469
 30
0.0
 10
7.3301869223
 20
206.2389601427
 30
0.0
 10
8.1613588022
 20
207.2229085968
 30
0.0
 10
8.8431897262
 20
208.3306619877
 30
0.0
 10
9.3515403934
 20
209.5215873199
 30
0.0
 10
9.6668835326
 20
210.7506167749
 30
0.0
 10
9.7418438437
 20
211.5837569304
 30
0.0
 10
9.7418438439
 20
211.992280422
 30
0.0
  0
SPLINE
  5
2FF
100
AcDbEntity
  8
0
100
AcDbSpline
 62
7
  6
CONTINUOUS
 70
0
 71
3
 72
14
 73
10
 74
0
 42
0.0000001
 43
0.0000001
 44
0.0000000001
 40
0.0
 40
0.0
 40
0.0
 40
0.0
 40
0.257132217
 40
0.3911512539
 40
0.5242842538
 40
0.6535041431
 40
0.7764183323
 40
0.891792128
 40
1.0
 40
1.0
 40
1.0
 40
1.0
 10
-4.715142897
 20
220.1214950756
 30
0.0
 10
-4.715142897
 20
219.0608000993
 30
0.0
 10
-5.0756746612
 20
217.4329240957
 30
0.0
 10
-6.0852483893
 20
215.5135067515
 30
0.0
 10
-7.098026515
 20
214.2169377828
 30
0.0
 10
-8.2992150255
 20
213.1616730938
 30
0.0
 10
-9.6263179688
 20
212.4046146237
 30
0.0
 10
-11.008235082
 20
211.9906053437
 30
0.0
 10
-11.9444511215
 20
211.9636084467
 30
0.0
 10
-12.3874806704
 20
212.0180974043
 30
0.0
  0
SPLINE
  5
300
100
AcDbEntity
  8
0
100
AcDbSpline
 62
7
  6
CONTINUOUS
 70
0
 71
3
 72
11
 73
7
 74
0
 42
0.0000001
 43
0.0000001
 44
0.0000000001
 40
0.0
 40
0.0
 40
0.0
 40
0.0
 40
0.2717577763
 40
0.5268821179
 40
0.7676367252
 40
1.0
 40
1.0
 40
1.0
 40
1.0
 10
-7.4604295729
 20
219.3856059306
 30
0.0
 10
-7.4604295729
 20
219.6351204605
 30
0.0
 10
-7.5089714897
 20
220.1209299622
 30
0.0
 10
-7.7412744664
 20
220.7938994295
 30
0.0
 10
-8.1221005884
 20
221.3538007172
 30
0.0
 10
-8.4666895893
 20
221.6309425093
 30
0.0
 10
-8.6514202053
 20
221.7376685782
 30
0.0
  0
SPLINE
  5
301
100
AcDbEntity
  8
0
100
AcDbSpline
 62
7
  6
CONTINUOUS
 70
0
 71
3
 72
9
 73
5
 74
0
 42
0.0000001
 43
0.0000001
 44
0.0000000001
 40
0.0
 40
0.0
 40
0.0
 40
0.0
 40
0.4792511153
 40
1.0
 40
1.0
 40
1.0
 40
1.0
 10
13.5186178848
 20
244.243829904
 30
0.0
 10
13.8629734995
 20
243.7859700538
 30
0.0
 10
14.3967308186
 20
242.6847249212
 30
0.0
 10
14.5521741246
 20
241.4806009436
 30
0.0
 10
14.5521741246
 20
240.8580923143
 30
0.0
  0
SPLINE
  5
302
100
AcDbEntity
  8
0
100
AcDbSpline
 62
7
  6
CONTINUOUS
 70
0
 71
3
 72
14
 73
10
 74
0
 42
0.0000001
 43
0.0000001
 44
0.0000000001
 40
0.0
 40
0.0
 40
0.0
 40
0.0
 40
0.1052603002
 40
0.2158757457
 40
0.3350391856
 40
0.4630355292
 40
0.5976775257
 40
0.7352094838
 40
1.0
 40
1.0
 40
1.0
 40
1.0
 10
-7.7541004382
 20
232.2074589031
 30
0.0
 10
-7.5310771863
 20
232.0786096877
 30
0.0
 10
-7.0195699305
 20
231.8993001747
 30
0.0
 10
-6.1857181371
 20
231.912186612
 30
0.0
 10
-5.3431682408
 20
232.1895419087
 30
0.0
 10
-4.552273304
 20
232.7032365499
 30
0.0
 10
-3.8665822761
 20
233.4142558241
 30
0.0
 10
-3.1686494405
 20
234.5333552479
 30
0.0
 10
-2.9120330118
 20
235.5287823377
 30
0.0
 10
-2.9120330118
 20
236.1767158407
 30
0.0
  0
SPLINE
  5
303
100
AcDbEntity
  8
0
100
AcDbSpline
 62
7
  6
CONTINUOUS
 70
0
 71
3
 72
14
 73
10
 74
0
 42
0.0000001
 43
0.0000001
 44
0.0000000001
 40
0.0
 40
0.0
 40
0.0
 40
0.0
 40
0.2686164723
 40
0.3932530389
 40
0.5129262831
 40
0.6303784462
 40
0.7488454196
 40
0.8713344666
 40
1.0
 40
1.0
 40
1.0
 40
1.0
 10
9.7418438439
 20
211.992280422
 30
0.0
 10
9.7418438443
 20
212.7477382552
 30
0.0
 10
9.5532865503
 20
213.8765628952
 30
0.0
 10
8.8579338919
 20
215.1528084808
 30
0.0
 10
8.1650116747
 20
215.9127452855
 30
0.0
 10
7.3153882091
 20
216.4614357001
 30
0.0
 10
6.3456557315
 20
216.7749293644
 30
0.0
 10
5.2987466826
 20
216.8421042145
 30
0.0
 10
4.5954958994
 20
216.726348819
 30
0.0
 10
4.2459758862
 20
216.6326580631
 30
0.0
  0
SPLINE
  5
304
100
AcDbEntity
  8
0
100
AcDbSpline
 62
7
  6
CONTINUOUS
 70
0
 71
3
 72
14
 73
10
 74
0
 42
0.0000001
 43
0.0000001
 44
0.0000000001
 40
0.0
 40
0.0
 40
0.0
 40
0.0
 40
0.257132217
 40
0.3911512539
 40
0.5242842538
 40
0.6535041431
 40
0.7764183323
 40
0.891792128
 40
1.0
 40
1.0
 40
1.0
 40
1.0
 10
-0.1667463359
 20
236.9126049857
 30
0.0
 10
-0.1667463359
 20
235.8519100094
 30
0.0
 10
-0.5272781
 20
234.2240340058
 30
0.0
 10
-1.5368518281
 20
232.3046166616
 30
0.0
 10
-2.5496299539
 20
231.0080476929
 30
0.0
 10
-3.7508184643
 20
229.9527830039
 30
0.0
 10
-5.0779214076
 20
229.1957245338
 30
0.0
 10
-6.4598385209
 20
228.7817152538
 30
0.0
 10
-7.3960545603
 20
228.7547183568
 30
0.0
 10
-7.8390841092
 20
228.8092073144
 30
0.0
  0
SPLINE
  5
305
100
AcDbEntity
  8
0
100
AcDbSpline
 62
7
  6
CONTINUOUS
 70
0
 71
3
 72
11
 73
7
 74
0
 42
0.0000001
 43
0.0000001
 44
0.0000000001
 40
0.0
 40
0.0
 40
0.0
 40
0.0
 40
0.2717577763
 40
0.5268821179
 40
0.7676367252
 40
1.0
 40
1.0
 40
1.0
 40
1.0
 10
-2.9120330118
 20
236.1767158407
 30
0.0
 10
-2.9120330118
 20
236.4262303706
 30
0.0
 10
-2.9605749285
 20
236.9120398723
 30
0.0
 10
-3.1928779053
 20
237.5850093396
 30
0.0
 10
-3.5737040272
 20
238.1449106273
 30
0.0
 10
-3.9182930282
 20
238.4220524194
 30
0.0
 10
-4.1030236442
 20
238.5287784883
 30
0.0
  0
SPLINE
  5
306
100
AcDbEntity
  8
0
100
AcDbSpline
 62
7
  6
CONTINUOUS
 70
0
 71
3
 72
14
 73
10
 74
0
 42
0.0000001
 43
0.0000001
 44
0.0000000001
 40
0.0
 40
0.0
 40
0.0
 40
0.0
 40
0.2346073929
 40
0.3603379301
 40
0.4894684284
 40
0.6200482101
 40
0.7499714674
 40
0.8772023527
 40
1.0
 40
1.0
 40
1.0
 40
1.0
 10
4.2459758862
 20
216.6326580631
 30
0.0
 10
3.4920981492
 20
216.4305770025
 30
0.0
 10
2.3933703753
 20
215.8689813207
 30
0.0
 10
1.16176485
 20
214.7992056249
 30
0.0
 10
0.3305929702
 20
213.8152571708
 30
0.0
 10
-0.3512379538
 20
212.70750378
 30
0.0
 10
-0.859588621
 20
211.5165784478
 30
0.0
 10
-1.1749317603
 20
210.2875489928
 30
0.0
 10
-1.249892071
 20
209.4544088372
 30
0.0
 10
-1.2498920715
 20
209.0458853457
 30
0.0
  0
SPLINE
  5
307
100
AcDbEntity
  8
0
100
AcDbSpline
 62
7
  6
CONTINUOUS
 70
0
 71
3
 72
14
 73
10
 74
0
 42
0.0000001
 43
0.0000001
 44
0.0000000001
 40
0.0
 40
0.0
 40
0.0
 40
0.0
 40
0.257132217
 40
0.3911512539
 40
0.5242842538
 40
0.6535041431
 40
0.7764183323
 40
0.891792128
 40
1.0
 40
1.0
 40
1.0
 40
1.0
 10
14.5521741246
 20
240.8580923143
 30
0.0
 10
14.5521741246
 20
239.797397338
 30
0.0
 10
14.1916423605
 20
238.1695213343
 30
0.0
 10
13.1820686324
 20
236.2501039902
 30
0.0
 10
12.1692905066
 20
234.9535350215
 30
0.0
 10
10.9681019962
 20
233.8982703325
 30
0.0
 10
9.6409990529
 20
233.1412118624
 30
0.0
 10
8.2590819396
 20
232.7272025823
 30
0.0
 10
7.3228659002
 20
232.7002056853
 30
0.0
 10
6.8798363513
 20
232.754694643
 30
0.0
  0
SPLINE
  5
308
100
AcDbEntity
  8
0
100
AcDbSpline
 62
7
  6
CONTINUOUS
 70
0
 71
3
 72
11
 73
7
 74
0
 42
0.0000001
 43
0.0000001
 44
0.0000000001
 40
0.0
 40
0.0
 40
0.0
 40
0.0
 40
0.2717577763
 40
0.5268821179
 40
0.7676367252
 40
1.0
 40
1.0
 40
1.0
 40
1.0
 10
11.8068874487
 20
240.1222031693
 30
0.0
 10
11.8068874487
 20
240.3717176991
 30
0.0
 10
11.758345532
 20
240.8575272009
 30
0.0
 10
11.5260425553
 20
241.5304966682
 30
0.0
 10
11.1452164333
 20
242.0903979559
 30
0.0
 10
10.8006274324
 20
242.3675397479
 30
0.0
 10
10.6158968163
 20
242.4742658168
 30
0.0
  0
SPLINE
  5
309
100
AcDbEntity
  8
0
100
AcDbSpline
 62
7
  6
CONTINUOUS
 70
0
 71
3
 72
14
 73
10
 74
0
 42
0.0000001
 43
0.0000001
 44
0.0000000001
 40
0.0
 40
0.0
 40
0.0
 40
0.0
 40
0.257132217
 40
0.3911512539
 40
0.5242842538
 40
0.6535041431
 40
0.7764183323
 40
0.891792128
 40
1.0
 40
1.0
 40
1.0
 40
1.0
 10
19.101489599
 20
226.5061948291
 30
0.0
 10
19.101489599
 20
225.4454998528
 30
0.0
 10
18.7409578348
 20
223.8176238492
 30
0.0
 10
17.7313841067
 20
221.898206505
 30
0.0
 10
16.7186059809
 20
220.6016375363
 30
0.0
 10
15.5174174705
 20
219.5463728473
 30
0.0
 10
14.1903145272
 20
218.7893143772
 30
0.0
 10
12.808397414
 20
218.3753050972
 30
0.0
 10
11.8721813745
 20
218.3483082002
 30
0.0
 10
11.4291518256
 20
218.4027971578
 30
0.0
  0
SPLINE
  5
30A
100
AcDbEntity
  8
0
100
AcDbSpline
 62
7
  6
CONTINUOUS
 70
0
 71
3
 72
11
 73
7
 74
0
 42
0.0000001
 43
0.0000001
 44
0.0000000001
 40
0.0
 40
0.0
 40
0.0
 40
0.0
 40
0.2717577763
 40
0.5268821179
 40
0.7676367252
 40
1.0
 40
1.0
 40
1.0
 40
1.0
 10
16.356202923
 20
225.7703056841
 30
0.0
 10
16.356202923
 20
226.019820214
 30
0.0
 10
16.3076610063
 20
226.5056297157
 30
0.0
 10
16.0753580296
 20
227.178599183
 30
0.0
 10
15.6945319076
 20
227.7385004708
 30
0.0
 10
15.3499429067
 20
228.0156422628
 30
0.0
 10
15.1652122907
 20
228.1223683317
 30
0.0
  0
SPLINE
  5
30B
100
AcDbEntity
  8
0
100
AcDbSpline
 62
7
  6
CONTINUOUS
 70
0
 71
3
 72
15
 73
11
 74
0
 42
0.0000001
 43
0.0000001
 44
0.0000000001
 40
0.0
 40
0.0
 40
0.0
 40
0.0
 40
0.0524624495
 40
0.1056459492
 40
0.2162146554
 40
0.3353288405
 40
0.4632709937
 40
0.5978579402
 40
0.7353253112
 40
1.0
 40
1.0
 40
1.0
 40
1.0
 10
-6.6004058125
 20
227.7050742978
 30
0.0
 10
-6.3879759443
 20
227.5823936607
 30
0.0
 10
-5.9363525369
 20
227.3741999063
 30
0.0
 10
-4.9525513349
 20
227.1219060737
 30
0.0
 10
-3.6036155114
 20
227.1404456933
 30
0.0
 10
-1.9955571385
 20
227.6710505037
 30
0.0
 10
-0.484469582
 20
228.6520082044
 30
0.0
 10
0.8251267866
 20
230.0101948677
 30
0.0
 10
2.1582133656
 20
232.1477527999
 30
0.0
 10
2.6483313612
 20
234.0490718987
 30
0.0
 10
2.6483313612
 20
235.2866683886
 30
0.0
  0
SPLINE
  5
30C
100
AcDbEntity
  8
0
100
AcDbSpline
 62
7
  6
CONTINUOUS
 70
0
 71
3
 72
12
 73
8
 74
0
 42
0.0000001
 43
0.0000001
 44
0.0000000001
 40
0.0
 40
0.0
 40
0.0
 40
0.0
 40
0.2349899833
 40
0.4894752595
 40
0.6202667696
 40
0.7503904793
 40
1.0
 40
1.0
 40
1.0
 40
1.0
 10
3.1199448073
 20
206.8945515702
 30
0.0
 10
3.6471047847
 20
207.0358596924
 30
0.0
 10
4.6862464117
 20
207.5667492699
 30
0.0
 10
5.7048728408
 20
208.6166308597
 30
0.0
 10
6.3345640065
 20
209.6394593588
 30
0.0
 10
6.8014813635
 20
210.7321155945
 30
0.0
 10
6.9629201464
 20
211.6198631834
 30
0.0
 10
6.9629201462
 20
212.199588132
 30
0.0
  0
SPLINE
  5
30D
100
AcDbEntity
  8
0
100
AcDbSpline
 62
7
  6
CONTINUOUS
 70
0
 71
3
 72
11
 73
7
 74
0
 42
0.0000001
 43
0.0000001
 44
0.0000000001
 40
0.0
 40
0.0
 40
0.0
 40
0.0
 40
0.2717668072
 40
0.5268680781
 40
0.7676307415
 40
1.0
 40
1.0
 40
1.0
 40
1.0
 10
6.9629201462
 20
212.199588132
 30
0.0
 10
6.9629201461
 20
212.5174744649
 30
0.0
 10
6.9011054091
 20
213.1363727887
 30
0.0
 10
6.6051178011
 20
213.9937021488
 30
0.0
 10
6.1200012224
 20
214.7070000835
 30
0.0
 10
5.6810224343
 20
215.0601560852
 30
0.0
 10
5.4456388447
 20
215.1960655864
 30
0.0
  0
SPLINE
  5
30E
100
AcDbEntity
  8
0
100
AcDbSpline
 62
7
  6
CONTINUOUS
 70
0
 71
3
 72
9
 73
5
 74
0
 42
0.0000001
 43
0.0000001
 44
0.0000000001
 40
0.0
 40
0.0
 40
0.0
 40
0.0
 40
0.4792511153
 40
1.0
 40
1.0
 40
1.0
 40
1.0
 10
-1.2003025757
 20
240.2983425755
 30
0.0
 10
-0.855946961
 20
239.8404827252
 30
0.0
 10
-0.322189642
 20
238.7392375926
 30
0.0
 10
-0.1667463359
 20
237.5351136151
 30
0.0
 10
-0.1667463359
 20
236.9126049857
 30
0.0
  0
SPLINE
  5
30F
100
AcDbEntity
  8
0
100
AcDbSpline
 62
7
  6
CONTINUOUS
 70
0
 71
3
 72
20
 73
16
 74
0
 42
0.0000001
 43
0.0000001
 44
0.0000000001
 40
0.0
 40
0.0
 40
0.0
 40
0.0
 40
0.0524128299
 40
0.1056810683
 40
0.1605451002
 40
0.217545311
 40
0.2769807823
 40
0.3389066446
 40
0.4691143182
 40
0.536820695
 40
0.6054152986
 40
0.7424225216
 40
0.8097608806
 40
0.875465431
 40
1.0
 40
1.0
 40
1.0
 40
1.0
 10
-8.8829204743
 20
201.716187561
 30
0.0
 10
-9.7570485573
 20
202.221099563
 30
0.0
 10
-11.4216670325
 20
203.4199800762
 30
0.0
 10
-13.5392267767
 20
205.6983669057
 30
0.0
 10
-15.2403780927
 20
208.4066920891
 30
0.0
 10
-16.487331931
 20
211.4778143698
 30
0.0
 10
-17.2555152361
 20
214.8405144581
 30
0.0
 10
-17.6282288728
 20
219.6853347508
 30
0.0
 10
-16.9695181107
 20
224.712703641
 30
0.0
 10
-15.4079006649
 20
229.6109496559
 30
0.0
 10
-13.2324151469
 20
234.4150925488
 30
0.0
 10
-10.2479883706
 20
238.8097610515
 30
0.0
 10
-6.6065810657
 20
242.5396311204
 30
0.0
 10
-2.7285433047
 20
245.6448210388
 30
0.0
 10
0.5698626948
 20
247.3792701782
 30
0.0
 10
2.8405247384
 20
248.1519869138
 30
0.0
  0
SPLINE
  5
310
100
AcDbEntity
  8
0
100
AcDbSpline
 62
7
  6
CONTINUOUS
 70
0
 71
3
 72
14
 73
10
 74
0
 42
0.0000001
 43
0.0000001
 44
0.0000000001
 40
0.0
 40
0.0
 40
0.0
 40
0.0
 40
0.1052603002
 40
0.2158757457
 40
0.3350391856
 40
0.4630355292
 40
0.5976775257
 40
0.7352094838
 40
1.0
 40
1.0
 40
1.0
 40
1.0
 10
-12.3024969994
 20
215.416348993
 30
0.0
 10
-12.0794737475
 20
215.2874997776
 30
0.0
 10
-11.5679664916
 20
215.1081902646
 30
0.0
 10
-10.7341146983
 20
215.1210767019
 30
0.0
 10
-9.8915648019
 20
215.3984319986
 30
0.0
 10
-9.1006698652
 20
215.9121266398
 30
0.0
 10
-8.4149788373
 20
216.623145914
 30
0.0
 10
-7.7170460017
 20
217.7422453378
 30
0.0
 10
-7.4604295729
 20
218.7376724276
 30
0.0
 10
-7.4604295729
 20
219.3856059306
 30
0.0
  0
SPLINE
  5
311
100
AcDbEntity
  8
0
100
AcDbSpline
 62
7
  6
CONTINUOUS
 70
0
 71
3
 72
11
 73
7
 74
0
 42
0.0000001
 43
0.0000001
 44
0.0000000001
 40
0.0
 40
0.0
 40
0.0
 40
0.0
 40
0.271774827
 40
0.5268698584
 40
0.7676346552
 40
1.0
 40
1.0
 40
1.0
 40
1.0
 10
-1.9000651999
 20
218.4955584785
 30
0.0
 10
-1.9000651999
 20
218.9721814474
 30
0.0
 10
-1.9927328033
 20
219.9001083465
 30
0.0
 10
-2.4365610547
 20
221.1854907378
 30
0.0
 10
-3.1638727259
 20
222.2549542569
 30
0.0
 10
-3.8220709781
 20
222.7843829372
 30
0.0
 10
-4.1749594368
 20
222.9881799894
 30
0.0
  0
SPLINE
  5
312
100
AcDbEntity
  8
0
100
AcDbSpline
 62
7
  6
CONTINUOUS
 70
0
 71
3
 72
10
 73
6
 74
0
 42
0.0000001
 43
0.0000001
 44
0.0000000001
 40
0.0
 40
0.0
 40
0.0
 40
0.0
 40
0.2403281524
 40
0.485096085
 40
1.0
 40
1.0
 40
1.0
 40
1.0
 10
0.7942507699
 20
207.1428494589
 30
0.0
 10
0.9601970296
 20
207.0470327818
 30
0.0
 10
1.3173304122
 20
206.889335921
 30
0.0
 10
2.1022348633
 20
206.7259059409
 30
0.0
 10
2.7233936834
 20
206.7882538673
 30
0.0
 10
3.1199448073
 20
206.8945515702
 30
0.0
  0
SPLINE
  5
313
100
AcDbEntity
  8
0
100
AcDbSpline
 62
7
  6
CONTINUOUS
 70
0
 71
3
 72
15
 73
11
 74
0
 42
0.0000001
 43
0.0000001
 44
0.0000000001
 40
0.0
 40
0.0
 40
0.0
 40
0.0
 40
0.0524624495
 40
0.1056459492
 40
0.2162146554
 40
0.3353288405
 40
0.4632709937
 40
0.5978579402
 40
0.7353253112
 40
1.0
 40
1.0
 40
1.0
 40
1.0
 10
-11.1488023736
 20
210.9139643877
 30
0.0
 10
-10.9363725054
 20
210.7912837506
 30
0.0
 10
-10.4847490981
 20
210.5830899962
 30
0.0
 10
-9.500947896
 20
210.3307961636
 30
0.0
 10
-8.1520120725
 20
210.3493357832
 30
0.0
 10
-6.5439536997
 20
210.8799405936
 30
0.0
 10
-5.0328661431
 20
211.8608982943
 30
0.0
 10
-3.7232697746
 20
213.2190849576
 30
0.0
 10
-2.3901831956
 20
215.3566428898
 30
0.0
 10
-1.9000651999
 20
217.2579619886
 30
0.0
 10
-1.9000651999
 20
218.4955584785
 30
0.0
  0
SPLINE
  5
314
100
AcDbEntity
  8
0
100
AcDbSpline
 62
7
  6
CONTINUOUS
 70
0
 71
3
 72
9
 73
5
 74
0
 42
0.0000001
 43
0.0000001
 44
0.0000000001
 40
0.0
 40
0.0
 40
0.0
 40
0.0
 40
0.2540370483
 40
1.0
 40
1.0
 40
1.0
 40
1.0
 10
-56.9767897206
 20
243.5592684181
 30
0.0
 10
-57.0057756328
 20
243.195307521
 30
0.0
 10
-57.0926153485
 20
241.7606142396
 30
0.0
 10
-57.0689142494
 20
240.3187948959
 30
0.0
 10
-56.983524371
 20
239.2500697594
 30
0.0
  0
SPLINE
  5
315
100
AcDbEntity
  8
0
100
AcDbSpline
 62
7
  6
CONTINUOUS
 70
0
 71
3
 72
11
 73
7
 74
0
 42
0.0000001
 43
0.0000001
 44
0.0000000001
 40
0.0
 40
0.0
 40
0.0
 40
0.0
 40
0.2119796137
 40
0.449114308
 40
0.712004738
 40
1.0
 40
1.0
 40
1.0
 40
1.0
 10
-28.2453251502
 20
260.1230459323
 30
0.0
 10
-27.6781785968
 20
259.5138120351
 30
0.0
 10
-26.3636540743
 20
258.326703787
 30
0.0
 10
-24.058825308
 20
256.7344544284
 30
0.0
 10
-21.3389196205
 20
255.2494024982
 30
0.0
 10
-19.355799959
 20
254.3791327974
 30
0.0
 10
-18.3050085395
 20
253.9612328661
 30
0.0
  0
SPLINE
  5
316
100
AcDbEntity
  8
0
100
AcDbSpline
 62
7
  6
CONTINUOUS
 70
0
 71
3
 72
11
 73
7
 74
0
 42
0.0000001
 43
0.0000001
 44
0.0000000001
 40
0.0
 40
0.0
 40
0.0
 40
0.0
 40
0.1871530509
 40
0.4032050977
 40
0.6745141584
 40
1.0
 40
1.0
 40
1.0
 40
1.0
 10
-18.3409643173
 20
253.8866120321
 30
0.0
 10
-18.3591464269
 20
253.8488770028
 30
0.0
 10
-18.3611625044
 20
253.7481691137
 30
0.0
 10
-18.265120922
 20
253.6245235822
 30
0.0
 10
-18.1190278079
 20
253.5155169954
 30
0.0
 10
-17.9986419128
 20
253.4557490299
 30
0.0
 10
-17.9316626186
 20
253.4271041394
 30
0.0
  0
SPLINE
  5
317
100
AcDbEntity
  8
0
100
AcDbSpline
 62
7
  6
CONTINUOUS
 70
0
 71
3
 72
9
 73
5
 74
0
 42
0.0000001
 43
0.0000001
 44
0.0000000001
 40
0.0
 40
0.0
 40
0.0
 40
0.0
 40
0.4704067829
 40
1.0
 40
1.0
 40
1.0
 40
1.0
 10
-17.9316626186
 20
253.4271041394
 30
0.0
 10
-15.6576149911
 20
252.4546293434
 30
0.0
 10
-10.6541094633
 20
250.7803365901
 30
0.0
 10
-5.5023111822
 20
249.6856203095
 30
0.0
 10
-2.7552149555
 20
249.2311140819
 30
0.0
  0
SPLINE
  5
318
100
AcDbEntity
  8
0
100
AcDbSpline
 62
7
  6
CONTINUOUS
 70
0
 71
3
 72
10
 73
6
 74
0
 42
0.0000001
 43
0.0000001
 44
0.0000000001
 40
0.0
 40
0.0
 40
0.0
 40
0.0
 40
0.1787797471
 40
0.4139994058
 40
1.0
 40
1.0
 40
1.0
 40
1.0
 10
-2.7158601356
 20
249.1567593089
 30
0.0
 10
-2.6902444876
 20
249.108363919
 30
0.0
 10
-2.5890264176
 20
249.0223877332
 30
0.0
 10
-2.3150401918
 20
248.8879843909
 30
0.0
 10
-2.067374322
 20
248.8260862538
 30
0.0
 10
-1.8908112796
 20
248.7938608493
 30
0.0
  0
SPLINE
  5
319
100
AcDbEntity
  8
0
100
AcDbSpline
 62
7
  6
CONTINUOUS
 70
0
 71
3
 72
9
 73
5
 74
0
 42
0.0000001
 43
0.0000001
 44
0.0000000001
 40
0.0
 40
0.0
 40
0.0
 40
0.0
 40
0.4899336157
 40
1.0
 40
1.0
 40
1.0
 40
1.0
 10
-1.8908112796
 20
248.7938608493
 30
0.0
 10
1.0314892821
 20
248.2605417139
 30
0.0
 10
7.0533579209
 20
247.47353249
 30
0.0
 10
13.1186610663
 20
247.2089913978
 30
0.0
 10
16.2112905832
 20
247.2024953591
 30
0.0
  0
SPLINE
  5
31A
100
AcDbEntity
  8
0
100
AcDbSpline
 62
7
  6
CONTINUOUS
 70
0
 71
3
 72
10
 73
6
 74
0
 42
0.0000001
 43
0.0000001
 44
0.0000000001
 40
0.0
 40
0.0
 40
0.0
 40
0.0
 40
0.2084444875
 40
0.4551474432
 40
1.0
 40
1.0
 40
1.0
 40
1.0
 10
16.3199648895
 20
247.1397264367
 30
0.0
 10
16.3887400627
 20
247.100003237
 30
0.0
 10
16.5530565392
 20
247.0390044588
 30
0.0
 10
16.9249654329
 20
246.9559959091
 30
0.0
 10
17.2275798451
 20
246.9320862099
 30
0.0
 10
17.4351546614
 20
246.9286853527
 30
0.0
  0
SPLINE
  5
31B
100
AcDbEntity
  8
0
100
AcDbSpline
 62
7
  6
CONTINUOUS
 70
0
 71
3
 72
9
 73
5
 74
0
 42
0.0000001
 43
0.0000001
 44
0.0000000001
 40
0.0
 40
0.0
 40
0.0
 40
0.0
 40
0.5078922467
 40
1.0
 40
1.0
 40
1.0
 40
1.0
 10
17.4351546614
 20
246.9286853527
 30
0.0
 10
20.5383399173
 20
246.8778825034
 30
0.0
 10
26.6550103233
 20
247.0330330051
 30
0.0
 10
32.7378965563
 20
247.7075866327
 30
0.0
 10
35.7070298104
 20
248.1842153999
 30
0.0
  0
SPLINE
  5
31C
100
AcDbEntity
  8
0
100
AcDbSpline
 62
7
  6
CONTINUOUS
 70
0
 71
3
 72
9
 73
5
 74
0
 42
0.0000001
 43
0.0000001
 44
0.0000000001
 40
0.0
 40
0.0
 40
0.0
 40
0.0
 40
0.4930528878
 40
1.0
 40
1.0
 40
1.0
 40
1.0
 10
35.8684789254
 20
248.1425883274
 30
0.0
 10
36.0659454432
 20
248.0916753702
 30
0.0
 10
36.4831012192
 20
248.0592240906
 30
0.0
 10
36.8965050815
 20
248.0856261592
 30
0.0
 10
37.1040320791
 20
248.1155337111
 30
0.0
  0
SPLINE
  5
31D
100
AcDbEntity
  8
0
100
AcDbSpline
 62
7
  6
CONTINUOUS
 70
0
 71
3
 72
9
 73
5
 74
0
 42
0.0000001
 43
0.0000001
 44
0.0000000001
 40
0.0
 40
0.0
 40
0.0
 40
0.0
 40
0.5270962793
 40
1.0
 40
1.0
 40
1.0
 40
1.0
 10
37.1040320791
 20
248.1155337111
 30
0.0
 10
39.9153787827
 20
248.5207282285
 30
0.0
 10
45.2183885928
 20
249.5267495046
 30
0.0
 10
50.3891926543
 20
251.1023267862
 30
0.0
 10
52.763953158
 20
252.0268162272
 30
0.0
  0
SPLINE
  5
31E
100
AcDbEntity
  8
0
100
AcDbSpline
 62
7
  6
CONTINUOUS
 70
0
 71
3
 72
9
 73
5
 74
0
 42
0.0000001
 43
0.0000001
 44
0.0000000001
 40
0.0
 40
0.0
 40
0.0
 40
0.0
 40
0.5309875373
 40
1.0
 40
1.0
 40
1.0
 40
1.0
 10
52.9535977619
 20
252.0126683603
 30
0.0
 10
53.1626814727
 20
251.9970707631
 30
0.0
 10
53.5603377395
 20
252.0206012902
 30
0.0
 10
53.9472789292
 20
252.110679299
 30
0.0
 10
54.1214126863
 20
252.1737190207
 30
0.0
  0
SPLINE
  5
31F
100
AcDbEntity
  8
0
100
AcDbSpline
 62
7
  6
CONTINUOUS
 70
0
 71
3
 72
11
 73
7
 74
0
 42
0.0000001
 43
0.0000001
 44
0.0000000001
 40
0.0
 40
0.0
 40
0.0
 40
0.0
 40
0.2860536878
 40
0.5485775535
 40
0.786548423
 40
1.0
 40
1.0
 40
1.0
 40
1.0
 10
54.1214126863
 20
252.1737190207
 30
0.0
 10
55.2238331414
 20
252.5728416755
 30
0.0
 10
57.3138474371
 20
253.4081791764
 30
0.0
 10
60.2061631926
 20
254.8414109162
 30
0.0
 10
62.6956389372
 20
256.3886400735
 30
0.0
 10
64.1464975463
 20
257.5475218755
 30
0.0
 10
64.7852986688
 20
258.1452966985
 30
0.0
  0
SPLINE
  5
320
100
AcDbEntity
  8
0
100
AcDbSpline
 62
7
  6
CONTINUOUS
 70
0
 71
3
 72
9
 73
5
 74
0
 42
0.0000001
 43
0.0000001
 44
0.0000000001
 40
0.0
 40
0.0
 40
0.0
 40
0.0
 40
0.5730785795
 40
1.0
 40
1.0
 40
1.0
 40
1.0
 10
64.9742672225
 20
258.160781888
 30
0.0
 10
65.162353622
 20
258.1761952106
 30
0.0
 10
65.4875977295
 20
258.2447136612
 30
0.0
 10
65.7893450084
 20
258.3944756237
 30
0.0
 10
65.8965545478
 20
258.4854193554
 30
0.0
  0
SPLINE
  5
321
100
AcDbEntity
  8
0
100
AcDbSpline
 62
7
  6
CONTINUOUS
 70
0
 71
3
 72
11
 73
7
 74
0
 42
0.0000001
 43
0.0000001
 44
0.0000000001
 40
0.0
 40
0.0
 40
0.0
 40
0.0
 40
0.2885886827
 40
0.5463263952
 40
0.7800079906
 40
1.0
 40
1.0
 40
1.0
 40
1.0
 10
65.8965545478
 20
258.4854193554
 30
0.0
 10
66.5150815506
 20
259.010147422
 30
0.0
 10
67.6245435274
 20
260.0816560266
 30
0.0
 10
68.9242749822
 20
261.863954762
 30
0.0
 10
69.7347095907
 20
263.7116918569
 30
0.0
 10
69.9325375197
 20
264.989911549
 30
0.0
 10
69.9409254618
 20
265.6081736208
 30
0.0
  0
SPLINE
  5
322
100
AcDbEntity
  8
0
100
AcDbSpline
 62
7
  6
CONTINUOUS
 70
0
 71
3
 72
9
 73
5
 74
0
 42
0.0000001
 43
0.0000001
 44
0.0000000001
 40
0.0
 40
0.0
 40
0.0
 40
0.0
 40
0.3457043305
 40
1.0
 40
1.0
 40
1.0
 40
1.0
 10
70.1007710439
 20
265.6510206123
 30
0.0
 10
70.1801018941
 20
265.6722856857
 30
0.0
 10
70.3981619499
 20
265.7475220507
 30
0.0
 10
70.6205092981
 20
265.9355723922
 30
0.0
 10
70.6368428447
 20
266.090157723
 30
0.0
  0
SPLINE
  5
323
100
AcDbEntity
  8
0
100
AcDbSpline
 62
7
  6
CONTINUOUS
 70
0
 71
3
 72
9
 73
5
 74
0
 42
0.0000001
 43
0.0000001
 44
0.0000000001
 40
0.0
 40
0.0
 40
0.0
 40
0.0
 40
0.2561186107
 40
1.0
 40
1.0
 40
1.0
 40
1.0
 10
39.6904476107
 20
272.9121330931
 30
0.0
 10
39.9565549953
 20
272.9834646365
 30
0.0
 10
40.9934776487
 20
273.2696305919
 30
0.0
 10
42.0219209713
 20
273.5868191171
 30
0.0
 10
42.780230174
 20
273.8422674923
 30
0.0
  0
SPLINE
  5
324
100
AcDbEntity
  8
0
100
AcDbSpline
 62
7
  6
CONTINUOUS
 70
0
 71
3
 72
12
 73
8
 74
0
 42
0.0000001
 43
0.0000001
 44
0.0000000001
 40
0.0
 40
0.0
 40
0.0
 40
0.0
 40
0.3189264106
 40
0.5924033854
 40
0.7113528266
 40
0.8184771545
 40
1.0
 40
1.0
 40
1.0
 40
1.0
 10
42.780230174
 20
273.8422674923
 30
0.0
 10
44.2349500803
 20
274.3323127602
 30
0.0
 10
46.8956185198
 20
275.3756157849
 30
0.0
 10
49.9036688964
 20
277.043750278
 30
0.0
 10
51.8195984309
 20
278.5057415315
 30
0.0
 10
53.2357633451
 20
279.8636859511
 30
0.0
 10
54.0536937386
 20
281.0267870795
 30
0.0
 10
54.3971038225
 20
281.8301655012
 30
0.0
  0
SPLINE
  5
325
100
AcDbEntity
  8
0
100
AcDbSpline
 62
7
  6
CONTINUOUS
 70
0
 71
3
 72
9
 73
5
 74
0
 42
0.0000001
 43
0.0000001
 44
0.0000000001
 40
0.0
 40
0.0
 40
0.0
 40
0.0
 40
0.2549236426
 40
1.0
 40
1.0
 40
1.0
 40
1.0
 10
54.3971038225
 20
281.8301655012
 30
0.0
 10
54.4216078764
 20
281.8874906326
 30
0.0
 10
54.5143339319
 20
282.1137937123
 30
0.0
 10
54.5931875151
 20
282.3458251838
 30
0.0
 10
54.6431349204
 20
282.5210576672
 30
0.0
  0
SPLINE
  5
326
100
AcDbEntity
  8
0
100
AcDbSpline
 62
7
  6
CONTINUOUS
 70
0
 71
3
 72
9
 73
5
 74
0
 42
0.0000001
 43
0.0000001
 44
0.0000000001
 40
0.0
 40
0.0
 40
0.0
 40
0.0
 40
0.2553994174
 40
1.0
 40
1.0
 40
1.0
 40
1.0
 10
54.6431349204
 20
282.5210576672
 30
0.0
 10
54.6753653156
 20
282.6341328543
 30
0.0
 10
54.7873984246
 20
283.080747049
 30
0.0
 10
54.8385611572
 20
283.5429352967
 30
0.0
 10
54.8389096959
 20
283.8857288262
 30
0.0
  0
SPLINE
  5
327
100
AcDbEntity
  8
0
100
AcDbSpline
 62
7
  6
CONTINUOUS
 70
0
 71
3
 72
9
 73
5
 74
0
 42
0.0000001
 43
0.0000001
 44
0.0000000001
 40
0.0
 40
0.0
 40
0.0
 40
0.0
 40
0.2475677686
 40
1.0
 40
1.0
 40
1.0
 40
1.0
 10
-15.4637719163
 20
283.9010694645
 30
0.0
 10
-15.4638547629
 20
283.806062434
 30
0.0
 10
-15.4527977872
 20
283.4223414412
 30
0.0
 10
-15.395491502
 20
283.040227146
 30
0.0
 10
-15.3294142998
 20
282.7591343993
 30
0.0
  0
SPLINE
  5
328
100
AcDbEntity
  8
0
100
AcDbSpline
 62
7
  6
CONTINUOUS
 70
0
 71
3
 72
9
 73
5
 74
0
 42
0.0000001
 43
0.0000001
 44
0.0000000001
 40
0.0
 40
0.0
 40
0.0
 40
0.0
 40
0.2443043556
 40
1.0
 40
1.0
 40
1.0
 40
1.0
 10
-15.3294142998
 20
282.7591343993
 30
0.0
 10
-15.3107870068
 20
282.6798938022
 30
0.0
 10
-15.2270887304
 20
282.3573195152
 30
0.0
 10
-15.1138180272
 20
282.0425776298
 30
0.0
 10
-15.0141972323
 20
281.8113305244
 30
0.0
  0
SPLINE
  5
329
100
AcDbEntity
  8
0
100
AcDbSpline
 62
7
  6
CONTINUOUS
 70
0
 71
3
 72
10
 73
6
 74
0
 42
0.0000001
 43
0.0000001
 44
0.0000000001
 40
0.0
 40
0.0
 40
0.0
 40
0.0
 40
0.4272403813
 40
0.694907224
 40
1.0
 40
1.0
 40
1.0
 40
1.0
 10
-15.0141972323
 20
281.8113305244
 30
0.0
 10
-14.5144653776
 20
280.6513162418
 30
0.0
 10
-13.137196802
 20
279.0187049739
 30
0.0
 10
-10.7861259182
 20
277.2355148871
 30
0.0
 10
-9.314317893
 20
276.3839167931
 30
0.0
 10
-8.5129827258
 20
275.9699086419
 30
0.0
  0
SPLINE
  5
32A
100
AcDbEntity
  8
0
100
AcDbSpline
 62
7
  6
CONTINUOUS
 70
0
 71
3
 72
15
 73
11
 74
0
 42
0.0000001
 43
0.0000001
 44
0.0000000001
 40
0.0
 40
0.0
 40
0.0
 40
0.0
 40
0.1001435132
 40
0.214527947
 40
0.3401373993
 40
0.4733283057
 40
0.6100726258
 40
0.7461740579
 40
0.8774571405
 40
1.0
 40
1.0
 40
1.0
 40
1.0
 10
-8.5129827258
 20
275.9699086419
 30
0.0
 10
-7.0551096263
 20
275.2167015305
 30
0.0
 10
-3.7947202491
 20
273.8671132651
 30
0.0
 10
1.5753269101
 20
272.3440171698
 30
0.0
 10
7.5969777989
 20
271.2338562693
 30
0.0
 10
14.0518684314
 20
270.5812263967
 30
0.0
 10
20.7090707054
 20
270.4111546442
 30
0.0
 10
27.3297485345
 20
270.7303975486
 30
0.0
 10
33.6755414737
 20
271.5263555247
 30
0.0
 10
37.7509349819
 20
272.3922360992
 30
0.0
 10
39.6904476107
 20
272.9121330931
 30
0.0
  0
SPLINE
  5
32B
100
AcDbEntity
  8
0
100
AcDbSpline
 62
7
  6
CONTINUOUS
 70
0
 71
3
 72
9
 73
5
 74
0
 42
0.0000001
 43
0.0000001
 44
0.0000000001
 40
0.0
 40
0.0
 40
0.0
 40
0.0
 40
0.4742266151
 40
1.0
 40
1.0
 40
1.0
 40
1.0
 10
-28.3136631199
 20
260.4816347129
 30
0.0
 10
-28.3459821796
 20
260.4295120705
 30
0.0
 10
-28.3703794477
 20
260.2865612896
 30
0.0
 10
-28.2916530823
 20
260.1728167264
 30
0.0
 10
-28.2453251502
 20
260.1230459323
 30
0.0
  0
SPLINE
  5
32C
100
AcDbEntity
  8
0
100
AcDbSpline
 62
7
  6
CONTINUOUS
 70
0
 71
3
 72
11
 73
7
 74
0
 42
0.0000001
 43
0.0000001
 44
0.0000000001
 40
0.0
 40
0.0
 40
0.0
 40
0.0
 40
0.2252819805
 40
0.4613686119
 40
0.7174643236
 40
1.0
 40
1.0
 40
1.0
 40
1.0
 10
-31.2992272599
 20
267.1490948015
 30
0.0
 10
-31.2991145224
 20
266.5970827075
 30
0.0
 10
-31.1572408953
 20
265.4622702672
 30
0.0
 10
-30.53151229
 20
263.8046969302
 30
0.0
 10
-29.508783064
 20
262.1926463061
 30
0.0
 10
-28.6209829981
 20
261.2082158595
 30
0.0
 10
-28.1249703376
 20
260.7252529417
 30
0.0
  0
SPLINE
  5
32D
100
AcDbEntity
  8
0
100
AcDbSpline
 62
7
  6
CONTINUOUS
 70
0
 71
3
 72
10
 73
6
 74
0
 42
0.0000001
 43
0.0000001
 44
0.0000000001
 40
0.0
 40
0.0
 40
0.0
 40
0.0
 40
0.5354475191
 40
0.7765384053
 40
1.0
 40
1.0
 40
1.0
 40
1.0
 10
-5.9323315155
 20
298.0757614799
 30
0.0
 10
-8.7252670648
 20
297.3270997931
 30
0.0
 10
-12.7270691904
 20
296.00702421
 30
0.0
 10
-17.6017956375
 20
293.669844889
 30
0.0
 10
-19.7478994057
 20
292.3579411279
 30
0.0
 10
-20.7346298326
 20
291.663253515
 30
0.0
  0
SPLINE
  5
32E
100
AcDbEntity
  8
0
100
AcDbSpline
 62
7
  6
CONTINUOUS
 70
0
 71
3
 72
9
 73
5
 74
0
 42
0.0000001
 43
0.0000001
 44
0.0000000001
 40
0.0
 40
0.0
 40
0.0
 40
0.0
 40
0.516773658
 40
1.0
 40
1.0
 40
1.0
 40
1.0
 10
-21.6299365955
 20
291.0048524962
 30
0.0
 10
-22.8679489852
 20
290.0529649283
 30
0.0
 10
-25.1043898509
 20
287.9810583641
 30
0.0
 10
-26.7125679512
 20
285.3509391103
 30
0.0
 10
-27.2327311812
 20
283.9864470974
 30
0.0
  0
SPLINE
  5
32F
100
AcDbEntity
  8
0
100
AcDbSpline
 62
7
  6
CONTINUOUS
 70
0
 71
3
 72
9
 73
5
 74
0
 42
0.0000001
 43
0.0000001
 44
0.0000000001
 40
0.0
 40
0.0
 40
0.0
 40
0.0
 40
0.2514494903
 40
1.0
 40
1.0
 40
1.0
 40
1.0
 10
67.1251764921
 20
282.2210698638
 30
0.0
 10
67.0858328754
 20
282.410901872
 30
0.0
 10
66.9099923766
 20
283.1617523723
 30
0.0
 10
66.6573515218
 20
283.8942594549
 30
0.0
 10
66.4308527888
 20
284.4250848393
 30
0.0
  0
SPLINE
  5
330
100
AcDbEntity
  8
0
100
AcDbSpline
 62
7
  6
CONTINUOUS
 70
0
 71
3
 72
9
 73
5
 74
0
 42
0.0000001
 43
0.0000001
 44
0.0000000001
 40
0.0
 40
0.0
 40
0.0
 40
0.0
 40
0.4800909247
 40
1.0
 40
1.0
 40
1.0
 40
1.0
 10
66.0701750297
 20
285.1963268189
 30
0.0
 10
65.3923670187
 20
286.5276393017
 30
0.0
 10
63.4948998539
 20
289.0604640538
 30
0.0
 10
61.054901144
 20
291.0269872098
 30
0.0
 10
59.716247444
 20
291.9354933771
 30
0.0
  0
SPLINE
  5
331
100
AcDbEntity
  8
0
100
AcDbSpline
 62
7
  6
CONTINUOUS
 70
0
 71
3
 72
15
 73
11
 74
0
 42
0.0000001
 43
0.0000001
 44
0.0000000001
 40
0.0
 40
0.0
 40
0.0
 40
0.0
 40
0.0980748634
 40
0.2094675687
 40
0.3329051281
 40
0.4653651158
 40
0.6028089283
 40
0.7407111527
 40
0.8744920047
 40
1.0
 40
1.0
 40
1.0
 40
1.0
 10
59.716247444
 20
291.9354933771
 30
0.0
 10
57.8914128743
 20
293.1739566637
 30
0.0
 10
53.6967584182
 20
295.3834249347
 30
0.0
 10
46.6169984004
 20
297.8660255777
 30
0.0
 10
38.55123304
 20
299.712097988
 30
0.0
 10
29.7716744694
 20
300.8736616738
 30
0.0
 10
20.601868001
 20
301.3146000294
 30
0.0
 10
11.3963575275
 20
301.0187859562
 30
0.0
 10
2.5133393286
 20
299.9974172518
 30
0.0
 10
-3.2062782986
 20
298.8064949908
 30
0.0
 10
-5.9323315155
 20
298.0757614799
 30
0.0
  0
SPLINE
  5
332
100
AcDbEntity
  8
0
100
AcDbSpline
 62
7
  6
CONTINUOUS
 70
0
 71
3
 72
10
 73
6
 74
0
 42
0.0000001
 43
0.0000001
 44
0.0000000001
 40
0.0
 40
0.0
 40
0.0
 40
0.0
 40
0.2895550049
 40
0.5580196881
 40
1.0
 40
1.0
 40
1.0
 40
1.0
 10
10.8009515581
 20
262.0224725265
 30
0.0
 10
7.8545269795
 20
262.0726833679
 30
0.0
 10
2.1505775741
 20
261.7771883764
 30
0.0
 10
-7.8119926277
 20
259.6983407249
 30
0.0
 10
-14.5695590261
 20
256.4152993592
 30
0.0
 10
-17.9316528466
 20
253.4271003534
 30
0.0
  0
SPLINE
  5
333
100
AcDbEntity
  8
0
100
AcDbSpline
 62
7
  6
CONTINUOUS
 70
0
 71
3
 72
9
 73
5
 74
0
 42
0.0000001
 43
0.0000001
 44
0.0000000001
 40
0.0
 40
0.0
 40
0.0
 40
0.0
 40
0.5198654784
 40
1.0
 40
1.0
 40
1.0
 40
1.0
 10
12.6835474589
 20
258.6298296592
 30
0.0
 10
9.7909610555
 20
257.405043057
 30
0.0
 10
4.3859498728
 20
254.6505335488
 30
0.0
 10
-0.5505345322
 20
251.1168418018
 30
0.0
 10
-2.7552157726
 20
249.2311145205
 30
0.0
  0
SPLINE
  5
334
100
AcDbEntity
  8
0
100
AcDbSpline
 62
7
  6
CONTINUOUS
 70
0
 71
3
 72
10
 73
6
 74
0
 42
0.0000001
 43
0.0000001
 44
0.0000000001
 40
0.0
 40
0.0
 40
0.0
 40
0.0
 40
0.6009127486
 40
0.8408090443
 40
1.0
 40
1.0
 40
1.0
 40
1.0
 10
10.8009509085
 20
262.0224717101
 30
0.0
 10
10.7880594791
 20
262.0771686914
 30
0.0
 10
10.7834628661
 20
262.1583034804
 30
0.0
 10
10.8013191549
 20
262.2493361
 30
0.0
 10
10.8128689001
 20
262.2861515924
 30
0.0
 10
10.8220622027
 20
262.2978609188
 30
0.0
  0
SPLINE
  5
335
100
AcDbEntity
  8
0
100
AcDbSpline
 62
7
  6
CONTINUOUS
 70
0
 71
3
 72
8
 73
4
 74
0
 42
0.0000001
 43
0.0000001
 44
0.0000000001
 40
0.0
 40
0.0
 40
0.0
 40
0.0
 40
1.0
 40
1.0
 40
1.0
 40
1.0
 10
10.8222358242
 20
262.2989342742
 30
0.0
 10
10.9004737697
 20
262.2937265642
 30
0.0
 10
10.9786301568
 20
262.2873578099
 30
0.0
 10
11.0568353894
 20
262.2816799606
 30
0.0
  0
SPLINE
  5
336
100
AcDbEntity
  8
0
100
AcDbSpline
 62
7
  6
CONTINUOUS
 70
0
 71
3
 72
17
 73
13
 74
0
 42
0.0000001
 43
0.0000001
 44
0.0000000001
 40
0.0
 40
0.0
 40
0.0
 40
0.0
 40
0.2492408625
 40
0.3740611534
 40
0.4990196722
 40
0.6241272052
 40
0.7494057561
 40
0.8121277929
 40
0.8749211005
 40
0.9378073504
 40
0.9693235821
 40
1.0
 40
1.0
 40
1.0
 40
1.0
 10
11.0568381862
 20
262.2817518807
 30
0.0
 10
11.2036379349
 20
262.2710939388
 30
0.0
 10
11.4238704797
 20
262.2538354607
 30
0.0
 10
11.7173115528
 20
262.2266492517
 30
0.0
 10
11.9374967712
 20
262.203661952
 30
0.0
 10
12.1576012552
 20
262.1770835931
 30
0.0
 10
12.3405179733
 20
262.1506486311
 30
0.0
 10
12.4865943772
 20
262.1246491258
 30
0.0
 10
12.5947177648
 20
262.1017948321
 30
0.0
 10
12.686628404
 20
262.0763151428
 30
0.0
 10
12.7507794761
 20
262.0504281556
 30
0.0
 10
12.7900068669
 20
262.0245667638
 30
0.0
 10
12.7893806192
 20
262.0064620093
 30
0.0
  0
SPLINE
  5
337
100
AcDbEntity
  8
0
100
AcDbSpline
 62
7
  6
CONTINUOUS
 70
0
 71
3
 72
9
 73
5
 74
0
 42
0.0000001
 43
0.0000001
 44
0.0000000001
 40
0.0
 40
0.0
 40
0.0
 40
0.0
 40
0.2498048346
 40
1.0
 40
1.0
 40
1.0
 40
1.0
 10
29.3974188032
 20
262.3644334534
 30
0.0
 10
27.9736258836
 20
262.2478843929
 30
0.0
 10
22.2922397114
 20
261.5761168697
 30
0.0
 10
16.7072342107
 20
260.1181710171
 30
0.0
 10
12.6835474589
 20
258.6298296592
 30
0.0
  0
SPLINE
  5
338
100
AcDbEntity
  8
0
100
AcDbSpline
 62
7
  6
CONTINUOUS
 70
0
 71
3
 72
12
 73
8
 74
0
 42
0.0000001
 43
0.0000001
 44
0.0000000001
 40
0.0
 40
0.0
 40
0.0
 40
0.0
 40
0.1288112815
 40
0.2601330184
 40
0.5217563101
 40
0.7711439819
 40
1.0
 40
1.0
 40
1.0
 40
1.0
 10
29.3974188032
 20
262.3644334534
 30
0.0
 10
27.9003787469
 20
262.1778383809
 30
0.0
 10
24.8879098538
 20
261.7038852428
 30
0.0
 10
18.9289848654
 20
260.3331272908
 30
0.0
 10
11.7822659271
 20
257.9018549658
 30
0.0
 10
4.0073186365
 20
254.0229181067
 30
0.0
 10
-0.6357983911
 20
250.8471895186
 30
0.0
 10
-2.715860062
 20
249.1567598909
 30
0.0
  0
SPLINE
  5
339
100
AcDbEntity
  8
0
100
AcDbSpline
 62
7
  6
CONTINUOUS
 70
0
 71
3
 72
13
 73
9
 74
0
 42
0.0000001
 43
0.0000001
 44
0.0000000001
 40
0.0
 40
0.0
 40
0.0
 40
0.0
 40
0.2585930789
 40
0.5196423802
 40
0.6467204171
 40
0.7696705067
 40
0.8876033555
 40
1.0
 40
1.0
 40
1.0
 40
1.0
 10
29.4692151975
 20
262.0925222164
 30
0.0
 10
26.530766811
 20
261.6739019098
 30
0.0
 10
20.6801854253
 20
260.4099915963
 30
0.0
 10
13.6692291199
 20
257.9069334561
 30
0.0
 10
8.3585609217
 20
255.4071224804
 30
0.0
 10
4.6571183374
 20
253.3671925243
 30
0.0
 10
1.2368213746
 20
251.1832827955
 30
0.0
 10
-0.8834457665
 20
249.5998075402
 30
0.0
 10
-1.8907987291
 20
248.7938588104
 30
0.0
  0
SPLINE
  5
33A
100
AcDbEntity
  8
0
100
AcDbSpline
 62
7
  6
CONTINUOUS
 70
0
 71
3
 72
9
 73
5
 74
0
 42
0.0000001
 43
0.0000001
 44
0.0000000001
 40
0.0
 40
0.0
 40
0.0
 40
0.0
 40
0.3078691259
 40
1.0
 40
1.0
 40
1.0
 40
1.0
 10
29.4692171346
 20
262.0925218125
 30
0.0
 10
29.4607691284
 20
262.1200420444
 30
0.0
 10
29.4359252595
 20
262.2102149477
 30
0.0
 10
29.4136521387
 20
262.3010290073
 30
0.0
 10
29.3974303382
 20
262.3636816267
 30
0.0
  0
SPLINE
  5
33B
100
AcDbEntity
  8
0
100
AcDbSpline
 62
7
  6
CONTINUOUS
 70
0
 71
3
 72
8
 73
4
 74
0
 42
0.0000001
 43
0.0000001
 44
0.0000000001
 40
0.0
 40
0.0
 40
0.0
 40
0.0
 40
1.0
 40
1.0
 40
1.0
 40
1.0
 10
29.3970333121
 20
262.364983431
 30
0.0
 10
29.4732528022
 20
262.3718068326
 30
0.0
 10
29.5495640207
 20
262.3775642793
 30
0.0
 10
29.6258200148
 20
262.3839668458
 30
0.0
  0
SPLINE
  5
33C
100
AcDbEntity
  8
0
100
AcDbSpline
 62
7
  6
CONTINUOUS
 70
0
 71
3
 72
17
 73
13
 74
0
 42
0.0000001
 43
0.0000001
 44
0.0000000001
 40
0.0
 40
0.0
 40
0.0
 40
0.0
 40
0.2518759814
 40
0.3775524696
 40
0.5030274664
 40
0.6282659373
 40
0.7532020055
 40
0.8155189122
 40
0.8776818861
 40
0.9395679301
 40
0.9703153648
 40
1.0
 40
1.0
 40
1.0
 40
1.0
 10
29.6258153895
 20
262.3840822754
 30
0.0
 10
29.7714560372
 20
262.3963104802
 30
0.0
 10
29.9898772565
 20
262.4133971473
 30
0.0
 10
30.2811792124
 20
262.4319740344
 30
0.0
 10
30.499286359
 20
262.4432974034
 30
0.0
 10
30.7171723646
 20
262.4510020801
 30
0.0
 10
30.8984022147
 20
262.4530933044
 30
0.0
 10
31.0433613096
 20
262.4498284194
 30
0.0
 10
31.1505971997
 20
262.4439683722
 30
0.0
 10
31.2422667285
 20
262.4325393611
 30
0.0
 10
31.3068002929
 20
262.4174410075
 30
0.0
 10
31.3472853434
 20
262.3963986703
 30
0.0
 10
31.3479626062
 20
262.3791872381
 30
0.0
  0
SPLINE
  5
33D
100
AcDbEntity
  8
0
100
AcDbSpline
 62
7
  6
CONTINUOUS
 70
0
 71
3
 72
9
 73
5
 74
0
 42
0.0000001
 43
0.0000001
 44
0.0000000001
 40
0.0
 40
0.0
 40
0.0
 40
0.0
 40
0.4849392497
 40
1.0
 40
1.0
 40
1.0
 40
1.0
 10
44.8566973573
 20
264.7563477597
 30
0.0
 10
42.5990096212
 20
264.0715866501
 30
0.0
 10
38.0320431613
 20
262.360735817
 30
0.0
 10
33.6621198295
 20
260.206095482
 30
0.0
 10
31.4638473128
 20
259.0033555389
 30
0.0
  0
SPLINE
  5
33E
100
AcDbEntity
  8
0
100
AcDbSpline
 62
7
  6
CONTINUOUS
 70
0
 71
3
 72
9
 73
5
 74
0
 42
0.0000001
 43
0.0000001
 44
0.0000000001
 40
0.0
 40
0.0
 40
0.0
 40
0.0
 40
0.5144807056
 40
1.0
 40
1.0
 40
1.0
 40
1.0
 10
29.6258153895
 20
262.3840822754
 30
0.0
 10
32.2686226495
 20
262.6061124199
 30
0.0
 10
37.392354164
 20
263.2156373703
 30
0.0
 10
42.4565171473
 20
264.2144699308
 30
0.0
 10
44.8872077875
 20
264.8110158449
 30
0.0
  0
SPLINE
  5
33F
100
AcDbEntity
  8
0
100
AcDbSpline
 62
7
  6
CONTINUOUS
 70
0
 71
3
 72
11
 73
7
 74
0
 42
0.0000001
 43
0.0000001
 44
0.0000000001
 40
0.0
 40
0.0
 40
0.0
 40
0.0
 40
0.2339479937
 40
0.4877135389
 40
0.7468495766
 40
1.0
 40
1.0
 40
1.0
 40
1.0
 10
44.8813224329
 20
264.6656011637
 30
0.0
 10
42.4629270844
 20
263.7924336798
 30
0.0
 10
37.533103936
 20
261.6555396244
 30
0.0
 10
30.3524920453
 20
257.6564964937
 30
0.0
 10
23.3703210063
 20
252.9361432168
 30
0.0
 10
18.9564434907
 20
249.4295483916
 30
0.0
 10
16.8544803283
 20
247.606743469
 30
0.0
  0
SPLINE
  5
340
100
AcDbEntity
  8
0
100
AcDbSpline
 62
7
  6
CONTINUOUS
 70
0
 71
3
 72
9
 73
5
 74
0
 42
0.0000001
 43
0.0000001
 44
0.0000000001
 40
0.0
 40
0.0
 40
0.0
 40
0.0
 40
0.4964074906
 40
1.0
 40
1.0
 40
1.0
 40
1.0
 10
16.2394167384
 20
247.2288931946
 30
0.0
 10
18.5646426948
 20
249.4103060168
 30
0.0
 10
23.4603324196
 20
253.5833741315
 30
0.0
 10
28.724397577
 20
257.2837490808
 30
0.0
 10
31.4638473128
 20
259.0033555389
 30
0.0
  0
SPLINE
  5
341
100
AcDbEntity
  8
0
100
AcDbSpline
 62
7
  6
CONTINUOUS
 70
0
 71
3
 72
10
 73
6
 74
0
 42
0.0000001
 43
0.0000001
 44
0.0000000001
 40
0.0
 40
0.0
 40
0.0
 40
0.0
 40
0.234042272
 40
0.4878013277
 40
1.0
 40
1.0
 40
1.0
 40
1.0
 10
44.8149539799
 20
264.281524058
 30
0.0
 10
42.4529422785
 20
263.3507790465
 30
0.0
 10
37.6469717251
 20
261.1071599685
 30
0.0
 10
28.2822312462
 20
255.6165623796
 30
0.0
 10
21.6149748564
 20
250.5891846225
 30
0.0
 10
17.4351680796
 20
246.9286853462
 30
0.0
  0
SPLINE
  5
342
100
AcDbEntity
  8
0
100
AcDbSpline
 62
7
  6
CONTINUOUS
 70
0
 71
3
 72
9
 73
5
 74
0
 42
0.0000001
 43
0.0000001
 44
0.0000000001
 40
0.0
 40
0.0
 40
0.0
 40
0.0
 40
0.4868146282
 40
1.0
 40
1.0
 40
1.0
 40
1.0
 10
48.4512797914
 20
262.1763094797
 30
0.0
 10
46.3054375132
 20
259.9953003818
 30
0.0
 10
41.9945490446
 20
255.4192770576
 30
0.0
 10
37.8441499034
 20
250.6978742288
 30
0.0
 10
35.7549355391
 20
248.2405766471
 30
0.0
  0
SPLINE
  5
343
100
AcDbEntity
  8
0
100
AcDbSpline
 62
7
  6
CONTINUOUS
 70
0
 71
3
 72
9
 73
5
 74
0
 42
0.0000001
 43
0.0000001
 44
0.0000000001
 40
0.0
 40
0.0
 40
0.0
 40
0.0
 40
0.5590207091
 40
1.0
 40
1.0
 40
1.0
 40
1.0
 10
46.6483273326
 20
264.9682521584
 30
0.0
 10
46.6302645047
 20
265.0219821215
 30
0.0
 10
46.5908484042
 20
265.1142335627
 30
0.0
 10
46.5253061963
 20
265.2000026962
 30
0.0
 10
46.4853519875
 20
265.2200808284
 30
0.0
  0
SPLINE
  5
344
100
AcDbEntity
  8
0
100
AcDbSpline
 62
7
  6
CONTINUOUS
 70
0
 71
3
 72
8
 73
4
 74
0
 42
0.0000001
 43
0.0000001
 44
0.0000000001
 40
0.0
 40
0.0
 40
0.0
 40
0.0
 40
1.0
 40
1.0
 40
1.0
 40
1.0
 10
46.4844790817
 20
265.2203642261
 30
0.0
 10
46.5507242568
 20
265.238731689
 30
0.0
 10
46.6169254806
 20
265.2572617237
 30
0.0
 10
46.6832791426
 20
265.2752333248
 30
0.0
  0
SPLINE
  5
345
100
AcDbEntity
  8
0
100
AcDbSpline
 62
7
  6
CONTINUOUS
 70
0
 71
3
 72
16
 73
12
 74
0
 42
0.0000001
 43
0.0000001
 44
0.0000000001
 40
0.0
 40
0.0
 40
0.0
 40
0.0
 40
0.2553274603
 40
0.3821312707
 40
0.5082814569
 40
0.6336761139
 40
0.7581287954
 40
0.8198948915
 40
0.8812265009
 40
0.9418926331
 40
1.0
 40
1.0
 40
1.0
 40
1.0
 10
46.6832781958
 20
265.2752419058
 30
0.0
 10
46.8054356319
 20
265.3083277167
 30
0.0
 10
46.9886131341
 20
265.3565919816
 30
0.0
 10
47.2331590716
 20
265.4171442761
 30
0.0
 10
47.4158390937
 20
265.4597728968
 30
0.0
 10
47.5979353637
 20
265.4987672864
 30
0.0
 10
47.7503544327
 20
265.5268749589
 30
0.0
 10
47.8707967885
 20
265.5445629818
 30
0.0
 10
47.9644641077
 20
265.5538542923
 30
0.0
 10
48.0427523537
 20
265.5570330398
 30
0.0
 10
48.1282332613
 20
265.5466673753
 30
0.0
 10
48.1313404532
 20
265.5180332623
 30
0.0
  0
SPLINE
  5
346
100
AcDbEntity
  8
0
100
AcDbSpline
 62
7
  6
CONTINUOUS
 70
0
 71
3
 72
9
 73
5
 74
0
 42
0.0000001
 43
0.0000001
 44
0.0000000001
 40
0.0
 40
0.0
 40
0.0
 40
0.0
 40
0.5360233043
 40
1.0
 40
1.0
 40
1.0
 40
1.0
 10
46.6832781958
 20
265.2752419058
 30
0.0
 10
49.0715569379
 20
265.9224278258
 30
0.0
 10
53.4727325011
 20
267.3460336406
 30
0.0
 10
57.6642216378
 20
269.3337153832
 30
0.0
 10
59.5003103415
 20
270.4365351178
 30
0.0
  0
SPLINE
  5
347
100
AcDbEntity
  8
0
100
AcDbSpline
 62
7
  6
CONTINUOUS
 70
0
 71
3
 72
9
 73
5
 74
0
 42
0.0000001
 43
0.0000001
 44
0.0000000001
 40
0.0
 40
0.0
 40
0.0
 40
0.0
 40
0.4553554398
 40
1.0
 40
1.0
 40
1.0
 40
1.0
 10
59.5019146122
 20
270.4360820551
 30
0.0
 10
57.7050803795
 20
269.3573117164
 30
0.0
 10
53.9226605085
 20
266.7182404926
 30
0.0
 10
50.3532883347
 20
263.8091517983
 30
0.0
 10
48.4512797914
 20
262.1763094797
 30
0.0
  0
SPLINE
  5
348
100
AcDbEntity
  8
0
100
AcDbSpline
 62
7
  6
CONTINUOUS
 70
0
 71
3
 72
14
 73
10
 74
0
 42
0.0000001
 43
0.0000001
 44
0.0000000001
 40
0.0
 40
0.0
 40
0.0
 40
0.0
 40
0.0909285212
 40
0.1964649681
 40
0.3141450577
 40
0.4414941384
 40
0.5759975582
 40
0.7152494873
 40
1.0
 40
1.0
 40
1.0
 40
1.0
 10
59.5019146122
 20
270.4360820551
 30
0.0
 10
58.7363634887
 20
269.8552928988
 30
0.0
 10
57.0958057366
 20
268.5822315483
 30
0.0
 10
54.5435572262
 20
266.4582091496
 30
0.0
 10
51.7609735413
 20
264.0117505431
 30
0.0
 10
48.8108967401
 20
261.2939083957
 30
0.0
 10
45.7509431097
 20
258.3601027243
 30
0.0
 10
41.5722052354
 20
254.1915508496
 30
0.0
 10
38.4682478266
 20
250.9584430517
 30
0.0
 10
36.4260982012
 20
248.7482161351
 30
0.0
  0
SPLINE
  5
349
100
AcDbEntity
  8
0
100
AcDbSpline
 62
7
  6
CONTINUOUS
 70
0
 71
3
 72
14
 73
10
 74
0
 42
0.0000001
 43
0.0000001
 44
0.0000000001
 40
0.0
 40
0.0
 40
0.0
 40
0.0
 40
0.0909669209
 40
0.1963332211
 40
0.4412192449
 40
0.575751338
 40
0.7150900718
 40
0.8571137169
 40
1.0
 40
1.0
 40
1.0
 40
1.0
 10
59.7228958983
 20
270.2118565592
 30
0.0
 10
58.9749080411
 20
269.6108160834
 30
0.0
 10
57.3864104003
 20
268.2813384468
 30
0.0
 10
53.9010776967
 20
265.1963809492
 30
0.0
 10
50.1931327438
 20
261.6725226654
 30
0.0
 10
46.3145000054
 20
257.8125351871
 30
0.0
 10
43.2476462582
 20
254.6754357673
 30
0.0
 10
40.1589168932
 20
251.4369395701
 30
0.0
 10
38.1212411657
 20
249.2277407686
 30
0.0
 10
37.1040443223
 20
248.1155357131
 30
0.0
  0
SPLINE
  5
34A
100
AcDbEntity
  8
0
100
AcDbSpline
 62
7
  6
CONTINUOUS
 70
0
 71
3
 72
9
 73
5
 74
0
 42
0.0000001
 43
0.0000001
 44
0.0000000001
 40
0.0
 40
0.0
 40
0.0
 40
0.0
 40
0.7693016519
 40
1.0
 40
1.0
 40
1.0
 40
1.0
 10
59.7229019209
 20
270.2118571276
 30
0.0
 10
59.6978799094
 20
270.2904505581
 30
0.0
 10
59.6253430022
 20
270.3860435143
 30
0.0
 10
59.5260037596
 20
270.4295879677
 30
0.0
 10
59.5019470582
 20
270.4353376502
 30
0.0
  0
SPLINE
  5
34B
100
AcDbEntity
  8
0
100
AcDbSpline
 62
7
  6
CONTINUOUS
 70
0
 71
3
 72
8
 73
4
 74
0
 42
0.0000001
 43
0.0000001
 44
0.0000000001
 40
0.0
 40
0.0
 40
0.0
 40
0.0
 40
1.0
 40
1.0
 40
1.0
 40
1.0
 10
59.5003427395
 20
270.4363392702
 30
0.0
 10
59.5430133389
 20
270.4625787103
 30
0.0
 10
59.5861556879
 20
270.4880434898
 30
0.0
 10
59.6289778334
 20
270.5140348754
 30
0.0
  0
SPLINE
  5
34C
100
AcDbEntity
  8
0
100
AcDbSpline
 62
7
  6
CONTINUOUS
 70
0
 71
3
 72
13
 73
9
 74
0
 42
0.0000001
 43
0.0000001
 44
0.0000000001
 40
0.0
 40
0.0
 40
0.0
 40
0.0
 40
0.2637008512
 40
0.5215725102
 40
0.6477314944
 40
0.7713535231
 40
0.8911232905
 40
1.0
 40
1.0
 40
1.0
 40
1.0
 10
59.6289657971
 20
270.5142570863
 30
0.0
 10
59.7091846598
 20
270.5629469253
 30
0.0
 10
59.8682624469
 20
270.6580149655
 30
0.0
 10
60.069804739
 20
270.7721376309
 30
0.0
 10
60.227592709
 20
270.8557582704
 30
0.0
 10
60.3525075426
 20
270.9138781772
 30
0.0
 10
60.4466344446
 20
270.956706449
 30
0.0
 10
60.5781372185
 20
270.9833704891
 30
0.0
 10
60.5844139514
 20
270.9451380685
 30
0.0
  0
SPLINE
  5
34D
100
AcDbEntity
  8
0
100
AcDbSpline
 62
7
  6
CONTINUOUS
 70
0
 71
3
 72
10
 73
6
 74
0
 42
0.0000001
 43
0.0000001
 44
0.0000000001
 40
0.0
 40
0.0
 40
0.0
 40
0.0
 40
0.2895542114
 40
0.5515756984
 40
1.0
 40
1.0
 40
1.0
 40
1.0
 10
59.6289657971
 20
270.5142570863
 30
0.0
 10
60.4261255612
 20
270.9982705741
 30
0.0
 10
61.9063674813
 20
271.9901839748
 30
0.0
 10
64.3635914095
 20
274.070770486
 30
0.0
 10
65.8227901226
 20
275.9095276854
 30
0.0
 10
66.4496968211
 20
277.2106579973
 30
0.0
  0
SPLINE
  5
34E
100
AcDbEntity
  8
0
100
AcDbSpline
 62
7
  6
CONTINUOUS
 70
0
 71
3
 72
10
 73
6
 74
0
 42
0.0000001
 43
0.0000001
 44
0.0000000001
 40
0.0
 40
0.0
 40
0.0
 40
0.0
 40
0.1915370786
 40
0.425102997
 40
1.0
 40
1.0
 40
1.0
 40
1.0
 10
66.4506214582
 20
277.2105254475
 30
0.0
 10
66.1467334273
 20
276.5798331983
 30
0.0
 10
65.4343038208
 20
275.1984411695
 30
0.0
 10
63.6674668239
 20
271.9985334619
 30
0.0
 10
62.154149981
 20
269.4594345734
 30
0.0
 10
61.0597006153
 20
267.6656522625
 30
0.0
  0
SPLINE
  5
34F
100
AcDbEntity
  8
0
100
AcDbSpline
 62
7
  6
CONTINUOUS
 70
0
 71
3
 72
15
 73
11
 74
0
 42
0.0000001
 43
0.0000001
 44
0.0000000001
 40
0.0
 40
0.0
 40
0.0
 40
0.0
 40
0.0350311669
 40
0.0749361329
 40
0.1685465664
 40
0.2790999016
 40
0.4043021956
 40
0.5415318896
 40
0.6881252096
 40
1.0
 40
1.0
 40
1.0
 40
1.0
 10
66.4506214582
 20
277.2105254475
 30
0.0
 10
66.3821151098
 20
276.8920073427
 30
0.0
 10
66.1979313089
 20
276.2187914549
 30
0.0
 10
65.6877761696
 20
274.7361182053
 30
0.0
 10
64.8144073232
 20
272.6387710422
 30
0.0
 10
63.4936495837
 20
269.8741361212
 30
0.0
 10
61.8806611909
 20
266.8022843437
 30
0.0
 10
60.0195240185
 20
263.4842444349
 30
0.0
 10
57.2130800434
 20
258.7069920845
 30
0.0
 10
54.9354959161
 20
255.1012240676
 30
0.0
 10
53.3693468895
 20
252.6598458096
 30
0.0
  0
SPLINE
  5
350
100
AcDbEntity
  8
0
100
AcDbSpline
 62
7
  6
CONTINUOUS
 70
0
 71
3
 72
8
 73
4
 74
0
 42
0.0000001
 43
0.0000001
 44
0.0000000001
 40
0.0
 40
0.0
 40
0.0
 40
0.0
 40
1.0
 40
1.0
 40
1.0
 40
1.0
 10
53.3693468895
 20
252.6598458096
 30
0.0
 10
53.2309017244
 20
252.4440317267
 30
0.0
 10
53.0923120401
 20
252.2283103028
 30
0.0
 10
52.9535979083
 20
252.0126689994
 30
0.0
  0
SPLINE
  5
351
100
AcDbEntity
  8
0
100
AcDbSpline
 62
7
  6
CONTINUOUS
 70
0
 71
3
 72
9
 73
5
 74
0
 42
0.0000001
 43
0.0000001
 44
0.0000000001
 40
0.0
 40
0.0
 40
0.0
 40
0.0
 40
0.5276646526
 40
1.0
 40
1.0
 40
1.0
 40
1.0
 10
52.805645755
 20
252.0982575456
 30
0.0
 10
54.3678373743
 20
254.7759442447
 30
0.0
 10
57.2493146696
 20
259.896924973
 30
0.0
 10
59.9060194411
 20
265.1418276837
 30
0.0
 10
61.0597006153
 20
267.6656522625
 30
0.0
  0
SPLINE
  5
352
100
AcDbEntity
  8
0
100
AcDbSpline
 62
7
  6
CONTINUOUS
 70
0
 71
3
 72
14
 73
10
 74
0
 42
0.0000001
 43
0.0000001
 44
0.0000000001
 40
0.0
 40
0.0
 40
0.0
 40
0.0
 40
0.0760897163
 40
0.170254838
 40
0.2809966241
 40
0.4061429026
 40
0.6892695088
 40
0.8422844995
 40
1.0
 40
1.0
 40
1.0
 40
1.0
 10
66.7024571921
 20
277.0250489179
 30
0.0
 10
66.568960062
 20
276.3285982105
 30
0.0
 10
66.1429384455
 20
274.795406376
 30
0.0
 10
65.2266447403
 20
272.3407902401
 30
0.0
 10
63.9829836601
 20
269.5257815938
 30
0.0
 10
61.8427444281
 20
265.1870078726
 30
0.0
 10
59.2921619622
 20
260.6160622147
 30
0.0
 10
56.4404245516
 20
255.8728480695
 30
0.0
 10
54.9098797286
 20
253.4142083032
 30
0.0
 10
54.1214218904
 20
252.1737227013
 30
0.0
  0
SPLINE
  5
353
100
AcDbEntity
  8
0
100
AcDbSpline
 62
7
  6
CONTINUOUS
 70
0
 71
3
 72
10
 73
6
 74
0
 42
0.0000001
 43
0.0000001
 44
0.0000000001
 40
0.0
 40
0.0
 40
0.0
 40
0.0
 40
0.2248264476
 40
0.4687086312
 40
1.0
 40
1.0
 40
1.0
 40
1.0
 10
67.3695956369
 20
274.6356764838
 30
0.0
 10
67.4134019732
 20
273.3858544539
 30
0.0
 10
67.3410452319
 20
270.7734590236
 30
0.0
 10
66.6625577631
 20
265.2475089337
 30
0.0
 10
65.6437219232
 20
261.0405215854
 30
0.0
 10
64.8036611571
 20
258.2071422678
 30
0.0
  0
SPLINE
  5
354
100
AcDbEntity
  8
0
100
AcDbSpline
 62
7
  6
CONTINUOUS
 70
0
 71
3
 72
9
 73
5
 74
0
 42
0.0000001
 43
0.0000001
 44
0.0000000001
 40
0.0
 40
0.0
 40
0.0
 40
0.0
 40
0.4795253289
 40
1.0
 40
1.0
 40
1.0
 40
1.0
 10
66.7024639986
 20
277.0250503829
 30
0.0
 10
66.6897995115
 20
277.0759927931
 30
0.0
 10
66.6185420672
 20
277.1714101953
 30
0.0
 10
66.5076426382
 20
277.2089500962
 30
0.0
 10
66.4506715225
 20
277.2096732044
 30
0.0
  0
LINE
  5
355
100
AcDbEntity
  8
0
100
AcDbLine
 62
7
  6
CONTINUOUS
 10
66.44972863
 20
277.2104989027
 11
66.4941372084
 21
277.3039683807
  0
SPLINE
  5
356
100
AcDbEntity
  8
0
100
AcDbSpline
 62
7
  6
CONTINUOUS
 70
0
 71
3
 72
9
 73
5
 74
0
 42
0.0000001
 43
0.0000001
 44
0.0000000001
 40
0.0
 40
0.0
 40
0.0
 40
0.0
 40
0.5863048234
 40
1.0
 40
1.0
 40
1.0
 40
1.0
 10
66.4940329085
 20
277.3039773374
 30
0.0
 10
66.5456133957
 20
277.4140161256
 30
0.0
 10
66.5866878453
 20
277.507962219
 30
0.0
 10
66.7946587194
 20
277.9183909756
 30
0.0
 10
66.8113173113
 20
277.8342747436
 30
0.0
  0
SPLINE
  5
357
100
AcDbEntity
  8
0
100
AcDbSpline
 62
7
  6
CONTINUOUS
 70
0
 71
3
 72
9
 73
5
 74
0
 42
0.0000001
 43
0.0000001
 44
0.0000000001
 40
0.0
 40
0.0
 40
0.0
 40
0.0
 40
0.5097974778
 40
1.0
 40
1.0
 40
1.0
 40
1.0
 10
66.4940329085
 20
277.3039773374
 30
0.0
 10
66.8226478374
 20
278.0054388403
 30
0.0
 10
67.2997454454
 20
279.4720957694
 30
0.0
 10
67.3127397676
 20
281.0188436495
 30
0.0
 10
67.2067716861
 20
281.7561132054
 30
0.0
  0
SPLINE
  5
358
100
AcDbEntity
  8
0
100
AcDbSpline
 62
7
  6
CONTINUOUS
 70
0
 71
3
 72
9
 73
5
 74
0
 42
0.0000001
 43
0.0000001
 44
0.0000000001
 40
0.0
 40
0.0
 40
0.0
 40
0.0
 40
0.2427610867
 40
1.0
 40
1.0
 40
1.0
 40
1.0
 10
66.3850449911
 20
284.3891619402
 30
0.0
 10
66.4831346284
 20
284.26191752
 30
0.0
 10
66.8691507446
 20
283.7238692296
 30
0.0
 10
67.1835840663
 20
283.1363349189
 30
0.0
 10
67.3873668163
 20
282.6784840928
 30
0.0
  0
SPLINE
  5
359
100
AcDbEntity
  8
0
100
AcDbSpline
 62
7
  6
CONTINUOUS
 70
0
 71
3
 72
9
 73
5
 74
0
 42
0.0000001
 43
0.0000001
 44
0.0000000001
 40
0.0
 40
0.0
 40
0.0
 40
0.0
 40
0.2370292743
 40
1.0
 40
1.0
 40
1.0
 40
1.0
 10
67.6824936384
 20
281.9439875649
 30
0.0
 10
67.7636223079
 20
281.7195937592
 30
0.0
 10
68.0770654924
 20
280.7624999155
 30
0.0
 10
68.2810994961
 20
279.7714741573
 30
0.0
 10
68.3898100158
 20
279.0111495631
 30
0.0
  0
SPLINE
  5
35A
100
AcDbEntity
  8
0
100
AcDbSpline
 62
7
  6
CONTINUOUS
 70
0
 71
3
 72
11
 73
7
 74
0
 42
0.0000001
 43
0.0000001
 44
0.0000000001
 40
0.0
 40
0.0
 40
0.0
 40
0.0
 40
0.2100615535
 40
0.4505458673
 40
0.715930852
 40
1.0
 40
1.0
 40
1.0
 40
1.0
 10
68.3898100158
 20
279.0111495631
 30
0.0
 10
68.5949352889
 20
277.5764973276
 30
0.0
 10
68.6832295034
 20
274.4491212584
 30
0.0
 10
68.1172750139
 20
269.5331223581
 30
0.0
 10
66.9348969447
 20
264.204398467
 30
0.0
 10
65.8048845371
 20
260.5823479445
 30
0.0
 10
65.1702608684
 20
258.7281126738
 30
0.0
  0
SPLINE
  5
35B
100
AcDbEntity
  8
0
100
AcDbSpline
 62
7
  6
CONTINUOUS
 70
0
 71
3
 72
8
 73
4
 74
0
 42
0.0000001
 43
0.0000001
 44
0.0000000001
 40
0.0
 40
0.0
 40
0.0
 40
0.0
 40
1.0
 40
1.0
 40
1.0
 40
1.0
 10
46.4853549739
 20
265.2208439811
 30
0.0
 10
46.4020970069
 20
265.1985256565
 30
0.0
 10
46.3186299657
 20
265.1769838545
 30
0.0
 10
46.2354878111
 20
265.1542378916
 30
0.0
  0
SPLINE
  5
35C
100
AcDbEntity
  8
0
100
AcDbSpline
 62
7
  6
CONTINUOUS
 70
0
 71
3
 72
9
 73
5
 74
0
 42
0.0000001
 43
0.0000001
 44
0.0000000001
 40
0.0
 40
0.0
 40
0.0
 40
0.0
 40
0.4853710115
 40
1.0
 40
1.0
 40
1.0
 40
1.0
 10
68.864526471
 20
278.3770609244
 30
0.0
 10
69.4095373103
 20
276.4359174654
 30
0.0
 10
70.1323991496
 20
272.3190102198
 30
0.0
 10
70.1983924644
 20
268.1527557753
 30
0.0
 10
70.1160203952
 20
266.0166043673
 30
0.0
  0
SPLINE
  5
35D
100
AcDbEntity
  8
0
100
AcDbSpline
 62
7
  6
CONTINUOUS
 70
0
 71
3
 72
9
 73
5
 74
0
 42
0.0000001
 43
0.0000001
 44
0.0000000001
 40
0.0
 40
0.0
 40
0.0
 40
0.0
 40
0.4791594446
 40
1.0
 40
1.0
 40
1.0
 40
1.0
 10
66.4922137248
 20
284.4448744638
 30
0.0
 10
66.4695218622
 20
284.4733646695
 30
0.0
 10
66.4018379246
 20
284.517553124
 30
0.0
 10
66.3229235065
 20
284.5222508785
 30
0.0
 10
66.2837300682
 20
284.5166541062
 30
0.0
  0
SPLINE
  5
35E
100
AcDbEntity
  8
0
100
AcDbSpline
 62
7
  6
CONTINUOUS
 70
0
 71
3
 72
9
 73
5
 74
0
 42
0.0000001
 43
0.0000001
 44
0.0000000001
 40
0.0
 40
0.0
 40
0.0
 40
0.0
 40
0.2756245237
 40
1.0
 40
1.0
 40
1.0
 40
1.0
 10
-27.0754642798
 20
284.1872661205
 30
0.0
 10
-27.0323009205
 20
284.3879598466
 30
0.0
 10
-26.8371480183
 20
285.106073382
 30
0.0
 10
-26.4727733997
 20
285.7869166532
 30
0.0
 10
-26.1120008006
 20
286.1880561464
 30
0.0
  0
SPLINE
  5
35F
100
AcDbEntity
  8
0
100
AcDbSpline
 62
7
  6
CONTINUOUS
 70
0
 71
3
 72
11
 73
7
 74
0
 42
0.0000001
 43
0.0000001
 44
0.0000000001
 40
0.0
 40
0.0
 40
0.0
 40
0.0
 40
0.2108472316
 40
0.4514143082
 40
0.7164255239
 40
1.0
 40
1.0
 40
1.0
 40
1.0
 10
68.7494634561
 20
279.0151442424
 30
0.0
 10
69.0111904182
 20
277.5688605954
 30
0.0
 10
69.2048263774
 20
274.405583419
 30
0.0
 10
68.7476961505
 20
269.4209899561
 30
0.0
 10
67.6257573824
 20
264.0260305465
 30
0.0
 10
66.5279454586
 20
260.3586193128
 30
0.0
 10
65.8965593118
 20
258.4854241294
 30
0.0
  0
SPLINE
  5
360
100
AcDbEntity
  8
0
100
AcDbSpline
 62
7
  6
CONTINUOUS
 70
0
 71
3
 72
9
 73
5
 74
0
 42
0.0000001
 43
0.0000001
 44
0.0000000001
 40
0.0
 40
0.0
 40
0.0
 40
0.0
 40
0.5065832446
 40
1.0
 40
1.0
 40
1.0
 40
1.0
 10
-27.3271744991
 20
284.0190330153
 30
0.0
 10
-27.3198044985
 20
284.054822604
 30
0.0
 10
-27.2882489341
 20
284.1238206896
 30
0.0
 10
-27.2247197254
 20
284.1658441674
 30
0.0
 10
-27.1910818638
 20
284.1774717829
 30
0.0
  0
SPLINE
  5
361
100
AcDbEntity
  8
0
100
AcDbSpline
 62
7
  6
CONTINUOUS
 70
0
 71
3
 72
9
 73
5
 74
0
 42
0.0000001
 43
0.0000001
 44
0.0000000001
 40
0.0
 40
0.0
 40
0.0
 40
0.0
 40
0.4608465774
 40
1.0
 40
1.0
 40
1.0
 40
1.0
 10
67.2196093965
 20
281.7574275251
 30
0.0
 10
67.4354999318
 20
280.681641009
 30
0.0
 10
67.6386737516
 20
278.2943956488
 30
0.0
 10
67.5035439733
 20
275.9123458363
 30
0.0
 10
67.3695956369
 20
274.6356764838
 30
0.0
  0
SPLINE
  5
362
100
AcDbEntity
  8
0
100
AcDbSpline
 62
7
  6
CONTINUOUS
 70
0
 71
3
 72
12
 73
8
 74
0
 42
0.0000001
 43
0.0000001
 44
0.0000000001
 40
0.0
 40
0.0
 40
0.0
 40
0.0
 40
0.3839501286
 40
0.6780956452
 40
0.8819055105
 40
0.9510072625
 40
1.0
 40
1.0
 40
1.0
 40
1.0
 10
-26.9085200655
 20
276.8802958736
 30
0.0
 10
-27.1118259049
 20
277.2643978736
 30
0.0
 10
-27.4622664568
 20
277.947848243
 30
0.0
 10
-27.8766590494
 20
278.8553189686
 30
0.0
 10
-28.103203648
 20
279.4589972742
 30
0.0
 10
-28.1786648811
 20
279.8154838666
 30
0.0
 10
-28.1840825733
 20
279.9511845962
 30
0.0
 10
-28.1744471144
 20
280.005795429
 30
0.0
  0
SPLINE
  5
363
100
AcDbEntity
  8
0
100
AcDbSpline
 62
7
  6
CONTINUOUS
 70
0
 71
3
 72
10
 73
6
 74
0
 42
0.0000001
 43
0.0000001
 44
0.0000000001
 40
0.0
 40
0.0
 40
0.0
 40
0.0
 40
0.2452453372
 40
0.4895366583
 40
1.0
 40
1.0
 40
1.0
 40
1.0
 10
-27.7499385471
 20
282.2211483457
 30
0.0
 10
-27.8412898733
 20
281.7806105465
 30
0.0
 10
-27.9465889171
 20
280.8826717987
 30
0.0
 10
-27.8237725569
 20
279.0440664796
 30
0.0
 10
-27.3456951218
 20
277.7081050315
 30
0.0
 10
-26.9075976743
 20
276.8804413726
 30
0.0
  0
SPLINE
  5
364
100
AcDbEntity
  8
0
100
AcDbSpline
 62
7
  6
CONTINUOUS
 70
0
 71
3
 72
19
 73
15
 74
0
 42
0.0000001
 43
0.0000001
 44
0.0000000001
 40
0.0
 40
0.0
 40
0.0
 40
0.0
 40
0.2375196025
 40
0.4429032581
 40
0.6162490445
 40
0.757355439
 40
0.8659677752
 40
0.90808141
 40
0.9420957341
 40
0.968044478
 40
0.9860006901
 40
0.9920473533
 40
0.9962176479
 40
1.0
 40
1.0
 40
1.0
 40
1.0
 10
-26.9085200655
 20
276.8802958736
 30
0.0
 10
-27.1046025442
 20
277.1225995082
 30
0.0
 10
-27.4654735912
 20
277.5783038463
 30
0.0
 10
-27.9559569761
 20
278.2213364582
 30
0.0
 10
-28.3645078542
 20
278.76767764
 30
0.0
 10
-28.6921939872
 20
279.2158825695
 30
0.0
 10
-28.9139197834
 20
279.5281620669
 30
0.0
 10
-29.050129049
 20
279.7287746489
 30
0.0
 10
-29.1235126523
 20
279.8407686573
 30
0.0
 10
-29.1764688095
 20
279.9285133611
 30
0.0
 10
-29.208723317
 20
279.9851006322
 30
0.0
 10
-29.2223617975
 20
280.0204058794
 30
0.0
 10
-29.2290891868
 20
280.035929715
 30
0.0
 10
-29.2259959925
 20
280.0512035211
 30
0.0
 10
-29.221049483
 20
280.0516161806
 30
0.0
  0
SPLINE
  5
365
100
AcDbEntity
  8
0
100
AcDbSpline
 62
7
  6
CONTINUOUS
 70
0
 71
3
 72
9
 73
5
 74
0
 42
0.0000001
 43
0.0000001
 44
0.0000000001
 40
0.0
 40
0.0
 40
0.0
 40
0.0
 40
0.2594240103
 40
1.0
 40
1.0
 40
1.0
 40
1.0
 10
-0.5369752959
 20
296.2154322989
 30
0.0
 10
-0.9424038971
 20
296.1067549396
 30
0.0
 10
-2.5004577705
 20
295.6705528022
 30
0.0
 10
-4.039309561
 20
295.1639830397
 30
0.0
 10
-5.1605510865
 20
294.7413934684
 30
0.0
  0
SPLINE
  5
366
100
AcDbEntity
  8
0
100
AcDbSpline
 62
7
  6
CONTINUOUS
 70
0
 71
3
 72
9
 73
5
 74
0
 42
0.0000001
 43
0.0000001
 44
0.0000000001
 40
0.0
 40
0.0
 40
0.0
 40
0.0
 40
0.2624129265
 40
1.0
 40
1.0
 40
1.0
 40
1.0
 10
-5.1605510865
 20
294.7413934684
 30
0.0
 10
-5.5145464569
 20
294.6079746211
 30
0.0
 10
-6.8564766329
 20
294.0812962159
 30
0.0
 10
-8.1697801119
 20
293.4792863419
 30
0.0
 10
-9.1101880451
 20
292.9829963934
 30
0.0
  0
SPLINE
  5
367
100
AcDbEntity
  8
0
100
AcDbSpline
 62
7
  6
CONTINUOUS
 70
0
 71
3
 72
13
 73
9
 74
0
 42
0.0000001
 43
0.0000001
 44
0.0000000001
 40
0.0
 40
0.0
 40
0.0
 40
0.0
 40
0.3152818376
 40
0.4532597887
 40
0.5789218694
 40
0.7992288516
 40
0.9003125117
 40
1.0
 40
1.0
 40
1.0
 40
1.0
 10
-9.1101880451
 20
292.9829963934
 30
0.0
 10
-10.2607309916
 20
292.3758100019
 30
0.0
 10
-11.8648817251
 20
291.3888417268
 30
0.0
 10
-13.6752756795
 20
289.8211852352
 30
0.0
 10
-15.0109663863
 20
288.3344552931
 30
0.0
 10
-15.9373324085
 20
286.682882928
 30
0.0
 10
-16.2644816635
 20
284.9634459484
 30
0.0
 10
-16.234326778
 20
284.1273836246
 30
0.0
 10
-16.1746603363
 20
283.7203984622
 30
0.0
  0
SPLINE
  5
368
100
AcDbEntity
  8
0
100
AcDbSpline
 62
7
  6
CONTINUOUS
 70
0
 71
3
 72
9
 73
5
 74
0
 42
0.0000001
 43
0.0000001
 44
0.0000000001
 40
0.0
 40
0.0
 40
0.0
 40
0.0
 40
0.2418857829
 40
1.0
 40
1.0
 40
1.0
 40
1.0
 10
-16.1746603363
 20
283.7203984622
 30
0.0
 10
-16.1480300754
 20
283.5387532905
 30
0.0
 10
-16.0019069703
 20
282.7931494035
 30
0.0
 10
-15.7124701192
 20
282.078746759
 30
0.0
 10
-15.4373076024
 20
281.5734104918
 30
0.0
  0
SPLINE
  5
369
100
AcDbEntity
  8
0
100
AcDbSpline
 62
7
  6
CONTINUOUS
 70
0
 71
3
 72
9
 73
5
 74
0
 42
0.0000001
 43
0.0000001
 44
0.0000000001
 40
0.0
 40
0.0
 40
0.0
 40
0.0
 40
0.4567475502
 40
1.0
 40
1.0
 40
1.0
 40
1.0
 10
-15.4373076024
 20
281.5734104918
 30
0.0
 10
-14.9953067113
 20
280.7616753653
 30
0.0
 10
-13.7082417026
 20
279.1580452483
 30
0.0
 10
-12.098335787
 20
277.9119819719
 30
0.0
 10
-11.1813332875
 20
277.3056675708
 30
0.0
  0
SPLINE
  5
36A
100
AcDbEntity
  8
0
100
AcDbSpline
 62
7
  6
CONTINUOUS
 70
0
 71
3
 72
15
 73
11
 74
0
 42
0.0000001
 43
0.0000001
 44
0.0000000001
 40
0.0
 40
0.0
 40
0.0
 40
0.0
 40
0.1016149538
 40
0.21659721
 40
0.3421977773
 40
0.4749843226
 40
0.6111262192
 40
0.7466171365
 40
0.8774790701
 40
1.0
 40
1.0
 40
1.0
 40
1.0
 10
-8.5714069882
 20
275.8081157737
 30
0.0
 10
-7.0810508092
 20
275.0608984224
 30
0.0
 10
-3.7744965533
 20
273.7247567629
 30
0.0
 10
1.6426688157
 20
272.2191065676
 30
0.0
 10
7.6783107913
 20
271.1270588916
 30
0.0
 10
14.1259315913
 20
270.4880777942
 30
0.0
 10
20.765070397
 20
270.3248855707
 30
0.0
 10
27.3672014655
 20
270.6435417464
 30
0.0
 10
33.7045116146
 20
271.4322890543
 30
0.0
 10
37.7796409975
 20
272.288603863
 30
0.0
 10
39.7230429281
 20
272.8024378125
 30
0.0
  0
SPLINE
  5
36B
100
AcDbEntity
  8
0
100
AcDbSpline
 62
7
  6
CONTINUOUS
 70
0
 71
3
 72
10
 73
6
 74
0
 42
0.0000001
 43
0.0000001
 44
0.0000000001
 40
0.0
 40
0.0
 40
0.0
 40
0.0
 40
0.2420691617
 40
0.4899063887
 40
1.0
 40
1.0
 40
1.0
 40
1.0
 10
44.3250269692
 20
269.2356213701
 30
0.0
 10
43.7628774345
 20
269.0869704639
 30
0.0
 10
42.6222977622
 20
268.7966572726
 30
0.0
 10
40.2785448596
 20
268.2695210961
 30
0.0
 10
38.4896879432
 20
267.9275951005
 30
0.0
 10
37.2822087099
 20
267.719437452
 30
0.0
  0
SPLINE
  5
36C
100
AcDbEntity
  8
0
100
AcDbSpline
 62
7
  6
CONTINUOUS
 70
0
 71
3
 72
14
 73
10
 74
0
 42
0.0000001
 43
0.0000001
 44
0.0000000001
 40
0.0
 40
0.0
 40
0.0
 40
0.0
 40
0.0305371133
 40
0.0613768138
 40
0.1239367165
 40
0.2517606221
 40
0.5119231197
 40
0.7660045807
 40
1.0
 40
1.0
 40
1.0
 40
1.0
 10
37.2822087099
 20
267.719437452
 30
0.0
 10
36.842764495
 20
267.6436815533
 30
0.0
 10
35.9576304831
 20
267.5025228082
 30
0.0
 10
34.1678852435
 20
267.2335410106
 30
0.0
 10
30.9623684021
 20
266.8287488187
 30
0.0
 10
24.4046068657
 20
266.2666170957
 30
0.0
 10
15.0109038941
 20
266.1895000715
 30
0.0
 10
4.1141847328
 20
267.1970939238
 30
0.0
 10
-2.8892579035
 20
268.6376985004
 30
0.0
 10
-6.1760643765
 20
269.5718567209
 30
0.0
  0
SPLINE
  5
36D
100
AcDbEntity
  8
0
100
AcDbSpline
 62
7
  6
CONTINUOUS
 70
0
 71
3
 72
14
 73
10
 74
0
 42
0.0000001
 43
0.0000001
 44
0.0000000001
 40
0.0
 40
0.0
 40
0.0
 40
0.0
 40
0.3260503585
 40
0.470128034
 40
0.6006285277
 40
0.717554336
 40
0.8216716229
 40
0.9147831098
 40
1.0
 40
1.0
 40
1.0
 40
1.0
 10
-6.253025832
 20
269.5937799565
 30
0.0
 10
-8.6692819875
 20
270.2836364768
 30
0.0
 10
-12.1097133154
 20
271.4702157969
 30
0.0
 10
-16.271095512
 20
273.5091304495
 30
0.0
 10
-18.8447691291
 20
275.0950640019
 30
0.0
 10
-20.9728650591
 20
276.7843064877
 30
0.0
 10
-22.6317626406
 20
278.5636422224
 30
0.0
 10
-23.7985935688
 20
280.4192182521
 30
0.0
 10
-24.2424196767
 20
281.7386957754
 30
0.0
 10
-24.363253358
 20
282.3842340529
 30
0.0
  0
SPLINE
  5
36E
100
AcDbEntity
  8
0
100
AcDbSpline
 62
7
  6
CONTINUOUS
 70
0
 71
3
 72
9
 73
5
 74
0
 42
0.0000001
 43
0.0000001
 44
0.0000000001
 40
0.0
 40
0.0
 40
0.0
 40
0.0
 40
0.4898328873
 40
1.0
 40
1.0
 40
1.0
 40
1.0
 10
-24.363253358
 20
282.3842340529
 30
0.0
 10
-24.5043445862
 20
283.1379956475
 30
0.0
 10
-24.5355099256
 20
284.7380498583
 30
0.0
 10
-24.0289234993
 20
286.2500981266
 30
0.0
 10
-23.6760929797
 20
286.9666254118
 30
0.0
  0
SPLINE
  5
36F
100
AcDbEntity
  8
0
100
AcDbSpline
 62
7
  6
CONTINUOUS
 70
0
 71
3
 72
9
 73
5
 74
0
 42
0.0000001
 43
0.0000001
 44
0.0000000001
 40
0.0
 40
0.0
 40
0.0
 40
0.0
 40
0.2332679788
 40
1.0
 40
1.0
 40
1.0
 40
1.0
 10
-23.4481462769
 20
287.3999345621
 30
0.0
 10
-23.3026863638
 20
287.6597405242
 30
0.0
 10
-22.6271351026
 20
288.7444504118
 30
0.0
 10
-21.7656308441
 20
289.7059012815
 30
0.0
 10
-21.0522763147
 20
290.3759509435
 30
0.0
  0
SPLINE
  5
370
100
AcDbEntity
  8
0
100
AcDbSpline
 62
7
  6
CONTINUOUS
 70
0
 71
3
 72
11
 73
7
 74
0
 42
0.0000001
 43
0.0000001
 44
0.0000000001
 40
0.0
 40
0.0
 40
0.0
 40
0.0
 40
0.2095959036
 40
0.4469229903
 40
0.711114195
 40
1.0
 40
1.0
 40
1.0
 40
1.0
 10
-20.3465384302
 20
291.0037416179
 30
0.0
 10
-19.4863903508
 20
291.7297745513
 30
0.0
 10
-17.5159349222
 20
293.1180208875
 30
0.0
 10
-14.1369132475
 20
294.9120979886
 30
0.0
 10
-10.2028767717
 20
296.5217057374
 30
0.0
 10
-7.367606784
 20
297.4175926599
 30
0.0
 10
-5.8733420099
 20
297.8347999218
 30
0.0
  0
SPLINE
  5
371
100
AcDbEntity
  8
0
100
AcDbSpline
 62
7
  6
CONTINUOUS
 70
0
 71
3
 72
17
 73
13
 74
0
 42
0.0000001
 43
0.0000001
 44
0.0000000001
 40
0.0
 40
0.0
 40
0.0
 40
0.0
 40
0.235747857
 40
0.4408266518
 40
0.6144389522
 40
0.7560305401
 40
0.8652869241
 40
0.9421267978
 40
0.968426479
 40
0.9867060806
 40
0.9970587875
 40
1.0
 40
1.0
 40
1.0
 40
1.0
 10
-27.1492675133
 20
276.6728823723
 30
0.0
 10
-27.3484222274
 20
276.9047577242
 30
0.0
 10
-27.7208455745
 20
277.3382948551
 30
0.0
 10
-28.2402817043
 20
277.9424324499
 30
0.0
 10
-28.6805580283
 20
278.4532056562
 30
0.0
 10
-29.0419385485
 20
278.8691431779
 30
0.0
 10
-29.3205198529
 20
279.187714156
 30
0.0
 10
-29.5079503133
 20
279.3941481845
 30
0.0
 10
-29.6109001618
 20
279.5072169775
 30
0.0
 10
-29.6684921003
 20
279.5605826586
 30
0.0
 10
-29.6865243105
 20
279.583568
 30
0.0
 10
-29.7126138644
 20
279.5973477889
 30
0.0
 10
-29.7132151002
 20
279.5935820249
 30
0.0
  0
SPLINE
  5
372
100
AcDbEntity
  8
0
100
AcDbSpline
 62
7
  6
CONTINUOUS
 70
0
 71
3
 72
15
 73
11
 74
0
 42
0.0000001
 43
0.0000001
 44
0.0000000001
 40
0.0
 40
0.0
 40
0.0
 40
0.0
 40
0.0982731077
 40
0.2111102123
 40
0.3357885735
 40
0.4687449643
 40
0.6059171255
 40
0.7430051968
 40
0.875709815
 40
1.0
 40
1.0
 40
1.0
 40
1.0
 10
49.1713050616
 20
292.608421856
 30
0.0
 10
47.7352971849
 20
293.4202633558
 30
0.0
 10
44.4876774798
 20
294.8777756267
 30
0.0
 10
39.089396063
 20
296.5316212895
 30
0.0
 10
32.9834206867
 20
297.757558344
 30
0.0
 10
26.3918284351
 20
298.5080830293
 30
0.0
 10
19.5542355893
 20
298.7548825633
 30
0.0
 10
12.7214332048
 20
298.488241563
 30
0.0
 10
6.1447313702
 20
297.7186408969
 30
0.0
 10
1.9108667721
 20
296.8532288916
 30
0.0
 10
-0.1084085139
 20
296.3285423206
 30
0.0
  0
SPLINE
  5
373
100
AcDbEntity
  8
0
100
AcDbSpline
 62
7
  6
CONTINUOUS
 70
0
 71
3
 72
16
 73
12
 74
0
 42
0.0000001
 43
0.0000001
 44
0.0000000001
 40
0.0
 40
0.0
 40
0.0
 40
0.0
 40
0.1268452481
 40
0.2627926741
 40
0.4030491599
 40
0.5425206803
 40
0.6761620241
 40
0.7993167312
 40
0.9080963177
 40
0.9562566641
 40
1.0
 40
1.0
 40
1.0
 40
1.0
 10
-4.9498849742
 20
298.0857661231
 30
0.0
 10
-2.2833546263
 20
298.7908848603
 30
0.0
 10
3.3269726341
 20
299.9350367621
 30
0.0
 10
12.0471828072
 20
300.9034238451
 30
0.0
 10
21.0926220289
 20
301.1542521628
 30
0.0
 10
30.078362424
 20
300.6790474672
 30
0.0
 10
38.6256413815
 20
299.4975145144
 30
0.0
 10
46.3729063691
 20
297.6624231523
 30
0.0
 10
52.1191011866
 20
295.5784029588
 30
0.0
 10
56.0148881341
 20
293.6020375268
 30
0.0
 10
57.7069663669
 20
292.5302878578
 30
0.0
 10
58.4779708677
 20
291.9732530709
 30
0.0
  0
SPLINE
  5
374
100
AcDbEntity
  8
0
100
AcDbSpline
 62
7
  6
CONTINUOUS
 70
0
 71
3
 72
11
 73
7
 74
0
 42
0.0000001
 43
0.0000001
 44
0.0000000001
 40
0.0
 40
0.0
 40
0.0
 40
0.0
 40
0.2930805755
 40
0.5499770761
 40
0.7805274742
 40
1.0
 40
1.0
 40
1.0
 40
1.0
 10
59.4316842206
 20
291.2437354941
 30
0.0
 10
60.1827060193
 20
290.6343093849
 30
0.0
 10
61.5147810539
 20
289.3860961321
 30
0.0
 10
63.0172988926
 20
287.2664571476
 30
0.0
 10
63.8385868574
 20
285.0487760974
 30
0.0
 10
63.8943849177
 20
283.5344354894
 30
0.0
 10
63.8054583968
 20
282.8156468252
 30
0.0
  0
SPLINE
  5
375
100
AcDbEntity
  8
0
100
AcDbSpline
 62
7
  6
CONTINUOUS
 70
0
 71
3
 72
11
 73
7
 74
0
 42
0.0000001
 43
0.0000001
 44
0.0000000001
 40
0.0
 40
0.0
 40
0.0
 40
0.0
 40
0.2095588388
 40
0.4410281891
 40
0.7029922654
 40
1.0
 40
1.0
 40
1.0
 40
1.0
 10
63.7421872586
 20
282.4045514405
 30
0.0
 10
63.6121009877
 20
281.6981074493
 30
0.0
 10
63.1072014595
 20
280.2487217414
 30
0.0
 10
61.7559363713
 20
278.2307267923
 30
0.0
 10
59.8262300104
 20
276.309656273
 30
0.0
 10
58.2727487245
 20
275.1768259624
 30
0.0
 10
57.4177585647
 20
274.6241305474
 30
0.0
  0
SPLINE
  5
376
100
AcDbEntity
  8
0
100
AcDbSpline
 62
7
  6
CONTINUOUS
 70
0
 71
3
 72
9
 73
5
 74
0
 42
0.0000001
 43
0.0000001
 44
0.0000000001
 40
0.0
 40
0.0
 40
0.0
 40
0.0
 40
0.461917536
 40
1.0
 40
1.0
 40
1.0
 40
1.0
 10
56.9810904441
 20
274.3477170934
 30
0.0
 10
55.2214314361
 20
273.2567666695
 30
0.0
 10
51.1607399446
 20
271.3004873772
 30
0.0
 10
46.885592767
 20
269.9215757526
 30
0.0
 10
44.5560444688
 20
269.2971275591
 30
0.0
  0
SPLINE
  5
377
100
AcDbEntity
  8
0
100
AcDbSpline
 62
7
  6
CONTINUOUS
 70
0
 71
3
 72
9
 73
5
 74
0
 42
0.0000001
 43
0.0000001
 44
0.0000000001
 40
0.0
 40
0.0
 40
0.0
 40
0.0
 40
0.5285853695
 40
1.0
 40
1.0
 40
1.0
 40
1.0
 10
42.8004552591
 20
273.7140773978
 30
0.0
 10
44.0567071733
 20
274.1295146457
 30
0.0
 10
46.4027891729
 20
275.0131125255
 30
0.0
 10
48.6462819249
 20
276.139581579
 30
0.0
 10
49.6601275817
 20
276.743434064
 30
0.0
  0
SPLINE
  5
378
100
AcDbEntity
  8
0
100
AcDbSpline
 62
7
  6
CONTINUOUS
 70
0
 71
3
 72
9
 73
5
 74
0
 42
0.0000001
 43
0.0000001
 44
0.0000000001
 40
0.0
 40
0.0
 40
0.0
 40
0.0
 40
0.5439757922
 40
1.0
 40
1.0
 40
1.0
 40
1.0
 10
50.4654031281
 20
277.245698712
 30
0.0
 10
51.4054898251
 20
277.8603200009
 30
0.0
 10
53.0542116638
 20
279.1240621821
 30
0.0
 10
54.3711633639
 20
280.7588488409
 30
0.0
 10
54.819717219
 20
281.5867174875
 30
0.0
  0
SPLINE
  5
379
100
AcDbEntity
  8
0
100
AcDbSpline
 62
7
  6
CONTINUOUS
 70
0
 71
3
 72
14
 73
10
 74
0
 42
0.0000001
 43
0.0000001
 44
0.0000000001
 40
0.0
 40
0.0
 40
0.0
 40
0.0
 40
0.1117014876
 40
0.2173936348
 40
0.3226251101
 40
0.433032632
 40
0.5533385333
 40
0.6868647777
 40
1.0
 40
1.0
 40
1.0
 40
1.0
 10
54.819717219
 20
281.5867174875
 30
0.0
 10
55.0614550349
 20
282.0328783137
 30
0.0
 10
55.4473375265
 20
282.952667603
 30
0.0
 10
55.671584256
 20
284.4168879303
 30
0.0
 10
55.5085657448
 20
285.8841568811
 30
0.0
 10
54.9655405809
 20
287.3251525927
 30
0.0
 10
54.0602870035
 20
288.7227796017
 30
0.0
 10
52.2983772222
 20
290.6144821306
 30
0.0
 10
50.6067951807
 20
291.7805653634
 30
0.0
 10
49.3749787855
 20
292.4920392176
 30
0.0
  0
SPLINE
  5
37A
100
AcDbEntity
  8
0
100
AcDbSpline
 62
7
  6
CONTINUOUS
 70
0
 71
3
 72
9
 73
5
 74
0
 42
0.0000001
 43
0.0000001
 44
0.0000000001
 40
0.0
 40
0.0
 40
0.0
 40
0.0
 40
0.2452263887
 40
1.0
 40
1.0
 40
1.0
 40
1.0
 10
-27.1492740313
 20
276.6728832029
 30
0.0
 10
-27.0975481435
 20
276.612626545
 30
0.0
 10
-26.8841982659
 20
276.3689904873
 30
0.0
 10
-26.6614548536
 20
276.1336150098
 30
0.0
 10
-26.4889081329
 20
275.9604964366
 30
0.0
  0
SPLINE
  5
37B
100
AcDbEntity
  8
0
100
AcDbSpline
 62
7
  6
CONTINUOUS
 70
0
 71
3
 72
9
 73
5
 74
0
 42
0.0000001
 43
0.0000001
 44
0.0000000001
 40
0.0
 40
0.0
 40
0.0
 40
0.0
 40
0.498490168
 40
1.0
 40
1.0
 40
1.0
 40
1.0
 10
-27.14927405
 20
276.6728832247
 30
0.0
 10
-27.1438582173
 20
276.7291957232
 30
0.0
 10
-27.0840534007
 20
276.8410497233
 30
0.0
 10
-26.9654710015
 20
276.8806246591
 30
0.0
 10
-26.9085683124
 20
276.8794397122
 30
0.0
  0
LINE
  5
37C
100
AcDbEntity
  8
0
100
AcDbLine
 62
7
  6
CONTINUOUS
 10
-26.9076304494
 20
276.8802766251
 11
-26.8579538377
 21
276.7875968529
  0
SPLINE
  5
37D
100
AcDbEntity
  8
0
100
AcDbSpline
 62
7
  6
CONTINUOUS
 70
0
 71
3
 72
14
 73
10
 74
0
 42
0.0000001
 43
0.0000001
 44
0.0000000001
 40
0.0
 40
0.0
 40
0.0
 40
0.0
 40
0.2189557842
 40
0.4478016445
 40
0.5674039225
 40
0.692302069
 40
0.8266105776
 40
0.9017835342
 40
1.0
 40
1.0
 40
1.0
 40
1.0
 10
-26.8579130423
 20
276.787742592
 30
0.0
 10
-26.8262018441
 20
276.7292931941
 30
0.0
 10
-26.7616060835
 20
276.6096079025
 30
0.0
 10
-26.6812544381
 20
276.4571800054
 30
0.0
 10
-26.6166328387
 20
276.3287051383
 30
0.0
 10
-26.5674127732
 20
276.2248780012
 30
0.0
 10
-26.5268077896
 20
276.1311749697
 30
0.0
 10
-26.4976756985
 20
276.0434856447
 30
0.0
 10
-26.4831446729
 20
275.9897376736
 30
0.0
 10
-26.4889007972
 20
275.9604696584
 30
0.0
  0
SPLINE
  5
37E
100
AcDbEntity
  8
0
100
AcDbSpline
 62
7
  6
CONTINUOUS
 70
0
 71
3
 72
10
 73
6
 74
0
 42
0.0000001
 43
0.0000001
 44
0.0000000001
 40
0.0
 40
0.0
 40
0.0
 40
0.0
 40
0.4485168204
 40
0.7107098834
 40
1.0
 40
1.0
 40
1.0
 40
1.0
 10
-26.8579130423
 20
276.787742592
 30
0.0
 10
-26.1519921265
 20
275.487092178
 30
0.0
 10
-24.5871839072
 20
273.6669405929
 30
0.0
 10
-22.009485338
 20
271.609200859
 30
0.0
 10
-20.4698143511
 20
270.6300491177
 30
0.0
 10
-19.6432050881
 20
270.152767121
 30
0.0
  0
SPLINE
  5
37F
100
AcDbEntity
  8
0
100
AcDbSpline
 62
7
  6
CONTINUOUS
 70
0
 71
3
 72
11
 73
7
 74
0
 42
0.0000001
 43
0.0000001
 44
0.0000000001
 40
0.0
 40
0.0
 40
0.0
 40
0.0
 40
0.3285789356
 40
0.6041288206
 40
0.82647486
 40
1.0
 40
1.0
 40
1.0
 40
1.0
 10
-19.6447805522
 20
270.1522802645
 30
0.0
 10
-20.3975431341
 20
270.5871716057
 30
0.0
 10
-21.8055564585
 20
271.3470084762
 30
0.0
 10
-23.8192169456
 20
272.2111307619
 30
0.0
 10
-25.5304460819
 20
272.704719942
 30
0.0
 10
-26.587804756
 20
272.7978329306
 30
0.0
 10
-27.0451806491
 20
272.7579159979
 30
0.0
  0
SPLINE
  5
380
100
AcDbEntity
  8
0
100
AcDbSpline
 62
7
  6
CONTINUOUS
 70
0
 71
3
 72
11
 73
7
 74
0
 42
0.0000001
 43
0.0000001
 44
0.0000000001
 40
0.0
 40
0.0
 40
0.0
 40
0.0
 40
0.3178254346
 40
0.590107117
 40
0.8167637074
 40
1.0
 40
1.0
 40
1.0
 40
1.0
 10
-19.6447805522
 20
270.1522802645
 30
0.0
 10
-20.467313293
 20
270.5369222397
 30
0.0
 10
-22.0091433731
 20
271.221408578
 30
0.0
 10
-24.2118590751
 20
272.0025534421
 30
0.0
 10
-26.11250407
 20
272.4516654224
 30
0.0
 10
-27.2903257509
 20
272.5376038217
 30
0.0
 10
-27.8128339272
 20
272.5053158343
 30
0.0
  0
SPLINE
  5
381
100
AcDbEntity
  8
0
100
AcDbSpline
 62
7
  6
CONTINUOUS
 70
0
 71
3
 72
9
 73
5
 74
0
 42
0.0000001
 43
0.0000001
 44
0.0000000001
 40
0.0
 40
0.0
 40
0.0
 40
0.0
 40
0.2578888675
 40
1.0
 40
1.0
 40
1.0
 40
1.0
 10
-27.8128339272
 20
272.5053158343
 30
0.0
 10
-27.8557846373
 20
272.5026617285
 30
0.0
 10
-28.0222030555
 20
272.4904511328
 30
0.0
 10
-28.188080156
 20
272.4703547367
 30
0.0
 10
-28.3102826413
 20
272.4503293333
 30
0.0
  0
SPLINE
  5
382
100
AcDbEntity
  8
0
100
AcDbSpline
 62
7
  6
CONTINUOUS
 70
0
 71
3
 72
9
 73
5
 74
0
 42
0.0000001
 43
0.0000001
 44
0.0000000001
 40
0.0
 40
0.0
 40
0.0
 40
0.0
 40
0.2561622141
 40
1.0
 40
1.0
 40
1.0
 40
1.0
 10
-28.3102826413
 20
272.4503293333
 30
0.0
 10
-28.3425478339
 20
272.4450420145
 30
0.0
 10
-28.4682689334
 20
272.4230065102
 30
0.0
 10
-28.5930097033
 20
272.3952697092
 30
0.0
 10
-28.684826766
 20
272.3711174229
 30
0.0
  0
SPLINE
  5
383
100
AcDbEntity
  8
0
100
AcDbSpline
 62
7
  6
CONTINUOUS
 70
0
 71
3
 72
15
 73
11
 74
0
 42
0.0000001
 43
0.0000001
 44
0.0000000001
 40
0.0
 40
0.0
 40
0.0
 40
0.0
 40
0.2012842039
 40
0.3771536971
 40
0.526913019
 40
0.6514144218
 40
0.753676367
 40
0.8395976667
 40
0.9182286145
 40
1.0
 40
1.0
 40
1.0
 40
1.0
 10
-19.8407502285
 20
269.9133045788
 30
0.0
 10
-20.6211311826
 20
270.2559925183
 30
0.0
 10
-22.1014995815
 20
270.8585647827
 30
0.0
 10
-24.2274186942
 20
271.5442717544
 30
0.0
 10
-26.0950262663
 20
271.9458618943
 30
0.0
 10
-27.6925308398
 20
272.0606767657
 30
0.0
 10
-29.0177293733
 20
271.8871445617
 30
0.0
 10
-30.069164027
 20
271.4162049709
 30
0.0
 10
-30.8108857582
 20
270.6457523735
 30
0.0
 10
-31.0692474397
 20
270.0009022473
 30
0.0
 10
-31.1533713938
 20
269.6650280867
 30
0.0
  0
SPLINE
  5
384
100
AcDbEntity
  8
0
100
AcDbSpline
 62
7
  6
CONTINUOUS
 70
0
 71
3
 72
9
 73
5
 74
0
 42
0.0000001
 43
0.0000001
 44
0.0000000001
 40
0.0
 40
0.0
 40
0.0
 40
0.0
 40
0.2433695419
 40
1.0
 40
1.0
 40
1.0
 40
1.0
 10
-31.1533713938
 20
269.6650280867
 30
0.0
 10
-31.1644984198
 20
269.620602209
 30
0.0
 10
-31.2069389623
 20
269.437241684
 30
0.0
 10
-31.2365744183
 20
269.2509966201
 30
0.0
 10
-31.2527977534
 20
269.1095384982
 30
0.0
  0
SPLINE
  5
385
100
AcDbEntity
  8
0
100
AcDbSpline
 62
7
  6
CONTINUOUS
 70
0
 71
3
 72
9
 73
5
 74
0
 42
0.0000001
 43
0.0000001
 44
0.0000000001
 40
0.0
 40
0.0
 40
0.0
 40
0.0
 40
0.2434709604
 40
1.0
 40
1.0
 40
1.0
 40
1.0
 10
-31.2527977534
 20
269.1095384982
 30
0.0
 10
-31.2577101122
 20
269.066705564
 30
0.0
 10
-31.2755577657
 20
268.8905153943
 30
0.0
 10
-31.2843897641
 20
268.7134501703
 30
0.0
 10
-31.2867558488
 20
268.5795053182
 30
0.0
  0
SPLINE
  5
386
100
AcDbEntity
  8
0
100
AcDbSpline
 62
7
  6
CONTINUOUS
 70
0
 71
3
 72
9
 73
5
 74
0
 42
0.0000001
 43
0.0000001
 44
0.0000000001
 40
0.0
 40
0.0
 40
0.0
 40
0.0
 40
0.2713699795
 40
1.0
 40
1.0
 40
1.0
 40
1.0
 10
-18.9812996356
 20
266.0737528075
 30
0.0
 10
-19.5023108452
 20
265.9720424943
 30
0.0
 10
-21.4069858489
 20
265.530304158
 30
0.0
 10
-23.2555334349
 20
264.7963563782
 30
0.0
 10
-24.4775005182
 20
264.0626341503
 30
0.0
  0
SPLINE
  5
387
100
AcDbEntity
  8
0
100
AcDbSpline
 62
7
  6
CONTINUOUS
 70
0
 71
3
 72
9
 73
5
 74
0
 42
0.0000001
 43
0.0000001
 44
0.0000000001
 40
0.0
 40
0.0
 40
0.0
 40
0.0
 40
0.5162317557
 40
1.0
 40
1.0
 40
1.0
 40
1.0
 10
-19.8407554916
 20
269.9133044657
 30
0.0
 10
-19.8416325105
 20
269.9700523037
 30
0.0
 10
-19.8034581928
 20
270.0841987838
 30
0.0
 10
-19.6976871085
 20
270.1458050968
 30
0.0
 10
-19.6448119483
 20
270.1515428926
 30
0.0
  0
SPLINE
  5
388
100
AcDbEntity
  8
0
100
AcDbSpline
 62
7
  6
CONTINUOUS
 70
0
 71
3
 72
8
 73
4
 74
0
 42
0.0000001
 43
0.0000001
 44
0.0000000001
 40
0.0
 40
0.0
 40
0.0
 40
0.0
 40
1.0
 40
1.0
 40
1.0
 40
1.0
 10
-19.6432393865
 20
270.1525570002
 30
0.0
 10
-19.5988429219
 20
270.1275313779
 30
0.0
 10
-19.5549114824
 20
270.1016892376
 30
0.0
 10
-19.5106652182
 20
270.0763990033
 30
0.0
  0
SPLINE
  5
389
100
AcDbEntity
  8
0
100
AcDbSpline
 62
7
  6
CONTINUOUS
 70
0
 71
3
 72
15
 73
11
 74
0
 42
0.0000001
 43
0.0000001
 44
0.0000000001
 40
0.0
 40
0.0
 40
0.0
 40
0.0
 40
0.2363370883
 40
0.4774771436
 40
0.6003781629
 40
0.725514695
 40
0.8544631832
 40
0.9221967314
 40
0.9584342003
 40
1.0
 40
1.0
 40
1.0
 40
1.0
 10
-19.5106331093
 20
270.0765964575
 30
0.0
 10
-19.4254106682
 20
270.0278851014
 30
0.0
 10
-19.2539649756
 20
269.9282004888
 30
0.0
 10
-19.0409517885
 20
269.7984436772
 30
0.0
 10
-18.8704968427
 20
269.6879144634
 30
0.0
 10
-18.7415733004
 20
269.5987683422
 30
0.0
 10
-18.6357011493
 20
269.5177319293
 30
0.0
 10
-18.5640027359
 20
269.4511497156
 30
0.0
 10
-18.5264230367
 20
269.4056331496
 30
0.0
 10
-18.5089524172
 20
269.3736462155
 30
0.0
 10
-18.511699434
 20
269.3566020226
 30
0.0
  0
SPLINE
  5
38A
100
AcDbEntity
  8
0
100
AcDbSpline
 62
7
  6
CONTINUOUS
 70
0
 71
3
 72
9
 73
5
 74
0
 42
0.0000001
 43
0.0000001
 44
0.0000000001
 40
0.0
 40
0.0
 40
0.0
 40
0.0
 40
0.4651658519
 40
1.0
 40
1.0
 40
1.0
 40
1.0
 10
-19.5106331093
 20
270.0765964575
 30
0.0
 10
-17.6146351522
 20
268.9933635392
 30
0.0
 10
-13.3190678152
 20
267.0479087827
 30
0.0
 10
-8.8249685755
 20
265.6602409286
 30
0.0
 10
-6.3937744864
 20
265.0335594719
 30
0.0
  0
SPLINE
  5
38B
100
AcDbEntity
  8
0
100
AcDbSpline
 62
7
  6
CONTINUOUS
 70
0
 71
3
 72
9
 73
5
 74
0
 42
0.0000001
 43
0.0000001
 44
0.0000000001
 40
0.0
 40
0.0
 40
0.0
 40
0.0
 40
0.5462434886
 40
1.0
 40
1.0
 40
1.0
 40
1.0
 10
-6.3948174093
 20
265.0328932186
 30
0.0
 10
-8.6325748589
 20
265.6100803048
 30
0.0
 10
-12.8076737815
 20
266.3969439162
 30
0.0
 10
-17.0846191241
 20
266.3702201207
 30
0.0
 10
-18.9812996356
 20
266.0737528075
 30
0.0
  0
SPLINE
  5
38C
100
AcDbEntity
  8
0
100
AcDbSpline
 62
7
  6
CONTINUOUS
 70
0
 71
3
 72
11
 73
7
 74
0
 42
0.0000001
 43
0.0000001
 44
0.0000000001
 40
0.0
 40
0.0
 40
0.0
 40
0.0
 40
0.3069318127
 40
0.5764090519
 40
0.8060031309
 40
1.0
 40
1.0
 40
1.0
 40
1.0
 10
-6.3948174093
 20
265.0328932186
 30
0.0
 10
-8.2883078023
 20
265.4194340661
 30
0.0
 10
-11.8808547042
 20
265.9927366541
 30
0.0
 10
-16.9742301894
 20
266.1131988146
 30
0.0
 10
-21.3152547968
 20
265.4619254831
 30
0.0
 10
-23.825397007
 20
264.4541104371
 30
0.0
 10
-24.8726124961
 20
263.8253641197
 30
0.0
  0
SPLINE
  5
38D
100
AcDbEntity
  8
0
100
AcDbSpline
 62
7
  6
CONTINUOUS
 70
0
 71
3
 72
11
 73
7
 74
0
 42
0.0000001
 43
0.0000001
 44
0.0000000001
 40
0.0
 40
0.0
 40
0.0
 40
0.0
 40
0.3001723257
 40
0.568135675
 40
0.8007832936
 40
1.0
 40
1.0
 40
1.0
 40
1.0
 10
-6.5167824229
 20
264.7690769756
 30
0.0
 10
-8.2904890148
 20
265.0969984476
 30
0.0
 10
-11.680775947
 20
265.5592521125
 30
0.0
 10
-16.5074856471
 20
265.6270215586
 30
0.0
 10
-20.6902675543
 20
265.0342204497
 30
0.0
 10
-23.1621173144
 20
264.1613670066
 30
0.0
 10
-24.2278537239
 20
263.6161288881
 30
0.0
  0
SPLINE
  5
38E
100
AcDbEntity
  8
0
100
AcDbSpline
 62
7
  6
CONTINUOUS
 70
0
 71
3
 72
9
 73
5
 74
0
 42
0.0000001
 43
0.0000001
 44
0.0000000001
 40
0.0
 40
0.0
 40
0.0
 40
0.0
 40
0.5184599138
 40
1.0
 40
1.0
 40
1.0
 40
1.0
 10
-24.6780436572
 20
263.3745737813
 30
0.0
 10
-25.3744101895
 20
262.9828335386
 30
0.0
 10
-26.651779422
 20
262.0960851097
 30
0.0
 10
-27.686989177
 20
260.9320803944
 30
0.0
 10
-28.1103169625
 20
260.3225742001
 30
0.0
  0
SPLINE
  5
38F
100
AcDbEntity
  8
0
100
AcDbSpline
 62
7
  6
CONTINUOUS
 70
0
 71
3
 72
9
 73
5
 74
0
 42
0.0000001
 43
0.0000001
 44
0.0000000001
 40
0.0
 40
0.0
 40
0.0
 40
0.0
 40
0.2087124385
 40
1.0
 40
1.0
 40
1.0
 40
1.0
 10
-6.3948367038
 20
265.0321389875
 30
0.0
 10
-6.4146268925
 20
265.0252008572
 30
0.0
 10
-6.4985270147
 20
264.9638164914
 30
0.0
 10
-6.5253884827
 20
264.8481164764
 30
0.0
 10
-6.5167855618
 20
264.7690757394
 30
0.0
  0
SPLINE
  5
390
100
AcDbEntity
  8
0
100
AcDbSpline
 62
7
  6
CONTINUOUS
 70
0
 71
3
 72
9
 73
5
 74
0
 42
0.0000001
 43
0.0000001
 44
0.0000000001
 40
0.0
 40
0.0
 40
0.0
 40
0.0
 40
0.2774770439
 40
1.0
 40
1.0
 40
1.0
 40
1.0
 10
-5.0304403613
 20
261.1126237068
 30
0.0
 10
-6.3761813983
 20
260.7210040651
 30
0.0
 10
-11.1490744825
 20
259.0844618519
 30
0.0
 10
-15.6461261631
 20
256.4611271331
 30
0.0
 10
-18.3050091544
 20
253.9612334562
 30
0.0
  0
SPLINE
  5
391
100
AcDbEntity
  8
0
100
AcDbSpline
 62
7
  6
CONTINUOUS
 70
0
 71
3
 72
8
 73
4
 74
0
 42
0.0000001
 43
0.0000001
 44
0.0000000001
 40
0.0
 40
0.0
 40
0.0
 40
0.0
 40
1.0
 40
1.0
 40
1.0
 40
1.0
 10
-6.3937976739
 20
265.033340699
 30
0.0
 10
-6.3277558474
 20
265.0169067559
 30
0.0
 10
-6.2619764943
 20
264.9994351079
 30
0.0
 10
-6.1960332273
 20
264.982610041
 30
0.0
  0
SPLINE
  5
392
100
AcDbEntity
  8
0
100
AcDbSpline
 62
7
  6
CONTINUOUS
 70
0
 71
3
 72
17
 73
13
 74
0
 42
0.0000001
 43
0.0000001
 44
0.0000000001
 40
0.0
 40
0.0
 40
0.0
 40
0.0
 40
0.2450929562
 40
0.3683929201
 40
0.4922552232
 40
0.6167688073
 40
0.7421129647
 40
0.8052234069
 40
0.8687848104
 40
0.9331580247
 40
0.9660839389
 40
1.0
 40
1.0
 40
1.0
 40
1.0
 10
-6.1958870887
 20
264.9827686217
 30
0.0
 10
-6.0704437828
 20
264.9507626641
 30
0.0
 10
-5.8822017874
 20
264.9014182751
 30
0.0
 10
-5.631675278
 20
264.83178566
 30
0.0
 10
-5.4431982543
 20
264.7768280459
 30
0.0
 10
-5.2546380831
 20
264.7182789882
 30
0.0
 10
-5.0980917893
 20
264.6652952917
 30
0.0
 10
-4.9733771719
 20
264.6182027313
 30
0.0
 10
-4.8807508228
 20
264.5794547484
 30
0.0
 10
-4.8029599794
 20
264.5409652387
 30
0.0
 10
-4.7478181747
 20
264.5046682519
 30
0.0
 10
-4.7171174289
 20
264.474384817
 30
0.0
 10
-4.7190115027
 20
264.4565702239
 30
0.0
  0
SPLINE
  5
393
100
AcDbEntity
  8
0
100
AcDbSpline
 62
7
  6
CONTINUOUS
 70
0
 71
3
 72
9
 73
5
 74
0
 42
0.0000001
 43
0.0000001
 44
0.0000000001
 40
0.0
 40
0.0
 40
0.0
 40
0.0
 40
0.4839640864
 40
1.0
 40
1.0
 40
1.0
 40
1.0
 10
-6.1958870887
 20
264.9827686217
 30
0.0
 10
-3.5002175211
 20
264.2954090596
 30
0.0
 10
2.1457293882
 20
263.1660999487
 30
0.0
 10
7.8641811382
 20
262.5197394089
 30
0.0
 10
10.822240934
 20
262.2990776869
 30
0.0
  0
SPLINE
  5
394
100
AcDbEntity
  8
0
100
AcDbSpline
 62
7
  6
CONTINUOUS
 70
0
 71
3
 72
9
 73
5
 74
0
 42
0.0000001
 43
0.0000001
 44
0.0000000001
 40
0.0
 40
0.0
 40
0.0
 40
0.0
 40
0.5202448338
 40
1.0
 40
1.0
 40
1.0
 40
1.0
 10
10.8220668077
 20
262.2987294051
 30
0.0
 10
8.0643774748
 20
262.504470443
 30
0.0
 10
2.7276417568
 20
262.5315268467
 30
0.0
 10
-2.5556964062
 20
261.7281006071
 30
0.0
 10
-5.0304403613
 20
261.1126237068
 30
0.0
  0
SPLINE
  5
395
100
AcDbEntity
  8
0
100
AcDbSpline
 62
7
  6
CONTINUOUS
 70
0
 71
3
 72
13
 73
9
 74
0
 42
0.0000001
 43
0.0000001
 44
0.0000000001
 40
0.0
 40
0.0
 40
0.0
 40
0.0
 40
0.1473647048
 40
0.290819946
 40
0.4285245016
 40
0.5590186528
 40
0.7954695309
 40
1.0
 40
1.0
 40
1.0
 40
1.0
 10
10.8220668077
 20
262.2987294051
 30
0.0
 10
9.3011089646
 20
262.3493906359
 30
0.0
 10
6.2950490857
 20
262.3577526611
 30
0.0
 10
1.8772208699
 20
262.0342544863
 30
0.0
 10
-2.3288151979
 20
261.3810506879
 30
0.0
 10
-7.3948427376
 20
260.136591779
 30
0.0
 10
-12.9185444698
 20
257.9511305759
 30
0.0
 10
-16.7278831401
 20
255.3589940255
 30
0.0
 10
-18.2879511625
 20
253.9351545066
 30
0.0
  0
SPLINE
  5
396
100
AcDbEntity
  8
0
100
AcDbSpline
 62
7
  6
CONTINUOUS
 70
0
 71
3
 72
14
 73
10
 74
0
 42
0.0000001
 43
0.0000001
 44
0.0000000001
 40
0.0
 40
0.0
 40
0.0
 40
0.0
 40
0.1140894563
 40
0.2315249848
 40
0.3529043069
 40
0.4781993599
 40
0.6068137802
 40
0.7377073179
 40
1.0
 40
1.0
 40
1.0
 40
1.0
 10
-56.144520699
 20
275.4178081732
 30
0.0
 10
-56.55408587
 20
275.3080219836
 30
0.0
 10
-57.3620955876
 20
274.9885262586
 30
0.0
 10
-58.4573875244
 20
274.250612604
 30
0.0
 10
-59.4113300811
 20
273.2784425539
 30
0.0
 10
-60.1881918144
 20
272.1108237819
 30
0.0
 10
-60.7600340617
 20
270.7915208996
 30
0.0
 10
-61.2217129762
 20
268.9016398323
 30
0.0
 10
-61.2092841255
 20
267.4047716855
 30
0.0
 10
-61.0380077461
 20
266.4451003191
 30
0.0
  0
SPLINE
  5
397
100
AcDbEntity
  8
0
100
AcDbSpline
 62
7
  6
CONTINUOUS
 70
0
 71
3
 72
13
 73
9
 74
0
 42
0.0000001
 43
0.0000001
 44
0.0000000001
 40
0.0
 40
0.0
 40
0.0
 40
0.0
 40
0.2677055058
 40
0.5230970111
 40
0.6460394981
 40
0.7659489379
 40
0.8835891113
 40
1.0
 40
1.0
 40
1.0
 40
1.0
 10
-46.2495913149
 20
183.5847557802
 30
0.0
 10
-46.1101882831
 20
182.8036726061
 30
0.0
 10
-45.6251719377
 20
181.3054040494
 30
0.0
 10
-44.5002686901
 20
179.7130201682
 30
0.0
 10
-43.3664666252
 20
178.7564450333
 30
0.0
 10
-42.435595006
 20
178.2196560144
 30
0.0
 10
-41.4397599529
 20
177.8711657055
 30
0.0
 10
-40.7482003321
 20
177.7707570107
 30
0.0
 10
-40.4035631902
 20
177.7545377022
 30
0.0
  0
SPLINE
  5
398
100
AcDbEntity
  8
0
100
AcDbSpline
 62
7
  6
CONTINUOUS
 70
0
 71
3
 72
16
 73
12
 74
0
 42
0.0000001
 43
0.0000001
 44
0.0000000001
 40
0.0
 40
0.0
 40
0.0
 40
0.0
 40
0.0541881913
 40
0.1101377372
 40
0.2275422984
 40
0.3521964708
 40
0.4823591644
 40
0.6153124183
 40
0.7478814176
 40
0.8769527156
 40
1.0
 40
1.0
 40
1.0
 40
1.0
 10
29.4765422156
 20
247.410897788
 30
0.0
 10
30.0683802268
 20
246.428967752
 30
0.0
 10
31.1279752689
 20
244.3433638105
 30
0.0
 10
32.7184925036
 20
239.7872418886
 30
0.0
 10
33.6399454465
 20
233.4838710619
 30
0.0
 10
33.0527397478
 20
225.5766880629
 30
0.0
 10
30.8461802685
 20
217.6229051329
 30
0.0
 10
27.1478530171
 20
210.0612833084
 30
0.0
 10
22.1619877223
 20
203.3057895865
 30
0.0
 10
16.1659271059
 20
197.7326649488
 30
0.0
 10
11.5696351154
 20
194.9309278983
 30
0.0
 10
9.2046537427
 20
193.8425558227
 30
0.0
  0
SPLINE
  5
399
100
AcDbEntity
  8
0
100
AcDbSpline
 62
7
  6
CONTINUOUS
 70
0
 71
3
 72
9
 73
5
 74
0
 42
0.0000001
 43
0.0000001
 44
0.0000000001
 40
0.0
 40
0.0
 40
0.0
 40
0.0
 40
0.2516390773
 40
1.0
 40
1.0
 40
1.0
 40
1.0
 10
-36.069085733
 20
177.8091423916
 30
0.0
 10
-36.2044454156
 20
177.7728584866
 30
0.0
 10
-36.747599884
 20
177.6490414113
 30
0.0
 10
-37.3099620531
 20
177.6090381487
 30
0.0
 10
-37.7262652025
 20
177.6286302019
 30
0.0
  0
SPLINE
  5
39A
100
AcDbEntity
  8
0
100
AcDbSpline
 62
7
  6
CONTINUOUS
 70
0
 71
3
 72
14
 73
10
 74
0
 42
0.0000001
 43
0.0000001
 44
0.0000000001
 40
0.0
 40
0.0
 40
0.0
 40
0.0
 40
0.2622926821
 40
0.3931862198
 40
0.5218006401
 40
0.6470956931
 40
0.7684750152
 40
0.8859105437
 40
1.0
 40
1.0
 40
1.0
 40
1.0
 10
30.8078745212
 20
203.3968600742
 30
0.0
 10
30.9791509006
 20
202.4371887079
 30
0.0
 10
30.9915797512
 20
200.940320561
 30
0.0
 10
30.5299008367
 20
199.0504394938
 30
0.0
 10
29.9580585894
 20
197.7311366114
 30
0.0
 10
29.181196856
 20
196.5635178395
 30
0.0
 10
28.2272542993
 20
195.5913477894
 30
0.0
 10
27.1319623625
 20
194.8534341348
 30
0.0
 10
26.3239526448
 20
194.5339384098
 30
0.0
 10
25.9143874738
 20
194.4241522202
 30
0.0
  0
SPLINE
  5
39B
100
AcDbEntity
  8
0
100
AcDbSpline
 62
7
  6
CONTINUOUS
 70
0
 71
3
 72
9
 73
5
 74
0
 42
0.0000001
 43
0.0000001
 44
0.0000000001
 40
0.0
 40
0.0
 40
0.0
 40
0.0
 40
0.748453333
 40
1.0
 40
1.0
 40
1.0
 40
1.0
 10
-37.1623231507
 20
189.8555289493
 30
0.0
 10
-37.4398926349
 20
189.8685846474
 30
0.0
 10
-37.814793704
 20
189.841871686
 30
0.0
 10
-38.1769033017
 20
189.7593618003
 30
0.0
 10
-38.2671097685
 20
189.7351814622
 30
0.0
  0
SPLINE
  5
39C
100
AcDbEntity
  8
0
100
AcDbSpline
 62
7
  6
CONTINUOUS
 70
0
 71
3
 72
11
 73
7
 74
0
 42
0.0000001
 43
0.0000001
 44
0.0000000001
 40
0.0
 40
0.0
 40
0.0
 40
0.0
 40
0.2580479919
 40
0.5094306626
 40
0.755963455
 40
1.0
 40
1.0
 40
1.0
 40
1.0
 10
-0.7127019704
 20
191.1841542501
 30
0.0
 10
-1.8405933416
 20
191.0985385747
 30
0.0
 10
-4.0821661572
 20
191.0792959012
 30
0.0
 10
-7.3769657887
 20
191.530818676
 30
0.0
 10
-10.507224898
 20
192.4582033347
 30
0.0
 10
-12.458011183
 20
193.3876333894
 30
0.0
 10
-13.3843055514
 20
193.9226802512
 30
0.0
  0
SPLINE
  5
39D
100
AcDbEntity
  8
0
100
AcDbSpline
 62
7
  6
CONTINUOUS
 70
0
 71
3
 72
14
 73
10
 74
0
 42
0.0000001
 43
0.0000001
 44
0.0000000001
 40
0.0
 40
0.0
 40
0.0
 40
0.0
 40
0.2647836975
 40
0.4023089611
 40
0.5369529891
 40
0.664953032
 40
0.7841200316
 40
0.8947373551
 40
1.0
 40
1.0
 40
1.0
 40
1.0
 10
9.2046537427
 20
193.1398242868
 30
0.0
 10
9.2046537427
 20
192.0747545843
 30
0.0
 10
8.7828408221
 20
190.4384914024
 30
0.0
 10
7.6356238238
 20
188.5988903199
 30
0.0
 10
6.5085197622
 20
187.4300359391
 30
0.0
 10
5.2083736993
 20
186.5855851341
 30
0.0
 10
3.8233235795
 20
186.1296860078
 30
0.0
 10
2.4525566922
 20
186.1084477079
 30
0.0
 10
1.6117529528
 20
186.4032759285
 30
0.0
 10
1.2450852121
 20
186.6150086833
 30
0.0
  0
SPLINE
  5
39E
100
AcDbEntity
  8
0
100
AcDbSpline
 62
7
  6
CONTINUOUS
 70
0
 71
3
 72
11
 73
7
 74
0
 42
0.0000001
 43
0.0000001
 44
0.0000000001
 40
0.0
 40
0.0
 40
0.0
 40
0.0
 40
0.2717350397
 40
0.5268969419
 40
0.7676331593
 40
1.0
 40
1.0
 40
1.0
 40
1.0
 10
1.3534138032
 20
191.0352563752
 30
0.0
 10
1.3534138032
 20
190.79601792
 30
0.0
 10
1.3999988661
 20
190.3301746264
 30
0.0
 10
1.6226874916
 20
189.6848371703
 30
0.0
 10
1.9879515123
 20
189.147996747
 30
0.0
 10
2.3183225981
 20
188.8822000458
 30
0.0
 10
2.495474561
 20
188.7798797148
 30
0.0
  0
SPLINE
  5
39F
100
AcDbEntity
  8
0
100
AcDbSpline
 62
7
  6
CONTINUOUS
 70
0
 71
3
 72
19
 73
15
 74
0
 42
0.0000001
 43
0.0000001
 44
0.0000000001
 40
0.0
 40
0.0
 40
0.0
 40
0.0
 40
0.1323229185
 40
0.2689301915
 40
0.3377206859
 40
0.4060961923
 40
0.5394922195
 40
0.666045182
 40
0.7262668423
 40
0.7843089593
 40
0.840316511
 40
0.8946013228
 40
0.9476319771
 40
1.0
 40
1.0
 40
1.0
 40
1.0
 10
-5.313377927
 20
249.8065352307
 30
0.0
 10
-7.5899483892
 20
248.2317881523
 30
0.0
 10
-11.8533848091
 20
244.482200933
 30
0.0
 10
-16.1145395153
 20
238.7852799363
 30
0.0
 10
-18.8260165224
 20
233.7307041142
 30
0.0
 10
-20.9868021689
 20
228.4904458596
 30
0.0
 10
-22.6223649251
 20
221.764895378
 30
0.0
 10
-22.7330901524
 20
214.9986173999
 30
0.0
 10
-21.8323011022
 20
209.9433138573
 30
0.0
 10
-20.7058546275
 20
206.4628780164
 30
0.0
 10
-19.1355027014
 20
203.2957634205
 30
0.0
 10
-17.1463910967
 20
200.4990016274
 30
0.0
 10
-14.7735232844
 20
198.1257863147
 30
0.0
 10
-12.9575388678
 20
196.8519430648
 30
0.0
 10
-12.0088827553
 20
196.3040291553
 30
0.0
  0
SPLINE
  5
3A0
100
AcDbEntity
  8
0
100
AcDbSpline
 62
7
  6
CONTINUOUS
 70
0
 71
3
 72
12
 73
8
 74
0
 42
0.0000001
 43
0.0000001
 44
0.0000000001
 40
0.0
 40
0.0
 40
0.0
 40
0.0
 40
0.2423168045
 40
0.4934361131
 40
0.6207691691
 40
0.7481910176
 40
1.0
 40
1.0
 40
1.0
 40
1.0
 10
-36.2650416632
 20
216.9132073164
 30
0.0
 10
-36.3262409609
 20
220.3219868831
 30
0.0
 10
-35.6802712367
 20
227.2925261847
 30
0.0
 10
-33.1720812299
 20
235.7149063917
 30
0.0
 10
-30.2049597509
 20
242.1950539106
 30
0.0
 10
-26.6424794797
 20
248.3761120156
 30
0.0
 10
-23.3323286016
 20
252.6155298605
 30
0.0
 10
-20.886369087
 20
255.1785922648
 30
0.0
  0
SPLINE
  5
3A1
100
AcDbEntity
  8
0
100
AcDbSpline
 62
7
  6
CONTINUOUS
 70
0
 71
3
 72
11
 73
7
 74
0
 42
0.0000001
 43
0.0000001
 44
0.0000000001
 40
0.0
 40
0.0
 40
0.0
 40
0.0
 40
0.2351002017
 40
0.479454827
 40
0.7343771017
 40
1.0
 40
1.0
 40
1.0
 40
1.0
 10
-28.3836630751
 20
194.066515874
 30
0.0
 10
-29.6296126386
 20
195.5390200776
 30
0.0
 10
-31.8712207001
 20
198.8067371791
 30
0.0
 10
-34.3149396797
 20
204.3472356162
 30
0.0
 10
-35.8456340163
 20
210.461508458
 30
0.0
 10
-36.225921561
 20
214.7342312525
 30
0.0
 10
-36.2650416632
 20
216.9132073164
 30
0.0
  0
SPLINE
  5
3A2
100
AcDbEntity
  8
0
100
AcDbSpline
 62
7
  6
CONTINUOUS
 70
0
 71
3
 72
9
 73
5
 74
0
 42
0.0000001
 43
0.0000001
 44
0.0000000001
 40
0.0
 40
0.0
 40
0.0
 40
0.0
 40
0.5128068074
 40
1.0
 40
1.0
 40
1.0
 40
1.0
 10
-33.9110498458
 20
274.5015165735
 30
0.0
 10
-33.3439224135
 20
275.0713952001
 30
0.0
 10
-32.1280980396
 20
276.0815461958
 30
0.0
 10
-30.7128034072
 20
276.7939234532
 30
0.0
 10
-29.9936622064
 20
277.0513561355
 30
0.0
  0
SPLINE
  5
3A3
100
AcDbEntity
  8
0
100
AcDbSpline
 62
7
  6
CONTINUOUS
 70
0
 71
3
 72
15
 73
11
 74
0
 42
0.0000001
 43
0.0000001
 44
0.0000000001
 40
0.0
 40
0.0
 40
0.0
 40
0.0
 40
0.1226793102
 40
0.2497804871
 40
0.3795759387
 40
0.5100271139
 40
0.6390304753
 40
0.7646372387
 40
0.8852762652
 40
1.0
 40
1.0
 40
1.0
 40
1.0
 10
39.6901939995
 20
234.900232715
 30
0.0
 10
39.6901939995
 20
232.181795057
 30
0.0
 10
39.1914427228
 20
226.6379929025
 30
0.0
 10
37.0929296991
 20
218.4598458062
 30
0.0
 10
33.7108102717
 20
210.5354775134
 30
0.0
 10
29.1722269912
 20
203.1636376306
 30
0.0
 10
23.6470542518
 20
196.6188325413
 30
0.0
 10
17.3381259846
 20
191.1468994136
 30
0.0
 10
10.4813180708
 20
186.9559409509
 30
0.0
 10
5.575408774
 20
185.0750208506
 30
0.0
 10
3.1199448073
 20
184.4168202718
 30
0.0
  0
SPLINE
  5
3A4
100
AcDbEntity
  8
0
100
AcDbSpline
 62
7
  6
CONTINUOUS
 70
0
 71
3
 72
9
 73
5
 74
0
 42
0.0000001
 43
0.0000001
 44
0.0000000001
 40
0.0
 40
0.0
 40
0.0
 40
0.0
 40
0.488146847
 40
1.0
 40
1.0
 40
1.0
 40
1.0
 10
37.4876677307
 20
248.2142811935
 30
0.0
 10
38.2311277539
 20
246.1394993542
 30
0.0
 10
39.3448309288
 20
241.7349777218
 30
0.0
 10
39.6901939995
 20
237.2112286154
 30
0.0
 10
39.6901939995
 20
234.900232715
 30
0.0
  0
SPLINE
  5
3A5
100
AcDbEntity
  8
0
100
AcDbSpline
 62
7
  6
CONTINUOUS
 70
0
 71
3
 72
18
 73
14
 74
0
 42
0.0000001
 43
0.0000001
 44
0.0000000001
 40
0.0
 40
0.0
 40
0.0
 40
0.0
 40
0.0524398721
 40
0.1058753322
 40
0.1607296971
 40
0.2173156931
 40
0.336092976
 40
0.4625299421
 40
0.5950494449
 40
0.6628503572
 40
0.731102268
 40
0.867131999
 40
1.0
 40
1.0
 40
1.0
 40
1.0
 10
-15.7723875136
 20
195.5372791721
 30
0.0
 10
-16.632018189
 20
196.2112890976
 30
0.0
 10
-18.2615315499
 20
197.7133264192
 30
0.0
 10
-20.352770123
 20
200.3433752324
 30
0.0
 10
-22.0791475235
 20
203.3264670938
 30
0.0
 10
-23.8896327172
 20
207.7811875994
 30
0.0
 10
-25.081155251
 20
214.0245235614
 30
0.0
 10
-24.7836586369
 20
221.9430710517
 30
0.0
 10
-23.162804625
 20
228.6016629072
 30
0.0
 10
-21.0922842108
 20
233.8059678168
 30
0.0
 10
-18.5163927093
 20
238.8626502871
 30
0.0
 10
-14.4810118007
 20
244.660097708
 30
0.0
 10
-10.4538163716
 20
248.611865104
 30
0.0
 10
-8.2908558516
 20
250.3387079019
 30
0.0
  0
SPLINE
  5
3A6
100
AcDbEntity
  8
0
100
AcDbSpline
 62
7
  6
CONTINUOUS
 70
0
 71
3
 72
13
 73
9
 74
0
 42
0.0000001
 43
0.0000001
 44
0.0000000001
 40
0.0
 40
0.0
 40
0.0
 40
0.0
 40
0.1054228116
 40
0.2162092768
 40
0.3355568365
 40
0.4637520711
 40
0.7347891091
 40
1.0
 40
1.0
 40
1.0
 40
1.0
 10
2.495474561
 20
188.7798797148
 30
0.0
 10
2.7093411372
 20
188.6563535709
 30
0.0
 10
3.1998104498
 20
188.4844041995
 30
0.0
 10
3.9993371274
 20
188.4967540917
 30
0.0
 10
4.8074190978
 20
188.7626429149
 30
0.0
 10
5.8349678246
 20
189.4308119825
 30
0.0
 10
6.8146827654
 20
190.7015792761
 30
0.0
 10
7.1385379692
 20
191.9646736678
 30
0.0
 10
7.1385379692
 20
192.5859906258
 30
0.0
  0
SPLINE
  5
3A7
100
AcDbEntity
  8
0
100
AcDbSpline
 62
7
  6
CONTINUOUS
 70
0
 71
3
 72
11
 73
7
 74
0
 42
0.0000001
 43
0.0000001
 44
0.0000000001
 40
0.0
 40
0.0
 40
0.0
 40
0.0
 40
0.2323606736
 40
0.4731243623
 40
0.7282306424
 40
1.0
 40
1.0
 40
1.0
 40
1.0
 10
1.2450852121
 20
186.6150086833
 30
0.0
 10
0.9413833878
 20
186.7903816893
 30
0.0
 10
0.3749592382
 20
187.2460389996
 30
0.0
 10
-0.2510078254
 20
188.1664147775
 30
0.0
 10
-0.6329363346
 20
189.2726546927
 30
0.0
 10
-0.7127019705
 20
190.0712435246
 30
0.0
 10
-0.7127019704
 20
190.4814227171
 30
0.0
  0
SPLINE
  5
3A8
100
AcDbEntity
  8
0
100
AcDbSpline
 62
7
  6
CONTINUOUS
 70
0
 71
3
 72
11
 73
7
 74
0
 42
0.0000001
 43
0.0000001
 44
0.0000000001
 40
0.0
 40
0.0
 40
0.0
 40
0.0
 40
0.24254637
 40
0.4882672474
 40
0.7400278467
 40
1.0
 40
1.0
 40
1.0
 40
1.0
 10
-12.0088827553
 20
196.3040291553
 30
0.0
 10
-11.0420608504
 20
195.7456232559
 30
0.0
 10
-8.9902220124
 20
194.794263606
 30
0.0
 10
-5.6797080474
 20
193.9238169647
 30
0.0
 10
-2.1907298074
 20
193.6191020732
 30
0.0
 10
0.1695230191
 20
193.7923317602
 30
0.0
 10
1.3534138032
 20
193.9670247146
 30
0.0
  0
SPLINE
  5
3A9
100
AcDbEntity
  8
0
100
AcDbSpline
 62
7
  6
CONTINUOUS
 70
0
 71
3
 72
13
 73
9
 74
0
 42
0.0000001
 43
0.0000001
 44
0.0000000001
 40
0.0
 40
0.0
 40
0.0
 40
0.0
 40
0.1164108887
 40
0.2340510621
 40
0.3539605019
 40
0.4769029889
 40
0.7322944942
 40
1.0
 40
1.0
 40
1.0
 40
1.0
 10
-37.7262652025
 20
177.6286302019
 30
0.0
 10
-38.0709023444
 20
177.6448495104
 30
0.0
 10
-38.7624619652
 20
177.7452582051
 30
0.0
 10
-39.7582970183
 20
178.0937485141
 30
0.0
 10
-40.6891686375
 20
178.6305375329
 30
0.0
 10
-41.8229707024
 20
179.5871126678
 30
0.0
 10
-42.94787395
 20
181.179496549
 30
0.0
 10
-43.4328902953
 20
182.6777651057
 30
0.0
 10
-43.5722933272
 20
183.4588482798
 30
0.0
  0
SPLINE
  5
3AA
100
AcDbEntity
  8
0
100
AcDbSpline
 62
7
  6
CONTINUOUS
 70
0
 71
3
 72
9
 73
5
 74
0
 42
0.0000001
 43
0.0000001
 44
0.0000000001
 40
0.0
 40
0.0
 40
0.0
 40
0.0
 40
0.2429892131
 40
1.0
 40
1.0
 40
1.0
 40
1.0
 10
-20.1695072155
 20
208.2443649077
 30
0.0
 10
-20.1737685201
 20
208.1090263253
 30
0.0
 10
-20.2219796388
 20
207.5532270048
 30
0.0
 10
-20.387109811
 20
207.0093483357
 30
0.0
 10
-20.563770303
 20
206.6262772943
 30
0.0
  0
SPLINE
  5
3AB
100
AcDbEntity
  8
0
100
AcDbSpline
 62
7
  6
CONTINUOUS
 70
0
 71
3
 72
11
 73
7
 74
0
 42
0.0000001
 43
0.0000001
 44
0.0000000001
 40
0.0
 40
0.0
 40
0.0
 40
0.0
 40
0.2682595766
 40
0.5241619233
 40
0.7665488161
 40
1.0
 40
1.0
 40
1.0
 40
1.0
 10
-33.2649713724
 20
185.9687108701
 30
0.0
 10
-33.3579099794
 20
186.4894512098
 30
0.0
 10
-33.6818148378
 20
187.4886887655
 30
0.0
 10
-34.5674780558
 20
188.7440761615
 30
0.0
 10
-35.7651332716
 20
189.6010020575
 30
0.0
 10
-36.7024997192
 20
189.833900794
 30
0.0
 10
-37.1623231507
 20
189.8555289493
 30
0.0
  0
SPLINE
  5
3AC
100
AcDbEntity
  8
0
100
AcDbSpline
 62
7
  6
CONTINUOUS
 70
0
 71
3
 72
17
 73
13
 74
0
 42
0.0000001
 43
0.0000001
 44
0.0000000001
 40
0.0
 40
0.0
 40
0.0
 40
0.0
 40
0.1222811411
 40
0.2514652998
 40
0.3847889869
 40
0.5186859773
 40
0.6494842667
 40
0.7740974111
 40
0.8335665234
 40
0.8909607964
 40
0.9463620441
 40
1.0
 40
1.0
 40
1.0
 40
1.0
 10
7.1385379692
 20
195.5177589653
 30
0.0
 10
9.5054282205
 20
196.4374203952
 30
0.0
 10
14.1394500402
 20
198.9674734163
 30
0.0
 10
20.1887476378
 20
204.270467933
 30
0.0
 10
25.2064944445
 20
210.863829255
 30
0.0
 10
28.874056104
 20
218.3294579528
 30
0.0
 10
30.9610684988
 20
226.1953759505
 30
0.0
 10
31.2682568494
 20
232.7894266149
 30
0.0
 10
30.5851276824
 20
237.7688924865
 30
0.0
 10
29.6429269709
 20
241.2313778307
 30
0.0
 10
28.2776428999
 20
244.4186428889
 30
0.0
 10
27.0808198409
 20
246.3533360259
 30
0.0
 10
26.420846357
 20
247.2505975356
 30
0.0
  0
SPLINE
  5
3AD
100
AcDbEntity
  8
0
100
AcDbSpline
 62
7
  6
CONTINUOUS
 70
0
 71
3
 72
14
 73
10
 74
0
 42
0.0000001
 43
0.0000001
 44
0.0000000001
 40
0.0
 40
0.0
 40
0.0
 40
0.0
 40
0.2622926821
 40
0.3931862198
 40
0.5218006401
 40
0.6470956931
 40
0.7684750152
 40
0.8859105437
 40
1.0
 40
1.0
 40
1.0
 40
1.0
 10
-58.3607097584
 20
266.3191928189
 30
0.0
 10
-58.5319861378
 20
267.2788641853
 30
0.0
 10
-58.5444149884
 20
268.7757323321
 30
0.0
 10
-58.0827360739
 20
270.6656133993
 30
0.0
 10
-57.5108938266
 20
271.9849162817
 30
0.0
 10
-56.7340320933
 20
273.1525350536
 30
0.0
 10
-55.7800895366
 20
274.1247051037
 30
0.0
 10
-54.6847975998
 20
274.8626187583
 30
0.0
 10
-53.8767878821
 20
275.1821144833
 30
0.0
 10
-53.4672227111
 20
275.2919006729
 30
0.0
  0
SPLINE
  5
3AE
100
AcDbEntity
  8
0
100
AcDbSpline
 62
7
  6
CONTINUOUS
 70
0
 71
3
 72
11
 73
7
 74
0
 42
0.0000001
 43
0.0000001
 44
0.0000000001
 40
0.0
 40
0.0
 40
0.0
 40
0.0
 40
0.2342429697
 40
0.4783622923
 40
0.7341736475
 40
1.0
 40
1.0
 40
1.0
 40
1.0
 10
-37.1867169495
 20
189.7696151137
 30
0.0
 10
-36.7998997123
 20
189.663686328
 30
0.0
 10
-36.0416487959
 20
189.3125096994
 30
0.0
 10
-35.1033210137
 20
188.4502060811
 30
0.0
 10
-34.410525479
 20
187.3193547419
 30
0.0
 10
-34.1481268805
 20
186.4545378257
 30
0.0
 10
-34.0681607688
 20
186.0064831202
 30
0.0
  0
SPLINE
  5
3AF
100
AcDbEntity
  8
0
100
AcDbSpline
 62
7
  6
CONTINUOUS
 70
0
 71
3
 72
11
 73
7
 74
0
 42
0.0000001
 43
0.0000001
 44
0.0000000001
 40
0.0
 40
0.0
 40
0.0
 40
0.0
 40
0.2410538935
 40
0.4918777716
 40
0.7469394761
 40
1.0
 40
1.0
 40
1.0
 40
1.0
 10
-33.4503043848
 20
215.2945211172
 30
0.0
 10
-33.4503043848
 20
218.6644414531
 30
0.0
 10
-32.6823890929
 20
225.5562877361
 30
0.0
 10
-29.5128432149
 20
235.5676003562
 30
0.0
 10
-24.4863545269
 20
244.9760976478
 30
0.0
 10
-20.0238971836
 20
250.5656805694
 30
0.0
 10
-17.560588348
 20
253.1049605805
 30
0.0
  0
SPLINE
  5
3B0
100
AcDbEntity
  8
0
100
AcDbSpline
 62
7
  6
CONTINUOUS
 70
0
 71
3
 72
11
 73
7
 74
0
 42
0.0000001
 43
0.0000001
 44
0.0000000001
 40
0.0
 40
0.0
 40
0.0
 40
0.0
 40
0.2344241133
 40
0.4783749405
 40
0.7334580983
 40
1.0
 40
1.0
 40
1.0
 40
1.0
 10
-26.0116883526
 20
192.6964777014
 30
0.0
 10
-27.2258572809
 20
194.1507984016
 30
0.0
 10
-29.4010337925
 20
197.3827564461
 30
0.0
 10
-31.7355174972
 20
202.8648517698
 30
0.0
 10
-33.1492807739
 20
208.9167290046
 30
0.0
 10
-33.4503043848
 20
213.1404236001
 30
0.0
 10
-33.4503043848
 20
215.2945211172
 30
0.0
  0
SPLINE
  5
3B1
100
AcDbEntity
  8
0
100
AcDbSpline
 62
7
  6
CONTINUOUS
 70
0
 71
3
 72
12
 73
8
 74
0
 42
0.0000001
 43
0.0000001
 44
0.0000000001
 40
0.0
 40
0.0
 40
0.0
 40
0.0
 40
0.1143141546
 40
0.2320076927
 40
0.4780753152
 40
0.7371598839
 40
1.0
 40
1.0
 40
1.0
 40
1.0
 10
-51.3157125018
 20
262.8472501733
 30
0.0
 10
-51.042693189
 20
262.920434497
 30
0.0
 10
-50.5039717439
 20
263.1336100221
 30
0.0
 10
-49.5170985031
 20
263.797743977
 30
0.0
 10
-48.5331149812
 20
265.0358837608
 30
0.0
 10
-47.9280000094
 20
266.8707642396
 30
0.0
 10
-47.939200241
 20
268.1892559531
 30
0.0
 10
-48.0533878037
 20
268.8290554092
 30
0.0
  0
SPLINE
  5
3B2
100
AcDbEntity
  8
0
100
AcDbSpline
 62
7
  6
CONTINUOUS
 70
0
 71
3
 72
18
 73
14
 74
0
 42
0.0000001
 43
0.0000001
 44
0.0000000001
 40
0.0
 40
0.0
 40
0.0
 40
0.0
 40
0.1337014013
 40
0.2704259896
 40
0.3389296801
 40
0.4068941303
 40
0.5394247086
 40
0.6654600772
 40
0.7835505766
 40
0.8397837357
 40
0.8943366961
 40
0.9475863675
 40
1.0
 40
1.0
 40
1.0
 40
1.0
 10
-9.6931091791
 20
250.7665272109
 30
0.0
 10
-11.8866249799
 20
248.9834139855
 30
0.0
 10
-15.9567412132
 20
244.9067991995
 30
0.0
 10
-19.995733728
 20
238.9356612975
 30
0.0
 10
-22.5378152155
 20
233.7404002237
 30
0.0
 10
-24.5466071134
 20
228.4122100544
 30
0.0
 10
-26.0458653719
 20
221.6222626165
 30
0.0
 10
-26.1245996343
 20
213.598678976
 30
0.0
 10
-24.6907348512
 20
207.3344207501
 30
0.0
 10
-22.6638001488
 20
202.9245876704
 30
0.0
 10
-20.7701422938
 20
200.0031948377
 30
0.0
 10
-18.5074628311
 20
197.4647378838
 30
0.0
 10
-16.7661352893
 20
196.0469513009
 30
0.0
 10
-15.8525686353
 20
195.4196942626
 30
0.0
  0
SPLINE
  5
3B3
100
AcDbEntity
  8
0
100
AcDbSpline
 62
7
  6
CONTINUOUS
 70
0
 71
3
 72
12
 73
8
 74
0
 42
0.0000001
 43
0.0000001
 44
0.0000000001
 40
0.0
 40
0.0
 40
0.0
 40
0.0
 40
0.2628401161
 40
0.5219246848
 40
0.7679923073
 40
0.8856858454
 40
1.0
 40
1.0
 40
1.0
 40
1.0
 10
-48.8565772
 20
268.8668276593
 30
0.0
 10
-48.7423896373
 20
268.2270282032
 30
0.0
 10
-48.7311894057
 20
266.9085364897
 30
0.0
 10
-49.3363043776
 20
265.0736560108
 30
0.0
 10
-50.3202878995
 20
263.835516227
 30
0.0
 10
-51.3071611404
 20
263.1713822722
 30
0.0
 10
-51.8458825855
 20
262.958206747
 30
0.0
 10
-52.1189018983
 20
262.8850224233
 30
0.0
  0
ELLIPSE
  5
3B4
100
AcDbEntity
  8
0
100
AcDbEllipse
 62
7
  6
CONTINUOUS
 10
-50.3072259036
 20
269.3270406976
 30
0.0
 11
-0.2419555653
 21
20.9723170664
 31
0.0
 40
0.8071250907
 41
-2.2283764839
 42
-1.367250466
  0
ELLIPSE
  5
3B5
100
AcDbEntity
  8
0
100
AcDbEllipse
 62
7
  6
CONTINUOUS
 10
-12.888110031
 20
234.3433320938
 30
0.0
 11
-0.4264466839
 21
36.9637088296
 31
0.0
 40
0.8071250907
 41
0.9132161697
 42
2.2589119835
  0
ELLIPSE
  5
3B6
100
AcDbEntity
  8
0
100
AcDbEllipse
 62
7
  6
CONTINUOUS
 10
-38.1325563473
 20
184.5187269798
 30
0.0
 11
-0.0199613346
 21
1.7302162009
 31
0.0
 40
0.8071250907
 41
0.0
 42
6.2831853072
  0
ELLIPSE
  5
3B7
100
AcDbEntity
  8
0
100
AcDbEllipse
 62
7
  6
CONTINUOUS
 10
-52.9209727786
 20
267.3790715189
 30
0.0
 11
-0.0199613341
 21
1.730216158
 31
0.0
 40
0.8071250907
 41
0.0
 42
6.2831853072
  0
ENDSEC
  0
SECTION
  2
OBJECTS
  0
DICTIONARY
  5
C
100
AcDbDictionary
280
0
281
1
  3
ACAD_GROUP
350
D
  3
ACAD_MLINESTYLE
350
17
  3
ACAD_LAYOUT
350
1A
  3
ACAD_PLOTSETTINGS
350
19
  3
ACAD_PLOTSTYLENAME
350
E
  0
DICTIONARY
  5
D
102
{ACAD_REACTORS
330
C
102
}
100
AcDbDictionary
280
0
281
1
  0
ACDBDICTIONARYWDFLT
  5
E
102
{ACAD_REACTORS
330
C
102
}
100
AcDbDictionary
281
1
  3
Normal
350
F
100
AcDbDictionaryWithDefault
340
F
  0
DICTIONARY
  5
17
102
{ACAD_REACTORS
330
C
102
}
100
AcDbDictionary
280
0
281
1
  3
Standard
350
18
  0
DICTIONARY
  5
19
102
{ACAD_REACTORS
330
C
102
}
100
AcDbDictionary
281
1
  0
DICTIONARY
  5
1A
102
{ACAD_REACTORS
330
C
102
}
100
AcDbDictionary
281
1
  3
Model
350
3B8
  3
Layout1
350
3B9
  0
ACDBPLACEHOLDER
  5
F
102
{ACAD_REACTORS
330
E
102
}
  0
MLINESTYLE
  5
18
102
{ACAD_REACTORS
330
17
102
}
100
AcDbMlineStyle
  2
STANDARD
 70
0
  3

 62
256
 51
90.0
 52
90.0
 71
2
 49
0.5
 62
256
  6
BYLAYER
 49
-0.5
 62
256
  6
BYLAYER
  0
LAYOUT
  5
3B8
102
{ACAD_REACTORS
330
1A
102
}
100
AcDbPlotSettings
  1

  2
none_device
  4
ANSI_C_(22.00_x_17.00_Inches)
  6

 40
0.0
 41
0.0
 42
0.0
 43
0.0
 44
558.8
 45
431.8
 46
0.0
 47
0.0
 48
0.0
 49
0.0
140
0.0
141
0.0
142
1.0
143
1.0
 70
1024
 72
1
 73
0
 74
0
  7

 75
0
147
1.0
148
0.0
149
0.0
100
AcDbLayout
  1
Model
 70
0
 71
0
 10
0.0
 20
0.0
 11
558.8
 21
431.8
 12
0.0
 22
0.0
 32
0.0
 14
0.0
 24
0.0
 34
0.0
 15
0.0
 25
0.0
 35
0.0
146
0.0
 13
0.0
 23
0.0
 33
0.0
 16
1.0
 26
0.0
 36
0.0
 17
0.0
 27
1.0
 37
0.0
 76
0
330
216
345
0
346
0
  0
LAYOUT
  5
3B9
102
{ACAD_REACTORS
330
1A
102
}
100
AcDbPlotSettings
  1

  2
none_device
  4
ANSI_C_(22.00_x_17.00_Inches)
  6

 40
0.0
 41
0.0
 42
0.0
 43
0.0
 44
558.8
 45
431.8
 46
0.0
 47
0.0
 48
0.0
 49
0.0
140
0.0
141
0.0
142
1.0
143
1.0
 70
0
 72
1
 73
0
 74
0
  7

 75
0
147
1.0
148
0.0
149
0.0
100
AcDbLayout
  1
Layout1
 70
0
 71
1
 10
0.0
 20
0.0
 11
558.8
 21
431.8
 12
0.0
 22
0.0
 32
0.0
 14
0.0
 24
0.0
 34
0.0
 15
0.0
 25
0.0
 35
0.0
146
0.0
 13
0.0
 23
0.0
 33
0.0
 16
1.0
 26
0.0
 36
0.0
 17
0.0
 27
1.0
 37
0.0
 76
0
330
217
345
0
346
0
  0
ENDSEC
  0
EOF
