999
DXF file: Y:\3D PRATIKA-KAEDRA_OLGA\TRAVAIL_PHASE_5\CAD3D\PKF32G423_3D-Simplified\PKF32G423_2D-isometric.dxf
999
Pro/ENGINEER 2018260 by Parametric Technology Corporation
  0
SECTION
  2
HEADER
  9
$ACADVER
  1
AC1027
  9
$DWGCODEPAGE
  3
ANSI_1252
  9
$EXTMAX
 10
558.8
 20
431.8
 30
0.0
  9
$EXTMIN
 10
0.0
 20
0.0
 30
0.0
  9
$LIMMIN
 10
0.0
 20
0.0
  9
$LIMMAX
 10
558.8
 20
431.8
  9
$VIEWCTR
 10
279.4
 20
215.9
  9
$VIEWSIZE
 40
431.8
  9
$CLAYER
  8
0
  9
$LTSCALE
 40
30.734
  9
$CELTYPE
  6
BYLAYER
  9
$DIMSCALE
 40
1.0
  9
$DIMASZ
 40
0.1875
  9
$DIMEXO
 40
0.0625
  9
$DIMDLI
 40
21.2344
  9
$DIMEXE
 40
0.125
  9
$DIMCEN
 40
5.0292
  9
$DIMLFAC
 40
1.0
  9
$DIMBLK
  1
_CLOSED
  9
$DIMALT
 70
0
  9
$DIMALTF
 40
0.0393700787
  9
$DIMTXT
 40
0.15625
  9
$DIMTOL
 70
0
  9
$DIMLIM
 70
0
  9
$DIMTFAC
 40
1.0
  9
$DIMGAP
 40
0.625
  9
$DIMDSEP
 70
46
  9
$AUNITS
 70
0
  9
$PDMODE
 70
3
  9
$PDSIZE
 40
0.3125
  9
$HANDSEED
  5
2FF
  9
$TILEMODE
 70
1
  9
$MEASUREMENT
 70
1
  9
$INSUNITS
 70
4
  0
ENDSEC
  0
SECTION
  2
CLASSES
  0
CLASS
  1
ACDBDICTIONARYWDFLT
  2
AcDbDictionaryWithDefault
  3
AutoCAD 2000
 90
0
 91
1
280
0
281
0
  0
CLASS
  1
ACDBPLACEHOLDER
  2
AcDbPlaceHolder
  3
AutoCAD 2000
 90
0
 91
1
280
0
281
0
  0
CLASS
  1
LAYOUT
  2
AcDbLayout
  3
AutoCAD 2000
 90
0
 91
0
280
0
281
0
  0
ENDSEC
  0
SECTION
  2
TABLES
  0
TABLE
  2
VPORT
  5
8
100
AcDbSymbolTable
 70
2
  0
VPORT
  5
1F4
100
AcDbSymbolTableRecord
100
AcDbViewportTableRecord
  2
*ACTIVE
 70
0
 10
0.0
 20
0.0
 11
1.0
 21
1.0
 12
279.4
 22
215.9
 13
0.0
 23
0.0
 14
1.0
 24
1.0
 15
0.0
 25
0.0
 16
0.0
 26
0.0
 36
1.0
 17
0.0
 27
0.0
 37
0.0
 40
431.8
 41
1.2941176471
 42
50.0
 43
0.0
 44
0.0
 50
0.0
 51
0.0
 71
0
 72
100
 73
1
 74
1
 75
0
 76
0
 77
0
 78
0
  0
ENDTAB
  0
TABLE
  2
LTYPE
  5
5
100
AcDbSymbolTable
 70
6
  0
LTYPE
  5
14
100
AcDbSymbolTableRecord
100
AcDbLinetypeTableRecord
  2
BYBLOCK
 70
0
  3

 72
65
 73
0
 40
0.0
  0
LTYPE
  5
15
100
AcDbSymbolTableRecord
100
AcDbLinetypeTableRecord
  2
BYLAYER
 70
0
  3

 72
65
 73
0
 40
0.0
  0
LTYPE
  5
16
100
AcDbSymbolTableRecord
100
AcDbLinetypeTableRecord
  2
CONTINUOUS
 70
64
  3
Solid line
 72
65
 73
0
 40
0.0
  0
LTYPE
  5
1F5
100
AcDbSymbolTableRecord
100
AcDbLinetypeTableRecord
  2
CENTER
 70
64
  3
____ _ ____ _ ____ _ ____ _ ____ _ ____ _ ____
 72
65
 73
4
 40
0.6
 49
0.375
 74
0
 49
-0.075
 74
0
 49
0.075
 74
0
 49
-0.075
 74
0
  0
LTYPE
  5
1F6
100
AcDbSymbolTableRecord
100
AcDbLinetypeTableRecord
  2
HIDDEN
 70
64
  3
- - - - - - - - - - - - - - - - - - - -
 72
65
 73
2
 40
0.2
 49
0.1
 74
0
 49
-0.1
 74
0
  0
LTYPE
  5
1F7
100
AcDbSymbolTableRecord
100
AcDbLinetypeTableRecord
  2
PHANTOM
 70
64
  3
_____ _ _ _____ _ _ _____ _ _ _____
 72
65
 73
6
 40
0.8
 49
0.45
 74
0
 49
-0.05
 74
0
 49
0.1
 74
0
 49
-0.05
 74
0
 49
0.1
 74
0
 49
-0.05
 74
0
  0
LTYPE
  5
1F8
100
AcDbSymbolTableRecord
100
AcDbLinetypeTableRecord
  2
DOT
 70
64
  3
. . . . . . . . . . . . . . . . . . . .
 72
65
 73
2
 40
0.2
 49
0.1
 74
0
 49
-0.1
 74
0
  0
LTYPE
  5
1F9
100
AcDbSymbolTableRecord
100
AcDbLinetypeTableRecord
  2
DASHED
 70
64
  3
- - - - - - - - - - - - - - - - - - - -
 72
65
 73
2
 40
0.2
 49
0.1
 74
0
 49
-0.1
 74
0
  0
ENDTAB
  0
TABLE
  2
LAYER
  5
2
100
AcDbSymbolTable
 70
36
  0
LAYER
  5
10
100
AcDbSymbolTableRecord
100
AcDbLayerTableRecord
  2
0
 70
0
 62
7
  6
CONTINUOUS
370
-3
390
F
  0
LAYER
  5
1FA
100
AcDbSymbolTableRecord
100
AcDbLayerTableRecord
  2
DEFAULT_1
 70
0
 62
7
  6
CENTER
370
-3
390
F
  0
LAYER
  5
1FB
100
AcDbSymbolTableRecord
100
AcDbLayerTableRecord
  2
DEFAULT_2
 70
0
 62
8
  6
HIDDEN
370
-3
390
F
  0
LAYER
  5
1FC
100
AcDbSymbolTableRecord
100
AcDbLayerTableRecord
  2
DEFAULT_3
 70
0
 62
7
  6
PHANTOM
370
-3
390
F
  0
LAYER
  5
1FD
100
AcDbSymbolTableRecord
100
AcDbLayerTableRecord
  2
01_ALL_DTM_PLN
 70
0
 62
7
  6
CONTINUOUS
370
-3
390
F
  0
LAYER
  5
1FE
100
AcDbSymbolTableRecord
100
AcDbLayerTableRecord
  2
01__ASM_ALL_DTM_PLN
 70
0
 62
7
  6
CONTINUOUS
370
-3
390
F
  0
LAYER
  5
1FF
100
AcDbSymbolTableRecord
100
AcDbLayerTableRecord
  2
01__ASM_DEF_DTM_PLN
 70
0
 62
7
  6
CONTINUOUS
370
-3
390
F
  0
LAYER
  5
200
100
AcDbSymbolTableRecord
100
AcDbLayerTableRecord
  2
01___PRT_ALL_DTM_PLN
 70
0
 62
7
  6
CONTINUOUS
370
-3
390
F
  0
LAYER
  5
201
100
AcDbSymbolTableRecord
100
AcDbLayerTableRecord
  2
01___PRT_DEF_DTM_PLN
 70
0
 62
7
  6
CONTINUOUS
370
-3
390
F
  0
LAYER
  5
202
100
AcDbSymbolTableRecord
100
AcDbLayerTableRecord
  2
02_ALL_AXES
 70
0
 62
7
  6
CONTINUOUS
370
-3
390
F
  0
LAYER
  5
203
100
AcDbSymbolTableRecord
100
AcDbLayerTableRecord
  2
02__ASM_ALL_AXES
 70
0
 62
7
  6
CONTINUOUS
370
-3
390
F
  0
LAYER
  5
204
100
AcDbSymbolTableRecord
100
AcDbLayerTableRecord
  2
02___PRT_ALL_AXES
 70
0
 62
7
  6
CONTINUOUS
370
-3
390
F
  0
LAYER
  5
205
100
AcDbSymbolTableRecord
100
AcDbLayerTableRecord
  2
03_ALL_CURVES
 70
0
 62
7
  6
CONTINUOUS
370
-3
390
F
  0
LAYER
  5
206
100
AcDbSymbolTableRecord
100
AcDbLayerTableRecord
  2
03__ASM_ALL_CURVES
 70
0
 62
7
  6
CONTINUOUS
370
-3
390
F
  0
LAYER
  5
207
100
AcDbSymbolTableRecord
100
AcDbLayerTableRecord
  2
03___PRT_ALL_CURVES
 70
0
 62
7
  6
CONTINUOUS
370
-3
390
F
  0
LAYER
  5
208
100
AcDbSymbolTableRecord
100
AcDbLayerTableRecord
  2
04_ALL_DTM_PNT
 70
0
 62
7
  6
CONTINUOUS
370
-3
390
F
  0
LAYER
  5
209
100
AcDbSymbolTableRecord
100
AcDbLayerTableRecord
  2
04__ASM_ALL_DTM_PNT
 70
0
 62
7
  6
CONTINUOUS
370
-3
390
F
  0
LAYER
  5
20A
100
AcDbSymbolTableRecord
100
AcDbLayerTableRecord
  2
04___PRT_ALL_DTM_PNT
 70
0
 62
7
  6
CONTINUOUS
370
-3
390
F
  0
LAYER
  5
20B
100
AcDbSymbolTableRecord
100
AcDbLayerTableRecord
  2
05_ALL_DTM_CSYS
 70
0
 62
7
  6
CONTINUOUS
370
-3
390
F
  0
LAYER
  5
20C
100
AcDbSymbolTableRecord
100
AcDbLayerTableRecord
  2
05__ASM_ALL_DTM_CSYS
 70
0
 62
7
  6
CONTINUOUS
370
-3
390
F
  0
LAYER
  5
20D
100
AcDbSymbolTableRecord
100
AcDbLayerTableRecord
  2
05__ASM_DEF_DTM_CSYS
 70
0
 62
7
  6
CONTINUOUS
370
-3
390
F
  0
LAYER
  5
20E
100
AcDbSymbolTableRecord
100
AcDbLayerTableRecord
  2
05___PRT_ALL_DTM_CSYS
 70
0
 62
7
  6
CONTINUOUS
370
-3
390
F
  0
LAYER
  5
20F
100
AcDbSymbolTableRecord
100
AcDbLayerTableRecord
  2
05___PRT_DEF_DTM_CSYS
 70
0
 62
7
  6
CONTINUOUS
370
-3
390
F
  0
LAYER
  5
210
100
AcDbSymbolTableRecord
100
AcDbLayerTableRecord
  2
06_ALL_SURFS
 70
0
 62
7
  6
CONTINUOUS
370
-3
390
F
  0
LAYER
  5
211
100
AcDbSymbolTableRecord
100
AcDbLayerTableRecord
  2
06__ASM_ALL_SURFS
 70
0
 62
7
  6
CONTINUOUS
370
-3
390
F
  0
LAYER
  5
212
100
AcDbSymbolTableRecord
100
AcDbLayerTableRecord
  2
06___PRT_ALL_SURFS
 70
0
 62
7
  6
CONTINUOUS
370
-3
390
F
  0
LAYER
  5
213
100
AcDbSymbolTableRecord
100
AcDbLayerTableRecord
  2
07__ASM_ALL_SKELETONS
 70
0
 62
7
  6
CONTINUOUS
370
-3
390
F
  0
ENDTAB
  0
TABLE
  2
STYLE
  5
3
100
AcDbSymbolTable
 70
1
  0
STYLE
  5
11
100
AcDbSymbolTableRecord
100
AcDbTextStyleTableRecord
  2
STANDARD
 70
0
 40
0.0
 41
0.8
 50
0.0
 71
0
 42
0.2
  3
txt
  4

  0
STYLE
  5
214
100
AcDbSymbolTableRecord
100
AcDbTextStyleTableRecord
  2
TEXTSTYLE_1
 70
0
 40
0.0
 41
0.8
 50
0.0
 71
0
 42
0.2
  3
gdt
  4

  0
ENDTAB
  0
TABLE
  2
VIEW
  5
6
100
AcDbSymbolTable
 70
0
  0
ENDTAB
  0
TABLE
  2
UCS
  5
7
100
AcDbSymbolTable
 70
0
  0
ENDTAB
  0
TABLE
  2
APPID
  5
9
100
AcDbSymbolTable
 70
1
  0
APPID
  5
215
100
AcDbSymbolTableRecord
100
AcDbRegAppTableRecord
  2
ACAD
 70
0
  0
ENDTAB
  0
TABLE
  2
BLOCK_RECORD
  5
1
100
AcDbSymbolTable
 70
0
  0
BLOCK_RECORD
  5
216
100
AcDbSymbolTableRecord
100
AcDbBlockTableRecord
  2
*Model_Space
  0
BLOCK_RECORD
  5
217
100
AcDbSymbolTableRecord
100
AcDbBlockTableRecord
  2
*Paper_Space
  0
BLOCK_RECORD
  5
218
100
AcDbSymbolTableRecord
100
AcDbBlockTableRecord
  2
_CLOSED
  0
ENDTAB
  0
TABLE
  2
DIMSTYLE
  5
A
100
AcDbSymbolTable
 70
1
100
AcDbDimStyleTable
 71
0
  0
DIMSTYLE
105
219
100
AcDbSymbolTableRecord
100
AcDbDimStyleTableRecord
  2
STANDARD
 70
0
  3

  4

 40
1.0
 41
0.1875
 42
0.0625
 43
0.38
 44
0.125
 45
0.0
 46
0.0
 47
0.01
 48
0.01
140
0.15625
141
0.09
142
0.0
143
25.4
144
1.0
145
0.0
146
1.0
147
0.625
 71
0.0
 72
0.0
 73
1
 74
1
 75
0
 76
0
 77
0
 78
8
 79
2
170
0
171
1
172
0
173
0
174
0
175
0
176
0
177
0
178
0
270
2
179
2
271
2
272
2
273
2
274
2
275
0
280
0
281
0
282
0
283
1
284
8
285
0
286
0
287
3
288
0
340
11
278
46
341
218
342
218
343
218
344
218
  0
ENDTAB
  0
ENDSEC
  0
SECTION
  2
BLOCKS
  0
BLOCK
  5
20
100
AcDbEntity
  8
0
100
AcDbBlockBegin
  2
*Model_Space
 70
0
 10
0.0
 20
0.0
 30
0.0
  3
*Model_Space
  1

  0
ENDBLK
  5
21
100
AcDbEntity
  8
0
100
AcDbBlockEnd
  0
BLOCK
  5
1C
100
AcDbEntity
  8
0
100
AcDbBlockBegin
  2
*Paper_Space
 70
0
 10
0.0
 20
0.0
 30
0.0
  3
*Paper_Space
  1

  0
ENDBLK
  5
1D
100
AcDbEntity
  8
0
100
AcDbBlockEnd
  0
BLOCK
  5
21A
100
AcDbEntity
  8
0
100
AcDbBlockBegin
  2
_CLOSED
 70
64
 10
0.0
 20
0.0
  3
_CLOSED
  1

  0
LINE
  5
21B
100
AcDbEntity
  8
0
  6
BYBLOCK
 62
0
100
AcDbLine
 10
0.0
 20
0.0
 11
-1.0
 21
0.1666666667
  0
LINE
  5
21C
100
AcDbEntity
  8
0
  6
BYBLOCK
 62
0
100
AcDbLine
 10
-1.0
 20
0.1666666667
 11
-1.0
 21
-0.1666666667
  0
LINE
  5
21D
100
AcDbEntity
  8
0
  6
BYBLOCK
 62
0
100
AcDbLine
 10
-1.0
 20
-0.1666666667
 11
0.0
 21
0.0
  0
LINE
  5
21E
100
AcDbEntity
  8
0
  6
BYBLOCK
 62
0
100
AcDbLine
 10
-1.0
 20
0.0
 11
0.0
 21
0.0
  0
ENDBLK
  5
21F
100
AcDbEntity
  8
0
  6
BYBLOCK
 62
0
100
AcDbBlockEnd
  0
ENDSEC
  0
SECTION
  2
ENTITIES
  0
LINE
  5
220
100
AcDbEntity
  8
0
100
AcDbLine
 62
7
  6
CONTINUOUS
 10
-27.0276377048
 20
180.1174510498
 11
11.4020824381
 21
190.418748232
  0
LINE
  5
221
100
AcDbEntity
  8
0
100
AcDbLine
 62
7
  6
CONTINUOUS
 10
-31.1779462517
 20
179.7190981714
 11
-27.872161014
 21
180.605232029
  0
LINE
  5
222
100
AcDbEntity
  8
0
100
AcDbLine
 62
7
  6
CONTINUOUS
 10
-1.0579647597
 20
189.1286421035
 11
8.9232729813
 21
191.8041676039
  0
LINE
  5
223
100
AcDbEntity
  8
0
100
AcDbLine
 62
7
  6
CONTINUOUS
 10
-37.7441498465
 20
181.7455040083
 11
-34.9290721494
 21
180.1195674113
  0
LINE
  5
224
100
AcDbEntity
  8
0
100
AcDbLine
 62
7
  6
CONTINUOUS
 10
-36.5317702632
 20
189.0614988773
 11
-31.159869253
 21
190.5014663955
  0
LINE
  5
225
100
AcDbEntity
  8
0
100
AcDbLine
 62
7
  6
CONTINUOUS
 10
-40.1913712695
 20
186.5785433864
 11
-37.3762935724
 21
184.9526067893
  0
LINE
  5
226
100
AcDbEntity
  8
0
100
AcDbLine
 62
7
  6
CONTINUOUS
 10
-27.0276377048
 20
180.1174510498
 11
-27.872161014
 21
180.605232029
  0
LINE
  5
227
100
AcDbEntity
  8
0
100
AcDbLine
 62
7
  6
CONTINUOUS
 10
-36.5317702632
 20
189.0614988773
 11
-37.3762935724
 21
189.5492798564
  0
LINE
  5
228
100
AcDbEntity
  8
0
100
AcDbLine
 62
7
  6
CONTINUOUS
 10
-27.0276377048
 20
187.0124606506
 11
-27.872161014
 21
187.5002416297
  0
LINE
  5
229
100
AcDbEntity
  8
0
100
AcDbLine
 62
7
  6
CONTINUOUS
 10
-40.1913712695
 20
186.5785433864
 11
-40.1913712695
 21
264.721985528
  0
LINE
  5
22A
100
AcDbEntity
  8
0
100
AcDbLine
 62
7
  6
CONTINUOUS
 10
-37.3762935724
 20
263.096048931
 11
-37.3762935724
 21
258.4993758638
  0
LINE
  5
22B
100
AcDbEntity
  8
0
100
AcDbLine
 62
7
  6
CONTINUOUS
 10
-37.3762935724
 20
189.5492798564
 11
-37.3762935724
 21
184.9526067893
  0
LINE
  5
22C
100
AcDbEntity
  8
0
100
AcDbLine
 62
7
  6
CONTINUOUS
 10
-36.5317702632
 20
258.0115948847
 11
-36.5317702632
 21
189.0614988773
  0
LINE
  5
22D
100
AcDbEntity
  8
0
100
AcDbLine
 62
7
  6
CONTINUOUS
 10
-3.4233524257
 20
190.4949097841
 11
-1.0579647597
 21
189.1286421035
  0
LINE
  5
22E
100
AcDbEntity
  8
0
100
AcDbLine
 62
7
  6
CONTINUOUS
 10
-27.872161014
 20
180.605232029
 11
-27.872161014
 21
187.5002416297
  0
LINE
  5
22F
100
AcDbEntity
  8
0
100
AcDbLine
 62
7
  6
CONTINUOUS
 10
-27.872161014
 20
265.6436837713
 11
-27.872161014
 21
272.5386933721
  0
LINE
  5
230
100
AcDbEntity
  8
0
100
AcDbLine
 62
7
  6
CONTINUOUS
 10
-27.0276377048
 20
272.050912393
 11
-27.0276377048
 21
265.1559027922
  0
LINE
  5
231
100
AcDbEntity
  8
0
100
AcDbLine
 62
7
  6
CONTINUOUS
 10
-27.0276377048
 20
180.1174510498
 11
-27.0276377048
 21
187.0124606506
  0
LINE
  5
232
100
AcDbEntity
  8
0
100
AcDbLine
 62
7
  6
CONTINUOUS
 10
52.4829315397
 20
248.9407803512
 11
42.5329779013
 21
246.2736407261
  0
LINE
  5
233
100
AcDbEntity
  8
0
100
AcDbLine
 62
7
  6
CONTINUOUS
 10
25.7125051654
 20
181.5718315671
 11
22.1563463939
 21
183.6249724214
  0
LINE
  5
234
100
AcDbEntity
  8
0
100
AcDbLine
 62
7
  6
CONTINUOUS
 10
-15.3464901694
 20
205.795513905
 11
-9.5020021072
 21
202.4198461425
  0
LINE
  5
235
100
AcDbEntity
  8
0
100
AcDbLine
 62
7
  6
CONTINUOUS
 10
8.9118312917
 20
191.7843579476
 11
10.8337324139
 21
190.6743035524
  0
LINE
  5
236
100
AcDbEntity
  8
0
100
AcDbLine
 62
7
  6
CONTINUOUS
 10
14.7358980164
 20
189.0269970578
 11
23.8376355261
 21
183.770002507
  0
LINE
  5
237
100
AcDbEntity
  8
0
100
AcDbLine
 62
7
  6
CONTINUOUS
 10
20.9192607646
 20
188.1912573579
 11
21.8798583877
 21
187.6364340108
  0
LINE
  5
238
100
AcDbEntity
  8
0
100
AcDbLine
 62
7
  6
CONTINUOUS
 10
4.3704992722
 20
201.9865902388
 11
23.9459741613
 21
190.6801594929
  0
LINE
  5
239
100
AcDbEntity
  8
0
100
AcDbLine
 62
7
  6
CONTINUOUS
 10
61.161827027
 20
252.3892112318
 11
56.6163723252
 21
251.1707771777
  0
LINE
  5
23A
100
AcDbEntity
  8
0
100
AcDbLine
 62
7
  6
CONTINUOUS
 10
50.1173420849
 20
250.3070688152
 11
40.1674679046
 21
247.6399153686
  0
LINE
  5
23B
100
AcDbEntity
  8
0
100
AcDbLine
 62
7
  6
CONTINUOUS
 10
3.3492005395
 20
204.9786961264
 11
29.7310983273
 21
189.7410019211
  0
LINE
  5
23C
100
AcDbEntity
  8
0
100
AcDbLine
 62
7
  6
CONTINUOUS
 10
15.3351124066
 20
198.4678020484
 11
3.2504348816
 21
205.4476873537
  0
LINE
  5
23D
100
AcDbEntity
  8
0
100
AcDbLine
 62
7
  6
CONTINUOUS
 10
29.7310983273
 20
192.2308937435
 11
22.0134074691
 21
196.6884886525
  0
LINE
  5
23E
100
AcDbEntity
  8
0
100
AcDbLine
 62
7
  6
CONTINUOUS
 10
-12.5648272899
 20
265.5645144631
 11
-12.5648272899
 21
264.4575098232
  0
LINE
  5
23F
100
AcDbEntity
  8
0
100
AcDbLine
 62
7
  6
CONTINUOUS
 10
5.7456345847
 20
280.4885190173
 11
6.19364604
 21
282.8968483932
  0
LINE
  5
240
100
AcDbEntity
  8
0
100
AcDbLine
 62
7
  6
CONTINUOUS
 10
-36.5317702632
 20
258.0115948847
 11
-37.3762935724
 21
258.4993758638
  0
LINE
  5
241
100
AcDbEntity
  8
0
100
AcDbLine
 62
7
  6
CONTINUOUS
 10
6.0146855112
 20
259.7557350108
 11
6.0146855112
 21
253.7263282826
  0
LINE
  5
242
100
AcDbEntity
  8
0
100
AcDbLine
 62
7
  6
CONTINUOUS
 10
9.1138591717
 20
254.995129521
 11
9.1138591717
 21
257.9048441054
  0
LINE
  5
243
100
AcDbEntity
  8
0
100
AcDbLine
 62
7
  6
CONTINUOUS
 10
-36.5317702632
 20
258.0115948847
 11
-31.159869253
 21
259.4515624029
  0
LINE
  5
244
100
AcDbEntity
  8
0
100
AcDbLine
 62
7
  6
CONTINUOUS
 10
-37.3762935724
 20
258.4993758638
 11
-32.0043925614
 21
259.9393433822
  0
LINE
  5
245
100
AcDbEntity
  8
0
100
AcDbLine
 62
7
  6
CONTINUOUS
 10
1.0514088654
 20
271.8900083661
 11
-6.6348910556
 21
269.8296535307
  0
LINE
  5
246
100
AcDbEntity
  8
0
100
AcDbLine
 62
7
  6
CONTINUOUS
 10
-17.6506507267
 20
249.826345252
 11
-1.6730973631
 21
240.5980071597
  0
LINE
  5
247
100
AcDbEntity
  8
0
100
AcDbLine
 62
7
  6
CONTINUOUS
 10
-31.1598692527
 20
259.451562403
 11
-32.0043925614
 21
259.9393433822
  0
LINE
  5
248
100
AcDbEntity
  8
0
100
AcDbLine
 62
7
  6
CONTINUOUS
 10
-37.3762935724
 20
263.096048931
 11
-40.1913712695
 21
264.721985528
  0
LINE
  5
249
100
AcDbEntity
  8
0
100
AcDbLine
 62
7
  6
CONTINUOUS
 10
15.557660775
 20
249.3902933679
 11
15.557660775
 21
252.0319042142
  0
LINE
  5
24A
100
AcDbEntity
  8
0
100
AcDbLine
 62
7
  6
CONTINUOUS
 10
-27.0276377048
 20
272.050912393
 11
5.8136611774
 21
280.8542026166
  0
LINE
  5
24B
100
AcDbEntity
  8
0
100
AcDbLine
 62
7
  6
CONTINUOUS
 10
-27.872161014
 20
272.5386933721
 11
-31.1779462517
 21
271.6525595146
  0
LINE
  5
24C
100
AcDbEntity
  8
0
100
AcDbLine
 62
7
  6
CONTINUOUS
 10
31.1164608046
 20
289.3984236612
 11
29.9335006887
 21
289.0813213879
  0
LINE
  5
24D
100
AcDbEntity
  8
0
100
AcDbLine
 62
7
  6
CONTINUOUS
 10
11.2817493784
 20
284.081620516
 11
12.4650944883
 21
284.3988232613
  0
LINE
  5
24E
100
AcDbEntity
  8
0
100
AcDbLine
 62
7
  6
CONTINUOUS
 10
-33.9930239488
 20
273.2784961116
 11
6.6898051763
 21
284.1837515095
  0
LINE
  5
24F
100
AcDbEntity
  8
0
100
AcDbLine
 62
7
  6
CONTINUOUS
 10
28.2397749873
 20
290.2508604074
 11
8.4050635611
 21
284.9340572622
  0
LINE
  5
250
100
AcDbEntity
  8
0
100
AcDbLine
 62
7
  6
CONTINUOUS
 10
27.4560729757
 20
290.2636545313
 11
7.6213615495
 21
284.9468513862
  0
LINE
  5
251
100
AcDbEntity
  8
0
100
AcDbLine
 62
7
  6
CONTINUOUS
 10
-27.872161014
 20
265.6436837713
 11
-27.0276377048
 21
265.1559027922
  0
LINE
  5
252
100
AcDbEntity
  8
0
100
AcDbLine
 62
7
  6
CONTINUOUS
 10
-33.9930239488
 20
273.2784961116
 11
-31.1779462517
 21
271.6525595146
  0
LINE
  5
253
100
AcDbEntity
  8
0
100
AcDbLine
 62
7
  6
CONTINUOUS
 10
-27.0276377048
 20
272.050912393
 11
-27.872161014
 21
272.5386933721
  0
LINE
  5
254
100
AcDbEntity
  8
0
100
AcDbLine
 62
7
  6
CONTINUOUS
 10
-12.5648272899
 20
264.4575098232
 11
6.0146855112
 21
253.7263282826
  0
LINE
  5
255
100
AcDbEntity
  8
0
100
AcDbLine
 62
7
  6
CONTINUOUS
 10
21.8798583877
 20
188.1581864731
 11
21.8798583877
 21
187.6364340108
  0
LINE
  5
256
100
AcDbEntity
  8
0
100
AcDbLine
 62
7
  6
CONTINUOUS
 10
23.9459741613
 20
188.190267671
 11
23.9459741613
 21
190.6801594929
  0
LINE
  5
257
100
AcDbEntity
  8
0
100
AcDbLine
 62
7
  6
CONTINUOUS
 10
25.7125051654
 20
183.2964660646
 11
25.7125051654
 21
181.5718315671
  0
LINE
  5
258
100
AcDbEntity
  8
0
100
AcDbLine
 62
7
  6
CONTINUOUS
 10
29.7310983273
 20
192.2308937435
 11
29.7310983273
 21
189.7410019211
  0
LINE
  5
259
100
AcDbEntity
  8
0
100
AcDbLine
 62
7
  6
CONTINUOUS
 10
22.1563463939
 20
183.6249724214
 11
22.1784340104
 21
184.7283264883
  0
LINE
  5
25A
100
AcDbEntity
  8
0
100
AcDbLine
 62
7
  6
CONTINUOUS
 10
30.9477011515
 20
289.2054920824
 11
30.8876741862
 21
289.198479768
  0
LINE
  5
25B
100
AcDbEntity
  8
0
100
AcDbLine
 62
7
  6
CONTINUOUS
 10
38.3419600819
 20
238.3008828028
 11
26.2348034197
 21
245.2937516403
  0
LINE
  5
25C
100
AcDbEntity
  8
0
100
AcDbLine
 62
7
  6
CONTINUOUS
 10
35.2426302924
 20
250.4844101108
 11
42.8433400746
 21
246.0943812987
  0
LINE
  5
25D
100
AcDbEntity
  8
0
100
AcDbLine
 62
7
  6
CONTINUOUS
 10
15.557660775
 20
252.0319042142
 11
12.0360141221
 21
254.0663595747
  0
LINE
  5
25E
100
AcDbEntity
  8
0
100
AcDbLine
 62
7
  6
CONTINUOUS
 10
31.7972141008
 20
190.2948355834
 11
31.7972141008
 21
190.8165880457
  0
LINE
  5
25F
100
AcDbEntity
  8
0
100
AcDbLine
 62
7
  6
CONTINUOUS
 10
37.8483975852
 20
248.979367316
 11
37.8483975852
 21
251.6235151859
  0
LINE
  5
260
100
AcDbEntity
  8
0
100
AcDbLine
 62
7
  6
CONTINUOUS
 10
50.1172112825
 20
250.3069608987
 11
52.4829315397
 21
248.9407803512
  0
LINE
  5
261
100
AcDbEntity
  8
0
100
AcDbLine
 62
7
  6
CONTINUOUS
 10
8.4050635612
 20
284.9340572622
 11
11.2817493784
 21
284.081620516
  0
LINE
  5
262
100
AcDbEntity
  8
0
100
AcDbLine
 62
7
  6
CONTINUOUS
 10
56.6163723251
 20
251.1707771777
 11
55.4903412463
 21
251.8211518165
  0
LINE
  5
263
100
AcDbEntity
  8
0
100
AcDbLine
 62
7
  6
CONTINUOUS
 10
53.5749736224
 20
257.0351877382
 11
56.218033709
 21
255.5086183053
  0
LINE
  5
264
100
AcDbEntity
  8
0
100
AcDbLine
 62
7
  6
CONTINUOUS
 10
11.5329049935
 20
283.9365635751
 11
11.2817493784
 21
284.081620516
  0
LINE
  5
265
100
AcDbEntity
  8
0
100
AcDbLine
 62
7
  6
CONTINUOUS
 10
56.218033709
 20
255.5086183053
 11
56.218033709
 21
256.9380653777
  0
LINE
  5
266
100
AcDbEntity
  8
0
100
AcDbLine
 62
7
  6
CONTINUOUS
 10
56.6163723252
 20
251.1707771777
 11
56.6163725248
 21
252.6447758542
  0
LINE
  5
267
100
AcDbEntity
  8
0
100
AcDbLine
 62
7
  6
CONTINUOUS
 10
31.1164608046
 20
289.3984236612
 11
28.2397749874
 21
290.2508604074
  0
LINE
  5
268
100
AcDbEntity
  8
0
100
AcDbLine
 62
7
  6
CONTINUOUS
 10
61.161827027
 20
252.3892112318
 11
61.1618270499
 21
253.4781040688
  0
LINE
  5
269
100
AcDbEntity
  8
0
100
AcDbLine
 62
7
  6
CONTINUOUS
 10
31.1164608046
 20
289.3984236612
 11
31.3676068926
 21
289.2533634726
  0
LINE
  5
26A
100
AcDbEntity
  8
0
100
AcDbLine
 62
7
  6
CONTINUOUS
 10
31.7415751559
 20
289.4930367004
 11
31.9267325865
 21
289.3860932072
  0
LINE
  5
26B
100
AcDbEntity
  8
0
100
AcDbLine
 62
7
  6
CONTINUOUS
 10
55.4903412463
 20
251.8211518165
 11
55.3922643754
 21
252.4754773456
  0
LINE
  5
26C
100
AcDbEntity
  8
0
100
AcDbLine
 62
7
  6
CONTINUOUS
 10
76.0527451352
 20
262.2548685229
 11
76.0527451352
 21
260.8254214505
  0
ARC
  5
26D
100
AcDbEntity
  8
0
100
AcDbCircle
 62
7
  6
CONTINUOUS
 10
-40.8210549052
 20
131.1871871455
 40
175.60814969
100
AcDbArc
 50
48.276429736
 51
50.0664978405
  0
ARC
  5
26E
100
AcDbEntity
  8
0
100
AcDbCircle
 62
7
  6
CONTINUOUS
 10
-59.4325479227
 20
127.286068904
 40
173.7374375929
100
AcDbArc
 50
48.2667919464
 51
50.0761361348
  0
ARC
  5
26F
100
AcDbEntity
  8
0
100
AcDbCircle
 62
7
  6
CONTINUOUS
 10
43.0950500013
 20
340.6546499523
 40
89.0426541897
100
AcDbArc
 50
276.9519925115
 51
279.8543153757
  0
ARC
  5
270
100
AcDbEntity
  8
0
100
AcDbCircle
 62
7
  6
CONTINUOUS
 10
41.0452582766
 20
202.4982055171
 40
87.293266454
100
AcDbArc
 50
96.3651044113
 51
96.5181880391
  0
ARC
  5
271
100
AcDbEntity
  8
0
100
AcDbCircle
 62
7
  6
CONTINUOUS
 10
41.0029184401
 20
202.8690207233
 40
86.920041886
100
AcDbArc
 50
96.5182066806
 51
96.6430515819
  0
ARC
  5
272
100
AcDbEntity
  8
0
100
AcDbCircle
 62
7
  6
CONTINUOUS
 10
40.8730777921
 20
203.9659118401
 40
85.8154934773
100
AcDbArc
 50
96.682015351
 51
97.3240998505
  0
ARC
  5
273
100
AcDbEntity
  8
0
100
AcDbCircle
 62
7
  6
CONTINUOUS
 10
40.3378958174
 20
207.982804582
 40
81.7631775867
100
AcDbArc
 50
97.3106932191
 51
99.1874972023
  0
ARC
  5
274
100
AcDbEntity
  8
0
100
AcDbCircle
 62
7
  6
CONTINUOUS
 10
10.8033554578
 20
251.8277037044
 40
43.0874640138
100
AcDbArc
 50
6.9416755401
 51
7.6822905639
  0
ARC
  5
275
100
AcDbEntity
  8
0
100
AcDbCircle
 62
7
  6
CONTINUOUS
 10
26.426318186
 20
255.0736687951
 40
32.4789231904
100
AcDbArc
 50
115.4583509481
 51
117.2939840682
  0
ARC
  5
276
100
AcDbEntity
  8
0
100
AcDbCircle
 62
7
  6
CONTINUOUS
 10
24.9926940057
 20
257.8660151412
 40
29.3401116603
100
AcDbArc
 50
117.3066172819
 51
118.6221865414
  0
ARC
  5
277
100
AcDbEntity
  8
0
100
AcDbCircle
 62
7
  6
CONTINUOUS
 10
28.2363729866
 20
267.6726320328
 40
27.5192472921
100
AcDbArc
 50
165.996252655
 51
179.9973811688
  0
ARC
  5
278
100
AcDbEntity
  8
0
100
AcDbCircle
 62
7
  6
CONTINUOUS
 10
55.1978880818
 20
267.6726332085
 40
27.5192376701
100
AcDbArc
 50
0.0026163883
 51
14.0037498308
  0
ARC
  5
279
100
AcDbEntity
  8
0
100
AcDbCircle
 62
7
  6
CONTINUOUS
 10
-16.0653007073
 20
254.5791477957
 40
25.1829259789
100
AcDbArc
 50
353.7990969693
 51
359.9762623974
  0
ARC
  5
27A
100
AcDbEntity
  8
0
100
AcDbCircle
 62
7
  6
CONTINUOUS
 10
-15.0082611928
 20
254.5691343453
 40
24.1258843069
100
AcDbArc
 50
359.9990029867
 51
1.0118207529
  0
ARC
  5
27B
100
AcDbEntity
  8
0
100
AcDbCircle
 62
7
  6
CONTINUOUS
 10
25.9491495498
 20
234.3884924359
 40
18.5862160285
100
AcDbArc
 50
59.9986695784
 51
72.1835377164
  0
ARC
  5
27C
100
AcDbEntity
  8
0
100
AcDbCircle
 62
7
  6
CONTINUOUS
 10
20.1114079463
 20
206.7313442602
 40
18.5446273474
100
AcDbArc
 50
233.1502479768
 51
239.9808989341
  0
ARC
  5
27D
100
AcDbEntity
  8
0
100
AcDbCircle
 62
7
  6
CONTINUOUS
 10
29.5656523877
 20
285.7227669014
 40
4.3530900419
100
AcDbArc
 50
60.0096146745
 51
67.1296583324
  0
ARC
  5
27E
100
AcDbEntity
  8
0
100
AcDbCircle
 62
7
  6
CONTINUOUS
 10
22.0079934898
 20
210.7904778548
 40
3.8795777238
100
AcDbArc
 50
12.2972923098
 51
15.5939067179
  0
ARC
  5
27F
100
AcDbEntity
  8
0
100
AcDbCircle
 62
7
  6
CONTINUOUS
 10
-31.0201353296
 20
188.1329398558
 40
3.0021691145
100
AcDbArc
 50
41.5917396084
 51
50.7512790888
  0
ARC
  5
280
100
AcDbEntity
  8
0
100
AcDbCircle
 62
7
  6
CONTINUOUS
 10
3.2948647557
 20
261.4453113165
 40
0.5474994856
100
AcDbArc
 50
272.4289136332
 51
284.9307052385
  0
SPLINE
  5
281
100
AcDbEntity
  8
0
100
AcDbSpline
 62
7
  6
CONTINUOUS
 70
0
 71
3
 72
15
 73
11
 74
0
 42
0.0000001
 43
0.0000001
 44
0.0000000001
 40
0.0
 40
0.0
 40
0.0
 40
0.0
 40
0.0980180984
 40
0.2111224324
 40
0.337105748
 40
0.472022955
 40
0.610968284
 40
0.7486260771
 40
0.8798102336
 40
1.0
 40
1.0
 40
1.0
 40
1.0
 10
2.9181000444
 20
261.0094217485
 30
0.0
 10
2.8249048628
 20
261.0632495546
 30
0.0
 10
2.641365537
 20
261.209203496
 30
0.0
 10
2.4023238599
 20
261.4938682509
 30
0.0
 10
2.1893330324
 20
261.8466657041
 30
0.0
 10
2.0132359693
 20
262.2500404241
 30
0.0
 10
1.882782441
 20
262.6837277219
 30
0.0
 10
1.8046737644
 20
263.1257299938
 30
0.0
 10
1.7827963384
 20
263.5534173728
 30
0.0
 10
1.8077870959
 20
263.8296995469
 30
0.0
 10
1.831776838
 20
263.9594684025
 30
0.0
  0
SPLINE
  5
282
100
AcDbEntity
  8
0
100
AcDbSpline
 62
7
  6
CONTINUOUS
 70
0
 71
3
 72
10
 73
6
 74
0
 42
0.0000001
 43
0.0000001
 44
0.0000000001
 40
0.0
 40
0.0
 40
0.0
 40
0.0
 40
0.2307026303
 40
0.4700767339
 40
1.0
 40
1.0
 40
1.0
 40
1.0
 10
3.4359265049
 20
260.9163024863
 30
0.0
 10
3.395946756
 20
260.9055779421
 30
0.0
 10
3.3115925582
 20
260.8932885078
 30
0.0
 10
3.1315892613
 20
260.9077890642
 30
0.0
 10
3.0004335284
 20
260.9618674572
 30
0.0
 10
2.9181000444
 20
261.0094217485
 30
0.0
  0
SPLINE
  5
283
100
AcDbEntity
  8
0
100
AcDbSpline
 62
7
  6
CONTINUOUS
 70
0
 71
3
 72
11
 73
7
 74
0
 42
0.0000001
 43
0.0000001
 44
0.0000000001
 40
0.0
 40
0.0
 40
0.0
 40
0.0
 40
0.2754425525
 40
0.5361770052
 40
0.778666023
 40
1.0
 40
1.0
 40
1.0
 40
1.0
 10
56.218033709
 20
255.5086183053
 30
0.0
 10
58.0930532057
 20
255.7597576117
 30
0.0
 10
61.730219279
 20
256.3521559253
 30
0.0
 10
66.9475758516
 20
257.544856576
 30
0.0
 10
71.7111546031
 20
258.9996868815
 30
0.0
 10
74.6740630114
 20
260.1850586988
 30
0.0
 10
76.0527451352
 20
260.8254214505
 30
0.0
  0
SPLINE
  5
284
100
AcDbEntity
  8
0
100
AcDbSpline
 62
7
  6
CONTINUOUS
 70
0
 71
3
 72
9
 73
5
 74
0
 42
0.0000001
 43
0.0000001
 44
0.0000000001
 40
0.0
 40
0.0
 40
0.0
 40
0.0
 40
0.5132620111
 40
1.0
 40
1.0
 40
1.0
 40
1.0
 10
28.2397749874
 20
290.2508604074
 30
0.0
 10
28.1092588967
 20
290.2865175436
 30
0.0
 10
27.845809982
 20
290.327943787
 30
0.0
 10
27.5800026627
 20
290.2968842813
 30
0.0
 10
27.456072637
 20
290.2636560134
 30
0.0
  0
SPLINE
  5
285
100
AcDbEntity
  8
0
100
AcDbSpline
 62
7
  6
CONTINUOUS
 70
0
 71
3
 72
9
 73
5
 74
0
 42
0.0000001
 43
0.0000001
 44
0.0000000001
 40
0.0
 40
0.0
 40
0.0
 40
0.0
 40
0.520257747
 40
1.0
 40
1.0
 40
1.0
 40
1.0
 10
27.2958392927
 20
288.8068328217
 30
0.0
 10
25.1971394703
 20
288.4752768716
 30
0.0
 10
21.1856965991
 20
287.6823861638
 30
0.0
 10
17.2601828007
 20
286.5257228326
 30
0.0
 10
15.4168277382
 20
285.8618290307
 30
0.0
  0
SPLINE
  5
286
100
AcDbEntity
  8
0
100
AcDbSpline
 62
7
  6
CONTINUOUS
 70
0
 71
3
 72
12
 73
8
 74
0
 42
0.0000001
 43
0.0000001
 44
0.0000000001
 40
0.0
 40
0.0
 40
0.0
 40
0.0
 40
0.2816735293
 40
0.5373322833
 40
0.773613292
 40
0.8872411664
 40
1.0
 40
1.0
 40
1.0
 40
1.0
 10
10.8103013684
 20
283.8969955427
 30
0.0
 10
9.6610671191
 20
283.3159389601
 30
0.0
 10
7.5266231821
 20
282.082537357
 30
0.0
 10
4.7552099987
 20
279.8591595595
 30
0.0
 10
2.9778369233
 20
277.6973803429
 30
0.0
 10
1.9942141468
 20
275.8172660792
 30
0.0
 10
1.6596249757
 20
274.8321076073
 30
0.0
 10
1.5349985852
 20
274.3318794712
 30
0.0
  0
SPLINE
  5
287
100
AcDbEntity
  8
0
100
AcDbSpline
 62
7
  6
CONTINUOUS
 70
0
 71
3
 72
19
 73
15
 74
0
 42
0.0000001
 43
0.0000001
 44
0.0000000001
 40
0.0
 40
0.0
 40
0.0
 40
0.0
 40
0.0419864224
 40
0.0850468045
 40
0.1303183436
 40
0.1786034047
 40
0.2305931385
 40
0.2866053674
 40
0.3466813674
 40
0.4106477609
 40
0.5486713303
 40
0.6965584975
 40
0.8489419152
 40
1.0
 40
1.0
 40
1.0
 40
1.0
 10
81.8991822887
 20
274.3321627203
 30
0.0
 10
81.7102544213
 20
275.0903827024
 30
0.0
 10
81.1290060033
 20
276.5819762372
 30
0.0
 10
79.764748071
 20
278.6051955472
 30
0.0
 10
77.9837835667
 20
280.4353124203
 30
0.0
 10
75.8283445798
 20
282.0879664303
 30
0.0
 10
73.3281555153
 20
283.5843662883
 30
0.0
 10
70.5009594396
 20
284.931907965
 30
0.0
 10
67.3689468063
 20
286.131724743
 30
0.0
 10
62.7037695975
 20
287.5646346692
 30
0.0
 10
56.3180799094
 20
288.9086686264
 30
0.0
 10
48.2004802009
 20
289.8118078988
 30
0.0
 10
39.7931818826
 20
290.0069134555
 30
0.0
 10
34.1482101025
 20
289.6535099328
 30
0.0
 10
31.3535759114
 20
289.3476598803
 30
0.0
  0
LINE
  5
288
100
AcDbEntity
  8
0
100
AcDbLine
 62
7
  6
CONTINUOUS
 10
31.3535759114
 20
289.3476598803
 11
31.2348890783
 21
289.3345904511
  0
SPLINE
  5
289
100
AcDbEntity
  8
0
100
AcDbSpline
 62
7
  6
CONTINUOUS
 70
0
 71
3
 72
17
 73
13
 74
0
 42
0.0000001
 43
0.0000001
 44
0.0000000001
 40
0.0
 40
0.0
 40
0.0
 40
0.0
 40
0.1757676597
 40
0.3392781217
 40
0.4882099908
 40
0.6208956257
 40
0.7366014509
 40
0.7882846025
 40
0.8361282992
 40
0.9219208372
 40
0.9614930776
 40
1.0
 40
1.0
 40
1.0
 40
1.0
 10
58.3341278671
 20
252.9257221636
 30
0.0
 10
60.0832084948
 20
253.2308371788
 30
0.0
 10
63.4421654301
 20
253.9272237685
 30
0.0
 10
68.1889699493
 20
255.2824737069
 30
0.0
 10
72.3962619037
 20
256.8887717023
 30
0.0
 10
75.9803024603
 20
258.7139639737
 30
0.0
 10
78.4817551033
 20
260.4515335308
 30
0.0
 10
80.0750929424
 20
261.937085497
 30
0.0
 10
81.2992932317
 20
263.3553378662
 30
0.0
 10
82.1959303528
 20
264.8929982229
 30
0.0
 10
82.6436139829
 20
266.4943474992
 30
0.0
 10
82.7171089714
 20
267.2849173232
 30
0.0
 10
82.7171183294
 20
267.6738899131
 30
0.0
  0
SPLINE
  5
28A
100
AcDbEntity
  8
0
100
AcDbSpline
 62
7
  6
CONTINUOUS
 70
0
 71
3
 72
20
 73
16
 74
0
 42
0.0000001
 43
0.0000001
 44
0.0000000001
 40
0.0
 40
0.0
 40
0.0
 40
0.0
 40
0.0321729393
 40
0.0665998375
 40
0.1050349794
 40
0.1485701427
 40
0.1977289049
 40
0.2526168426
 40
0.3130415264
 40
0.3785942701
 40
0.4487049339
 40
0.5226811807
 40
0.6789750513
 40
0.8405547583
 40
1.0
 40
1.0
 40
1.0
 40
1.0
 10
0.7171384371
 20
267.6738897775
 30
0.0
 10
0.7171474001
 20
267.0393104369
 30
0.0
 10
0.9209406277
 20
265.7187796608
 30
0.0
 10
1.8054806193
 20
263.8214653264
 30
0.0
 10
3.2332307393
 20
262.0034156141
 30
0.0
 10
5.1743496251
 20
260.2785064107
 30
0.0
 10
7.6024965953
 20
258.6599153155
 30
0.0
 10
10.487421067
 20
257.1649679028
 30
0.0
 10
13.7925002699
 20
255.8118572339
 30
0.0
 10
17.4746293346
 20
254.6183364508
 30
0.0
 10
21.4849970685
 20
253.6003472489
 30
0.0
 10
27.3046598113
 20
252.4757138766
 30
0.0
 10
34.9994867853
 20
251.6143159166
 30
0.0
 10
44.423787388
 20
251.4328093648
 30
0.0
 10
50.7508669435
 20
251.8853342182
 30
0.0
 10
53.8725642801
 20
252.2666448209
 30
0.0
  0
SPLINE
  5
28B
100
AcDbEntity
  8
0
100
AcDbSpline
 62
7
  6
CONTINUOUS
 70
0
 71
3
 72
11
 73
7
 74
0
 42
0.0000001
 43
0.0000001
 44
0.0000000001
 40
0.0
 40
0.0
 40
0.0
 40
0.0
 40
0.3018048983
 40
0.5648054422
 40
0.7930857525
 40
1.0
 40
1.0
 40
1.0
 40
1.0
 10
6.19364604
 20
282.8968483932
 30
0.0
 10
6.2423335265
 20
283.1561374379
 30
0.0
 10
6.3697853658
 20
283.6362066072
 30
0.0
 10
6.681725418
 20
284.2621984885
 30
0.0
 10
7.0973070068
 20
284.7225432944
 30
0.0
 10
7.4466592329
 20
284.9000115625
 30
0.0
 10
7.6213612109
 20
284.9468528677
 30
0.0
  0
SPLINE
  5
28C
100
AcDbEntity
  8
0
100
AcDbSpline
 62
7
  6
CONTINUOUS
 70
0
 71
3
 72
24
 73
20
 74
0
 42
0.0000001
 43
0.0000001
 44
0.0000000001
 40
0.0
 40
0.0
 40
0.0
 40
0.0
 40
0.0139529202
 40
0.0213080124
 40
0.0358746556
 40
0.0551812863
 40
0.0775798307
 40
0.1020643572
 40
0.1280789161
 40
0.1552886739
 40
0.1834749128
 40
0.2422114201
 40
0.303498877
 40
0.366868873
 40
0.4320171692
 40
0.5668542016
 40
0.7068852849
 40
0.8514224568
 40
1.0
 40
1.0
 40
1.0
 40
1.0
 10
12.4647531264
 20
284.3987317343
 30
0.0
 10
12.4489504842
 20
284.4010281112
 30
0.0
 10
12.422835453
 20
284.4044737828
 30
0.0
 10
12.396424006
 20
284.4420099018
 30
0.0
 10
12.426174323
 20
284.4893013829
 30
0.0
 10
12.4700109922
 20
284.5322298487
 30
0.0
 10
12.5303196613
 20
284.5799933715
 30
0.0
 10
12.5987518569
 20
284.6271813837
 30
0.0
 10
12.6739906769
 20
284.6748152645
 30
0.0
 10
12.7541325488
 20
284.7223005741
 30
0.0
 10
12.8679723788
 20
284.7863852555
 30
0.0
 10
13.0179811563
 20
284.8656119507
 30
0.0
 10
13.2059575052
 20
284.9590164539
 30
0.0
 10
13.4023338486
 20
285.0519049124
 30
0.0
 10
13.6768078851
 20
285.1764532705
 30
0.0
 10
14.0343898819
 20
285.3300580751
 30
0.0
 10
14.4792793783
 20
285.5103165746
 30
0.0
 10
14.9419162448
 20
285.6884364761
 30
0.0
 10
15.2567790233
 20
285.8042089192
 30
0.0
 10
15.4167639803
 20
285.8618196605
 30
0.0
  0
SPLINE
  5
28D
100
AcDbEntity
  8
0
100
AcDbSpline
 62
7
  6
CONTINUOUS
 70
0
 71
3
 72
9
 73
5
 74
0
 42
0.0000001
 43
0.0000001
 44
0.0000000001
 40
0.0
 40
0.0
 40
0.0
 40
0.0
 40
0.4751810316
 40
1.0
 40
1.0
 40
1.0
 40
1.0
 10
76.0527451352
 20
262.2548685229
 30
0.0
 10
74.5051488356
 20
261.5360494364
 30
0.0
 10
71.1554814203
 20
260.2208530748
 30
0.0
 10
67.7025767465
 20
259.2189246434
 30
0.0
 10
65.8743634643
 20
258.7612182381
 30
0.0
  0
SPLINE
  5
28E
100
AcDbEntity
  8
0
100
AcDbSpline
 62
7
  6
CONTINUOUS
 70
0
 71
3
 72
9
 73
5
 74
0
 42
0.0000001
 43
0.0000001
 44
0.0000000001
 40
0.0
 40
0.0
 40
0.0
 40
0.0
 40
0.2409317612
 40
1.0
 40
1.0
 40
1.0
 40
1.0
 10
65.8743634643
 20
258.7612182381
 30
0.0
 10
65.1085557539
 20
258.5694927444
 30
0.0
 10
61.9175791812
 20
257.823799718
 30
0.0
 10
58.68320128
 20
257.2682488639
 30
0.0
 10
56.218033709
 20
256.9380653777
 30
0.0
  0
SPLINE
  5
28F
100
AcDbEntity
  8
0
100
AcDbSpline
 62
7
  6
CONTINUOUS
 70
0
 71
3
 72
15
 73
11
 74
0
 42
0.0000001
 43
0.0000001
 44
0.0000000001
 40
0.0
 40
0.0
 40
0.0
 40
0.0
 40
0.0965787181
 40
0.2054137914
 40
0.3249581583
 40
0.4531213488
 40
0.5874515365
 40
0.7252593369
 40
0.8637193355
 40
1.0
 40
1.0
 40
1.0
 40
1.0
 10
10.357865104
 20
266.4831722523
 30
0.0
 10
11.5484960902
 20
265.7954859067
 30
0.0
 10
14.1931191784
 20
264.5252783834
 30
0.0
 10
18.5624301362
 20
262.9856614718
 30
0.0
 10
23.4859069218
 20
261.7269125223
 30
0.0
 10
28.8463989307
 20
260.7803628732
 30
0.0
 10
34.5164942768
 20
260.169096691
 30
0.0
 10
40.3599837981
 20
259.908430152
 30
0.0
 10
46.2359486481
 20
260.0047025411
 30
0.0
 10
50.1385468579
 20
260.309850986
 30
0.0
 10
52.0667701191
 20
260.524949733
 30
0.0
  0
SPLINE
  5
290
100
AcDbEntity
  8
0
100
AcDbSpline
 62
7
  6
CONTINUOUS
 70
0
 71
3
 72
10
 73
6
 74
0
 42
0.0000001
 43
0.0000001
 44
0.0000000001
 40
0.0
 40
0.0
 40
0.0
 40
0.0
 40
0.5373775197
 40
0.7844933136
 40
1.0
 40
1.0
 40
1.0
 40
1.0
 10
53.5040907776
 20
257.5876306387
 30
0.0
 10
53.4244448143
 20
258.1782064226
 30
0.0
 10
53.1659340794
 20
259.0303077699
 30
0.0
 10
52.5969492507
 20
259.9858790563
 30
0.0
 10
52.2500615733
 20
260.3715905561
 30
0.0
 10
52.0667714763
 20
260.5249483459
 30
0.0
  0
SPLINE
  5
291
100
AcDbEntity
  8
0
100
AcDbSpline
 62
7
  6
CONTINUOUS
 70
0
 71
3
 72
15
 73
11
 74
0
 42
0.0000001
 43
0.0000001
 44
0.0000000001
 40
0.0
 40
0.0
 40
0.0
 40
0.0
 40
0.0965634521
 40
0.2055465671
 40
0.3253375041
 40
0.4537656997
 40
0.5882838321
 40
0.7261106237
 40
0.8643231587
 40
1.0
 40
1.0
 40
1.0
 40
1.0
 10
8.3494549965
 20
263.8376306652
 30
0.0
 10
9.6378461726
 20
263.0934738864
 30
0.0
 10
12.5041068703
 20
261.7217460087
 30
0.0
 10
17.2425766578
 20
260.0649832157
 30
0.0
 10
22.5856525644
 20
258.7178064886
 30
0.0
 10
28.4020126339
 20
257.7149605008
 30
0.0
 10
34.548980905
 20
257.0811051612
 30
0.0
 10
40.8742056332
 20
256.8332960885
 30
0.0
 10
47.2201589704
 20
256.9774219572
 30
0.0
 10
51.4283347475
 20
257.3384138432
 30
0.0
 10
53.5039389438
 20
257.5876978088
 30
0.0
  0
SPLINE
  5
292
100
AcDbEntity
  8
0
100
AcDbSpline
 62
7
  6
CONTINUOUS
 70
0
 71
3
 72
17
 73
13
 74
0
 42
0.0000001
 43
0.0000001
 44
0.0000000001
 40
0.0
 40
0.0
 40
0.0
 40
0.0
 40
0.1472347172
 40
0.2738236567
 40
0.3841283235
 40
0.4357453227
 40
0.4865805104
 40
0.5380173919
 40
0.5913803202
 40
0.7079939383
 40
0.8432098508
 40
1.0
 40
1.0
 40
1.0
 40
1.0
 10
74.3319902938
 20
267.2586767104
 30
0.0
 10
75.1841669142
 20
267.8226118137
 30
0.0
 10
76.7030230757
 20
268.9820846217
 30
0.0
 10
78.4837655656
 20
270.9944653615
 30
0.0
 10
79.3792350992
 20
272.8251149467
 30
0.0
 10
79.6626719814
 20
274.2817814228
 30
0.0
 10
79.6757683246
 20
275.3557063017
 30
0.0
 10
79.4926429597
 20
276.4260486792
 30
0.0
 10
78.9761899796
 20
277.8804966062
 30
0.0
 10
77.7955372072
 20
279.6754022369
 30
0.0
 10
75.7168094053
 20
281.6287062943
 30
0.0
 10
74.0186953181
 20
282.7509555723
 30
0.0
 10
73.0763863431
 20
283.295215736
 30
0.0
  0
SPLINE
  5
293
100
AcDbEntity
  8
0
100
AcDbSpline
 62
7
  6
CONTINUOUS
 70
0
 71
3
 72
9
 73
5
 74
0
 42
0.0000001
 43
0.0000001
 44
0.0000000001
 40
0.0
 40
0.0
 40
0.0
 40
0.0
 40
0.2600618676
 40
1.0
 40
1.0
 40
1.0
 40
1.0
 10
71.9014810555
 20
265.8417527318
 30
0.0
 10
72.118222809
 20
265.9537059622
 30
0.0
 10
72.9464214947
 20
266.3941401826
 30
0.0
 10
73.7531649055
 20
266.8756341023
 30
0.0
 10
74.3319902938
 20
267.2586767104
 30
0.0
  0
SPLINE
  5
294
100
AcDbEntity
  8
0
100
AcDbSpline
 62
7
  6
CONTINUOUS
 70
0
 71
3
 72
9
 73
5
 74
0
 42
0.0000001
 43
0.0000001
 44
0.0000000001
 40
0.0
 40
0.0
 40
0.0
 40
0.0
 40
0.2414583185
 40
1.0
 40
1.0
 40
1.0
 40
1.0
 10
12.4648577897
 20
284.3987594663
 30
0.0
 10
12.701632905
 20
284.5115246055
 30
0.0
 10
13.6876707484
 20
284.9670994578
 30
0.0
 10
14.6938463398
 20
285.3786436254
 30
0.0
 10
15.4647392658
 20
285.6693335628
 30
0.0
  0
SPLINE
  5
295
100
AcDbEntity
  8
0
100
AcDbSpline
 62
7
  6
CONTINUOUS
 70
0
 71
3
 72
9
 73
5
 74
0
 42
0.0000001
 43
0.0000001
 44
0.0000000001
 40
0.0
 40
0.0
 40
0.0
 40
0.0
 40
0.4758330352
 40
1.0
 40
1.0
 40
1.0
 40
1.0
 10
15.4647392658
 20
285.6693335628
 30
0.0
 10
17.2775543086
 20
286.352913699
 30
0.0
 10
21.180742042
 20
287.5449506938
 30
0.0
 10
25.1763122936
 20
288.3560953797
 30
0.0
 10
27.283114623
 20
288.6970529961
 30
0.0
  0
SPLINE
  5
296
100
AcDbEntity
  8
0
100
AcDbSpline
 62
7
  6
CONTINUOUS
 70
0
 71
3
 72
19
 73
15
 74
0
 42
0.0000001
 43
0.0000001
 44
0.0000000001
 40
0.0
 40
0.0
 40
0.0
 40
0.0
 40
0.1523494269
 40
0.2200062144
 40
0.2823392195
 40
0.3933521999
 40
0.4443900859
 40
0.4941436189
 40
0.5441713669
 40
0.5960009814
 40
0.7098320163
 40
0.7739642422
 40
0.8435622221
 40
1.0
 40
1.0
 40
1.0
 40
1.0
 10
10.3578699532
 20
266.4831413037
 30
0.0
 10
9.3479918227
 20
267.0664281568
 30
0.0
 10
7.9375748737
 20
268.0054822333
 30
0.0
 10
6.3319251081
 20
269.458641135
 30
0.0
 10
5.1107202741
 20
270.8435921396
 30
0.0
 10
4.2263154909
 20
272.354788162
 30
0.0
 10
3.8128169698
 20
273.931658875
 30
0.0
 10
3.7381918433
 20
275.091226918
 30
0.0
 10
3.8923299282
 20
276.2489028761
 30
0.0
 10
4.4149746919
 20
277.8239850224
 30
0.0
 10
5.3997132071
 20
279.318804342
 30
0.0
 10
6.7115849722
 20
280.6881895542
 30
0.0
 10
8.4129596946
 20
282.1223781027
 30
0.0
 10
9.8867052938
 20
283.0469743268
 30
0.0
 10
10.9378474519
 20
283.6206931743
 30
0.0
  0
SPLINE
  5
297
100
AcDbEntity
  8
0
100
AcDbSpline
 62
7
  6
CONTINUOUS
 70
0
 71
3
 72
15
 73
11
 74
0
 42
0.0000001
 43
0.0000001
 44
0.0000000001
 40
0.0
 40
0.0
 40
0.0
 40
0.0
 40
0.1362802687
 40
0.2747404041
 40
0.4125482449
 40
0.5468784883
 40
0.6750417178
 40
0.7945861229
 40
0.9034212361
 40
1.0
 40
1.0
 40
1.0
 40
1.0
 10
31.3675570897
 20
289.2533849603
 30
0.0
 10
33.2957712052
 20
289.4684825153
 30
0.0
 10
37.198355546
 20
289.7736691614
 30
0.0
 10
43.0743077875
 20
289.8699169092
 30
0.0
 10
48.9177894414
 20
289.6092559481
 30
0.0
 10
54.5878760254
 20
288.9979863887
 30
0.0
 10
59.9483597231
 20
288.0514373157
 30
0.0
 10
64.8718287057
 20
286.7926889137
 30
0.0
 10
69.2411329725
 20
285.2530735295
 30
0.0
 10
71.8857521443
 20
283.9828675881
 30
0.0
 10
73.0763814939
 20
283.2951821877
 30
0.0
  0
SPLINE
  5
298
100
AcDbEntity
  8
0
100
AcDbSpline
 62
7
  6
CONTINUOUS
 70
0
 71
3
 72
11
 73
7
 74
0
 42
0.0000001
 43
0.0000001
 44
0.0000000001
 40
0.0
 40
0.0
 40
0.0
 40
0.0
 40
0.2346478694
 40
0.4706804781
 40
0.7221108044
 40
1.0
 40
1.0
 40
1.0
 40
1.0
 10
1.535012363
 20
274.3318191232
 30
0.0
 10
1.3961879845
 20
273.7746339482
 30
0.0
 10
1.262682211
 20
272.6133936486
 30
0.0
 10
1.5605387128
 20
270.8498504454
 30
0.0
 10
2.3424675858
 20
269.1287518071
 30
0.0
 10
3.1236872769
 20
268.0840459255
 30
0.0
 10
3.5734651498
 20
267.573996503
 30
0.0
  0
SPLINE
  5
299
100
AcDbEntity
  8
0
100
AcDbSpline
 62
7
  6
CONTINUOUS
 70
0
 71
3
 72
9
 73
5
 74
0
 42
0.0000001
 43
0.0000001
 44
0.0000000001
 40
0.0
 40
0.0
 40
0.0
 40
0.0
 40
0.4657460935
 40
1.0
 40
1.0
 40
1.0
 40
1.0
 10
3.5734651498
 20
267.573996503
 30
0.0
 10
4.1981068657
 20
266.8656509714
 30
0.0
 10
5.7101217681
 20
265.4942413266
 30
0.0
 10
7.41135244
 20
264.3794656215
 30
0.0
 10
8.3494549965
 20
263.8376306652
 30
0.0
  0
SPLINE
  5
29A
100
AcDbEntity
  8
0
100
AcDbSpline
 62
7
  6
CONTINUOUS
 70
0
 71
3
 72
9
 73
5
 74
0
 42
0.0000001
 43
0.0000001
 44
0.0000000001
 40
0.0
 40
0.0
 40
0.0
 40
0.0
 40
0.5367767892
 40
1.0
 40
1.0
 40
1.0
 40
1.0
 10
74.6071609487
 20
263.5679584299
 30
0.0
 10
75.6468101338
 20
264.1425632683
 30
0.0
 10
77.5246014457
 20
265.3271516754
 30
0.0
 10
79.1889008191
 20
266.8112822676
 30
0.0
 10
79.8663961889
 20
267.5805877684
 30
0.0
  0
SPLINE
  5
29B
100
AcDbEntity
  8
0
100
AcDbSpline
 62
7
  6
CONTINUOUS
 70
0
 71
3
 72
11
 73
7
 74
0
 42
0.0000001
 43
0.0000001
 44
0.0000000001
 40
0.0
 40
0.0
 40
0.0
 40
0.0
 40
0.2778146533
 40
0.5292241561
 40
0.7652935318
 40
1.0
 40
1.0
 40
1.0
 40
1.0
 10
79.8663961889
 20
267.5805877684
 30
0.0
 10
80.3152022535
 20
268.0902133536
 30
0.0
 10
81.0946704047
 20
269.1340659484
 30
0.0
 10
81.874633432
 20
270.8535036628
 30
0.0
 10
82.1714085693
 20
272.6153019375
 30
0.0
 10
82.0379049969
 20
273.7753975917
 30
0.0
 10
81.8992006661
 20
274.3320830167
 30
0.0
  0
SPLINE
  5
29C
100
AcDbEntity
  8
0
100
AcDbSpline
 62
7
  6
CONTINUOUS
 70
0
 71
3
 72
9
 73
5
 74
0
 42
0.0000001
 43
0.0000001
 44
0.0000000001
 40
0.0
 40
0.0
 40
0.0
 40
0.0
 40
0.4852931626
 40
1.0
 40
1.0
 40
1.0
 40
1.0
 10
10.810304898
 20
283.8970176369
 30
0.0
 10
10.9168840619
 20
283.9508333397
 30
0.0
 10
11.1631121687
 20
284.0154005767
 30
0.0
 10
11.412168701
 20
283.9750222027
 30
0.0
 10
11.5328295136
 20
283.9365955363
 30
0.0
  0
SPLINE
  5
29D
100
AcDbEntity
  8
0
100
AcDbSpline
 62
7
  6
CONTINUOUS
 70
0
 71
3
 72
19
 73
15
 74
0
 42
0.0000001
 43
0.0000001
 44
0.0000000001
 40
0.0
 40
0.0
 40
0.0
 40
0.0
 40
0.2527302125
 40
0.3799563254
 40
0.5077476318
 40
0.6360574131
 40
0.7003585965
 40
0.764681759
 40
0.8288682469
 40
0.8924626506
 40
0.9236210278
 40
0.9536612687
 40
0.9808488757
 40
1.0
 40
1.0
 40
1.0
 40
1.0
 10
27.2958355407
 20
288.8068604736
 30
0.0
 10
27.5170477619
 20
288.8418026967
 30
0.0
 10
27.8499345514
 20
288.8923886138
 30
0.0
 10
28.2954954532
 20
288.9550173717
 30
0.0
 10
28.6322867724
 20
288.999277811
 30
0.0
 10
28.9141994162
 20
289.0330878767
 30
0.0
 10
29.1405721262
 20
289.057461975
 30
0.0
 10
29.3106374263
 20
289.0740020525
 30
0.0
 10
29.4802724746
 20
289.0880702333
 30
0.0
 10
29.6209225884
 20
289.0968533741
 30
0.0
 10
29.7313489825
 20
289.1003741995
 30
0.0
 10
29.8100014343
 20
289.1007043434
 30
0.0
 10
29.8766954138
 20
289.0963176763
 30
0.0
 10
29.9190848901
 20
289.090276091
 30
0.0
 10
29.9335006887
 20
289.0813213879
 30
0.0
  0
SPLINE
  5
29E
100
AcDbEntity
  8
0
100
AcDbSpline
 62
7
  6
CONTINUOUS
 70
0
 71
3
 72
9
 73
5
 74
0
 42
0.0000001
 43
0.0000001
 44
0.0000000001
 40
0.0
 40
0.0
 40
0.0
 40
0.0
 40
0.4867379406
 40
1.0
 40
1.0
 40
1.0
 40
1.0
 10
7.6213612109
 20
284.9468528677
 30
0.0
 10
7.7452912253
 20
284.9800811328
 30
0.0
 10
8.0110985426
 20
285.0111406944
 30
0.0
 10
8.274547457
 20
284.9697144021
 30
0.0
 10
8.4050635612
 20
284.9340572622
 30
0.0
  0
SPLINE
  5
29F
100
AcDbEntity
  8
0
100
AcDbSpline
 62
7
  6
CONTINUOUS
 70
0
 71
3
 72
11
 73
7
 74
0
 42
0.0000001
 43
0.0000001
 44
0.0000000001
 40
0.0
 40
0.0
 40
0.0
 40
0.0
 40
0.2634102167
 40
0.5159328321
 40
0.7602045539
 40
1.0
 40
1.0
 40
1.0
 40
1.0
 10
26.8385362443
 20
197.2396994665
 30
0.0
 10
25.8329237108
 20
196.9701395135
 30
0.0
 10
23.8144473932
 20
196.6034392846
 30
0.0
 10
20.791682719
 20
196.6182859149
 30
0.0
 10
17.9215784173
 20
197.2134808467
 30
0.0
 10
16.1558341551
 20
197.9937771673
 30
0.0
 10
15.3351291181
 20
198.4678308914
 30
0.0
  0
SPLINE
  5
2A0
100
AcDbEntity
  8
0
100
AcDbSpline
 62
7
  6
CONTINUOUS
 70
0
 71
3
 72
11
 73
7
 74
0
 42
0.0000001
 43
0.0000001
 44
0.0000000001
 40
0.0
 40
0.0
 40
0.0
 40
0.0
 40
0.2717748112
 40
0.526869873
 40
0.7676346335
 40
1.0
 40
1.0
 40
1.0
 40
1.0
 10
30.2478897065
 20
225.0440796474
 30
0.0
 10
30.2478897065
 20
224.5860379393
 30
0.0
 10
30.3369446694
 20
223.6942864269
 30
0.0
 10
30.7634701208
 20
222.4590149028
 30
0.0
 10
31.462427485
 20
221.4312446576
 30
0.0
 10
32.094965687
 20
220.9224557767
 30
0.0
 10
32.4340967966
 20
220.7266038425
 30
0.0
  0
SPLINE
  5
2A1
100
AcDbEntity
  8
0
100
AcDbSpline
 62
7
  6
CONTINUOUS
 70
0
 71
3
 72
11
 73
7
 74
0
 42
0.0000001
 43
0.0000001
 44
0.0000000001
 40
0.0
 40
0.0
 40
0.0
 40
0.0
 40
0.2717748112
 40
0.526869873
 40
0.7676346335
 40
1.0
 40
1.0
 40
1.0
 40
1.0
 10
12.3548022358
 20
220.2477394489
 30
0.0
 10
12.3548022358
 20
219.7896977407
 30
0.0
 10
12.4438571988
 20
218.8979462283
 30
0.0
 10
12.8703826501
 20
217.6626747043
 30
0.0
 10
13.5693400143
 20
216.6349044591
 30
0.0
 10
14.2018782163
 20
216.1261155782
 30
0.0
 10
14.5410093259
 20
215.9302636439
 30
0.0
  0
SPLINE
  5
2A2
100
AcDbEntity
  8
0
100
AcDbSpline
 62
7
  6
CONTINUOUS
 70
0
 71
3
 72
9
 73
5
 74
0
 42
0.0000001
 43
0.0000001
 44
0.0000000001
 40
0.0
 40
0.0
 40
0.0
 40
0.0
 40
0.2484591562
 40
1.0
 40
1.0
 40
1.0
 40
1.0
 10
16.6209454119
 20
226.6812036627
 30
0.0
 10
16.5672470054
 20
226.7122273622
 30
0.0
 10
16.3456975241
 20
226.8275457684
 30
0.0
 10
16.1036978155
 20
226.9028474159
 30
0.0
 10
15.9190309369
 20
226.9358146775
 30
0.0
  0
SPLINE
  5
2A3
100
AcDbEntity
  8
0
100
AcDbSpline
 62
7
  6
CONTINUOUS
 70
0
 71
3
 72
15
 73
11
 74
0
 42
0.0000001
 43
0.0000001
 44
0.0000000001
 40
0.0
 40
0.0
 40
0.0
 40
0.0
 40
0.0524624705
 40
0.1056459648
 40
0.2162146438
 40
0.335328798
 40
0.4632709066
 40
0.5978578637
 40
0.7353252348
 40
1.0
 40
1.0
 40
1.0
 40
1.0
 10
21.242975692
 20
227.5337636765
 30
0.0
 10
21.0388273346
 20
227.6516615913
 30
0.0
 10
20.6048105361
 20
227.8517390134
 30
0.0
 10
19.6593629948
 20
228.0941969245
 30
0.0
 10
18.363016009
 20
228.0763802022
 30
0.0
 10
16.8176484945
 20
227.5664613346
 30
0.0
 10
15.3654710873
 20
226.6237468271
 30
0.0
 10
14.1069295335
 20
225.3185095551
 30
0.0
 10
12.8258131178
 20
223.2642845453
 30
0.0
 10
12.3548022358
 20
221.4370883563
 30
0.0
 10
12.3548022358
 20
220.2477394489
 30
0.0
  0
SPLINE
  5
2A4
100
AcDbEntity
  8
0
100
AcDbSpline
 62
7
  6
CONTINUOUS
 70
0
 71
3
 72
9
 73
5
 74
0
 42
0.0000001
 43
0.0000001
 44
0.0000000001
 40
0.0
 40
0.0
 40
0.0
 40
0.0
 40
0.2484591562
 40
1.0
 40
1.0
 40
1.0
 40
1.0
 10
34.5140328825
 20
231.4775438612
 30
0.0
 10
34.4603344761
 20
231.5085675608
 30
0.0
 10
34.2387849948
 20
231.623885967
 30
0.0
 10
33.9967852862
 20
231.6991876145
 30
0.0
 10
33.8121184076
 20
231.732154876
 30
0.0
  0
SPLINE
  5
2A5
100
AcDbEntity
  8
0
100
AcDbSpline
 62
7
  6
CONTINUOUS
 70
0
 71
3
 72
15
 73
11
 74
0
 42
0.0000001
 43
0.0000001
 44
0.0000000001
 40
0.0
 40
0.0
 40
0.0
 40
0.0
 40
0.0524624705
 40
0.1056459648
 40
0.2162146438
 40
0.335328798
 40
0.4632709066
 40
0.5978578637
 40
0.7353252348
 40
1.0
 40
1.0
 40
1.0
 40
1.0
 10
39.1360631627
 20
232.3301038751
 30
0.0
 10
38.9319148053
 20
232.4480017899
 30
0.0
 10
38.4978980068
 20
232.648079212
 30
0.0
 10
37.5524504654
 20
232.8905371231
 30
0.0
 10
36.2561034797
 20
232.8727204007
 30
0.0
 10
34.7107359652
 20
232.3628015332
 30
0.0
 10
33.258558558
 20
231.4200870257
 30
0.0
 10
32.0000170042
 20
230.1148497537
 30
0.0
 10
30.7189005885
 20
228.0606247438
 30
0.0
 10
30.2478897065
 20
226.2334285549
 30
0.0
 10
30.2478897065
 20
225.0440796474
 30
0.0
  0
SPLINE
  5
2A6
100
AcDbEntity
  8
0
100
AcDbSpline
 62
7
  6
CONTINUOUS
 70
0
 71
3
 72
10
 73
6
 74
0
 42
0.0000001
 43
0.0000001
 44
0.0000000001
 40
0.0
 40
0.0
 40
0.0
 40
0.0
 40
0.2403281524
 40
0.485096085
 40
1.0
 40
1.0
 40
1.0
 40
1.0
 10
28.0381992028
 20
211.5696424603
 30
0.0
 10
27.8722529431
 20
211.6654591373
 30
0.0
 10
27.5151195605
 20
211.8231559981
 30
0.0
 10
26.7302151095
 20
211.9865859782
 30
0.0
 10
26.1090562893
 20
211.9242380519
 30
0.0
 10
25.7125051654
 20
211.8179403489
 30
0.0
  0
SPLINE
  5
2A7
100
AcDbEntity
  8
0
100
AcDbSpline
 62
7
  6
CONTINUOUS
 70
0
 71
3
 72
12
 73
8
 74
0
 42
0.0000001
 43
0.0000001
 44
0.0000000001
 40
0.0
 40
0.0
 40
0.0
 40
0.0
 40
0.2349899833
 40
0.4894752595
 40
0.6202667695
 40
0.7503904793
 40
1.0
 40
1.0
 40
1.0
 40
1.0
 10
25.7125051654
 20
211.8179403489
 30
0.0
 10
25.1853451886
 20
211.6766322269
 30
0.0
 10
24.1462035626
 20
211.1457426502
 30
0.0
 10
23.1275771341
 20
210.095861062
 30
0.0
 10
22.4978859684
 20
209.0730325644
 30
0.0
 10
22.0309686108
 20
207.98037633
 30
0.0
 10
21.8695298274
 20
207.092628742
 30
0.0
 10
21.8695298266
 20
206.5129037939
 30
0.0
  0
SPLINE
  5
2A8
100
AcDbEntity
  8
0
100
AcDbSpline
 62
7
  6
CONTINUOUS
 70
0
 71
3
 72
11
 73
7
 74
0
 42
0.0000001
 43
0.0000001
 44
0.0000000001
 40
0.0
 40
0.0
 40
0.0
 40
0.0
 40
0.2717668072
 40
0.5268680782
 40
0.7676307415
 40
1.0
 40
1.0
 40
1.0
 40
1.0
 10
21.8695298266
 20
206.5129037939
 30
0.0
 10
21.8695298261
 20
206.1950174603
 30
0.0
 10
21.9313445626
 20
205.5761191352
 30
0.0
 10
22.2273321701
 20
204.7187897731
 30
0.0
 10
22.7124487492
 20
204.0054918367
 30
0.0
 10
23.1514275381
 20
203.6523358342
 30
0.0
 10
23.386811128
 20
203.5164263327
 30
0.0
  0
SPLINE
  5
2A9
100
AcDbEntity
  8
0
100
AcDbSpline
 62
7
  6
CONTINUOUS
 70
0
 71
3
 72
9
 73
5
 74
0
 42
0.0000001
 43
0.0000001
 44
0.0000000001
 40
0.0
 40
0.0
 40
0.0
 40
0.0
 40
0.2532875435
 40
1.0
 40
1.0
 40
1.0
 40
1.0
 10
30.2897286042
 20
225.6393351483
 30
0.0
 10
30.330538443
 20
225.5907194018
 30
0.0
 10
30.4995360871
 20
225.4055458037
 30
0.0
 10
30.7009274167
 20
225.2498347925
 30
0.0
 10
30.862956143
 20
225.1562243699
 30
0.0
  0
SPLINE
  5
2AA
100
AcDbEntity
  8
0
100
AcDbSpline
 62
7
  6
CONTINUOUS
 70
0
 71
3
 72
9
 73
5
 74
0
 42
0.0000001
 43
0.0000001
 44
0.0000000001
 40
0.0
 40
0.0
 40
0.0
 40
0.0
 40
0.2532875435
 40
1.0
 40
1.0
 40
1.0
 40
1.0
 10
12.3966411335
 20
220.8429949497
 30
0.0
 10
12.4374509723
 20
220.7943792032
 30
0.0
 10
12.6064486164
 20
220.6092056052
 30
0.0
 10
12.807839946
 20
220.4534945939
 30
0.0
 10
12.9698686723
 20
220.3598841713
 30
0.0
  0
SPLINE
  5
2AB
100
AcDbEntity
  8
0
100
AcDbSpline
 62
7
  6
CONTINUOUS
 70
0
 71
3
 72
20
 73
16
 74
0
 42
0.0000001
 43
0.0000001
 44
0.0000000001
 40
0.0
 40
0.0
 40
0.0
 40
0.0
 40
0.0524886411
 40
0.1058788268
 40
0.1609446315
 40
0.2182401334
 40
0.3400761484
 40
0.4047856415
 40
0.4714397679
 40
0.6080573063
 40
0.7449175043
 40
0.8118575954
 40
0.8769396555
 40
0.9397340308
 40
1.0
 40
1.0
 40
1.0
 40
1.0
 10
38.3419433705
 20
238.3008539597
 30
0.0
 10
39.1283613571
 20
237.8466050415
 30
0.0
 10
40.6242803807
 20
236.7630137096
 30
0.0
 10
42.515643305
 20
234.6956043533
 30
0.0
 10
44.0198650248
 20
232.2337273066
 30
0.0
 10
45.4914474519
 20
228.4394415538
 30
0.0
 10
46.0067736659
 20
224.1745460725
 30
0.0
 10
45.6428769262
 20
219.8010726439
 30
0.0
 10
44.6640197565
 20
215.2563231226
 30
0.0
 10
42.3650341694
 20
209.7748459069
 30
0.0
 10
38.8595784713
 20
204.9678924313
 30
0.0
 10
35.4712358895
 20
201.7646192059
 30
0.0
 10
32.7373182074
 20
199.7752365878
 30
0.0
 10
29.8596345798
 20
198.2316927399
 30
0.0
 10
27.8457279686
 20
197.5096827303
 30
0.0
 10
26.8385362443
 20
197.2396994665
 30
0.0
  0
SPLINE
  5
2AC
100
AcDbEntity
  8
0
100
AcDbSpline
 62
7
  6
CONTINUOUS
 70
0
 71
3
 72
14
 73
10
 74
0
 42
0.0000001
 43
0.0000001
 44
0.0000000001
 40
0.0
 40
0.0
 40
0.0
 40
0.0
 40
0.2346073929
 40
0.3603379301
 40
0.4894684284
 40
0.6200482101
 40
0.7499714674
 40
0.8772023527
 40
1.0
 40
1.0
 40
1.0
 40
1.0
 10
26.8385362443
 20
213.006234937
 30
0.0
 10
26.0846585073
 20
212.8041538763
 30
0.0
 10
24.9859307334
 20
212.2425581946
 30
0.0
 10
23.7543252081
 20
211.1727824988
 30
0.0
 10
22.9231533283
 20
210.1888340446
 30
0.0
 10
22.2413224043
 20
209.0810806538
 30
0.0
 10
21.7329717371
 20
207.8901553216
 30
0.0
 10
21.4176285977
 20
206.6611258666
 30
0.0
 10
21.3426682872
 20
205.8279857111
 30
0.0
 10
21.3426682866
 20
205.4194622195
 30
0.0
  0
SPLINE
  5
2AD
100
AcDbEntity
  8
0
100
AcDbSpline
 62
7
  6
CONTINUOUS
 70
0
 71
3
 72
14
 73
10
 74
0
 42
0.0000001
 43
0.0000001
 44
0.0000000001
 40
0.0
 40
0.0
 40
0.0
 40
0.0
 40
0.2686164723
 40
0.3932530389
 40
0.5129262831
 40
0.6303784462
 40
0.7488454196
 40
0.8713344666
 40
1.0
 40
1.0
 40
1.0
 40
1.0
 10
21.3426682866
 20
205.4194622195
 30
0.0
 10
21.3426682855
 20
204.6640043863
 30
0.0
 10
21.5312255803
 20
203.5351797463
 30
0.0
 10
22.2265782385
 20
202.2589341607
 30
0.0
 10
22.9195004558
 20
201.498997356
 30
0.0
 10
23.7691239213
 20
200.9503069414
 30
0.0
 10
24.738856399
 20
200.636813277
 30
0.0
 10
25.7857654479
 20
200.569638427
 30
0.0
 10
26.4890162311
 20
200.6853938225
 30
0.0
 10
26.8385362443
 20
200.7790845783
 30
0.0
  0
SPLINE
  5
2AE
100
AcDbEntity
  8
0
100
AcDbSpline
 62
7
  6
CONTINUOUS
 70
0
 71
3
 72
9
 73
5
 74
0
 42
0.0000001
 43
0.0000001
 44
0.0000000001
 40
0.0
 40
0.0
 40
0.0
 40
0.0
 40
0.4829031774
 40
1.0
 40
1.0
 40
1.0
 40
1.0
 10
15.7571414429
 20
226.808185615
 30
0.0
 10
15.8801626302
 20
226.5892737577
 30
0.0
 10
16.0668992177
 20
226.0958818821
 30
0.0
 10
16.1228894532
 20
225.5735945541
 30
0.0
 10
16.1228894532
 20
225.3047030202
 30
0.0
  0
SPLINE
  5
2AF
100
AcDbEntity
  8
0
100
AcDbSpline
 62
7
  6
CONTINUOUS
 70
0
 71
3
 72
14
 73
10
 74
0
 42
0.0000001
 43
0.0000001
 44
0.0000000001
 40
0.0
 40
0.0
 40
0.0
 40
0.0
 40
0.2346073929
 40
0.3603379301
 40
0.4894684284
 40
0.6200482101
 40
0.7499714674
 40
0.8772023527
 40
1.0
 40
1.0
 40
1.0
 40
1.0
 10
26.8385362443
 20
200.7790845783
 30
0.0
 10
27.5924139813
 20
200.981165639
 30
0.0
 10
28.6911417552
 20
201.5427613208
 30
0.0
 10
29.9227472804
 20
202.6125370166
 30
0.0
 10
30.7539191602
 20
203.5964854707
 30
0.0
 10
31.4357500843
 20
204.7042388615
 30
0.0
 10
31.9441007515
 20
205.8951641937
 30
0.0
 10
32.2594438907
 20
207.1241936487
 30
0.0
 10
32.3344042016
 20
207.9573338043
 30
0.0
 10
32.334404202
 20
208.3658572958
 30
0.0
  0
SPLINE
  5
2B0
100
AcDbEntity
  8
0
100
AcDbSpline
 62
7
  6
CONTINUOUS
 70
0
 71
3
 72
11
 73
7
 74
0
 42
0.0000001
 43
0.0000001
 44
0.0000000001
 40
0.0
 40
0.0
 40
0.0
 40
0.0
 40
0.2634102167
 40
0.5159328321
 40
0.7602045539
 40
1.0
 40
1.0
 40
1.0
 40
1.0
 10
26.8385362443
 20
239.5289853846
 30
0.0
 10
27.8441487778
 20
239.7985453377
 30
0.0
 10
29.8626250954
 20
240.1652455665
 30
0.0
 10
32.8853897695
 20
240.1503989362
 30
0.0
 10
35.7554940713
 20
239.5552040044
 30
0.0
 10
37.5212383335
 20
238.7749076838
 30
0.0
 10
38.3419433705
 20
238.3008539597
 30
0.0
  0
SPLINE
  5
2B1
100
AcDbEntity
  8
0
100
AcDbSpline
 62
7
  6
CONTINUOUS
 70
0
 71
3
 72
9
 73
5
 74
0
 42
0.0000001
 43
0.0000001
 44
0.0000000001
 40
0.0
 40
0.0
 40
0.0
 40
0.0
 40
0.4806659377
 40
1.0
 40
1.0
 40
1.0
 40
1.0
 10
19.4760777153
 20
228.0659907937
 30
0.0
 10
19.7626916269
 20
227.6382712405
 30
0.0
 10
20.2029101395
 20
226.6387067687
 30
0.0
 10
20.3325973153
 20
225.5611083215
 30
0.0
 10
20.3325973153
 20
225.0048181283
 30
0.0
  0
SPLINE
  5
2B2
100
AcDbEntity
  8
0
100
AcDbSpline
 62
7
  6
CONTINUOUS
 70
0
 71
3
 72
15
 73
11
 74
0
 42
0.0000001
 43
0.0000001
 44
0.0000000001
 40
0.0
 40
0.0
 40
0.0
 40
0.0
 40
0.0524624705
 40
0.1056459648
 40
0.2162146438
 40
0.335328798
 40
0.4632709066
 40
0.5978578637
 40
0.7353252348
 40
1.0
 40
1.0
 40
1.0
 40
1.0
 10
14.5410093259
 20
215.9302636439
 30
0.0
 10
14.7451576832
 20
215.8123657291
 30
0.0
 10
15.1791744818
 20
215.612288307
 30
0.0
 10
16.1246220231
 20
215.3698303959
 30
0.0
 10
17.4209690088
 20
215.3876471183
 30
0.0
 10
18.9663365234
 20
215.8975659858
 30
0.0
 10
20.4185139305
 20
216.8402804933
 30
0.0
 10
21.6770554844
 20
218.1455177653
 30
0.0
 10
22.9581719
 20
220.1997427752
 30
0.0
 10
23.4291827821
 20
222.0269389642
 30
0.0
 10
23.4291827821
 20
223.2162878716
 30
0.0
  0
SPLINE
  5
2B3
100
AcDbEntity
  8
0
100
AcDbSpline
 62
7
  6
CONTINUOUS
 70
0
 71
3
 72
14
 73
10
 74
0
 42
0.0000001
 43
0.0000001
 44
0.0000000001
 40
0.0
 40
0.0
 40
0.0
 40
0.0
 40
0.1052606084
 40
0.2158761655
 40
0.3350397352
 40
0.4630361372
 40
0.5976782612
 40
0.7352099669
 40
1.0
 40
1.0
 40
1.0
 40
1.0
 10
30.862956143
 20
225.1562243699
 30
0.0
 10
31.0859799798
 20
225.0273746524
 30
0.0
 10
31.5974885298
 20
224.8480652744
 30
0.0
 10
32.4313416324
 20
224.8609524807
 30
0.0
 10
33.2738919757
 20
225.138308935
 30
0.0
 10
34.0647870055
 20
225.6520048959
 30
0.0
 10
34.7504769595
 20
226.3630249808
 30
0.0
 10
35.448408306
 20
227.4821235626
 30
0.0
 10
35.7050235422
 20
228.4775489313
 30
0.0
 10
35.7050235422
 20
229.1254812605
 30
0.0
  0
SPLINE
  5
2B4
100
AcDbEntity
  8
0
100
AcDbSpline
 62
7
  6
CONTINUOUS
 70
0
 71
3
 72
11
 73
7
 74
0
 42
0.0000001
 43
0.0000001
 44
0.0000000001
 40
0.0
 40
0.0
 40
0.0
 40
0.0
 40
0.2717668071
 40
0.5268680781
 40
0.7676307415
 40
1.0
 40
1.0
 40
1.0
 40
1.0
 10
29.5554805043
 20
208.5731650059
 30
0.0
 10
29.5554805041
 20
208.8910513388
 30
0.0
 10
29.4936657672
 20
209.5099496625
 30
0.0
 10
29.1976781592
 20
210.3672790226
 30
0.0
 10
28.7125615805
 20
211.0805769573
 30
0.0
 10
28.2735827924
 20
211.433732959
 30
0.0
 10
28.0381992028
 20
211.5696424603
 30
0.0
  0
SPLINE
  5
2B5
100
AcDbEntity
  8
0
100
AcDbSpline
 62
7
  6
CONTINUOUS
 70
0
 71
3
 72
11
 73
7
 74
0
 42
0.0000001
 43
0.0000001
 44
0.0000000001
 40
0.0
 40
0.0
 40
0.0
 40
0.0
 40
0.2717748112
 40
0.526869873
 40
0.7676346335
 40
1.0
 40
1.0
 40
1.0
 40
1.0
 10
41.3222702528
 20
228.0126280702
 30
0.0
 10
41.3222702528
 20
228.4706697783
 30
0.0
 10
41.2332152898
 20
229.3624212907
 30
0.0
 10
40.8066898384
 20
230.5976928147
 30
0.0
 10
40.1077324742
 20
231.6254630599
 30
0.0
 10
39.4751942723
 20
232.1342519408
 30
0.0
 10
39.1360631627
 20
232.3301038751
 30
0.0
  0
SPLINE
  5
2B6
100
AcDbEntity
  8
0
100
AcDbSpline
 62
7
  6
CONTINUOUS
 70
0
 71
3
 72
10
 73
6
 74
0
 42
0.0000001
 43
0.0000001
 44
0.0000000001
 40
0.0
 40
0.0
 40
0.0
 40
0.0
 40
0.5353254329
 40
0.7749483618
 40
1.0
 40
1.0
 40
1.0
 40
1.0
 10
26.8385362443
 20
218.3747695073
 30
0.0
 10
26.843260002
 20
218.3760357364
 30
0.0
 10
26.8489430893
 20
218.3838086783
 30
0.0
 10
26.8455497519
 20
218.3935019034
 30
0.0
 10
26.8405221193
 20
218.3944476685
 30
0.0
 10
26.8385362443
 20
218.3939153439
 30
0.0
  0
SPLINE
  5
2B7
100
AcDbEntity
  8
0
100
AcDbSpline
 62
7
  6
CONTINUOUS
 70
0
 71
3
 72
12
 73
8
 74
0
 42
0.0000001
 43
0.0000001
 44
0.0000000001
 40
0.0
 40
0.0
 40
0.0
 40
0.0
 40
0.2349899832
 40
0.4894752595
 40
0.6202667695
 40
0.7503904793
 40
1.0
 40
1.0
 40
1.0
 40
1.0
 10
25.7125051592
 20
203.2681284424
 30
0.0
 10
26.2396651372
 20
203.4094365633
 30
0.0
 10
27.2788067656
 20
203.9403261407
 30
0.0
 10
28.2974331965
 20
204.9902077304
 30
0.0
 10
28.9271243633
 20
206.0130362301
 30
0.0
 10
29.3940417212
 20
207.1056924668
 30
0.0
 10
29.5554805046
 20
207.9934400566
 30
0.0
 10
29.5554805043
 20
208.5731650059
 30
0.0
  0
SPLINE
  5
2B8
100
AcDbEntity
  8
0
100
AcDbSpline
 62
7
  6
CONTINUOUS
 70
0
 71
3
 72
9
 73
5
 74
0
 42
0.0000001
 43
0.0000001
 44
0.0000000001
 40
0.0
 40
0.0
 40
0.0
 40
0.0
 40
0.4829031774
 40
1.0
 40
1.0
 40
1.0
 40
1.0
 10
33.6502289136
 20
231.6045258135
 30
0.0
 10
33.7732501008
 20
231.3856139563
 30
0.0
 10
33.9599866884
 20
230.8922220807
 30
0.0
 10
34.0159769239
 20
230.3699347527
 30
0.0
 10
34.0159769239
 20
230.1010432188
 30
0.0
  0
SPLINE
  5
2B9
100
AcDbEntity
  8
0
100
AcDbSpline
 62
7
  6
CONTINUOUS
 70
0
 71
3
 72
12
 73
8
 74
0
 42
0.0000001
 43
0.0000001
 44
0.0000000001
 40
0.0
 40
0.0
 40
0.0
 40
0.0
 40
0.2497031857
 40
0.3798777046
 40
0.510702578
 40
0.765170184
 40
1.0
 40
1.0
 40
1.0
 40
1.0
 10
25.895879498
 20
210.686882582
 30
0.0
 10
25.895879498
 20
210.1055877403
 30
0.0
 10
25.7335619441
 20
209.2154090392
 30
0.0
 10
25.2642954712
 20
208.1202796082
 30
0.0
 10
24.6316355285
 20
207.0957842576
 30
0.0
 10
23.6087174782
 20
206.0456114503
 30
0.0
 10
22.5655928939
 20
205.516870956
 30
0.0
 10
22.0369548003
 20
205.3776216071
 30
0.0
  0
SPLINE
  5
2BA
100
AcDbEntity
  8
0
100
AcDbSpline
 62
7
  6
CONTINUOUS
 70
0
 71
3
 72
14
 73
10
 74
0
 42
0.0000001
 43
0.0000001
 44
0.0000000001
 40
0.0
 40
0.0
 40
0.0
 40
0.0
 40
0.255849667
 40
0.3892373421
 40
0.5220152326
 40
0.6512958811
 40
0.774721374
 40
0.8909354277
 40
1.0
 40
1.0
 40
1.0
 40
1.0
 10
38.2256847859
 20
229.8011583269
 30
0.0
 10
38.2256847859
 20
228.809803283
 30
0.0
 10
37.8979385268
 20
227.288728038
 30
0.0
 10
36.9757365207
 20
225.4825156816
 30
0.0
 10
36.0477367833
 20
224.2519719347
 30
0.0
 10
34.9424331678
 20
223.2348744462
 30
0.0
 10
33.7146001161
 20
222.483076674
 30
0.0
 10
32.4268519056
 20
222.0381150708
 30
0.0
 10
31.544879341
 20
221.9638219704
 30
0.0
 10
31.1230327918
 20
221.9890226606
 30
0.0
  0
SPLINE
  5
2BB
100
AcDbEntity
  8
0
100
AcDbSpline
 62
7
  6
CONTINUOUS
 70
0
 71
3
 72
11
 73
7
 74
0
 42
0.0000001
 43
0.0000001
 44
0.0000000001
 40
0.0
 40
0.0
 40
0.0
 40
0.0
 40
0.2717572078
 40
0.5268814843
 40
0.7676360802
 40
1.0
 40
1.0
 40
1.0
 40
1.0
 10
35.7050235422
 20
229.1254812605
 30
0.0
 10
35.7050235422
 20
229.3749952758
 30
0.0
 10
35.6564820923
 20
229.8608042682
 30
0.0
 10
35.424179219
 20
230.5337730957
 30
0.0
 10
35.043353758
 20
231.0936755441
 30
0.0
 10
34.698763958
 20
231.370817391
 30
0.0
 10
34.5140328825
 20
231.4775438612
 30
0.0
  0
SPLINE
  5
2BC
100
AcDbEntity
  8
0
100
AcDbSpline
 62
7
  6
CONTINUOUS
 70
0
 71
3
 72
11
 73
7
 74
0
 42
0.0000001
 43
0.0000001
 44
0.0000000001
 40
0.0
 40
0.0
 40
0.0
 40
0.0
 40
0.2717748112
 40
0.526869873
 40
0.7676346335
 40
1.0
 40
1.0
 40
1.0
 40
1.0
 10
23.4291827821
 20
223.2162878716
 30
0.0
 10
23.4291827821
 20
223.6743295797
 30
0.0
 10
23.3401278191
 20
224.5660810922
 30
0.0
 10
22.9136023677
 20
225.8013526162
 30
0.0
 10
22.2146450036
 20
226.8291228614
 30
0.0
 10
21.5821068016
 20
227.3379117423
 30
0.0
 10
21.242975692
 20
227.5337636765
 30
0.0
  0
SPLINE
  5
2BD
100
AcDbEntity
  8
0
100
AcDbSpline
 62
7
  6
CONTINUOUS
 70
0
 71
3
 72
9
 73
5
 74
0
 42
0.0000001
 43
0.0000001
 44
0.0000000001
 40
0.0
 40
0.0
 40
0.0
 40
0.0
 40
0.4806659377
 40
1.0
 40
1.0
 40
1.0
 40
1.0
 10
37.369165186
 20
232.8623309923
 30
0.0
 10
37.6557790976
 20
232.434611439
 30
0.0
 10
38.0959976102
 20
231.4350469673
 30
0.0
 10
38.2256847859
 20
230.3574485201
 30
0.0
 10
38.2256847859
 20
229.8011583269
 30
0.0
  0
SPLINE
  5
2BE
100
AcDbEntity
  8
0
100
AcDbSpline
 62
7
  6
CONTINUOUS
 70
0
 71
3
 72
13
 73
9
 74
0
 42
0.0000001
 43
0.0000001
 44
0.0000000001
 40
0.0
 40
0.0
 40
0.0
 40
0.0
 40
0.2546480988
 40
0.5189332819
 40
0.648366291
 40
0.7724620891
 40
0.8897549228
 40
1.0
 40
1.0
 40
1.0
 40
1.0
 10
34.0159769239
 20
230.1010432188
 30
0.0
 10
34.0159769239
 20
229.578513097
 30
0.0
 10
33.7935216525
 20
228.5087378424
 30
0.0
 10
33.0930280326
 20
227.3473897398
 30
0.0
 10
32.3269568905
 20
226.6039187439
 30
0.0
 10
31.6881569612
 20
226.1812946768
 30
0.0
 10
31.0129728065
 20
225.9121105683
 30
0.0
 10
30.5453220944
 20
225.8433846615
 30
0.0
 10
30.3191150482
 20
225.8410079734
 30
0.0
  0
SPLINE
  5
2BF
100
AcDbEntity
  8
0
100
AcDbSpline
 62
7
  6
CONTINUOUS
 70
0
 71
3
 72
14
 73
10
 74
0
 42
0.0000001
 43
0.0000001
 44
0.0000000001
 40
0.0
 40
0.0
 40
0.0
 40
0.0
 40
0.255849667
 40
0.3892373421
 40
0.5220152326
 40
0.6512958811
 40
0.774721374
 40
0.8909354277
 40
1.0
 40
1.0
 40
1.0
 40
1.0
 10
20.3325973153
 20
225.0048181283
 30
0.0
 10
20.3325973153
 20
224.0134630844
 30
0.0
 10
20.0048510561
 20
222.4923878394
 30
0.0
 10
19.08264905
 20
220.686175483
 30
0.0
 10
18.1546493127
 20
219.4556317361
 30
0.0
 10
17.0493456971
 20
218.4385342476
 30
0.0
 10
15.8215126454
 20
217.6867364755
 30
0.0
 10
14.5337644349
 20
217.2417748723
 30
0.0
 10
13.6517918703
 20
217.1674817718
 30
0.0
 10
13.2299453211
 20
217.192682462
 30
0.0
  0
SPLINE
  5
2C0
100
AcDbEntity
  8
0
100
AcDbSpline
 62
7
  6
CONTINUOUS
 70
0
 71
3
 72
15
 73
11
 74
0
 42
0.0000001
 43
0.0000001
 44
0.0000000001
 40
0.0
 40
0.0
 40
0.0
 40
0.0
 40
0.0524624705
 40
0.1056459648
 40
0.2162146438
 40
0.335328798
 40
0.4632709066
 40
0.5978578637
 40
0.7353252348
 40
1.0
 40
1.0
 40
1.0
 40
1.0
 10
32.4340967966
 20
220.7266038425
 30
0.0
 10
32.6382451539
 20
220.6087059277
 30
0.0
 10
33.0722619524
 20
220.4086285056
 30
0.0
 10
34.0177094938
 20
220.1661705945
 30
0.0
 10
35.3140564795
 20
220.1839873169
 30
0.0
 10
36.8594239941
 20
220.6939061844
 30
0.0
 10
38.3116014012
 20
221.6366206919
 30
0.0
 10
39.5701429551
 20
222.9418579639
 30
0.0
 10
40.8512593707
 20
224.9960829737
 30
0.0
 10
41.3222702528
 20
226.8232791627
 30
0.0
 10
41.3222702528
 20
228.0126280702
 30
0.0
  0
SPLINE
  5
2C1
100
AcDbEntity
  8
0
100
AcDbSpline
 62
7
  6
CONTINUOUS
 70
0
 71
3
 72
11
 73
7
 74
0
 42
0.0000001
 43
0.0000001
 44
0.0000000001
 40
0.0
 40
0.0
 40
0.0
 40
0.0
 40
0.2717572078
 40
0.5268814843
 40
0.7676360802
 40
1.0
 40
1.0
 40
1.0
 40
1.0
 10
17.8119360715
 20
224.329141062
 30
0.0
 10
17.8119360715
 20
224.5786550772
 30
0.0
 10
17.7633946216
 20
225.0644640696
 30
0.0
 10
17.5310917483
 20
225.7374328971
 30
0.0
 10
17.1502662873
 20
226.2973353455
 30
0.0
 10
16.8056764873
 20
226.5744771924
 30
0.0
 10
16.6209454119
 20
226.6812036627
 30
0.0
  0
SPLINE
  5
2C2
100
AcDbEntity
  8
0
100
AcDbSpline
 62
7
  6
CONTINUOUS
 70
0
 71
3
 72
9
 73
5
 74
0
 42
0.0000001
 43
0.0000001
 44
0.0000000001
 40
0.0
 40
0.0
 40
0.0
 40
0.0
 40
0.2447494379
 40
1.0
 40
1.0
 40
1.0
 40
1.0
 10
25.7985567885
 20
211.6167666619
 30
0.0
 10
25.8148351432
 20
211.5421612539
 30
0.0
 10
25.8725293464
 20
211.2354518244
 30
0.0
 10
25.895879498
 20
210.9225171907
 30
0.0
 10
25.895879498
 20
210.686882582
 30
0.0
  0
SPLINE
  5
2C3
100
AcDbEntity
  8
0
100
AcDbSpline
 62
7
  6
CONTINUOUS
 70
0
 71
3
 72
13
 73
9
 74
0
 42
0.0000001
 43
0.0000001
 44
0.0000000001
 40
0.0
 40
0.0
 40
0.0
 40
0.0
 40
0.2546480988
 40
0.5189332819
 40
0.648366291
 40
0.7724620891
 40
0.8897549228
 40
1.0
 40
1.0
 40
1.0
 40
1.0
 10
16.1228894532
 20
225.3047030202
 30
0.0
 10
16.1228894532
 20
224.7821728984
 30
0.0
 10
15.9004341818
 20
223.7123976438
 30
0.0
 10
15.1999405619
 20
222.5510495412
 30
0.0
 10
14.4338694198
 20
221.8075785453
 30
0.0
 10
13.7950694905
 20
221.3849544782
 30
0.0
 10
13.1198853358
 20
221.1157703697
 30
0.0
 10
12.6522346237
 20
221.0470444629
 30
0.0
 10
12.4260275775
 20
221.0446677748
 30
0.0
  0
SPLINE
  5
2C4
100
AcDbEntity
  8
0
100
AcDbSpline
 62
7
  6
CONTINUOUS
 70
0
 71
3
 72
10
 73
6
 74
0
 42
0.0000001
 43
0.0000001
 44
0.0000000001
 40
0.0
 40
0.0
 40
0.0
 40
0.0
 40
0.2403281525
 40
0.4850960851
 40
1.0
 40
1.0
 40
1.0
 40
1.0
 10
23.386811128
 20
203.5164263327
 30
0.0
 10
23.5527573873
 20
203.4206096559
 30
0.0
 10
23.9098907689
 20
203.2629127954
 30
0.0
 10
24.6947952178
 20
203.099482815
 30
0.0
 10
25.3159540361
 20
203.1618307408
 30
0.0
 10
25.7125051592
 20
203.2681284424
 30
0.0
  0
SPLINE
  5
2C5
100
AcDbEntity
  8
0
100
AcDbSpline
 62
7
  6
CONTINUOUS
 70
0
 71
3
 72
20
 73
16
 74
0
 42
0.0000001
 43
0.0000001
 44
0.0000000001
 40
0.0
 40
0.0
 40
0.0
 40
0.0
 40
0.0524886411
 40
0.1058788268
 40
0.1609446315
 40
0.2182401334
 40
0.3400761484
 40
0.4047856415
 40
0.4714397679
 40
0.6080573063
 40
0.7449175043
 40
0.8118575954
 40
0.8769396555
 40
0.9397340308
 40
1.0
 40
1.0
 40
1.0
 40
1.0
 10
15.3351291181
 20
198.4678308914
 30
0.0
 10
14.5487111314
 20
198.9220798096
 30
0.0
 10
13.0527921079
 20
200.0056711415
 30
0.0
 10
11.1614291835
 20
202.0730804978
 30
0.0
 10
9.6572074637
 20
204.5349575445
 30
0.0
 10
8.1856250366
 20
208.3292432973
 30
0.0
 10
7.6702988226
 20
212.5941387787
 30
0.0
 10
8.0341955624
 20
216.9676122072
 30
0.0
 10
9.0130527321
 20
221.5123617285
 30
0.0
 10
11.3120383192
 20
226.9938389442
 30
0.0
 10
14.8174940172
 20
231.8007924199
 30
0.0
 10
18.205836599
 20
235.0040656452
 30
0.0
 10
20.9397542811
 20
236.9934482633
 30
0.0
 10
23.8174379087
 20
238.5369921113
 30
0.0
 10
25.8313445199
 20
239.2590021208
 30
0.0
 10
26.8385362443
 20
239.5289853846
 30
0.0
  0
SPLINE
  5
2C6
100
AcDbEntity
  8
0
100
AcDbSpline
 62
7
  6
CONTINUOUS
 70
0
 71
3
 72
14
 73
10
 74
0
 42
0.0000001
 43
0.0000001
 44
0.0000000001
 40
0.0
 40
0.0
 40
0.0
 40
0.0
 40
0.2686164723
 40
0.3932530389
 40
0.5129262831
 40
0.6303784462
 40
0.7488454196
 40
0.8713344666
 40
1.0
 40
1.0
 40
1.0
 40
1.0
 10
32.334404202
 20
208.3658572958
 30
0.0
 10
32.3344042025
 20
209.121315129
 30
0.0
 10
32.1458469083
 20
210.250139769
 30
0.0
 10
31.45049425
 20
211.5263853546
 30
0.0
 10
30.7575720327
 20
212.2863221593
 30
0.0
 10
29.9079485672
 20
212.835012574
 30
0.0
 10
28.9382160896
 20
213.1485062383
 30
0.0
 10
27.8913070407
 20
213.2156810884
 30
0.0
 10
27.1880562574
 20
213.0999256928
 30
0.0
 10
26.8385362443
 20
213.006234937
 30
0.0
  0
SPLINE
  5
2C7
100
AcDbEntity
  8
0
100
AcDbSpline
 62
7
  6
CONTINUOUS
 70
0
 71
3
 72
14
 73
10
 74
0
 42
0.0000001
 43
0.0000001
 44
0.0000000001
 40
0.0
 40
0.0
 40
0.0
 40
0.0
 40
0.1052606084
 40
0.2158761655
 40
0.3350397352
 40
0.4630361372
 40
0.5976782612
 40
0.7352099669
 40
1.0
 40
1.0
 40
1.0
 40
1.0
 10
12.9698686723
 20
220.3598841713
 30
0.0
 10
13.1928925091
 20
220.2310344538
 30
0.0
 10
13.7044010591
 20
220.0517250758
 30
0.0
 10
14.5382541617
 20
220.0646122821
 30
0.0
 10
15.380804505
 20
220.3419687364
 30
0.0
 10
16.1716995348
 20
220.8556646973
 30
0.0
 10
16.8573894888
 20
221.5666847822
 30
0.0
 10
17.5553208353
 20
222.6857833641
 30
0.0
 10
17.8119360715
 20
223.6812087328
 30
0.0
 10
17.8119360715
 20
224.329141062
 30
0.0
  0
SPLINE
  5
2C8
100
AcDbEntity
  8
0
100
AcDbSpline
 62
7
  6
CONTINUOUS
 70
0
 71
3
 72
10
 73
6
 74
0
 42
0.0000001
 43
0.0000001
 44
0.0000000001
 40
0.0
 40
0.0
 40
0.0
 40
0.0
 40
0.5149063301
 40
0.7596734005
 40
1.0
 40
1.0
 40
1.0
 40
1.0
 10
-31.1779462517
 20
179.7190981714
 30
0.0
 10
-31.8175471896
 20
179.5476496333
 30
0.0
 10
-32.819417016
 20
179.4471060893
 30
0.0
 10
-34.085394007
 20
179.7106854259
 30
0.0
 10
-34.6614094981
 20
179.9650418589
 30
0.0
 10
-34.9290617461
 20
180.1195854775
 30
0.0
  0
SPLINE
  5
2C9
100
AcDbEntity
  8
0
100
AcDbSpline
 62
7
  6
CONTINUOUS
 70
0
 71
3
 72
13
 73
9
 74
0
 42
0.0000001
 43
0.0000001
 44
0.0000000001
 40
0.0
 40
0.0
 40
0.0
 40
0.0
 40
0.1054199736
 40
0.2162072625
 40
0.3355571307
 40
0.4637457895
 40
0.7347562963
 40
1.0
 40
1.0
 40
1.0
 40
1.0
 10
-31.1541467072
 20
266.0080960914
 30
0.0
 10
-31.2580056229
 20
266.0681195274
 30
0.0
 10
-31.4962535841
 20
266.1515993453
 30
0.0
 10
-31.8845838581
 20
266.1455904307
 30
0.0
 10
-32.2770718381
 20
266.0164329236
 30
0.0
 10
-32.7761375813
 20
265.6919280949
 30
0.0
 10
-33.252040356
 20
265.0747405879
 30
0.0
 10
-33.4093512871
 20
264.4612273533
 30
0.0
 10
-33.4093512871
 20
264.15940956
 30
0.0
  0
SPLINE
  5
2CA
100
AcDbEntity
  8
0
100
AcDbSpline
 62
7
  6
CONTINUOUS
 70
0
 71
3
 72
10
 73
6
 74
0
 42
0.0000001
 43
0.0000001
 44
0.0000000001
 40
0.0
 40
0.0
 40
0.0
 40
0.0
 40
0.5252520963
 40
0.7668039053
 40
1.0
 40
1.0
 40
1.0
 40
1.0
 10
-33.4093512871
 20
186.0159674183
 30
0.0
 10
-33.4093512871
 20
185.7921621121
 30
0.0
 10
-33.3438189562
 20
185.4553273323
 30
0.0
 10
-33.1011296808
 20
185.0994073615
 30
0.0
 10
-32.9406674363
 20
184.9702136277
 30
0.0
 10
-32.854638415
 20
184.9204946658
 30
0.0
  0
SPLINE
  5
2CB
100
AcDbEntity
  8
0
100
AcDbSpline
 62
7
  6
CONTINUOUS
 70
0
 71
3
 72
13
 73
9
 74
0
 42
0.0000001
 43
0.0000001
 44
0.0000000001
 40
0.0
 40
0.0
 40
0.0
 40
0.0
 40
0.1054199736
 40
0.2162072625
 40
0.3355571307
 40
0.4637457895
 40
0.7347562963
 40
1.0
 40
1.0
 40
1.0
 40
1.0
 10
-31.1541467072
 20
187.8646539497
 30
0.0
 10
-31.2580056229
 20
187.9246773858
 30
0.0
 10
-31.4962535841
 20
188.0081572036
 30
0.0
 10
-31.8845838581
 20
188.0021482891
 30
0.0
 10
-32.2770718381
 20
187.872990782
 30
0.0
 10
-32.7761375813
 20
187.5484859532
 30
0.0
 10
-33.252040356
 20
186.9312984463
 30
0.0
 10
-33.4093512871
 20
186.3177852117
 30
0.0
 10
-33.4093512871
 20
186.0159674183
 30
0.0
  0
SPLINE
  5
2CC
100
AcDbEntity
  8
0
100
AcDbSpline
 62
7
  6
CONTINUOUS
 70
0
 71
3
 72
10
 73
6
 74
0
 42
0.0000001
 43
0.0000001
 44
0.0000000001
 40
0.0
 40
0.0
 40
0.0
 40
0.0
 40
0.5252520963
 40
0.7668039053
 40
1.0
 40
1.0
 40
1.0
 40
1.0
 10
-33.4093512871
 20
264.15940956
 30
0.0
 10
-33.4093512871
 20
263.9356042538
 30
0.0
 10
-33.3438189562
 20
263.5987694739
 30
0.0
 10
-33.1011296808
 20
263.2428495032
 30
0.0
 10
-32.9406674363
 20
263.1136557693
 30
0.0
 10
-32.854638415
 20
263.0639368075
 30
0.0
  0
SPLINE
  5
2CD
100
AcDbEntity
  8
0
100
AcDbSpline
 62
7
  6
CONTINUOUS
 70
0
 71
3
 72
11
 73
7
 74
0
 42
0.0000001
 43
0.0000001
 44
0.0000000001
 40
0.0
 40
0.0
 40
0.0
 40
0.0
 40
0.271768352
 40
0.5268704044
 40
0.7676317877
 40
1.0
 40
1.0
 40
1.0
 40
1.0
 10
-40.1913712695
 20
186.5785433864
 30
0.0
 10
-40.1913712695
 20
186.0658212091
 30
0.0
 10
-40.0916492973
 20
185.067598199
 30
0.0
 10
-39.6142708642
 20
183.6848018723
 30
0.0
 10
-38.8318110197
 20
182.5343338557
 30
0.0
 10
-38.1237867886
 20
181.9647321685
 30
0.0
 10
-37.7441394525
 20
181.7455220581
 30
0.0
  0
SPLINE
  5
2CE
100
AcDbEntity
  8
0
100
AcDbSpline
 62
7
  6
CONTINUOUS
 70
0
 71
3
 72
13
 73
9
 74
0
 42
0.0000001
 43
0.0000001
 44
0.0000000001
 40
0.0
 40
0.0
 40
0.0
 40
0.0
 40
0.234808417
 40
0.3606347824
 40
0.4898729049
 40
0.6205617968
 40
0.7505834308
 40
1.0
 40
1.0
 40
1.0
 40
1.0
 10
-33.9930239488
 20
273.2784961116
 30
0.0
 10
-34.843286829
 20
273.0505784849
 30
0.0
 10
-36.0824733386
 20
272.417250938
 30
0.0
 10
-37.4714273859
 20
271.2105853506
 30
0.0
 10
-38.4088398684
 20
270.1011282682
 30
0.0
 10
-39.1778938353
 20
268.851031048
 30
0.0
 10
-39.9309751824
 20
267.0889970264
 30
0.0
 10
-40.1913712695
 20
265.657030769
 30
0.0
 10
-40.1913712695
 20
264.721985528
 30
0.0
  0
SPLINE
  5
2CF
100
AcDbEntity
  8
0
100
AcDbSpline
 62
7
  6
CONTINUOUS
 70
0
 71
3
 72
9
 73
5
 74
0
 42
0.0000001
 43
0.0000001
 44
0.0000000001
 40
0.0
 40
0.0
 40
0.0
 40
0.0
 40
0.4531620144
 40
1.0
 40
1.0
 40
1.0
 40
1.0
 10
3.435928351
 20
260.9162964313
 30
0.0
 10
3.5423142612
 20
260.9448076504
 30
0.0
 10
3.7567809667
 20
261.0881279143
 30
0.0
 10
3.8736462356
 20
261.3087611521
 30
0.0
 10
3.9210322893
 20
261.432934715
 30
0.0
  0
SPLINE
  5
2D0
100
AcDbEntity
  8
0
100
AcDbSpline
 62
7
  6
CONTINUOUS
 70
0
 71
3
 72
13
 73
9
 74
0
 42
0.0000001
 43
0.0000001
 44
0.0000000001
 40
0.0
 40
0.0
 40
0.0
 40
0.0
 40
0.1158150315
 40
0.2327334866
 40
0.3517705012
 40
0.473781714
 40
0.7285667893
 40
1.0
 40
1.0
 40
1.0
 40
1.0
 10
42.8433269444
 20
246.0943585396
 30
0.0
 10
43.651626425
 20
245.6275359265
 30
0.0
 10
45.2069414242
 20
244.5638977463
 30
0.0
 10
47.2877216098
 20
242.6236561924
 30
0.0
 10
49.0946988613
 20
240.3614869197
 30
0.0
 10
51.1346952149
 20
236.912036041
 30
0.0
 10
52.8603597061
 20
231.9187937477
 30
0.0
 10
53.2848181459
 20
227.6610478872
 30
0.0
 10
53.2848181459
 20
225.4734132858
 30
0.0
  0
SPLINE
  5
2D1
100
AcDbEntity
  8
0
100
AcDbSpline
 62
7
  6
CONTINUOUS
 70
0
 71
3
 72
19
 73
15
 74
0
 42
0.0000001
 43
0.0000001
 44
0.0000000001
 40
0.0
 40
0.0
 40
0.0
 40
0.0
 40
0.0523306507
 40
0.1053801244
 40
0.15978562
 40
0.2160393059
 40
0.2744528807
 40
0.3351488564
 40
0.4627703741
 40
0.5970192603
 40
0.6655874471
 40
0.7343313618
 40
0.8699441127
 40
1.0
 40
1.0
 40
1.0
 40
1.0
 10
41.5929503962
 20
243.9295097106
 30
0.0
 10
40.6941279017
 20
244.4486962472
 30
0.0
 10
38.7833551115
 20
245.3294948234
 30
0.0
 10
35.6976006686
 20
246.119701829
 30
0.0
 10
32.4443758059
 20
246.3706571273
 30
0.0
 10
29.0895561763
 20
246.079924151
 30
0.0
 10
25.6971301779
 20
245.2561952522
 30
0.0
 10
21.1369990756
 20
243.4426264669
 30
0.0
 10
15.7123517498
 20
239.9208187366
 30
0.0
 10
11.1244792695
 20
235.1650220303
 30
0.0
 10
8.0349170109
 20
230.7422783615
 30
0.0
 10
5.4137965014
 20
225.995486145
 30
0.0
 10
3.1335925452
 20
219.7121007015
 30
0.0
 10
2.4583701162
 20
214.4288083566
 30
0.0
 10
2.4583701162
 20
211.8491052263
 30
0.0
  0
SPLINE
  5
2D2
100
AcDbEntity
  8
0
100
AcDbSpline
 62
7
  6
CONTINUOUS
 70
0
 71
3
 72
10
 73
6
 74
0
 42
0.0000001
 43
0.0000001
 44
0.0000000001
 40
0.0
 40
0.0
 40
0.0
 40
0.0
 40
0.2403242638
 40
0.4850896596
 40
1.0
 40
1.0
 40
1.0
 40
1.0
 10
-28.6591297601
 20
190.234467624
 30
0.0
 10
-28.8375631547
 20
190.3374947591
 30
0.0
 10
-29.2215697143
 20
190.5070624494
 30
0.0
 10
-30.0655493685
 20
190.6828022342
 30
0.0
 10
-30.7334657508
 20
190.6157661922
 30
0.0
 10
-31.1598692534
 20
190.5014663954
 30
0.0
  0
SPLINE
  5
2D3
100
AcDbEntity
  8
0
100
AcDbSpline
 62
7
  6
CONTINUOUS
 70
0
 71
3
 72
11
 73
7
 74
0
 42
0.0000001
 43
0.0000001
 44
0.0000000001
 40
0.0
 40
0.0
 40
0.0
 40
0.0
 40
0.2575259466
 40
0.5088228815
 40
0.7555702112
 40
1.0
 40
1.0
 40
1.0
 40
1.0
 10
21.8798583877
 20
188.1581864731
 30
0.0
 10
20.8958484386
 20
188.1033618512
 30
0.0
 10
18.9416421543
 20
188.1223782223
 30
0.0
 10
16.07298821
 20
188.5557984161
 30
0.0
 10
13.3459904766
 20
189.3892961905
 30
0.0
 10
11.6437593536
 20
190.2064756657
 30
0.0
 10
10.8337407221
 20
190.6743179374
 30
0.0
  0
SPLINE
  5
2D4
100
AcDbEntity
  8
0
100
AcDbSpline
 62
7
  6
CONTINUOUS
 70
0
 71
3
 72
13
 73
9
 74
0
 42
0.0000001
 43
0.0000001
 44
0.0000000001
 40
0.0
 40
0.0
 40
0.0
 40
0.0
 40
0.2457075376
 40
0.3736343433
 40
0.5027879268
 40
0.6315553219
 40
0.7583551687
 40
1.0
 40
1.0
 40
1.0
 40
1.0
 10
53.2848181459
 20
225.4734132858
 30
0.0
 10
53.2848181459
 20
221.973280968
 30
0.0
 10
52.4297958756
 20
216.6216660614
 30
0.0
 10
49.9141420258
 20
209.9035836029
 30
0.0
 10
47.3221802954
 20
205.0372368821
 30
0.0
 10
44.1258677295
 20
200.5639257823
 30
0.0
 10
39.2746199027
 20
195.3881353994
 30
0.0
 10
34.9000107606
 20
192.307157442
 30
0.0
 10
31.7972141008
 20
190.8165880457
 30
0.0
  0
SPLINE
  5
2D5
100
AcDbEntity
  8
0
100
AcDbSpline
 62
7
  6
CONTINUOUS
 70
0
 71
3
 72
14
 73
10
 74
0
 42
0.0000001
 43
0.0000001
 44
0.0000000001
 40
0.0
 40
0.0
 40
0.0
 40
0.0
 40
0.2647836684
 40
0.4023089551
 40
0.5369530159
 40
0.6649530571
 40
0.7841200326
 40
0.8947373442
 40
1.0
 40
1.0
 40
1.0
 40
1.0
 10
31.7972141008
 20
190.2948355847
 30
0.0
 10
31.7972141008
 20
189.229765998
 30
0.0
 10
31.375401256
 20
187.5935028347
 30
0.0
 10
30.2281842156
 20
185.753901638
 30
0.0
 10
29.1010799775
 20
184.585047115
 30
0.0
 10
27.8009338621
 20
183.7405963317
 30
0.0
 10
26.4158838757
 20
183.2846973059
 30
0.0
 10
25.0451170928
 20
183.2634589936
 30
0.0
 10
24.2043133558
 20
183.5582872138
 30
0.0
 10
23.8376455703
 20
183.7700199789
 30
0.0
  0
SPLINE
  5
2D6
100
AcDbEntity
  8
0
100
AcDbSpline
 62
7
  6
CONTINUOUS
 70
0
 71
3
 72
11
 73
7
 74
0
 42
0.0000001
 43
0.0000001
 44
0.0000000001
 40
0.0
 40
0.0
 40
0.0
 40
0.0
 40
0.2717350397
 40
0.5268969419
 40
0.7676331593
 40
1.0
 40
1.0
 40
1.0
 40
1.0
 10
23.9459741613
 20
188.1902676704
 30
0.0
 10
23.9459741612
 20
187.9510292152
 30
0.0
 10
23.9925592242
 20
187.4851859216
 30
0.0
 10
24.2152478497
 20
186.8398484656
 30
0.0
 10
24.5805118704
 20
186.3030080422
 30
0.0
 10
24.9108829562
 20
186.0372113411
 30
0.0
 10
25.0880349191
 20
185.9348910101
 30
0.0
  0
SPLINE
  5
2D7
100
AcDbEntity
  8
0
100
AcDbSpline
 62
7
  6
CONTINUOUS
 70
0
 71
3
 72
13
 73
9
 74
0
 42
0.0000001
 43
0.0000001
 44
0.0000000001
 40
0.0
 40
0.0
 40
0.0
 40
0.0
 40
0.271432411
 40
0.526217456
 40
0.6482289435
 40
0.7672664564
 40
0.8841850915
 40
1.0
 40
1.0
 40
1.0
 40
1.0
 10
2.4583701162
 20
211.8491052263
 30
0.0
 10
2.4583701162
 20
209.8323857347
 30
0.0
 10
2.8496625319
 20
205.9072805079
 30
0.0
 10
4.4405272873
 20
201.3041486003
 30
0.0
 10
6.3211287919
 20
198.1241697831
 30
0.0
 10
7.9869263386
 20
196.0387147231
 30
0.0
 10
9.9051650941
 20
194.2500659318
 30
0.0
 10
11.3389823065
 20
193.2695449284
 30
0.0
 10
12.0841264214
 20
192.839182777
 30
0.0
  0
SPLINE
  5
2D8
100
AcDbEntity
  8
0
100
AcDbSpline
 62
7
  6
CONTINUOUS
 70
0
 71
3
 72
9
 73
5
 74
0
 42
0.0000001
 43
0.0000001
 44
0.0000000001
 40
0.0
 40
0.0
 40
0.0
 40
0.0
 40
0.4905900945
 40
1.0
 40
1.0
 40
1.0
 40
1.0
 10
31.2574680332
 20
289.7336461983
 30
0.0
 10
30.9077286525
 20
289.8812050078
 30
0.0
 10
30.1524551871
 20
290.0888819401
 30
0.0
 10
29.3709086679
 20
290.1048845019
 30
0.0
 10
28.9782927402
 20
290.0700829056
 30
0.0
  0
SPLINE
  5
2D9
100
AcDbEntity
  8
0
100
AcDbSpline
 62
7
  6
CONTINUOUS
 70
0
 71
3
 72
11
 73
7
 74
0
 42
0.0000001
 43
0.0000001
 44
0.0000000001
 40
0.0
 40
0.0
 40
0.0
 40
0.0
 40
0.2343782473
 40
0.478297659
 40
0.7333924044
 40
1.0
 40
1.0
 40
1.0
 40
1.0
 10
52.4829460688
 20
248.9408617105
 30
0.0
 10
53.6099799774
 20
247.6004698444
 30
0.0
 10
55.6296592903
 20
244.6185343403
 30
0.0
 10
57.7976398169
 20
239.5543964063
 30
0.0
 10
59.1106694302
 20
233.9599226509
 30
0.0
 10
59.3901922746
 20
230.0542633444
 30
0.0
 10
59.3901922746
 20
228.0622057379
 30
0.0
  0
SPLINE
  5
2DA
100
AcDbEntity
  8
0
100
AcDbSpline
 62
7
  6
CONTINUOUS
 70
0
 71
3
 72
15
 73
11
 74
0
 42
0.0000001
 43
0.0000001
 44
0.0000000001
 40
0.0
 40
0.0
 40
0.0
 40
0.0
 40
0.1226793102
 40
0.2497804871
 40
0.3795759387
 40
0.5100271139
 40
0.6390304753
 40
0.7646372387
 40
0.8852762652
 40
1.0
 40
1.0
 40
1.0
 40
1.0
 10
59.3901922746
 20
228.0622057379
 30
0.0
 10
59.3901922746
 20
225.5587857478
 30
0.0
 10
58.9308902514
 20
220.453476419
 30
0.0
 10
56.9983613086
 20
212.9221884151
 30
0.0
 10
53.8837541523
 20
205.624606315
 30
0.0
 10
49.7041548602
 20
198.8358498127
 30
0.0
 10
44.6160014334
 20
192.8087129226
 30
0.0
 10
38.8060844416
 20
187.7695880649
 30
0.0
 10
32.4916229165
 20
183.9101178422
 30
0.0
 10
27.9737516431
 20
182.1779710831
 30
0.0
 10
25.7125051654
 20
181.5718315671
 30
0.0
  0
SPLINE
  5
2DB
100
AcDbEntity
  8
0
100
AcDbSpline
 62
7
  6
CONTINUOUS
 70
0
 71
3
 72
10
 73
6
 74
0
 42
0.0000001
 43
0.0000001
 44
0.0000000001
 40
0.0
 40
0.0
 40
0.0
 40
0.0
 40
0.521038262
 40
0.7634547985
 40
1.0
 40
1.0
 40
1.0
 40
1.0
 10
-12.5648272899
 20
265.5645144631
 30
0.0
 10
-11.7923659476
 20
266.5969981801
 30
0.0
 10
-10.4509691963
 20
267.9841091737
 30
0.0
 10
-8.3190742321
 20
269.2616443816
 30
0.0
 10
-7.2003098741
 20
269.6780069586
 30
0.0
 10
-6.6348776854
 20
269.8296037407
 30
0.0
  0
SPLINE
  5
2DC
100
AcDbEntity
  8
0
100
AcDbSpline
 62
7
  6
CONTINUOUS
 70
0
 71
3
 72
9
 73
5
 74
0
 42
0.0000001
 43
0.0000001
 44
0.0000000001
 40
0.0
 40
0.0
 40
0.0
 40
0.0
 40
0.2448641828
 40
1.0
 40
1.0
 40
1.0
 40
1.0
 10
15.5576609221
 20
249.3902921928
 30
0.0
 10
15.5258298565
 20
248.8136406089
 30
0.0
 10
15.3132640551
 20
246.4636335785
 30
0.0
 10
14.7801043949
 20
244.1451362061
 30
0.0
 10
14.224076872
 20
242.4531135134
 30
0.0
  0
SPLINE
  5
2DD
100
AcDbEntity
  8
0
100
AcDbSpline
 62
7
  6
CONTINUOUS
 70
0
 71
3
 72
9
 73
5
 74
0
 42
0.0000001
 43
0.0000001
 44
0.0000000001
 40
0.0
 40
0.0
 40
0.0
 40
0.0
 40
0.2534903502
 40
1.0
 40
1.0
 40
1.0
 40
1.0
 10
34.993676167
 20
251.7229051482
 30
0.0
 10
35.1331932379
 20
251.5126645834
 30
0.0
 10
35.7070681396
 20
250.6991749983
 30
0.0
 10
36.376922551
 20
249.9528950502
 30
0.0
 10
36.9226733157
 20
249.4486083211
 30
0.0
  0
SPLINE
  5
2DE
100
AcDbEntity
  8
0
100
AcDbSpline
 62
7
  6
CONTINUOUS
 70
0
 71
3
 72
11
 73
7
 74
0
 42
0.0000001
 43
0.0000001
 44
0.0000000001
 40
0.0
 40
0.0
 40
0.0
 40
0.0
 40
0.2655984915
 40
0.5205170054
 40
0.7648800058
 40
1.0
 40
1.0
 40
1.0
 40
1.0
 10
-10.7798069126
 20
211.6250908692
 30
0.0
 10
-10.7401867082
 20
209.6078411081
 30
0.0
 10
-10.3800997557
 20
205.6525539425
 30
0.0
 10
-8.9483521419
 20
199.9950086902
 30
0.0
 10
-6.6694257261
 20
194.8719356325
 30
0.0
 10
-4.5826587459
 20
191.8536756855
 30
0.0
 10
-3.4234365254
 20
190.4948597615
 30
0.0
  0
SPLINE
  5
2DF
100
AcDbEntity
  8
0
100
AcDbSpline
 62
7
  6
CONTINUOUS
 70
0
 71
3
 72
14
 73
10
 74
0
 42
0.0000001
 43
0.0000001
 44
0.0000000001
 40
0.0
 40
0.0
 40
0.0
 40
0.0
 40
0.244196398
 40
0.3708896695
 40
0.4989580176
 40
0.6271315181
 40
0.7541322969
 40
0.8787590272
 40
1.0
 40
1.0
 40
1.0
 40
1.0
 10
12.0360546934
 20
254.0667568048
 30
0.0
 10
8.5773248981
 20
251.8938533478
 30
0.0
 10
3.7858215669
 20
247.8010287456
 30
0.0
 10
-1.4484496816
 20
241.2853735219
 30
0.0
 10
-4.8281078679
 20
235.8231553353
 30
0.0
 10
-7.5210667564
 20
229.9889299342
 30
0.0
 10
-9.463418591
 20
223.9227282321
 30
0.0
 10
-10.6069325115
 20
217.7749902504
 30
0.0
 10
-10.8196302561
 20
213.652683389
 30
0.0
 10
-10.7798069126
 20
211.6250908692
 30
0.0
  0
SPLINE
  5
2E0
100
AcDbEntity
  8
0
100
AcDbSpline
 62
7
  6
CONTINUOUS
 70
0
 71
3
 72
13
 73
9
 74
0
 42
0.0000001
 43
0.0000001
 44
0.0000000001
 40
0.0
 40
0.0
 40
0.0
 40
0.0
 40
0.1054228116
 40
0.2162092768
 40
0.3355568365
 40
0.4637520711
 40
0.7347891091
 40
1.0
 40
1.0
 40
1.0
 40
1.0
 10
25.0880349191
 20
185.9348910101
 30
0.0
 10
25.3019014953
 20
185.8113648662
 30
0.0
 10
25.7923708078
 20
185.6394154947
 30
0.0
 10
26.5918974855
 20
185.6517653869
 30
0.0
 10
27.3999794558
 20
185.9176542102
 30
0.0
 10
28.4275281827
 20
186.5858232777
 30
0.0
 10
29.4072431234
 20
187.8565905714
 30
0.0
 10
29.7310983273
 20
189.119684963
 30
0.0
 10
29.7310983273
 20
189.7410019211
 30
0.0
  0
SPLINE
  5
2E1
100
AcDbEntity
  8
0
100
AcDbSpline
 62
7
  6
CONTINUOUS
 70
0
 71
3
 72
11
 73
7
 74
0
 42
0.0000001
 43
0.0000001
 44
0.0000000001
 40
0.0
 40
0.0
 40
0.0
 40
0.0
 40
0.2405098349
 40
0.5066046094
 40
0.7691303212
 40
1.0
 40
1.0
 40
1.0
 40
1.0
 10
1.8310360705
 20
263.9552964082
 30
0.0
 10
1.7889245706
 20
263.7250708553
 30
0.0
 10
1.7776173861
 20
263.2258367974
 30
0.0
 10
1.9184509576
 20
262.4862626987
 30
0.0
 10
2.1960261386
 20
261.796701197
 30
0.0
 10
2.4728297514
 20
261.3953524603
 30
0.0
 10
2.6311164372
 20
261.2359180352
 30
0.0
  0
SPLINE
  5
2E2
100
AcDbEntity
  8
0
100
AcDbSpline
 62
7
  6
CONTINUOUS
 70
0
 71
3
 72
9
 73
5
 74
0
 42
0.0000001
 43
0.0000001
 44
0.0000000001
 40
0.0
 40
0.0
 40
0.0
 40
0.0
 40
0.2668760426
 40
1.0
 40
1.0
 40
1.0
 40
1.0
 10
2.6311164372
 20
261.2359180352
 30
0.0
 10
2.6540659832
 20
261.2128020816
 30
0.0
 10
2.7423858679
 20
261.1286106716
 30
0.0
 10
2.8406148725
 20
261.0541757448
 30
0.0
 10
2.9181000444
 20
261.0094217485
 30
0.0
  0
SPLINE
  5
2E3
100
AcDbEntity
  8
0
100
AcDbSpline
 62
7
  6
CONTINUOUS
 70
0
 71
3
 72
11
 73
7
 74
0
 42
0.0000001
 43
0.0000001
 44
0.0000000001
 40
0.0
 40
0.0
 40
0.0
 40
0.0
 40
0.271772124
 40
0.5268740629
 40
0.7676338636
 40
1.0
 40
1.0
 40
1.0
 40
1.0
 10
-27.0276377048
 20
187.0124606506
 30
0.0
 10
-27.0276377048
 20
187.3542797708
 30
0.0
 10
-27.0941108404
 20
188.019767768
 30
0.0
 10
-27.4123865325
 20
188.9416258518
 30
0.0
 10
-27.9340202318
 20
189.7085994841
 30
0.0
 10
-28.4060334094
 20
190.0883302265
 30
0.0
 10
-28.6591297601
 20
190.234467624
 30
0.0
  0
SPLINE
  5
2E4
100
AcDbEntity
  8
0
100
AcDbSpline
 62
7
  6
CONTINUOUS
 70
0
 71
3
 72
9
 73
5
 74
0
 42
0.0000001
 43
0.0000001
 44
0.0000000001
 40
0.0
 40
0.0
 40
0.0
 40
0.0
 40
0.477305613
 40
1.0
 40
1.0
 40
1.0
 40
1.0
 10
-28.7748316573
 20
190.1258349388
 30
0.0
 10
-28.4765727964
 20
189.7900934582
 30
0.0
 10
-28.0066260782
 20
188.9418958035
 30
0.0
 10
-27.872161014
 20
187.9920358878
 30
0.0
 10
-27.872161014
 20
187.5002416297
 30
0.0
  0
SPLINE
  5
2E5
100
AcDbEntity
  8
0
100
AcDbSpline
 62
7
  6
CONTINUOUS
 70
0
 71
3
 72
12
 73
8
 74
0
 42
0.0000001
 43
0.0000001
 44
0.0000000001
 40
0.0
 40
0.0
 40
0.0
 40
0.0
 40
0.2349933756
 40
0.4894753556
 40
0.6202647794
 40
0.7503870015
 40
1.0
 40
1.0
 40
1.0
 40
1.0
 10
-31.159869253
 20
259.4515624029
 30
0.0
 10
-30.5930229673
 20
259.6035086575
 30
0.0
 10
-29.4756713669
 20
260.1743685516
 30
0.0
 10
-28.3803840522
 20
261.3032707531
 30
0.0
 10
-27.7033050303
 20
262.4030695841
 30
0.0
 10
-27.2012362261
 20
263.5779634478
 30
0.0
 10
-27.0276377048
 20
264.5325345877
 30
0.0
 10
-27.0276377048
 20
265.1559027922
 30
0.0
  0
SPLINE
  5
2E6
100
AcDbEntity
  8
0
100
AcDbSpline
 62
7
  6
CONTINUOUS
 70
0
 71
3
 72
10
 73
6
 74
0
 42
0.0000001
 43
0.0000001
 44
0.0000000001
 40
0.0
 40
0.0
 40
0.0
 40
0.0
 40
0.5252520963
 40
0.7668039053
 40
1.0
 40
1.0
 40
1.0
 40
1.0
 10
-30.5994338351
 20
186.7691811972
 30
0.0
 10
-30.5994338351
 20
186.9929865034
 30
0.0
 10
-30.664966166
 20
187.3298212833
 30
0.0
 10
-30.9076554414
 20
187.6857412541
 30
0.0
 10
-31.0681176859
 20
187.8149349879
 30
0.0
 10
-31.1541467072
 20
187.8646539497
 30
0.0
  0
SPLINE
  5
2E7
100
AcDbEntity
  8
0
100
AcDbSpline
 62
7
  6
CONTINUOUS
 70
0
 71
3
 72
13
 73
9
 74
0
 42
0.0000001
 43
0.0000001
 44
0.0000000001
 40
0.0
 40
0.0
 40
0.0
 40
0.0
 40
0.1054199736
 40
0.2162072625
 40
0.3355571307
 40
0.4637457895
 40
0.7347562963
 40
1.0
 40
1.0
 40
1.0
 40
1.0
 10
-32.854638415
 20
184.9204946658
 30
0.0
 10
-32.7507794993
 20
184.8604712298
 30
0.0
 10
-32.5125315381
 20
184.776991412
 30
0.0
 10
-32.1242012641
 20
184.7830003265
 30
0.0
 10
-31.7317132841
 20
184.9121578336
 30
0.0
 10
-31.2326475409
 20
185.2366626623
 30
0.0
 10
-30.7567447662
 20
185.8538501693
 30
0.0
 10
-30.5994338351
 20
186.4673634039
 30
0.0
 10
-30.5994338351
 20
186.7691811972
 30
0.0
  0
SPLINE
  5
2E8
100
AcDbEntity
  8
0
100
AcDbSpline
 62
7
  6
CONTINUOUS
 70
0
 71
3
 72
19
 73
15
 74
0
 42
0.0000001
 43
0.0000001
 44
0.0000000001
 40
0.0
 40
0.0
 40
0.0
 40
0.0
 40
0.1300541387
 40
0.2656684259
 40
0.3344130209
 40
0.4029810348
 40
0.5372301382
 40
0.6648520298
 40
0.7255482972
 40
0.7839620871
 40
0.8402158029
 40
0.894621071
 40
0.9476700452
 40
1.0
 40
1.0
 40
1.0
 40
1.0
 10
0.3922543426
 20
211.2952715653
 30
0.0
 10
0.3922543426
 20
214.0935571306
 30
0.0
 10
1.1246896646
 20
219.8245827707
 30
0.0
 10
3.5981158729
 20
226.6404792216
 30
0.0
 10
6.4413834218
 20
231.789586096
 30
0.0
 10
9.7928101318
 20
236.5871353997
 30
0.0
 10
14.7695138593
 20
241.7459524012
 30
0.0
 10
20.6538927192
 20
245.5662291039
 30
0.0
 10
25.6004886945
 20
247.5335152194
 30
0.0
 10
29.280419079
 20
248.4270617016
 30
0.0
 10
32.9195502574
 20
248.7424350813
 30
0.0
 10
36.4484507198
 20
248.4701835346
 30
0.0
 10
39.7957012788
 20
247.6130346065
 30
0.0
 10
41.8683063591
 20
246.6574687088
 30
0.0
 10
42.8433269444
 20
246.0943585396
 30
0.0
  0
SPLINE
  5
2E9
100
AcDbEntity
  8
0
100
AcDbSpline
 62
7
  6
CONTINUOUS
 70
0
 71
3
 72
10
 73
6
 74
0
 42
0.0000001
 43
0.0000001
 44
0.0000000001
 40
0.0
 40
0.0
 40
0.0
 40
0.0
 40
0.2361306542
 40
0.4783221286
 40
1.0
 40
1.0
 40
1.0
 40
1.0
 10
-6.6348776854
 20
269.8296037407
 30
0.0
 10
-6.059550584
 20
269.9838534261
 30
0.0
 10
-4.860775637
 20
270.1843366553
 30
0.0
 10
-2.3276480913
 20
270.131702088
 30
0.0
 10
-0.4392910167
 20
269.5743116641
 30
0.0
 10
0.7654731554
 20
269.0449165306
 30
0.0
  0
SPLINE
  5
2EA
100
AcDbEntity
  8
0
100
AcDbSpline
 62
7
  6
CONTINUOUS
 70
0
 71
3
 72
14
 73
10
 74
0
 42
0.0000001
 43
0.0000001
 44
0.0000000001
 40
0.0
 40
0.0
 40
0.0
 40
0.0
 40
0.1173693746
 40
0.2397881738
 40
0.3661752132
 40
0.495033847
 40
0.6246428502
 40
0.7532128969
 40
1.0
 40
1.0
 40
1.0
 40
1.0
 10
29.7310983273
 20
192.2308937435
 30
0.0
 10
31.2289386684
 20
192.8314878044
 30
0.0
 10
34.1830633145
 20
194.3367685579
 30
0.0
 10
38.2618052026
 20
197.3199244025
 30
0.0
 10
41.9672320419
 20
200.9840991799
 30
0.0
 10
45.1798043742
 20
205.2094430776
 30
0.0
 10
47.7983998581
 20
209.863816138
 30
0.0
 10
50.3467661139
 20
216.3349209711
 30
0.0
 10
51.2187023724
 20
221.5263903809
 30
0.0
 10
51.2187023724
 20
224.9195796248
 30
0.0
  0
SPLINE
  5
2EB
100
AcDbEntity
  8
0
100
AcDbSpline
 62
7
  6
CONTINUOUS
 70
0
 71
3
 72
13
 73
9
 74
0
 42
0.0000001
 43
0.0000001
 44
0.0000000001
 40
0.0
 40
0.0
 40
0.0
 40
0.0
 40
0.271432317
 40
0.5262141489
 40
0.6482247315
 40
0.7672620358
 40
0.8841830189
 40
1.0
 40
1.0
 40
1.0
 40
1.0
 10
51.2187023724
 20
224.9195796248
 30
0.0
 10
51.2187023724
 20
226.9362984962
 30
0.0
 10
50.827411286
 20
230.8613770908
 30
0.0
 10
49.2365860873
 20
235.4644901494
 30
0.0
 10
47.3559767359
 20
238.6444321343
 30
0.0
 10
45.6901632837
 20
240.7298748301
 30
0.0
 10
43.7719917266
 20
242.5186550981
 30
0.0
 10
42.3380839705
 20
243.4990984535
 30
0.0
 10
41.5929503962
 20
243.9295097106
 30
0.0
  0
SPLINE
  5
2EC
100
AcDbEntity
  8
0
100
AcDbSpline
 62
7
  6
CONTINUOUS
 70
0
 71
3
 72
9
 73
5
 74
0
 42
0.0000001
 43
0.0000001
 44
0.0000000001
 40
0.0
 40
0.0
 40
0.0
 40
0.0
 40
0.4897599303
 40
1.0
 40
1.0
 40
1.0
 40
1.0
 10
-12.5648272899
 20
264.4575098232
 30
0.0
 10
-12.5648272899
 20
261.8968605947
 30
0.0
 10
-13.5417412047
 20
256.6483948294
 30
0.0
 10
-16.0515172967
 20
251.9616532219
 30
0.0
 10
-17.6506507328
 20
249.8263452439
 30
0.0
  0
SPLINE
  5
2ED
100
AcDbEntity
  8
0
100
AcDbSpline
 62
7
  6
CONTINUOUS
 70
0
 71
3
 72
11
 73
7
 74
0
 42
0.0000001
 43
0.0000001
 44
0.0000000001
 40
0.0
 40
0.0
 40
0.0
 40
0.0
 40
0.2323607163
 40
0.4731244148
 40
0.7282306892
 40
1.0
 40
1.0
 40
1.0
 40
1.0
 10
23.8376455703
 20
183.7700199789
 30
0.0
 10
23.5339436844
 20
183.9453930076
 30
0.0
 10
22.9675194831
 20
184.4010503963
 30
0.0
 10
22.3415524403
 20
185.3214262703
 30
0.0
 10
21.9596239832
 20
186.4276661353
 30
0.0
 10
21.8798583877
 20
187.2262548892
 30
0.0
 10
21.8798583877
 20
187.6364340112
 30
0.0
  0
SPLINE
  5
2EE
100
AcDbEntity
  8
0
100
AcDbSpline
 62
7
  6
CONTINUOUS
 70
0
 71
3
 72
10
 73
6
 74
0
 42
0.0000001
 43
0.0000001
 44
0.0000000001
 40
0.0
 40
0.0
 40
0.0
 40
0.0
 40
0.2559865608
 40
0.510976934
 40
1.0
 40
1.0
 40
1.0
 40
1.0
 10
-17.6506507328
 20
249.8263452439
 30
0.0
 10
-18.9362372055
 20
248.1097136068
 30
0.0
 10
-21.2414656738
 20
244.4758554204
 30
0.0
 10
-24.6154943191
 20
236.7905934562
 30
0.0
 10
-25.7879682407
 20
230.5135215937
 30
0.0
 10
-25.7879682407
 20
226.416481918
 30
0.0
  0
SPLINE
  5
2EF
100
AcDbEntity
  8
0
100
AcDbSpline
 62
7
  6
CONTINUOUS
 70
0
 71
3
 72
13
 73
9
 74
0
 42
0.0000001
 43
0.0000001
 44
0.0000000001
 40
0.0
 40
0.0
 40
0.0
 40
0.0
 40
0.2714336671
 40
0.5262166998
 40
0.6482284782
 40
0.7672657124
 40
0.8841842367
 40
1.0
 40
1.0
 40
1.0
 40
1.0
 10
-25.7879682407
 20
226.416481918
 30
0.0
 10
-25.7879682407
 20
224.2288442154
 30
0.0
 10
-25.3635054419
 20
219.9711131051
 30
0.0
 10
-23.6378500662
 20
214.9778781442
 30
0.0
 10
-21.5978454835
 20
211.5284431058
 30
0.0
 10
-19.7908619598
 20
209.2662760933
 30
0.0
 10
-17.7101177645
 20
207.3259797438
 30
0.0
 10
-16.1547746665
 20
206.2623737619
 30
0.0
 10
-15.3464818581
 20
205.7955282954
 30
0.0
  0
SPLINE
  5
2F0
100
AcDbEntity
  8
0
100
AcDbSpline
 62
7
  6
CONTINUOUS
 70
0
 71
3
 72
12
 73
8
 74
0
 42
0.0000001
 43
0.0000001
 44
0.0000000001
 40
0.0
 40
0.0
 40
0.0
 40
0.0
 40
0.1156091348
 40
0.2328463818
 40
0.4745758552
 40
0.7298139032
 40
1.0
 40
1.0
 40
1.0
 40
1.0
 10
8.9898485688
 20
191.8917310419
 30
0.0
 10
8.3123526662
 20
192.399408705
 30
0.0
 10
7.0161076158
 20
193.5168598515
 30
0.0
 10
4.702538342
 20
196.1212867123
 30
0.0
 10
2.3994766569
 20
200.0439613887
 30
0.0
 10
0.7418129142
 20
205.4557501609
 30
0.0
 10
0.3922543426
 20
209.3167041539
 30
0.0
 10
0.3922543426
 20
211.2952715653
 30
0.0
  0
SPLINE
  5
2F1
100
AcDbEntity
  8
0
100
AcDbSpline
 62
7
  6
CONTINUOUS
 70
0
 71
3
 72
11
 73
7
 74
0
 42
0.0000001
 43
0.0000001
 44
0.0000000001
 40
0.0
 40
0.0
 40
0.0
 40
0.0
 40
0.2323682304
 40
0.4731296227
 40
0.7282316635
 40
1.0
 40
1.0
 40
1.0
 40
1.0
 10
-34.9290617461
 20
180.1195854775
 30
0.0
 10
-35.3087091206
 20
180.3387955886
 30
0.0
 10
-36.0167333982
 20
180.908397315
 30
0.0
 10
-36.799193195
 20
182.058865395
 30
0.0
 10
-37.2765716281
 20
183.4416616801
 30
0.0
 10
-37.3762935724
 20
184.4398846418
 30
0.0
 10
-37.3762935724
 20
184.9526067893
 30
0.0
  0
SPLINE
  5
2F2
100
AcDbEntity
  8
0
100
AcDbSpline
 62
7
  6
CONTINUOUS
 70
0
 71
3
 72
13
 73
9
 74
0
 42
0.0000001
 43
0.0000001
 44
0.0000000001
 40
0.0
 40
0.0
 40
0.0
 40
0.0
 40
0.1054199736
 40
0.2162072625
 40
0.3355571307
 40
0.4637457895
 40
0.7347562963
 40
1.0
 40
1.0
 40
1.0
 40
1.0
 10
-32.854638415
 20
263.0639368075
 30
0.0
 10
-32.7507794993
 20
263.0039133714
 30
0.0
 10
-32.5125315381
 20
262.9204335536
 30
0.0
 10
-32.1242012641
 20
262.9264424681
 30
0.0
 10
-31.7317132841
 20
263.0555999752
 30
0.0
 10
-31.2326475409
 20
263.380104804
 30
0.0
 10
-30.7567447662
 20
263.997292311
 30
0.0
 10
-30.5994338351
 20
264.6108055456
 30
0.0
 10
-30.5994338351
 20
264.9126233389
 30
0.0
  0
SPLINE
  5
2F3
100
AcDbEntity
  8
0
100
AcDbSpline
 62
7
  6
CONTINUOUS
 70
0
 71
3
 72
11
 73
7
 74
0
 42
0.0000001
 43
0.0000001
 44
0.0000000001
 40
0.0
 40
0.0
 40
0.0
 40
0.0
 40
0.2428152408
 40
0.4886832966
 40
0.7403665505
 40
1.0
 40
1.0
 40
1.0
 40
1.0
 10
12.0841264214
 20
192.839182777
 30
0.0
 10
12.9438393971
 20
192.3426507392
 30
0.0
 10
14.7658588756
 20
191.4937353589
 30
0.0
 10
17.7029515262
 20
190.704584339
 30
0.0
 10
20.7979483801
 20
190.4076484221
 30
0.0
 10
22.8939726573
 20
190.5379945193
 30
0.0
 10
23.9459741613
 20
190.6801594929
 30
0.0
  0
SPLINE
  5
2F4
100
AcDbEntity
  8
0
100
AcDbSpline
 62
7
  6
CONTINUOUS
 70
0
 71
3
 72
8
 73
4
 74
0
 42
0.0000001
 43
0.0000001
 44
0.0000000001
 40
0.0
 40
0.0
 40
0.0
 40
0.0
 40
1.0
 40
1.0
 40
1.0
 40
1.0
 10
3.2042755587
 20
260.9045240998
 30
0.0
 10
3.2418469904
 20
260.8989182311
 30
0.0
 10
3.2801154598
 20
260.8966709841
 30
0.0
 10
3.3180676984
 20
260.8983037204
 30
0.0
  0
SPLINE
  5
2F5
100
AcDbEntity
  8
0
100
AcDbSpline
 62
7
  6
CONTINUOUS
 70
0
 71
3
 72
13
 73
9
 74
0
 42
0.0000001
 43
0.0000001
 44
0.0000000001
 40
0.0
 40
0.0
 40
0.0
 40
0.0
 40
0.27090513
 40
0.5258696631
 40
0.6481023029
 40
0.7673390796
 40
0.8843569097
 40
1.0
 40
1.0
 40
1.0
 40
1.0
 10
-0.7337767362
 20
211.9456462042
 30
0.0
 10
-0.7337767362
 20
209.8448510745
 30
0.0
 10
-0.3417161823
 20
205.7523628763
 30
0.0
 10
1.2459989636
 20
200.9302080464
 30
0.0
 10
3.1272962915
 20
197.560276032
 30
0.0
 10
4.7968957763
 20
195.3264309547
 30
0.0
 10
6.7238786543
 20
193.382059026
 30
0.0
 10
8.1699806211
 20
192.2907501673
 30
0.0
 10
8.9232722478
 20
191.8041630632
 30
0.0
  0
SPLINE
  5
2F6
100
AcDbEntity
  8
0
100
AcDbSpline
 62
7
  6
CONTINUOUS
 70
0
 71
3
 72
11
 73
7
 74
0
 42
0.0000001
 43
0.0000001
 44
0.0000000001
 40
0.0
 40
0.0
 40
0.0
 40
0.0
 40
0.2497052839
 40
0.505047183
 40
0.7577197025
 40
1.0
 40
1.0
 40
1.0
 40
1.0
 10
14.224076872
 20
242.4531135134
 30
0.0
 10
11.954234969
 20
240.626930984
 30
0.0
 10
7.7894407809
 20
236.3775588432
 30
0.0
 10
3.0484783212
 20
228.8419467785
 30
0.0
 10
0.013979962
 20
220.5629218343
 30
0.0
 10
-0.7337767362
 20
214.7722872594
 30
0.0
 10
-0.7337767362
 20
211.9456462042
 30
0.0
  0
SPLINE
  5
2F7
100
AcDbEntity
  8
0
100
AcDbSpline
 62
7
  6
CONTINUOUS
 70
0
 71
3
 72
13
 73
9
 74
0
 42
0.0000001
 43
0.0000001
 44
0.0000000001
 40
0.0
 40
0.0
 40
0.0
 40
0.0
 40
0.2438453498
 40
0.3706233202
 40
0.4988838895
 40
0.6272963665
 40
0.7545196736
 40
1.0
 40
1.0
 40
1.0
 40
1.0
 10
-7.9651810847
 20
210.0072273692
 30
0.0
 10
-7.9651810847
 20
214.076754022
 30
0.0
 10
-7.057991466
 20
220.2916047851
 30
0.0
 10
-4.3594502499
 20
228.1800184109
 30
0.0
 10
-1.5661676822
 20
233.9563742843
 30
0.0
 10
1.9014399529
 20
239.363591796
 30
0.0
 10
7.2353064485
 20
245.8198765538
 30
0.0
 10
12.0755661043
 20
249.8735241728
 30
0.0
 10
15.5576975525
 20
252.0319113138
 30
0.0
  0
SPLINE
  5
2F8
100
AcDbEntity
  8
0
100
AcDbSpline
 62
7
  6
CONTINUOUS
 70
0
 71
3
 72
11
 73
7
 74
0
 42
0.0000001
 43
0.0000001
 44
0.0000000001
 40
0.0
 40
0.0
 40
0.0
 40
0.0
 40
0.2343782637
 40
0.4782977078
 40
0.7333924434
 40
1.0
 40
1.0
 40
1.0
 40
1.0
 10
-1.057969888
 20
189.128614422
 30
0.0
 10
-2.1849951793
 20
190.4690080557
 30
0.0
 10
-4.2046704395
 20
193.450935123
 30
0.0
 10
-6.3726360523
 20
198.5150657294
 30
0.0
 10
-7.6856599986
 20
204.1095255082
 30
0.0
 10
-7.9651810847
 20
208.0151749624
 30
0.0
 10
-7.9651810847
 20
210.0072273692
 30
0.0
  0
SPLINE
  5
2F9
100
AcDbEntity
  8
0
100
AcDbSpline
 62
7
  6
CONTINUOUS
 70
0
 71
3
 72
12
 73
8
 74
0
 42
0.0000001
 43
0.0000001
 44
0.0000000001
 40
0.0
 40
0.0
 40
0.0
 40
0.0
 40
0.2496129985
 40
0.3797352206
 40
0.5105246444
 40
0.7650066244
 40
1.0
 40
1.0
 40
1.0
 40
1.0
 10
-27.872161014
 20
265.6436837713
 30
0.0
 10
-27.872161014
 20
265.0203155669
 30
0.0
 10
-28.0457595352
 20
264.0657444271
 30
0.0
 10
-28.5478283393
 20
262.8908505635
 30
0.0
 10
-29.2249073611
 20
261.7910517326
 30
0.0
 10
-30.3201946757
 20
260.6621495312
 30
0.0
 10
-31.4375462758
 20
260.0912896368
 30
0.0
 10
-32.0043925614
 20
259.9393433822
 30
0.0
  0
SPLINE
  5
2FA
100
AcDbEntity
  8
0
100
AcDbSpline
 62
7
  6
CONTINUOUS
 70
0
 71
3
 72
13
 73
9
 74
0
 42
0.0000001
 43
0.0000001
 44
0.0000000001
 40
0.0
 40
0.0
 40
0.0
 40
0.0
 40
0.2494166047
 40
0.3794382448
 40
0.5101271402
 40
0.6393652584
 40
0.765191617
 40
1.0
 40
1.0
 40
1.0
 40
1.0
 10
-37.3762935724
 20
263.096048931
 30
0.0
 10
-37.3762935724
 20
264.0310943052
 30
0.0
 10
-37.1158974344
 20
265.4630607276
 30
0.0
 10
-36.3628159089
 20
267.2250948571
 30
0.0
 10
-35.5937618866
 20
268.4751920645
 30
0.0
 10
-34.6563493802
 20
269.5846490918
 30
0.0
 10
-33.2673953782
 20
270.7913144741
 30
0.0
 10
-32.028209009
 20
271.4246419207
 30
0.0
 10
-31.1779462517
 20
271.6525595146
 30
0.0
  0
SPLINE
  5
2FB
100
AcDbEntity
  8
0
100
AcDbSpline
 62
7
  6
CONTINUOUS
 70
0
 71
3
 72
10
 73
6
 74
0
 42
0.0000001
 43
0.0000001
 44
0.0000000001
 40
0.0
 40
0.0
 40
0.0
 40
0.0
 40
0.5252520963
 40
0.7668039053
 40
1.0
 40
1.0
 40
1.0
 40
1.0
 10
-30.5994338351
 20
264.9126233389
 30
0.0
 10
-30.5994338351
 20
265.1364286451
 30
0.0
 10
-30.664966166
 20
265.4732634249
 30
0.0
 10
-30.9076554414
 20
265.8291833957
 30
0.0
 10
-31.0681176859
 20
265.9583771295
 30
0.0
 10
-31.1541467072
 20
266.0080960914
 30
0.0
  0
SPLINE
  5
2FC
100
AcDbEntity
  8
0
100
AcDbSpline
 62
7
  6
CONTINUOUS
 70
0
 71
3
 72
9
 73
5
 74
0
 42
0.0000001
 43
0.0000001
 44
0.0000000001
 40
0.0
 40
0.0
 40
0.0
 40
0.0
 40
0.2549881867
 40
1.0
 40
1.0
 40
1.0
 40
1.0
 10
5.4574866755
 20
248.8431837716
 30
0.0
 10
5.5493160227
 20
249.2511914207
 30
0.0
 10
5.8675534045
 20
250.8602845667
 30
0.0
 10
6.0146855112
 20
252.504411675
 30
0.0
 10
6.0146855112
 20
253.7263282826
 30
0.0
  0
ENDSEC
  0
SECTION
  2
OBJECTS
  0
DICTIONARY
  5
C
100
AcDbDictionary
280
0
281
1
  3
ACAD_GROUP
350
D
  3
ACAD_MLINESTYLE
350
17
  3
ACAD_LAYOUT
350
1A
  3
ACAD_PLOTSETTINGS
350
19
  3
ACAD_PLOTSTYLENAME
350
E
  0
DICTIONARY
  5
D
102
{ACAD_REACTORS
330
C
102
}
100
AcDbDictionary
280
0
281
1
  0
ACDBDICTIONARYWDFLT
  5
E
102
{ACAD_REACTORS
330
C
102
}
100
AcDbDictionary
281
1
  3
Normal
350
F
100
AcDbDictionaryWithDefault
340
F
  0
DICTIONARY
  5
17
102
{ACAD_REACTORS
330
C
102
}
100
AcDbDictionary
280
0
281
1
  3
Standard
350
18
  0
DICTIONARY
  5
19
102
{ACAD_REACTORS
330
C
102
}
100
AcDbDictionary
281
1
  0
DICTIONARY
  5
1A
102
{ACAD_REACTORS
330
C
102
}
100
AcDbDictionary
281
1
  3
Model
350
2FD
  3
Layout1
350
2FE
  0
ACDBPLACEHOLDER
  5
F
102
{ACAD_REACTORS
330
E
102
}
  0
MLINESTYLE
  5
18
102
{ACAD_REACTORS
330
17
102
}
100
AcDbMlineStyle
  2
STANDARD
 70
0
  3

 62
256
 51
90.0
 52
90.0
 71
2
 49
0.5
 62
256
  6
BYLAYER
 49
-0.5
 62
256
  6
BYLAYER
  0
LAYOUT
  5
2FD
102
{ACAD_REACTORS
330
1A
102
}
100
AcDbPlotSettings
  1

  2
none_device
  4
ANSI_C_(22.00_x_17.00_Inches)
  6

 40
0.0
 41
0.0
 42
0.0
 43
0.0
 44
558.8
 45
431.8
 46
0.0
 47
0.0
 48
0.0
 49
0.0
140
0.0
141
0.0
142
1.0
143
1.0
 70
1024
 72
1
 73
0
 74
0
  7

 75
0
147
1.0
148
0.0
149
0.0
100
AcDbLayout
  1
Model
 70
0
 71
0
 10
0.0
 20
0.0
 11
558.8
 21
431.8
 12
0.0
 22
0.0
 32
0.0
 14
0.0
 24
0.0
 34
0.0
 15
0.0
 25
0.0
 35
0.0
146
0.0
 13
0.0
 23
0.0
 33
0.0
 16
1.0
 26
0.0
 36
0.0
 17
0.0
 27
1.0
 37
0.0
 76
0
330
216
345
0
346
0
  0
LAYOUT
  5
2FE
102
{ACAD_REACTORS
330
1A
102
}
100
AcDbPlotSettings
  1

  2
none_device
  4
ANSI_C_(22.00_x_17.00_Inches)
  6

 40
0.0
 41
0.0
 42
0.0
 43
0.0
 44
558.8
 45
431.8
 46
0.0
 47
0.0
 48
0.0
 49
0.0
140
0.0
141
0.0
142
1.0
143
1.0
 70
0
 72
1
 73
0
 74
0
  7

 75
0
147
1.0
148
0.0
149
0.0
100
AcDbLayout
  1
Layout1
 70
0
 71
1
 10
0.0
 20
0.0
 11
558.8
 21
431.8
 12
0.0
 22
0.0
 32
0.0
 14
0.0
 24
0.0
 34
0.0
 15
0.0
 25
0.0
 35
0.0
146
0.0
 13
0.0
 23
0.0
 33
0.0
 16
1.0
 26
0.0
 36
0.0
 17
0.0
 27
1.0
 37
0.0
 76
0
330
217
345
0
346
0
  0
ENDSEC
  0
EOF
