999
DXF file: Y:\3D PRATIKA-KAEDRA_OLGA\TRAVAIL_PHASE_5\CAD3D\PKF32G434_3D-Simplified\PKF32G434_2D-isometric.dxf
999
Pro/ENGINEER 2018260 by Parametric Technology Corporation
  0
SECTION
  2
HEADER
  9
$ACADVER
  1
AC1027
  9
$DWGCODEPAGE
  3
ANSI_1252
  9
$EXTMAX
 10
558.8
 20
431.8
 30
0.0
  9
$EXTMIN
 10
0.0
 20
0.0
 30
0.0
  9
$LIMMIN
 10
0.0
 20
0.0
  9
$LIMMAX
 10
558.8
 20
431.8
  9
$VIEWCTR
 10
279.4
 20
215.9
  9
$VIEWSIZE
 40
431.8
  9
$CLAYER
  8
0
  9
$LTSCALE
 40
30.734
  9
$CELTYPE
  6
BYLAYER
  9
$DIMSCALE
 40
1.0
  9
$DIMASZ
 40
0.1875
  9
$DIMEXO
 40
0.0625
  9
$DIMDLI
 40
21.2344
  9
$DIMEXE
 40
0.125
  9
$DIMCEN
 40
5.0292
  9
$DIMLFAC
 40
1.0
  9
$DIMBLK
  1
_CLOSED
  9
$DIMALT
 70
0
  9
$DIMALTF
 40
0.0393700787
  9
$DIMTXT
 40
0.15625
  9
$DIMTOL
 70
0
  9
$DIMLIM
 70
0
  9
$DIMTFAC
 40
1.0
  9
$DIMGAP
 40
0.625
  9
$DIMDSEP
 70
46
  9
$AUNITS
 70
0
  9
$PDMODE
 70
3
  9
$PDSIZE
 40
0.3125
  9
$HANDSEED
  5
301
  9
$TILEMODE
 70
1
  9
$MEASUREMENT
 70
1
  9
$INSUNITS
 70
4
  0
ENDSEC
  0
SECTION
  2
CLASSES
  0
CLASS
  1
ACDBDICTIONARYWDFLT
  2
AcDbDictionaryWithDefault
  3
AutoCAD 2000
 90
0
 91
1
280
0
281
0
  0
CLASS
  1
ACDBPLACEHOLDER
  2
AcDbPlaceHolder
  3
AutoCAD 2000
 90
0
 91
1
280
0
281
0
  0
CLASS
  1
LAYOUT
  2
AcDbLayout
  3
AutoCAD 2000
 90
0
 91
0
280
0
281
0
  0
ENDSEC
  0
SECTION
  2
TABLES
  0
TABLE
  2
VPORT
  5
8
100
AcDbSymbolTable
 70
2
  0
VPORT
  5
1F4
100
AcDbSymbolTableRecord
100
AcDbViewportTableRecord
  2
*ACTIVE
 70
0
 10
0.0
 20
0.0
 11
1.0
 21
1.0
 12
279.4
 22
215.9
 13
0.0
 23
0.0
 14
1.0
 24
1.0
 15
0.0
 25
0.0
 16
0.0
 26
0.0
 36
1.0
 17
0.0
 27
0.0
 37
0.0
 40
431.8
 41
1.2941176471
 42
50.0
 43
0.0
 44
0.0
 50
0.0
 51
0.0
 71
0
 72
100
 73
1
 74
1
 75
0
 76
0
 77
0
 78
0
  0
ENDTAB
  0
TABLE
  2
LTYPE
  5
5
100
AcDbSymbolTable
 70
6
  0
LTYPE
  5
14
100
AcDbSymbolTableRecord
100
AcDbLinetypeTableRecord
  2
BYBLOCK
 70
0
  3

 72
65
 73
0
 40
0.0
  0
LTYPE
  5
15
100
AcDbSymbolTableRecord
100
AcDbLinetypeTableRecord
  2
BYLAYER
 70
0
  3

 72
65
 73
0
 40
0.0
  0
LTYPE
  5
16
100
AcDbSymbolTableRecord
100
AcDbLinetypeTableRecord
  2
CONTINUOUS
 70
64
  3
Solid line
 72
65
 73
0
 40
0.0
  0
LTYPE
  5
1F5
100
AcDbSymbolTableRecord
100
AcDbLinetypeTableRecord
  2
CENTER
 70
64
  3
____ _ ____ _ ____ _ ____ _ ____ _ ____ _ ____
 72
65
 73
4
 40
0.6
 49
0.375
 74
0
 49
-0.075
 74
0
 49
0.075
 74
0
 49
-0.075
 74
0
  0
LTYPE
  5
1F6
100
AcDbSymbolTableRecord
100
AcDbLinetypeTableRecord
  2
HIDDEN
 70
64
  3
- - - - - - - - - - - - - - - - - - - -
 72
65
 73
2
 40
0.2
 49
0.1
 74
0
 49
-0.1
 74
0
  0
LTYPE
  5
1F7
100
AcDbSymbolTableRecord
100
AcDbLinetypeTableRecord
  2
PHANTOM
 70
64
  3
_____ _ _ _____ _ _ _____ _ _ _____
 72
65
 73
6
 40
0.8
 49
0.45
 74
0
 49
-0.05
 74
0
 49
0.1
 74
0
 49
-0.05
 74
0
 49
0.1
 74
0
 49
-0.05
 74
0
  0
LTYPE
  5
1F8
100
AcDbSymbolTableRecord
100
AcDbLinetypeTableRecord
  2
DOT
 70
64
  3
. . . . . . . . . . . . . . . . . . . .
 72
65
 73
2
 40
0.2
 49
0.1
 74
0
 49
-0.1
 74
0
  0
LTYPE
  5
1F9
100
AcDbSymbolTableRecord
100
AcDbLinetypeTableRecord
  2
DASHED
 70
64
  3
- - - - - - - - - - - - - - - - - - - -
 72
65
 73
2
 40
0.2
 49
0.1
 74
0
 49
-0.1
 74
0
  0
ENDTAB
  0
TABLE
  2
LAYER
  5
2
100
AcDbSymbolTable
 70
36
  0
LAYER
  5
10
100
AcDbSymbolTableRecord
100
AcDbLayerTableRecord
  2
0
 70
0
 62
7
  6
CONTINUOUS
370
-3
390
F
  0
LAYER
  5
1FA
100
AcDbSymbolTableRecord
100
AcDbLayerTableRecord
  2
DEFAULT_1
 70
0
 62
7
  6
CENTER
370
-3
390
F
  0
LAYER
  5
1FB
100
AcDbSymbolTableRecord
100
AcDbLayerTableRecord
  2
DEFAULT_2
 70
0
 62
8
  6
HIDDEN
370
-3
390
F
  0
LAYER
  5
1FC
100
AcDbSymbolTableRecord
100
AcDbLayerTableRecord
  2
DEFAULT_3
 70
0
 62
7
  6
PHANTOM
370
-3
390
F
  0
LAYER
  5
1FD
100
AcDbSymbolTableRecord
100
AcDbLayerTableRecord
  2
01_ALL_DTM_PLN
 70
0
 62
7
  6
CONTINUOUS
370
-3
390
F
  0
LAYER
  5
1FE
100
AcDbSymbolTableRecord
100
AcDbLayerTableRecord
  2
01__ASM_ALL_DTM_PLN
 70
0
 62
7
  6
CONTINUOUS
370
-3
390
F
  0
LAYER
  5
1FF
100
AcDbSymbolTableRecord
100
AcDbLayerTableRecord
  2
01__ASM_DEF_DTM_PLN
 70
0
 62
7
  6
CONTINUOUS
370
-3
390
F
  0
LAYER
  5
200
100
AcDbSymbolTableRecord
100
AcDbLayerTableRecord
  2
01___PRT_ALL_DTM_PLN
 70
0
 62
7
  6
CONTINUOUS
370
-3
390
F
  0
LAYER
  5
201
100
AcDbSymbolTableRecord
100
AcDbLayerTableRecord
  2
01___PRT_DEF_DTM_PLN
 70
0
 62
7
  6
CONTINUOUS
370
-3
390
F
  0
LAYER
  5
202
100
AcDbSymbolTableRecord
100
AcDbLayerTableRecord
  2
02_ALL_AXES
 70
0
 62
7
  6
CONTINUOUS
370
-3
390
F
  0
LAYER
  5
203
100
AcDbSymbolTableRecord
100
AcDbLayerTableRecord
  2
02__ASM_ALL_AXES
 70
0
 62
7
  6
CONTINUOUS
370
-3
390
F
  0
LAYER
  5
204
100
AcDbSymbolTableRecord
100
AcDbLayerTableRecord
  2
02___PRT_ALL_AXES
 70
0
 62
7
  6
CONTINUOUS
370
-3
390
F
  0
LAYER
  5
205
100
AcDbSymbolTableRecord
100
AcDbLayerTableRecord
  2
03_ALL_CURVES
 70
0
 62
7
  6
CONTINUOUS
370
-3
390
F
  0
LAYER
  5
206
100
AcDbSymbolTableRecord
100
AcDbLayerTableRecord
  2
03__ASM_ALL_CURVES
 70
0
 62
7
  6
CONTINUOUS
370
-3
390
F
  0
LAYER
  5
207
100
AcDbSymbolTableRecord
100
AcDbLayerTableRecord
  2
03___PRT_ALL_CURVES
 70
0
 62
7
  6
CONTINUOUS
370
-3
390
F
  0
LAYER
  5
208
100
AcDbSymbolTableRecord
100
AcDbLayerTableRecord
  2
04_ALL_DTM_PNT
 70
0
 62
7
  6
CONTINUOUS
370
-3
390
F
  0
LAYER
  5
209
100
AcDbSymbolTableRecord
100
AcDbLayerTableRecord
  2
04__ASM_ALL_DTM_PNT
 70
0
 62
7
  6
CONTINUOUS
370
-3
390
F
  0
LAYER
  5
20A
100
AcDbSymbolTableRecord
100
AcDbLayerTableRecord
  2
04___PRT_ALL_DTM_PNT
 70
0
 62
7
  6
CONTINUOUS
370
-3
390
F
  0
LAYER
  5
20B
100
AcDbSymbolTableRecord
100
AcDbLayerTableRecord
  2
05_ALL_DTM_CSYS
 70
0
 62
7
  6
CONTINUOUS
370
-3
390
F
  0
LAYER
  5
20C
100
AcDbSymbolTableRecord
100
AcDbLayerTableRecord
  2
05__ASM_ALL_DTM_CSYS
 70
0
 62
7
  6
CONTINUOUS
370
-3
390
F
  0
LAYER
  5
20D
100
AcDbSymbolTableRecord
100
AcDbLayerTableRecord
  2
05__ASM_DEF_DTM_CSYS
 70
0
 62
7
  6
CONTINUOUS
370
-3
390
F
  0
LAYER
  5
20E
100
AcDbSymbolTableRecord
100
AcDbLayerTableRecord
  2
05___PRT_ALL_DTM_CSYS
 70
0
 62
7
  6
CONTINUOUS
370
-3
390
F
  0
LAYER
  5
20F
100
AcDbSymbolTableRecord
100
AcDbLayerTableRecord
  2
05___PRT_DEF_DTM_CSYS
 70
0
 62
7
  6
CONTINUOUS
370
-3
390
F
  0
LAYER
  5
210
100
AcDbSymbolTableRecord
100
AcDbLayerTableRecord
  2
06_ALL_SURFS
 70
0
 62
7
  6
CONTINUOUS
370
-3
390
F
  0
LAYER
  5
211
100
AcDbSymbolTableRecord
100
AcDbLayerTableRecord
  2
06__ASM_ALL_SURFS
 70
0
 62
7
  6
CONTINUOUS
370
-3
390
F
  0
LAYER
  5
212
100
AcDbSymbolTableRecord
100
AcDbLayerTableRecord
  2
06___PRT_ALL_SURFS
 70
0
 62
7
  6
CONTINUOUS
370
-3
390
F
  0
LAYER
  5
213
100
AcDbSymbolTableRecord
100
AcDbLayerTableRecord
  2
07__ASM_ALL_SKELETONS
 70
0
 62
7
  6
CONTINUOUS
370
-3
390
F
  0
ENDTAB
  0
TABLE
  2
STYLE
  5
3
100
AcDbSymbolTable
 70
1
  0
STYLE
  5
11
100
AcDbSymbolTableRecord
100
AcDbTextStyleTableRecord
  2
STANDARD
 70
0
 40
0.0
 41
0.8
 50
0.0
 71
0
 42
0.2
  3
txt
  4

  0
STYLE
  5
214
100
AcDbSymbolTableRecord
100
AcDbTextStyleTableRecord
  2
TEXTSTYLE_1
 70
0
 40
0.0
 41
0.8
 50
0.0
 71
0
 42
0.2
  3
gdt
  4

  0
ENDTAB
  0
TABLE
  2
VIEW
  5
6
100
AcDbSymbolTable
 70
0
  0
ENDTAB
  0
TABLE
  2
UCS
  5
7
100
AcDbSymbolTable
 70
0
  0
ENDTAB
  0
TABLE
  2
APPID
  5
9
100
AcDbSymbolTable
 70
1
  0
APPID
  5
215
100
AcDbSymbolTableRecord
100
AcDbRegAppTableRecord
  2
ACAD
 70
0
  0
ENDTAB
  0
TABLE
  2
BLOCK_RECORD
  5
1
100
AcDbSymbolTable
 70
0
  0
BLOCK_RECORD
  5
216
100
AcDbSymbolTableRecord
100
AcDbBlockTableRecord
  2
*Model_Space
  0
BLOCK_RECORD
  5
217
100
AcDbSymbolTableRecord
100
AcDbBlockTableRecord
  2
*Paper_Space
  0
BLOCK_RECORD
  5
218
100
AcDbSymbolTableRecord
100
AcDbBlockTableRecord
  2
_CLOSED
  0
ENDTAB
  0
TABLE
  2
DIMSTYLE
  5
A
100
AcDbSymbolTable
 70
1
100
AcDbDimStyleTable
 71
0
  0
DIMSTYLE
105
219
100
AcDbSymbolTableRecord
100
AcDbDimStyleTableRecord
  2
STANDARD
 70
0
  3

  4

 40
1.0
 41
0.1875
 42
0.0625
 43
0.38
 44
0.125
 45
0.0
 46
0.0
 47
0.01
 48
0.01
140
0.15625
141
0.09
142
0.0
143
25.4
144
1.0
145
0.0
146
1.0
147
0.625
 71
0.0
 72
0.0
 73
1
 74
1
 75
0
 76
0
 77
0
 78
8
 79
2
170
0
171
1
172
0
173
0
174
0
175
0
176
0
177
0
178
0
270
2
179
2
271
2
272
2
273
2
274
2
275
0
280
0
281
0
282
0
283
1
284
8
285
0
286
0
287
3
288
0
340
11
278
46
341
218
342
218
343
218
344
218
  0
ENDTAB
  0
ENDSEC
  0
SECTION
  2
BLOCKS
  0
BLOCK
  5
20
100
AcDbEntity
  8
0
100
AcDbBlockBegin
  2
*Model_Space
 70
0
 10
0.0
 20
0.0
 30
0.0
  3
*Model_Space
  1

  0
ENDBLK
  5
21
100
AcDbEntity
  8
0
100
AcDbBlockEnd
  0
BLOCK
  5
1C
100
AcDbEntity
  8
0
100
AcDbBlockBegin
  2
*Paper_Space
 70
0
 10
0.0
 20
0.0
 30
0.0
  3
*Paper_Space
  1

  0
ENDBLK
  5
1D
100
AcDbEntity
  8
0
100
AcDbBlockEnd
  0
BLOCK
  5
21A
100
AcDbEntity
  8
0
100
AcDbBlockBegin
  2
_CLOSED
 70
64
 10
0.0
 20
0.0
  3
_CLOSED
  1

  0
LINE
  5
21B
100
AcDbEntity
  8
0
  6
BYBLOCK
 62
0
100
AcDbLine
 10
0.0
 20
0.0
 11
-1.0
 21
0.1666666667
  0
LINE
  5
21C
100
AcDbEntity
  8
0
  6
BYBLOCK
 62
0
100
AcDbLine
 10
-1.0
 20
0.1666666667
 11
-1.0
 21
-0.1666666667
  0
LINE
  5
21D
100
AcDbEntity
  8
0
  6
BYBLOCK
 62
0
100
AcDbLine
 10
-1.0
 20
-0.1666666667
 11
0.0
 21
0.0
  0
LINE
  5
21E
100
AcDbEntity
  8
0
  6
BYBLOCK
 62
0
100
AcDbLine
 10
-1.0
 20
0.0
 11
0.0
 21
0.0
  0
ENDBLK
  5
21F
100
AcDbEntity
  8
0
  6
BYBLOCK
 62
0
100
AcDbBlockEnd
  0
ENDSEC
  0
SECTION
  2
ENTITIES
  0
LINE
  5
220
100
AcDbEntity
  8
0
100
AcDbLine
 62
7
  6
CONTINUOUS
 10
-27.1102823358
 20
180.0952977034
 11
11.3194378071
 21
190.3965948855
  0
LINE
  5
221
100
AcDbEntity
  8
0
100
AcDbLine
 62
7
  6
CONTINUOUS
 10
-31.2605908826
 20
179.696944825
 11
-27.9548056449
 21
180.5830786825
  0
LINE
  5
222
100
AcDbEntity
  8
0
100
AcDbLine
 62
7
  6
CONTINUOUS
 10
-1.1406093907
 20
189.106488757
 11
8.8406283503
 21
191.7820142574
  0
LINE
  5
223
100
AcDbEntity
  8
0
100
AcDbLine
 62
7
  6
CONTINUOUS
 10
-37.8267944775
 20
181.7233506619
 11
-35.0117167804
 21
180.0974140648
  0
LINE
  5
224
100
AcDbEntity
  8
0
100
AcDbLine
 62
7
  6
CONTINUOUS
 10
-36.6144148942
 20
189.0393455309
 11
-31.242513884
 21
190.4793130491
  0
LINE
  5
225
100
AcDbEntity
  8
0
100
AcDbLine
 62
7
  6
CONTINUOUS
 10
-40.2740159004
 20
186.5563900399
 11
-37.4589382033
 21
184.9304534429
  0
LINE
  5
226
100
AcDbEntity
  8
0
100
AcDbLine
 62
7
  6
CONTINUOUS
 10
-27.1102823358
 20
180.0952977034
 11
-27.9548056449
 21
180.5830786825
  0
LINE
  5
227
100
AcDbEntity
  8
0
100
AcDbLine
 62
7
  6
CONTINUOUS
 10
-36.6144148942
 20
189.0393455309
 11
-37.4589382033
 21
189.52712651
  0
LINE
  5
228
100
AcDbEntity
  8
0
100
AcDbLine
 62
7
  6
CONTINUOUS
 10
-27.1102823358
 20
186.9903073041
 11
-27.9548056449
 21
187.4780882832
  0
LINE
  5
229
100
AcDbEntity
  8
0
100
AcDbLine
 62
7
  6
CONTINUOUS
 10
-40.2740159004
 20
186.5563900399
 11
-40.2740159004
 21
264.6998321816
  0
LINE
  5
22A
100
AcDbEntity
  8
0
100
AcDbLine
 62
7
  6
CONTINUOUS
 10
-37.4589382033
 20
263.0738955845
 11
-37.4589382033
 21
258.4772225174
  0
LINE
  5
22B
100
AcDbEntity
  8
0
100
AcDbLine
 62
7
  6
CONTINUOUS
 10
-37.4589382033
 20
189.52712651
 11
-37.4589382033
 21
184.9304534429
  0
LINE
  5
22C
100
AcDbEntity
  8
0
100
AcDbLine
 62
7
  6
CONTINUOUS
 10
-36.6144148942
 20
257.9894415382
 11
-36.6144148942
 21
189.0393455309
  0
LINE
  5
22D
100
AcDbEntity
  8
0
100
AcDbLine
 62
7
  6
CONTINUOUS
 10
-3.5059970566
 20
190.4727564377
 11
-1.1406093907
 21
189.106488757
  0
LINE
  5
22E
100
AcDbEntity
  8
0
100
AcDbLine
 62
7
  6
CONTINUOUS
 10
-27.9548056449
 20
180.5830786825
 11
-27.9548056449
 21
187.4780882832
  0
LINE
  5
22F
100
AcDbEntity
  8
0
100
AcDbLine
 62
7
  6
CONTINUOUS
 10
-27.9548056449
 20
265.6215304249
 11
-27.9548056449
 21
272.5165400256
  0
LINE
  5
230
100
AcDbEntity
  8
0
100
AcDbLine
 62
7
  6
CONTINUOUS
 10
-27.1102823358
 20
272.0287590465
 11
-27.1102823358
 21
265.1337494458
  0
LINE
  5
231
100
AcDbEntity
  8
0
100
AcDbLine
 62
7
  6
CONTINUOUS
 10
-27.1102823358
 20
180.0952977034
 11
-27.1102823358
 21
186.9903073041
  0
LINE
  5
232
100
AcDbEntity
  8
0
100
AcDbLine
 62
7
  6
CONTINUOUS
 10
52.4002869088
 20
248.9186270048
 11
42.4503332704
 21
246.2514873796
  0
LINE
  5
233
100
AcDbEntity
  8
0
100
AcDbLine
 62
7
  6
CONTINUOUS
 10
25.6298605345
 20
181.5496782206
 11
22.073701763
 21
183.6028190749
  0
LINE
  5
234
100
AcDbEntity
  8
0
100
AcDbLine
 62
7
  6
CONTINUOUS
 10
-15.4291348003
 20
205.7733605586
 11
-9.5846467381
 21
202.397692796
  0
LINE
  5
235
100
AcDbEntity
  8
0
100
AcDbLine
 62
7
  6
CONTINUOUS
 10
8.8291866608
 20
191.7622046012
 11
10.751087783
 21
190.652150206
  0
LINE
  5
236
100
AcDbEntity
  8
0
100
AcDbLine
 62
7
  6
CONTINUOUS
 10
14.6532533854
 20
189.0048437114
 11
23.7549908951
 21
183.7478491606
  0
LINE
  5
237
100
AcDbEntity
  8
0
100
AcDbLine
 62
7
  6
CONTINUOUS
 10
20.8366161336
 20
188.1691040115
 11
21.7972137568
 21
187.6142806643
  0
LINE
  5
238
100
AcDbEntity
  8
0
100
AcDbLine
 62
7
  6
CONTINUOUS
 10
4.2878546412
 20
201.9644368923
 11
23.8633295303
 21
190.6580061464
  0
LINE
  5
239
100
AcDbEntity
  8
0
100
AcDbLine
 62
7
  6
CONTINUOUS
 10
61.161827027
 20
252.3892112318
 11
56.6163723252
 21
251.1707771777
  0
LINE
  5
23A
100
AcDbEntity
  8
0
100
AcDbLine
 62
7
  6
CONTINUOUS
 10
50.0346974539
 20
250.2849154688
 11
40.0848232737
 21
247.6177620222
  0
LINE
  5
23B
100
AcDbEntity
  8
0
100
AcDbLine
 62
7
  6
CONTINUOUS
 10
3.2665559086
 20
204.9565427799
 11
29.6484536963
 21
189.7188485747
  0
LINE
  5
23C
100
AcDbEntity
  8
0
100
AcDbLine
 62
7
  6
CONTINUOUS
 10
15.2524677757
 20
198.4456487019
 11
3.1677902506
 21
205.4255340073
  0
LINE
  5
23D
100
AcDbEntity
  8
0
100
AcDbLine
 62
7
  6
CONTINUOUS
 10
29.6484536963
 20
192.2087403971
 11
21.9307620238
 21
196.6663357764
  0
LINE
  5
23E
100
AcDbEntity
  8
0
100
AcDbLine
 62
7
  6
CONTINUOUS
 10
-12.6474719208
 20
265.5423611167
 11
-12.6474719208
 21
264.4353564768
  0
LINE
  5
23F
100
AcDbEntity
  8
0
100
AcDbLine
 62
7
  6
CONTINUOUS
 10
5.7456345847
 20
280.4885190173
 11
6.19364604
 21
282.8968483932
  0
LINE
  5
240
100
AcDbEntity
  8
0
100
AcDbLine
 62
7
  6
CONTINUOUS
 10
-36.6144148942
 20
257.9894415382
 11
-37.4589382033
 21
258.4772225174
  0
LINE
  5
241
100
AcDbEntity
  8
0
100
AcDbLine
 62
7
  6
CONTINUOUS
 10
5.9320408802
 20
259.8163012398
 11
5.9320408803
 21
253.7041749362
  0
LINE
  5
242
100
AcDbEntity
  8
0
100
AcDbLine
 62
7
  6
CONTINUOUS
 10
9.0312145408
 20
254.9729761746
 11
9.0312145407
 21
257.9490628436
  0
LINE
  5
243
100
AcDbEntity
  8
0
100
AcDbLine
 62
7
  6
CONTINUOUS
 10
-36.6144148942
 20
257.9894415382
 11
-31.2425138839
 21
259.4294090565
  0
LINE
  5
244
100
AcDbEntity
  8
0
100
AcDbLine
 62
7
  6
CONTINUOUS
 10
-37.4589382033
 20
258.4772225174
 11
-32.0870371924
 21
259.9171900358
  0
LINE
  5
245
100
AcDbEntity
  8
0
100
AcDbLine
 62
7
  6
CONTINUOUS
 10
1.0514088654
 20
271.8900083661
 11
-6.7175356865
 21
269.8075001843
  0
LINE
  5
246
100
AcDbEntity
  8
0
100
AcDbLine
 62
7
  6
CONTINUOUS
 10
-17.7332953576
 20
249.8041919056
 11
-1.7557419941
 21
240.5758538133
  0
LINE
  5
247
100
AcDbEntity
  8
0
100
AcDbLine
 62
7
  6
CONTINUOUS
 10
-31.2425138837
 20
259.4294090565
 11
-32.0870371924
 21
259.9171900358
  0
LINE
  5
248
100
AcDbEntity
  8
0
100
AcDbLine
 62
7
  6
CONTINUOUS
 10
-37.4589382033
 20
263.0738955845
 11
-40.2740159004
 21
264.6998321816
  0
LINE
  5
249
100
AcDbEntity
  8
0
100
AcDbLine
 62
7
  6
CONTINUOUS
 10
15.475016144
 20
249.3681400215
 11
15.475016144
 21
252.0097508678
  0
LINE
  5
24A
100
AcDbEntity
  8
0
100
AcDbLine
 62
7
  6
CONTINUOUS
 10
-27.1102823358
 20
272.0287590465
 11
5.8136611774
 21
280.8542026166
  0
LINE
  5
24B
100
AcDbEntity
  8
0
100
AcDbLine
 62
7
  6
CONTINUOUS
 10
-27.9548056449
 20
272.5165400256
 11
-31.2605908826
 21
271.6304061681
  0
LINE
  5
24C
100
AcDbEntity
  8
0
100
AcDbLine
 62
7
  6
CONTINUOUS
 10
31.1164608046
 20
289.3984236612
 11
29.9335006887
 21
289.0813213879
  0
LINE
  5
24D
100
AcDbEntity
  8
0
100
AcDbLine
 62
7
  6
CONTINUOUS
 10
11.2817493784
 20
284.081620516
 11
12.4650944883
 21
284.3988232613
  0
LINE
  5
24E
100
AcDbEntity
  8
0
100
AcDbLine
 62
7
  6
CONTINUOUS
 10
-34.0756685797
 20
273.2563427652
 11
6.6898051763
 21
284.1837515095
  0
LINE
  5
24F
100
AcDbEntity
  8
0
100
AcDbLine
 62
7
  6
CONTINUOUS
 10
28.2397749873
 20
290.2508604074
 11
8.4050635611
 21
284.9340572622
  0
LINE
  5
250
100
AcDbEntity
  8
0
100
AcDbLine
 62
7
  6
CONTINUOUS
 10
27.4560729757
 20
290.2636545313
 11
7.6213615495
 21
284.9468513862
  0
LINE
  5
251
100
AcDbEntity
  8
0
100
AcDbLine
 62
7
  6
CONTINUOUS
 10
-27.9548056449
 20
265.6215304249
 11
-27.1102823358
 21
265.1337494458
  0
LINE
  5
252
100
AcDbEntity
  8
0
100
AcDbLine
 62
7
  6
CONTINUOUS
 10
-34.0756685797
 20
273.2563427652
 11
-31.2605908826
 21
271.6304061681
  0
LINE
  5
253
100
AcDbEntity
  8
0
100
AcDbLine
 62
7
  6
CONTINUOUS
 10
-27.1102823358
 20
272.0287590465
 11
-27.9548056449
 21
272.5165400256
  0
LINE
  5
254
100
AcDbEntity
  8
0
100
AcDbLine
 62
7
  6
CONTINUOUS
 10
-12.6474719208
 20
264.4353564768
 11
5.9320408803
 21
253.7041749362
  0
LINE
  5
255
100
AcDbEntity
  8
0
100
AcDbLine
 62
7
  6
CONTINUOUS
 10
21.7972137568
 20
188.1360331267
 11
21.7972137568
 21
187.6142806643
  0
LINE
  5
256
100
AcDbEntity
  8
0
100
AcDbLine
 62
7
  6
CONTINUOUS
 10
23.8633295303
 20
188.1681143246
 11
23.8633295303
 21
190.6580061464
  0
LINE
  5
257
100
AcDbEntity
  8
0
100
AcDbLine
 62
7
  6
CONTINUOUS
 10
25.6298605345
 20
183.2743127181
 11
25.6298605345
 21
181.5496782206
  0
LINE
  5
258
100
AcDbEntity
  8
0
100
AcDbLine
 62
7
  6
CONTINUOUS
 10
29.6484536963
 20
192.2087403971
 11
29.6484536963
 21
189.7188485747
  0
LINE
  5
259
100
AcDbEntity
  8
0
100
AcDbLine
 62
7
  6
CONTINUOUS
 10
22.073701763
 20
183.6028190749
 11
22.0957893795
 21
184.7061731418
  0
LINE
  5
25A
100
AcDbEntity
  8
0
100
AcDbLine
 62
7
  6
CONTINUOUS
 10
30.9477011515
 20
289.2054920824
 11
30.8876741862
 21
289.198479768
  0
LINE
  5
25B
100
AcDbEntity
  8
0
100
AcDbLine
 62
7
  6
CONTINUOUS
 10
38.259315451
 20
238.2787294563
 11
26.1521587887
 21
245.2715982939
  0
LINE
  5
25C
100
AcDbEntity
  8
0
100
AcDbLine
 62
7
  6
CONTINUOUS
 10
35.1599856614
 20
250.4622567643
 11
42.7606954437
 21
246.0722279523
  0
LINE
  5
25D
100
AcDbEntity
  8
0
100
AcDbLine
 62
7
  6
CONTINUOUS
 10
15.475016144
 20
252.0097508678
 11
11.9533694912
 21
254.0442062282
  0
LINE
  5
25E
100
AcDbEntity
  8
0
100
AcDbLine
 62
7
  6
CONTINUOUS
 10
31.7145694699
 20
190.272682237
 11
31.7145694699
 21
190.7944346992
  0
LINE
  5
25F
100
AcDbEntity
  8
0
100
AcDbLine
 62
7
  6
CONTINUOUS
 10
37.7657529542
 20
248.9572139696
 11
37.7657529542
 21
251.6264071691
  0
LINE
  5
260
100
AcDbEntity
  8
0
100
AcDbLine
 62
7
  6
CONTINUOUS
 10
50.0345666516
 20
250.2848075522
 11
52.4002869088
 21
248.9186270048
  0
LINE
  5
261
100
AcDbEntity
  8
0
100
AcDbLine
 62
7
  6
CONTINUOUS
 10
8.4050635612
 20
284.9340572622
 11
11.2817493784
 21
284.081620516
  0
LINE
  5
262
100
AcDbEntity
  8
0
100
AcDbLine
 62
7
  6
CONTINUOUS
 10
56.6163723251
 20
251.1707771777
 11
55.4903412463
 21
251.8211518165
  0
LINE
  5
263
100
AcDbEntity
  8
0
100
AcDbLine
 62
7
  6
CONTINUOUS
 10
53.5749736224
 20
257.0351877382
 11
56.218033709
 21
255.5086183053
  0
LINE
  5
264
100
AcDbEntity
  8
0
100
AcDbLine
 62
7
  6
CONTINUOUS
 10
11.5329049935
 20
283.9365635751
 11
11.2817493784
 21
284.081620516
  0
LINE
  5
265
100
AcDbEntity
  8
0
100
AcDbLine
 62
7
  6
CONTINUOUS
 10
56.218033709
 20
255.5086183053
 11
56.218033709
 21
256.9380653777
  0
LINE
  5
266
100
AcDbEntity
  8
0
100
AcDbLine
 62
7
  6
CONTINUOUS
 10
56.6163723252
 20
251.1707771777
 11
56.6163725248
 21
252.6447758542
  0
LINE
  5
267
100
AcDbEntity
  8
0
100
AcDbLine
 62
7
  6
CONTINUOUS
 10
31.1164608046
 20
289.3984236612
 11
28.2397749874
 21
290.2508604074
  0
LINE
  5
268
100
AcDbEntity
  8
0
100
AcDbLine
 62
7
  6
CONTINUOUS
 10
61.161827027
 20
252.3892112318
 11
61.1618270499
 21
253.4781040688
  0
LINE
  5
269
100
AcDbEntity
  8
0
100
AcDbLine
 62
7
  6
CONTINUOUS
 10
31.1164608046
 20
289.3984236612
 11
31.3676068926
 21
289.2533634726
  0
LINE
  5
26A
100
AcDbEntity
  8
0
100
AcDbLine
 62
7
  6
CONTINUOUS
 10
31.658930525
 20
289.470883354
 11
31.8213975417
 21
289.3770454224
  0
LINE
  5
26B
100
AcDbEntity
  8
0
100
AcDbLine
 62
7
  6
CONTINUOUS
 10
55.4903412463
 20
251.8211518165
 11
55.3922643754
 21
252.4754773456
  0
LINE
  5
26C
100
AcDbEntity
  8
0
100
AcDbLine
 62
7
  6
CONTINUOUS
 10
76.0527451352
 20
262.2548685229
 11
76.0527451352
 21
260.8254214505
  0
ARC
  5
26D
100
AcDbEntity
  8
0
100
AcDbCircle
 62
7
  6
CONTINUOUS
 10
-40.8210549052
 20
131.1871871455
 40
175.60814969
100
AcDbArc
 50
48.276429736
 51
50.0664978405
  0
ARC
  5
26E
100
AcDbEntity
  8
0
100
AcDbCircle
 62
7
  6
CONTINUOUS
 10
-59.4325479227
 20
127.286068904
 40
173.7374375929
100
AcDbArc
 50
48.2667919464
 51
50.0761361348
  0
ARC
  5
26F
100
AcDbEntity
  8
0
100
AcDbCircle
 62
7
  6
CONTINUOUS
 10
43.0950500013
 20
340.6546499523
 40
89.0426541897
100
AcDbArc
 50
276.9519925115
 51
279.8543153757
  0
ARC
  5
270
100
AcDbEntity
  8
0
100
AcDbCircle
 62
7
  6
CONTINUOUS
 10
41.0452582765
 20
202.4982055178
 40
87.2932664532
100
AcDbArc
 50
96.3651044113
 51
96.5181880391
  0
ARC
  5
271
100
AcDbEntity
  8
0
100
AcDbCircle
 62
7
  6
CONTINUOUS
 10
41.00291844
 20
202.8690207241
 40
86.9200418852
100
AcDbArc
 50
96.5182066806
 51
96.6430515819
  0
ARC
  5
272
100
AcDbEntity
  8
0
100
AcDbCircle
 62
7
  6
CONTINUOUS
 10
40.8730777921
 20
203.9659118401
 40
85.8154934773
100
AcDbArc
 50
96.682015351
 51
97.3240998505
  0
ARC
  5
273
100
AcDbEntity
  8
0
100
AcDbCircle
 62
7
  6
CONTINUOUS
 10
40.3378958174
 20
207.982804582
 40
81.7631775867
100
AcDbArc
 50
97.3106932191
 51
99.1874972023
  0
ARC
  5
274
100
AcDbEntity
  8
0
100
AcDbCircle
 62
7
  6
CONTINUOUS
 10
10.8033554578
 20
251.8277037044
 40
43.0874640138
100
AcDbArc
 50
6.9416755401
 51
7.6822905639
  0
ARC
  5
275
100
AcDbEntity
  8
0
100
AcDbCircle
 62
7
  6
CONTINUOUS
 10
26.426318186
 20
255.0736687951
 40
32.4789231904
100
AcDbArc
 50
115.4583509481
 51
117.2939840682
  0
ARC
  5
276
100
AcDbEntity
  8
0
100
AcDbCircle
 62
7
  6
CONTINUOUS
 10
24.9926940057
 20
257.8660151412
 40
29.3401116603
100
AcDbArc
 50
117.3066172819
 51
118.6221865414
  0
ARC
  5
277
100
AcDbEntity
  8
0
100
AcDbCircle
 62
7
  6
CONTINUOUS
 10
28.2363729866
 20
267.6726320328
 40
27.5192472921
100
AcDbArc
 50
165.996252655
 51
179.9973811688
  0
ARC
  5
278
100
AcDbEntity
  8
0
100
AcDbCircle
 62
7
  6
CONTINUOUS
 10
55.1978880818
 20
267.6726332085
 40
27.5192376701
100
AcDbArc
 50
0.0026163883
 51
14.0037498308
  0
ARC
  5
279
100
AcDbEntity
  8
0
100
AcDbCircle
 62
7
  6
CONTINUOUS
 10
-16.1479453382
 20
254.5569944493
 40
25.1829259789
100
AcDbArc
 50
353.7990969693
 51
359.9762623974
  0
ARC
  5
27A
100
AcDbEntity
  8
0
100
AcDbCircle
 62
7
  6
CONTINUOUS
 10
-15.0909058238
 20
254.5469809989
 40
24.1258843069
100
AcDbArc
 50
359.9990029867
 51
1.0118207529
  0
ARC
  5
27B
100
AcDbEntity
  8
0
100
AcDbCircle
 62
7
  6
CONTINUOUS
 10
25.862868933
 20
234.3594471861
 40
18.5940025803
100
AcDbArc
 50
59.9995856093
 51
72.5677188436
  0
ARC
  5
27C
100
AcDbEntity
  8
0
100
AcDbCircle
 62
7
  6
CONTINUOUS
 10
20.0287633154
 20
206.7091909137
 40
18.5446273474
100
AcDbArc
 50
233.1502479768
 51
239.9808989341
  0
ARC
  5
27D
100
AcDbEntity
  8
0
100
AcDbCircle
 62
7
  6
CONTINUOUS
 10
29.4853999896
 20
285.7052780002
 40
4.3478543614
100
AcDbArc
 50
60.0061935537
 51
66.2362043244
  0
ARC
  5
27E
100
AcDbEntity
  8
0
100
AcDbCircle
 62
7
  6
CONTINUOUS
 10
-31.1027799605
 20
188.1107865094
 40
3.0021691145
100
AcDbArc
 50
41.5917396084
 51
50.7512790888
  0
ARC
  5
27F
100
AcDbEntity
  8
0
100
AcDbCircle
 62
7
  6
CONTINUOUS
 10
3.2122201247
 20
261.4231579701
 40
0.5474994856
100
AcDbArc
 50
272.4289136333
 51
284.9307052384
  0
SPLINE
  5
280
100
AcDbEntity
  8
0
100
AcDbSpline
 62
7
  6
CONTINUOUS
 70
0
 71
3
 72
15
 73
11
 74
0
 42
0.0000001
 43
0.0000001
 44
0.0000000001
 40
0.0
 40
0.0
 40
0.0
 40
0.0
 40
0.0988152974
 40
0.2133898098
 40
0.3411620053
 40
0.47766701
 40
0.6174307369
 40
0.7546206946
 40
0.8836826053
 40
1.0
 40
1.0
 40
1.0
 40
1.0
 10
2.8354554134
 20
260.9872684021
 30
0.0
 10
2.7378503823
 20
261.0436432554
 30
0.0
 10
2.5459842022
 20
261.1983083444
 30
0.0
 10
2.2983358434
 20
261.5007262962
 30
0.0
 10
2.0800677789
 20
261.8755550831
 30
0.0
 10
1.9033070084
 20
262.302523122
 30
0.0
 10
1.7776014646
 20
262.758293101
 30
0.0
 10
1.7099661606
 20
263.2177599851
 30
0.0
 10
1.7040157799
 20
263.6553910415
 30
0.0
 10
1.7438815873
 20
263.9342621327
 30
0.0
 10
1.7765488984
 20
264.0628577577
 30
0.0
  0
SPLINE
  5
281
100
AcDbEntity
  8
0
100
AcDbSpline
 62
7
  6
CONTINUOUS
 70
0
 71
3
 72
10
 73
6
 74
0
 42
0.0000001
 43
0.0000001
 44
0.0000000001
 40
0.0
 40
0.0
 40
0.0
 40
0.0
 40
0.2307026303
 40
0.4700767339
 40
1.0
 40
1.0
 40
1.0
 40
1.0
 10
3.3532818739
 20
260.8941491399
 30
0.0
 10
3.313302125
 20
260.8834245957
 30
0.0
 10
3.2289479273
 20
260.8711351614
 30
0.0
 10
3.0489446303
 20
260.8856357178
 30
0.0
 10
2.9177888975
 20
260.9397141108
 30
0.0
 10
2.8354554134
 20
260.9872684021
 30
0.0
  0
SPLINE
  5
282
100
AcDbEntity
  8
0
100
AcDbSpline
 62
7
  6
CONTINUOUS
 70
0
 71
3
 72
11
 73
7
 74
0
 42
0.0000001
 43
0.0000001
 44
0.0000000001
 40
0.0
 40
0.0
 40
0.0
 40
0.0
 40
0.2754425525
 40
0.5361770052
 40
0.778666023
 40
1.0
 40
1.0
 40
1.0
 40
1.0
 10
56.218033709
 20
255.5086183053
 30
0.0
 10
58.0930532057
 20
255.7597576117
 30
0.0
 10
61.730219279
 20
256.3521559253
 30
0.0
 10
66.9475758516
 20
257.544856576
 30
0.0
 10
71.7111546031
 20
258.9996868815
 30
0.0
 10
74.6740630114
 20
260.1850586988
 30
0.0
 10
76.0527451352
 20
260.8254214505
 30
0.0
  0
SPLINE
  5
283
100
AcDbEntity
  8
0
100
AcDbSpline
 62
7
  6
CONTINUOUS
 70
0
 71
3
 72
9
 73
5
 74
0
 42
0.0000001
 43
0.0000001
 44
0.0000000001
 40
0.0
 40
0.0
 40
0.0
 40
0.0
 40
0.5132620111
 40
1.0
 40
1.0
 40
1.0
 40
1.0
 10
28.2397749874
 20
290.2508604074
 30
0.0
 10
28.1092588967
 20
290.2865175436
 30
0.0
 10
27.845809982
 20
290.327943787
 30
0.0
 10
27.5800026627
 20
290.2968842813
 30
0.0
 10
27.456072637
 20
290.2636560134
 30
0.0
  0
SPLINE
  5
284
100
AcDbEntity
  8
0
100
AcDbSpline
 62
7
  6
CONTINUOUS
 70
0
 71
3
 72
9
 73
5
 74
0
 42
0.0000001
 43
0.0000001
 44
0.0000000001
 40
0.0
 40
0.0
 40
0.0
 40
0.0
 40
0.520257747
 40
1.0
 40
1.0
 40
1.0
 40
1.0
 10
27.2958392927
 20
288.8068328217
 30
0.0
 10
25.1971394703
 20
288.4752768716
 30
0.0
 10
21.1856965991
 20
287.6823861638
 30
0.0
 10
17.2601828007
 20
286.5257228326
 30
0.0
 10
15.4168277382
 20
285.8618290307
 30
0.0
  0
SPLINE
  5
285
100
AcDbEntity
  8
0
100
AcDbSpline
 62
7
  6
CONTINUOUS
 70
0
 71
3
 72
12
 73
8
 74
0
 42
0.0000001
 43
0.0000001
 44
0.0000000001
 40
0.0
 40
0.0
 40
0.0
 40
0.0
 40
0.2816735293
 40
0.5373322833
 40
0.773613292
 40
0.8872411664
 40
1.0
 40
1.0
 40
1.0
 40
1.0
 10
10.8103013684
 20
283.8969955427
 30
0.0
 10
9.6610671191
 20
283.3159389601
 30
0.0
 10
7.5266231821
 20
282.082537357
 30
0.0
 10
4.7552099987
 20
279.8591595595
 30
0.0
 10
2.9778369233
 20
277.6973803429
 30
0.0
 10
1.9942141468
 20
275.8172660792
 30
0.0
 10
1.6596249757
 20
274.8321076073
 30
0.0
 10
1.5349985852
 20
274.3318794712
 30
0.0
  0
SPLINE
  5
286
100
AcDbEntity
  8
0
100
AcDbSpline
 62
7
  6
CONTINUOUS
 70
0
 71
3
 72
19
 73
15
 74
0
 42
0.0000001
 43
0.0000001
 44
0.0000000001
 40
0.0
 40
0.0
 40
0.0
 40
0.0
 40
0.0419864224
 40
0.0850468045
 40
0.1303183436
 40
0.1786034047
 40
0.2305931385
 40
0.2866053674
 40
0.3466813674
 40
0.4106477609
 40
0.5486713303
 40
0.6965584975
 40
0.8489419152
 40
1.0
 40
1.0
 40
1.0
 40
1.0
 10
81.8991822887
 20
274.3321627203
 30
0.0
 10
81.7102544213
 20
275.0903827024
 30
0.0
 10
81.1290060033
 20
276.5819762372
 30
0.0
 10
79.764748071
 20
278.6051955472
 30
0.0
 10
77.9837835667
 20
280.4353124203
 30
0.0
 10
75.8283445798
 20
282.0879664303
 30
0.0
 10
73.3281555153
 20
283.5843662883
 30
0.0
 10
70.5009594396
 20
284.931907965
 30
0.0
 10
67.3689468063
 20
286.131724743
 30
0.0
 10
62.7037695975
 20
287.5646346692
 30
0.0
 10
56.3180799094
 20
288.9086686264
 30
0.0
 10
48.2004802009
 20
289.8118078988
 30
0.0
 10
39.7931818826
 20
290.0069134555
 30
0.0
 10
34.1482101025
 20
289.6535099328
 30
0.0
 10
31.3535759114
 20
289.3476598803
 30
0.0
  0
LINE
  5
287
100
AcDbEntity
  8
0
100
AcDbLine
 62
7
  6
CONTINUOUS
 10
31.3535759114
 20
289.3476598803
 11
31.2348890783
 21
289.3345904511
  0
SPLINE
  5
288
100
AcDbEntity
  8
0
100
AcDbSpline
 62
7
  6
CONTINUOUS
 70
0
 71
3
 72
17
 73
13
 74
0
 42
0.0000001
 43
0.0000001
 44
0.0000000001
 40
0.0
 40
0.0
 40
0.0
 40
0.0
 40
0.1757676597
 40
0.3392781217
 40
0.4882099908
 40
0.6208956257
 40
0.7366014509
 40
0.7882846025
 40
0.8361282992
 40
0.9219208372
 40
0.9614930776
 40
1.0
 40
1.0
 40
1.0
 40
1.0
 10
58.3341278671
 20
252.9257221636
 30
0.0
 10
60.0832084948
 20
253.2308371788
 30
0.0
 10
63.4421654301
 20
253.9272237685
 30
0.0
 10
68.1889699493
 20
255.2824737069
 30
0.0
 10
72.3962619037
 20
256.8887717023
 30
0.0
 10
75.9803024603
 20
258.7139639737
 30
0.0
 10
78.4817551033
 20
260.4515335308
 30
0.0
 10
80.0750929424
 20
261.937085497
 30
0.0
 10
81.2992932317
 20
263.3553378662
 30
0.0
 10
82.1959303528
 20
264.8929982229
 30
0.0
 10
82.6436139829
 20
266.4943474992
 30
0.0
 10
82.7171089714
 20
267.2849173232
 30
0.0
 10
82.7171183294
 20
267.6738899131
 30
0.0
  0
SPLINE
  5
289
100
AcDbEntity
  8
0
100
AcDbSpline
 62
7
  6
CONTINUOUS
 70
0
 71
3
 72
20
 73
16
 74
0
 42
0.0000001
 43
0.0000001
 44
0.0000000001
 40
0.0
 40
0.0
 40
0.0
 40
0.0
 40
0.0321729393
 40
0.0665998375
 40
0.1050349794
 40
0.1485701427
 40
0.1977289049
 40
0.2526168426
 40
0.3130415264
 40
0.3785942701
 40
0.4487049339
 40
0.5226811807
 40
0.6789750513
 40
0.8405547583
 40
1.0
 40
1.0
 40
1.0
 40
1.0
 10
0.7171384371
 20
267.6738897775
 30
0.0
 10
0.7171474001
 20
267.0393104369
 30
0.0
 10
0.9209406277
 20
265.7187796608
 30
0.0
 10
1.8054806193
 20
263.8214653264
 30
0.0
 10
3.2332307393
 20
262.0034156141
 30
0.0
 10
5.1743496251
 20
260.2785064107
 30
0.0
 10
7.6024965953
 20
258.6599153155
 30
0.0
 10
10.487421067
 20
257.1649679028
 30
0.0
 10
13.7925002699
 20
255.8118572339
 30
0.0
 10
17.4746293346
 20
254.6183364508
 30
0.0
 10
21.4849970685
 20
253.6003472489
 30
0.0
 10
27.3046598113
 20
252.4757138766
 30
0.0
 10
34.9994867853
 20
251.6143159166
 30
0.0
 10
44.423787388
 20
251.4328093648
 30
0.0
 10
50.7508669435
 20
251.8853342182
 30
0.0
 10
53.8725642801
 20
252.2666448209
 30
0.0
  0
SPLINE
  5
28A
100
AcDbEntity
  8
0
100
AcDbSpline
 62
7
  6
CONTINUOUS
 70
0
 71
3
 72
11
 73
7
 74
0
 42
0.0000001
 43
0.0000001
 44
0.0000000001
 40
0.0
 40
0.0
 40
0.0
 40
0.0
 40
0.3018048983
 40
0.5648054422
 40
0.7930857525
 40
1.0
 40
1.0
 40
1.0
 40
1.0
 10
6.19364604
 20
282.8968483932
 30
0.0
 10
6.2423335265
 20
283.1561374379
 30
0.0
 10
6.3697853658
 20
283.6362066072
 30
0.0
 10
6.681725418
 20
284.2621984885
 30
0.0
 10
7.0973070068
 20
284.7225432944
 30
0.0
 10
7.4466592329
 20
284.9000115625
 30
0.0
 10
7.6213612109
 20
284.9468528677
 30
0.0
  0
SPLINE
  5
28B
100
AcDbEntity
  8
0
100
AcDbSpline
 62
7
  6
CONTINUOUS
 70
0
 71
3
 72
24
 73
20
 74
0
 42
0.0000001
 43
0.0000001
 44
0.0000000001
 40
0.0
 40
0.0
 40
0.0
 40
0.0
 40
0.0139529202
 40
0.0213080124
 40
0.0358746556
 40
0.0551812863
 40
0.0775798307
 40
0.1020643572
 40
0.1280789161
 40
0.1552886739
 40
0.1834749128
 40
0.2422114201
 40
0.303498877
 40
0.366868873
 40
0.4320171692
 40
0.5668542016
 40
0.7068852849
 40
0.8514224568
 40
1.0
 40
1.0
 40
1.0
 40
1.0
 10
12.4647531264
 20
284.3987317343
 30
0.0
 10
12.4489504842
 20
284.4010281112
 30
0.0
 10
12.422835453
 20
284.4044737828
 30
0.0
 10
12.396424006
 20
284.4420099018
 30
0.0
 10
12.426174323
 20
284.4893013829
 30
0.0
 10
12.4700109922
 20
284.5322298487
 30
0.0
 10
12.5303196613
 20
284.5799933715
 30
0.0
 10
12.5987518569
 20
284.6271813837
 30
0.0
 10
12.6739906769
 20
284.6748152645
 30
0.0
 10
12.7541325488
 20
284.7223005741
 30
0.0
 10
12.8679723788
 20
284.7863852555
 30
0.0
 10
13.0179811563
 20
284.8656119507
 30
0.0
 10
13.2059575052
 20
284.9590164539
 30
0.0
 10
13.4023338486
 20
285.0519049124
 30
0.0
 10
13.6768078851
 20
285.1764532705
 30
0.0
 10
14.0343898819
 20
285.3300580751
 30
0.0
 10
14.4792793783
 20
285.5103165746
 30
0.0
 10
14.9419162448
 20
285.6884364761
 30
0.0
 10
15.2567790233
 20
285.8042089192
 30
0.0
 10
15.4167639803
 20
285.8618196605
 30
0.0
  0
SPLINE
  5
28C
100
AcDbEntity
  8
0
100
AcDbSpline
 62
7
  6
CONTINUOUS
 70
0
 71
3
 72
9
 73
5
 74
0
 42
0.0000001
 43
0.0000001
 44
0.0000000001
 40
0.0
 40
0.0
 40
0.0
 40
0.0
 40
0.4751810316
 40
1.0
 40
1.0
 40
1.0
 40
1.0
 10
76.0527451352
 20
262.2548685229
 30
0.0
 10
74.5051488356
 20
261.5360494364
 30
0.0
 10
71.1554814203
 20
260.2208530748
 30
0.0
 10
67.7025767465
 20
259.2189246434
 30
0.0
 10
65.8743634643
 20
258.7612182381
 30
0.0
  0
SPLINE
  5
28D
100
AcDbEntity
  8
0
100
AcDbSpline
 62
7
  6
CONTINUOUS
 70
0
 71
3
 72
9
 73
5
 74
0
 42
0.0000001
 43
0.0000001
 44
0.0000000001
 40
0.0
 40
0.0
 40
0.0
 40
0.0
 40
0.2409317612
 40
1.0
 40
1.0
 40
1.0
 40
1.0
 10
65.8743634643
 20
258.7612182381
 30
0.0
 10
65.1085557539
 20
258.5694927444
 30
0.0
 10
61.9175791812
 20
257.823799718
 30
0.0
 10
58.68320128
 20
257.2682488639
 30
0.0
 10
56.218033709
 20
256.9380653777
 30
0.0
  0
SPLINE
  5
28E
100
AcDbEntity
  8
0
100
AcDbSpline
 62
7
  6
CONTINUOUS
 70
0
 71
3
 72
15
 73
11
 74
0
 42
0.0000001
 43
0.0000001
 44
0.0000000001
 40
0.0
 40
0.0
 40
0.0
 40
0.0
 40
0.0965787181
 40
0.2054137914
 40
0.3249581583
 40
0.4531213488
 40
0.5874515365
 40
0.7252593369
 40
0.8637193355
 40
1.0
 40
1.0
 40
1.0
 40
1.0
 10
10.357865104
 20
266.4831722523
 30
0.0
 10
11.5484960902
 20
265.7954859067
 30
0.0
 10
14.1931191784
 20
264.5252783834
 30
0.0
 10
18.5624301362
 20
262.9856614718
 30
0.0
 10
23.4859069218
 20
261.7269125223
 30
0.0
 10
28.8463989307
 20
260.7803628732
 30
0.0
 10
34.5164942768
 20
260.169096691
 30
0.0
 10
40.3599837981
 20
259.908430152
 30
0.0
 10
46.2359486481
 20
260.0047025411
 30
0.0
 10
50.1385468579
 20
260.309850986
 30
0.0
 10
52.0667701191
 20
260.524949733
 30
0.0
  0
SPLINE
  5
28F
100
AcDbEntity
  8
0
100
AcDbSpline
 62
7
  6
CONTINUOUS
 70
0
 71
3
 72
10
 73
6
 74
0
 42
0.0000001
 43
0.0000001
 44
0.0000000001
 40
0.0
 40
0.0
 40
0.0
 40
0.0
 40
0.5373775197
 40
0.7844933136
 40
1.0
 40
1.0
 40
1.0
 40
1.0
 10
53.5040907776
 20
257.5876306387
 30
0.0
 10
53.4244448143
 20
258.1782064226
 30
0.0
 10
53.1659340794
 20
259.0303077699
 30
0.0
 10
52.5969492507
 20
259.9858790563
 30
0.0
 10
52.2500615733
 20
260.3715905561
 30
0.0
 10
52.0667714763
 20
260.5249483459
 30
0.0
  0
SPLINE
  5
290
100
AcDbEntity
  8
0
100
AcDbSpline
 62
7
  6
CONTINUOUS
 70
0
 71
3
 72
15
 73
11
 74
0
 42
0.0000001
 43
0.0000001
 44
0.0000000001
 40
0.0
 40
0.0
 40
0.0
 40
0.0
 40
0.0965634521
 40
0.2055465671
 40
0.3253375041
 40
0.4537656997
 40
0.5882838321
 40
0.7261106237
 40
0.8643231587
 40
1.0
 40
1.0
 40
1.0
 40
1.0
 10
8.3494549965
 20
263.8376306652
 30
0.0
 10
9.6378461726
 20
263.0934738864
 30
0.0
 10
12.5041068703
 20
261.7217460087
 30
0.0
 10
17.2425766578
 20
260.0649832157
 30
0.0
 10
22.5856525644
 20
258.7178064886
 30
0.0
 10
28.4020126339
 20
257.7149605008
 30
0.0
 10
34.548980905
 20
257.0811051612
 30
0.0
 10
40.8742056332
 20
256.8332960885
 30
0.0
 10
47.2201589704
 20
256.9774219572
 30
0.0
 10
51.4283347475
 20
257.3384138432
 30
0.0
 10
53.5039389438
 20
257.5876978088
 30
0.0
  0
SPLINE
  5
291
100
AcDbEntity
  8
0
100
AcDbSpline
 62
7
  6
CONTINUOUS
 70
0
 71
3
 72
17
 73
13
 74
0
 42
0.0000001
 43
0.0000001
 44
0.0000000001
 40
0.0
 40
0.0
 40
0.0
 40
0.0
 40
0.1472347172
 40
0.2738236567
 40
0.3841283235
 40
0.4357453227
 40
0.4865805104
 40
0.5380173919
 40
0.5913803202
 40
0.7079939383
 40
0.8432098508
 40
1.0
 40
1.0
 40
1.0
 40
1.0
 10
74.3319902938
 20
267.2586767104
 30
0.0
 10
75.1841669142
 20
267.8226118137
 30
0.0
 10
76.7030230757
 20
268.9820846217
 30
0.0
 10
78.4837655656
 20
270.9944653615
 30
0.0
 10
79.3792350992
 20
272.8251149467
 30
0.0
 10
79.6626719814
 20
274.2817814228
 30
0.0
 10
79.6757683246
 20
275.3557063017
 30
0.0
 10
79.4926429597
 20
276.4260486792
 30
0.0
 10
78.9761899796
 20
277.8804966062
 30
0.0
 10
77.7955372072
 20
279.6754022369
 30
0.0
 10
75.7168094053
 20
281.6287062943
 30
0.0
 10
74.0186953181
 20
282.7509555723
 30
0.0
 10
73.0763863431
 20
283.295215736
 30
0.0
  0
SPLINE
  5
292
100
AcDbEntity
  8
0
100
AcDbSpline
 62
7
  6
CONTINUOUS
 70
0
 71
3
 72
9
 73
5
 74
0
 42
0.0000001
 43
0.0000001
 44
0.0000000001
 40
0.0
 40
0.0
 40
0.0
 40
0.0
 40
0.2600618676
 40
1.0
 40
1.0
 40
1.0
 40
1.0
 10
71.9014810555
 20
265.8417527318
 30
0.0
 10
72.118222809
 20
265.9537059622
 30
0.0
 10
72.9464214947
 20
266.3941401826
 30
0.0
 10
73.7531649055
 20
266.8756341023
 30
0.0
 10
74.3319902938
 20
267.2586767104
 30
0.0
  0
SPLINE
  5
293
100
AcDbEntity
  8
0
100
AcDbSpline
 62
7
  6
CONTINUOUS
 70
0
 71
3
 72
9
 73
5
 74
0
 42
0.0000001
 43
0.0000001
 44
0.0000000001
 40
0.0
 40
0.0
 40
0.0
 40
0.0
 40
0.2414583185
 40
1.0
 40
1.0
 40
1.0
 40
1.0
 10
12.4648577897
 20
284.3987594663
 30
0.0
 10
12.701632905
 20
284.5115246055
 30
0.0
 10
13.6876707484
 20
284.9670994578
 30
0.0
 10
14.6938463398
 20
285.3786436254
 30
0.0
 10
15.4647392658
 20
285.6693335628
 30
0.0
  0
SPLINE
  5
294
100
AcDbEntity
  8
0
100
AcDbSpline
 62
7
  6
CONTINUOUS
 70
0
 71
3
 72
9
 73
5
 74
0
 42
0.0000001
 43
0.0000001
 44
0.0000000001
 40
0.0
 40
0.0
 40
0.0
 40
0.0
 40
0.4758330352
 40
1.0
 40
1.0
 40
1.0
 40
1.0
 10
15.4647392658
 20
285.6693335628
 30
0.0
 10
17.2775543086
 20
286.352913699
 30
0.0
 10
21.180742042
 20
287.5449506938
 30
0.0
 10
25.1763122936
 20
288.3560953797
 30
0.0
 10
27.283114623
 20
288.6970529961
 30
0.0
  0
SPLINE
  5
295
100
AcDbEntity
  8
0
100
AcDbSpline
 62
7
  6
CONTINUOUS
 70
0
 71
3
 72
19
 73
15
 74
0
 42
0.0000001
 43
0.0000001
 44
0.0000000001
 40
0.0
 40
0.0
 40
0.0
 40
0.0
 40
0.1523494269
 40
0.2200062144
 40
0.2823392195
 40
0.3933521999
 40
0.4443900859
 40
0.4941436189
 40
0.5441713669
 40
0.5960009814
 40
0.7098320163
 40
0.7739642422
 40
0.8435622221
 40
1.0
 40
1.0
 40
1.0
 40
1.0
 10
10.3578699532
 20
266.4831413037
 30
0.0
 10
9.3479918227
 20
267.0664281568
 30
0.0
 10
7.9375748737
 20
268.0054822333
 30
0.0
 10
6.3319251081
 20
269.458641135
 30
0.0
 10
5.1107202741
 20
270.8435921396
 30
0.0
 10
4.2263154909
 20
272.354788162
 30
0.0
 10
3.8128169698
 20
273.931658875
 30
0.0
 10
3.7381918433
 20
275.091226918
 30
0.0
 10
3.8923299282
 20
276.2489028761
 30
0.0
 10
4.4149746919
 20
277.8239850224
 30
0.0
 10
5.3997132071
 20
279.318804342
 30
0.0
 10
6.7115849722
 20
280.6881895542
 30
0.0
 10
8.4129596946
 20
282.1223781027
 30
0.0
 10
9.8867052938
 20
283.0469743268
 30
0.0
 10
10.9378474519
 20
283.6206931743
 30
0.0
  0
SPLINE
  5
296
100
AcDbEntity
  8
0
100
AcDbSpline
 62
7
  6
CONTINUOUS
 70
0
 71
3
 72
15
 73
11
 74
0
 42
0.0000001
 43
0.0000001
 44
0.0000000001
 40
0.0
 40
0.0
 40
0.0
 40
0.0
 40
0.1362802687
 40
0.2747404041
 40
0.4125482449
 40
0.5468784883
 40
0.6750417178
 40
0.7945861229
 40
0.9034212361
 40
1.0
 40
1.0
 40
1.0
 40
1.0
 10
31.3675570897
 20
289.2533849603
 30
0.0
 10
33.2957712052
 20
289.4684825153
 30
0.0
 10
37.198355546
 20
289.7736691614
 30
0.0
 10
43.0743077875
 20
289.8699169092
 30
0.0
 10
48.9177894414
 20
289.6092559481
 30
0.0
 10
54.5878760254
 20
288.9979863887
 30
0.0
 10
59.9483597231
 20
288.0514373157
 30
0.0
 10
64.8718287057
 20
286.7926889137
 30
0.0
 10
69.2411329725
 20
285.2530735295
 30
0.0
 10
71.8857521443
 20
283.9828675881
 30
0.0
 10
73.0763814939
 20
283.2951821877
 30
0.0
  0
SPLINE
  5
297
100
AcDbEntity
  8
0
100
AcDbSpline
 62
7
  6
CONTINUOUS
 70
0
 71
3
 72
11
 73
7
 74
0
 42
0.0000001
 43
0.0000001
 44
0.0000000001
 40
0.0
 40
0.0
 40
0.0
 40
0.0
 40
0.2346478694
 40
0.4706804781
 40
0.7221108044
 40
1.0
 40
1.0
 40
1.0
 40
1.0
 10
1.535012363
 20
274.3318191232
 30
0.0
 10
1.3961879845
 20
273.7746339482
 30
0.0
 10
1.262682211
 20
272.6133936486
 30
0.0
 10
1.5605387128
 20
270.8498504454
 30
0.0
 10
2.3424675858
 20
269.1287518071
 30
0.0
 10
3.1236872769
 20
268.0840459255
 30
0.0
 10
3.5734651498
 20
267.573996503
 30
0.0
  0
SPLINE
  5
298
100
AcDbEntity
  8
0
100
AcDbSpline
 62
7
  6
CONTINUOUS
 70
0
 71
3
 72
9
 73
5
 74
0
 42
0.0000001
 43
0.0000001
 44
0.0000000001
 40
0.0
 40
0.0
 40
0.0
 40
0.0
 40
0.4657460935
 40
1.0
 40
1.0
 40
1.0
 40
1.0
 10
3.5734651498
 20
267.573996503
 30
0.0
 10
4.1981068657
 20
266.8656509714
 30
0.0
 10
5.7101217681
 20
265.4942413266
 30
0.0
 10
7.41135244
 20
264.3794656215
 30
0.0
 10
8.3494549965
 20
263.8376306652
 30
0.0
  0
SPLINE
  5
299
100
AcDbEntity
  8
0
100
AcDbSpline
 62
7
  6
CONTINUOUS
 70
0
 71
3
 72
9
 73
5
 74
0
 42
0.0000001
 43
0.0000001
 44
0.0000000001
 40
0.0
 40
0.0
 40
0.0
 40
0.0
 40
0.5367767892
 40
1.0
 40
1.0
 40
1.0
 40
1.0
 10
74.6071609487
 20
263.5679584299
 30
0.0
 10
75.6468101338
 20
264.1425632683
 30
0.0
 10
77.5246014457
 20
265.3271516754
 30
0.0
 10
79.1889008191
 20
266.8112822676
 30
0.0
 10
79.8663961889
 20
267.5805877684
 30
0.0
  0
SPLINE
  5
29A
100
AcDbEntity
  8
0
100
AcDbSpline
 62
7
  6
CONTINUOUS
 70
0
 71
3
 72
11
 73
7
 74
0
 42
0.0000001
 43
0.0000001
 44
0.0000000001
 40
0.0
 40
0.0
 40
0.0
 40
0.0
 40
0.2778146533
 40
0.5292241561
 40
0.7652935318
 40
1.0
 40
1.0
 40
1.0
 40
1.0
 10
79.8663961889
 20
267.5805877684
 30
0.0
 10
80.3152022535
 20
268.0902133536
 30
0.0
 10
81.0946704047
 20
269.1340659484
 30
0.0
 10
81.874633432
 20
270.8535036628
 30
0.0
 10
82.1714085693
 20
272.6153019375
 30
0.0
 10
82.0379049969
 20
273.7753975917
 30
0.0
 10
81.8992006661
 20
274.3320830167
 30
0.0
  0
SPLINE
  5
29B
100
AcDbEntity
  8
0
100
AcDbSpline
 62
7
  6
CONTINUOUS
 70
0
 71
3
 72
9
 73
5
 74
0
 42
0.0000001
 43
0.0000001
 44
0.0000000001
 40
0.0
 40
0.0
 40
0.0
 40
0.0
 40
0.4852931626
 40
1.0
 40
1.0
 40
1.0
 40
1.0
 10
10.810304898
 20
283.8970176369
 30
0.0
 10
10.9168840619
 20
283.9508333397
 30
0.0
 10
11.1631121687
 20
284.0154005767
 30
0.0
 10
11.412168701
 20
283.9750222027
 30
0.0
 10
11.5328295136
 20
283.9365955363
 30
0.0
  0
SPLINE
  5
29C
100
AcDbEntity
  8
0
100
AcDbSpline
 62
7
  6
CONTINUOUS
 70
0
 71
3
 72
19
 73
15
 74
0
 42
0.0000001
 43
0.0000001
 44
0.0000000001
 40
0.0
 40
0.0
 40
0.0
 40
0.0
 40
0.2527302125
 40
0.3799563254
 40
0.5077476318
 40
0.6360574131
 40
0.7003585965
 40
0.764681759
 40
0.8288682469
 40
0.8924626506
 40
0.9236210278
 40
0.9536612687
 40
0.9808488757
 40
1.0
 40
1.0
 40
1.0
 40
1.0
 10
27.2958355407
 20
288.8068604736
 30
0.0
 10
27.5170477619
 20
288.8418026967
 30
0.0
 10
27.8499345514
 20
288.8923886138
 30
0.0
 10
28.2954954532
 20
288.9550173717
 30
0.0
 10
28.6322867724
 20
288.999277811
 30
0.0
 10
28.9141994162
 20
289.0330878767
 30
0.0
 10
29.1405721262
 20
289.057461975
 30
0.0
 10
29.3106374263
 20
289.0740020525
 30
0.0
 10
29.4802724746
 20
289.0880702333
 30
0.0
 10
29.6209225884
 20
289.0968533741
 30
0.0
 10
29.7313489825
 20
289.1003741995
 30
0.0
 10
29.8100014343
 20
289.1007043434
 30
0.0
 10
29.8766954138
 20
289.0963176763
 30
0.0
 10
29.9190848901
 20
289.090276091
 30
0.0
 10
29.9335006887
 20
289.0813213879
 30
0.0
  0
SPLINE
  5
29D
100
AcDbEntity
  8
0
100
AcDbSpline
 62
7
  6
CONTINUOUS
 70
0
 71
3
 72
9
 73
5
 74
0
 42
0.0000001
 43
0.0000001
 44
0.0000000001
 40
0.0
 40
0.0
 40
0.0
 40
0.0
 40
0.4867379406
 40
1.0
 40
1.0
 40
1.0
 40
1.0
 10
7.6213612109
 20
284.9468528677
 30
0.0
 10
7.7452912253
 20
284.9800811328
 30
0.0
 10
8.0110985426
 20
285.0111406944
 30
0.0
 10
8.274547457
 20
284.9697144021
 30
0.0
 10
8.4050635612
 20
284.9340572622
 30
0.0
  0
SPLINE
  5
29E
100
AcDbEntity
  8
0
100
AcDbSpline
 62
7
  6
CONTINUOUS
 70
0
 71
3
 72
11
 73
7
 74
0
 42
0.0000001
 43
0.0000001
 44
0.0000000001
 40
0.0
 40
0.0
 40
0.0
 40
0.0
 40
0.2634102161
 40
0.5159328297
 40
0.7602045476
 40
1.0
 40
1.0
 40
1.0
 40
1.0
 10
26.7558916133
 20
197.2175461201
 30
0.0
 10
25.750279082
 20
196.9479861676
 30
0.0
 10
23.7318027739
 20
196.581285942
 30
0.0
 10
20.7090381245
 20
196.5961325629
 30
0.0
 10
17.8389338219
 20
197.1913274928
 30
0.0
 10
16.073189545
 20
197.9716238069
 30
0.0
 10
15.2524844894
 20
198.4456775485
 30
0.0
  0
SPLINE
  5
29F
100
AcDbEntity
  8
0
100
AcDbSpline
 62
7
  6
CONTINUOUS
 70
0
 71
3
 72
11
 73
7
 74
0
 42
0.0000001
 43
0.0000001
 44
0.0000000001
 40
0.0
 40
0.0
 40
0.0
 40
0.0
 40
0.271774877
 40
0.5268700653
 40
0.7676346301
 40
1.0
 40
1.0
 40
1.0
 40
1.0
 10
20.9920792975
 20
228.3088502546
 30
0.0
 10
20.9920792975
 20
227.8320620416
 30
0.0
 10
21.0847792034
 20
226.9038132844
 30
0.0
 10
21.5287610803
 20
225.6179854027
 30
0.0
 10
22.256325128
 20
224.5481517693
 30
0.0
 10
22.9147509555
 20
224.0185394857
 30
0.0
 10
23.2677619286
 20
223.8146721319
 30
0.0
  0
SPLINE
  5
2A0
100
AcDbEntity
  8
0
100
AcDbSpline
 62
7
  6
CONTINUOUS
 70
0
 71
3
 72
11
 73
7
 74
0
 42
0.0000001
 43
0.0000001
 44
0.0000000001
 40
0.0
 40
0.0
 40
0.0
 40
0.0
 40
0.271774877
 40
0.5268700653
 40
0.7676346301
 40
1.0
 40
1.0
 40
1.0
 40
1.0
 10
31.3226581654
 20
219.5863358915
 30
0.0
 10
31.3226581654
 20
219.1095476785
 30
0.0
 10
31.4153580712
 20
218.1812989212
 30
0.0
 10
31.8593399482
 20
216.8954710396
 30
0.0
 10
32.5869039958
 20
215.8256374062
 30
0.0
 10
33.2453298233
 20
215.2960251226
 30
0.0
 10
33.5983407964
 20
215.0921577688
 30
0.0
  0
SPLINE
  5
2A1
100
AcDbEntity
  8
0
100
AcDbSpline
 62
7
  6
CONTINUOUS
 70
0
 71
3
 72
11
 73
7
 74
0
 42
0.0000001
 43
0.0000001
 44
0.0000000001
 40
0.0
 40
0.0
 40
0.0
 40
0.0
 40
0.271774877
 40
0.5268700653
 40
0.7676346301
 40
1.0
 40
1.0
 40
1.0
 40
1.0
 10
10.6615004297
 20
214.047999282
 30
0.0
 10
10.6615004297
 20
213.571211069
 30
0.0
 10
10.7542003356
 20
212.6429623117
 30
0.0
 10
11.1981822125
 20
211.3571344301
 30
0.0
 10
11.9257462602
 20
210.2873007966
 30
0.0
 10
12.5841720876
 20
209.7576885131
 30
0.0
 10
12.9371830608
 20
209.5538211592
 30
0.0
  0
SPLINE
  5
2A2
100
AcDbEntity
  8
0
100
AcDbSpline
 62
7
  6
CONTINUOUS
 70
0
 71
3
 72
9
 73
5
 74
0
 42
0.0000001
 43
0.0000001
 44
0.0000000001
 40
0.0
 40
0.0
 40
0.0
 40
0.0
 40
0.4936190495
 40
1.0
 40
1.0
 40
1.0
 40
1.0
 10
15.1542656469
 20
220.5422107742
 30
0.0
 10
14.9997605789
 20
220.6314744865
 30
0.0
 10
14.6621354823
 20
220.7725084845
 30
0.0
 10
14.3006565994
 20
220.8256631092
 30
0.0
 10
14.1177077375
 20
220.8317606558
 30
0.0
  0
SPLINE
  5
2A3
100
AcDbEntity
  8
0
100
AcDbSpline
 62
7
  6
CONTINUOUS
 70
0
 71
3
 72
15
 73
11
 74
0
 42
0.0000001
 43
0.0000001
 44
0.0000000001
 40
0.0
 40
0.0
 40
0.0
 40
0.0
 40
0.0524625372
 40
0.1056460033
 40
0.2162145948
 40
0.335328669
 40
0.4632706134
 40
0.5978575783
 40
0.7353249013
 40
1.0
 40
1.0
 40
1.0
 40
1.0
 10
19.9134424302
 20
221.6322203895
 30
0.0
 10
19.7009384785
 20
221.7549435387
 30
0.0
 10
19.2491585977
 20
221.9632100703
 30
0.0
 10
18.2650165031
 20
222.2155904427
 30
0.0
 10
16.9156146505
 20
222.1970450074
 30
0.0
 10
15.3070008437
 20
221.6662572899
 30
0.0
 10
13.7953903119
 20
220.6849614335
 30
0.0
 10
12.4853402427
 20
219.326305537
 30
0.0
 10
11.1517895039
 20
217.1880062605
 30
0.0
 10
10.6615004297
 20
215.2860265378
 30
0.0
 10
10.6615004297
 20
214.047999282
 30
0.0
  0
SPLINE
  5
2A4
100
AcDbEntity
  8
0
100
AcDbSpline
 62
7
  6
CONTINUOUS
 70
0
 71
3
 72
9
 73
5
 74
0
 42
0.0000001
 43
0.0000001
 44
0.0000000001
 40
0.0
 40
0.0
 40
0.0
 40
0.0
 40
0.4936190495
 40
1.0
 40
1.0
 40
1.0
 40
1.0
 10
35.8154233826
 20
226.0805473838
 30
0.0
 10
35.6609183146
 20
226.169811096
 30
0.0
 10
35.323293218
 20
226.3108450941
 30
0.0
 10
34.961814335
 20
226.3639997187
 30
0.0
 10
34.7788654732
 20
226.3700972653
 30
0.0
  0
SPLINE
  5
2A5
100
AcDbEntity
  8
0
100
AcDbSpline
 62
7
  6
CONTINUOUS
 70
0
 71
3
 72
15
 73
11
 74
0
 42
0.0000001
 43
0.0000001
 44
0.0000000001
 40
0.0
 40
0.0
 40
0.0
 40
0.0
 40
0.0524625372
 40
0.1056460033
 40
0.2162145948
 40
0.335328669
 40
0.4632706134
 40
0.5978575783
 40
0.7353249013
 40
1.0
 40
1.0
 40
1.0
 40
1.0
 10
40.5746001659
 20
227.170556999
 30
0.0
 10
40.3620962142
 20
227.2932801482
 30
0.0
 10
39.9103163333
 20
227.5015466799
 30
0.0
 10
38.9261742388
 20
227.7539270523
 30
0.0
 10
37.5767723862
 20
227.735381617
 30
0.0
 10
35.9681585794
 20
227.2045938994
 30
0.0
 10
34.4565480475
 20
226.2232980431
 30
0.0
 10
33.1464979783
 20
224.8646421466
 30
0.0
 10
31.8129472395
 20
222.7263428701
 30
0.0
 10
31.3226581654
 20
220.8243631473
 30
0.0
 10
31.3226581654
 20
219.5863358915
 30
0.0
  0
SPLINE
  5
2A6
100
AcDbEntity
  8
0
100
AcDbSpline
 62
7
  6
CONTINUOUS
 70
0
 71
3
 72
9
 73
5
 74
0
 42
0.0000001
 43
0.0000001
 44
0.0000000001
 40
0.0
 40
0.0
 40
0.0
 40
0.0
 40
0.4936190495
 40
1.0
 40
1.0
 40
1.0
 40
1.0
 10
25.4848445147
 20
234.8030617469
 30
0.0
 10
25.3303394467
 20
234.8923254591
 30
0.0
 10
24.9927143501
 20
235.0333594572
 30
0.0
 10
24.6312354672
 20
235.0865140819
 30
0.0
 10
24.4482866054
 20
235.0926116285
 30
0.0
  0
SPLINE
  5
2A7
100
AcDbEntity
  8
0
100
AcDbSpline
 62
7
  6
CONTINUOUS
 70
0
 71
3
 72
15
 73
11
 74
0
 42
0.0000001
 43
0.0000001
 44
0.0000000001
 40
0.0
 40
0.0
 40
0.0
 40
0.0
 40
0.0524625372
 40
0.1056460033
 40
0.2162145948
 40
0.335328669
 40
0.4632706134
 40
0.5978575783
 40
0.7353249013
 40
1.0
 40
1.0
 40
1.0
 40
1.0
 10
30.2440212981
 20
235.8930713621
 30
0.0
 10
30.0315173463
 20
236.0157945113
 30
0.0
 10
29.5797374655
 20
236.224061043
 30
0.0
 10
28.595595371
 20
236.4764414154
 30
0.0
 10
27.2461935184
 20
236.4578959801
 30
0.0
 10
25.6375797115
 20
235.9271082626
 30
0.0
 10
24.1259691797
 20
234.9458124062
 30
0.0
 10
22.8159191105
 20
233.5871565097
 30
0.0
 10
21.4823683717
 20
231.4488572332
 30
0.0
 10
20.9920792975
 20
229.5468775104
 30
0.0
 10
20.9920792975
 20
228.3088502546
 30
0.0
  0
SPLINE
  5
2A8
100
AcDbEntity
  8
0
100
AcDbSpline
 62
7
  6
CONTINUOUS
 70
0
 71
3
 72
10
 73
6
 74
0
 42
0.0000001
 43
0.0000001
 44
0.0000000001
 40
0.0
 40
0.0
 40
0.0
 40
0.0
 40
0.2403281524
 40
0.485096085
 40
1.0
 40
1.0
 40
1.0
 40
1.0
 10
27.9555545719
 20
211.5474891138
 30
0.0
 10
27.7896083122
 20
211.6433057909
 30
0.0
 10
27.4324749296
 20
211.8010026517
 30
0.0
 10
26.6475704785
 20
211.9644326318
 30
0.0
 10
26.0264116584
 20
211.9020847054
 30
0.0
 10
25.6298605345
 20
211.7957870025
 30
0.0
  0
SPLINE
  5
2A9
100
AcDbEntity
  8
0
100
AcDbSpline
 62
7
  6
CONTINUOUS
 70
0
 71
3
 72
11
 73
7
 74
0
 42
0.0000001
 43
0.0000001
 44
0.0000000001
 40
0.0
 40
0.0
 40
0.0
 40
0.0
 40
0.2717668072
 40
0.5268680782
 40
0.7676307415
 40
1.0
 40
1.0
 40
1.0
 40
1.0
 10
21.7868851956
 20
206.4907504474
 30
0.0
 10
21.7868851952
 20
206.1728641138
 30
0.0
 10
21.8486999316
 20
205.5539657888
 30
0.0
 10
22.1446875392
 20
204.6966364266
 30
0.0
 10
22.6298041183
 20
203.9833384902
 30
0.0
 10
23.0687829071
 20
203.6301824878
 30
0.0
 10
23.3041664971
 20
203.4942729863
 30
0.0
  0
SPLINE
  5
2AA
100
AcDbEntity
  8
0
100
AcDbSpline
 62
7
  6
CONTINUOUS
 70
0
 71
3
 72
12
 73
8
 74
0
 42
0.0000001
 43
0.0000001
 44
0.0000000001
 40
0.0
 40
0.0
 40
0.0
 40
0.0
 40
0.2349899833
 40
0.4894752595
 40
0.6202667695
 40
0.7503904793
 40
1.0
 40
1.0
 40
1.0
 40
1.0
 10
25.6298605345
 20
211.7957870025
 30
0.0
 10
25.1027005577
 20
211.6544788805
 30
0.0
 10
24.0635589317
 20
211.1235893038
 30
0.0
 10
23.0449325031
 20
210.0737077155
 30
0.0
 10
22.4152413374
 20
209.0508792179
 30
0.0
 10
21.9483239799
 20
207.9582229835
 30
0.0
 10
21.7868851965
 20
207.0704753956
 30
0.0
 10
21.7868851956
 20
206.4907504474
 30
0.0
  0
SPLINE
  5
2AB
100
AcDbEntity
  8
0
100
AcDbSpline
 62
7
  6
CONTINUOUS
 70
0
 71
3
 72
9
 73
5
 74
0
 42
0.0000001
 43
0.0000001
 44
0.0000000001
 40
0.0
 40
0.0
 40
0.0
 40
0.0
 40
0.5063725991
 40
1.0
 40
1.0
 40
1.0
 40
1.0
 10
21.0660430586
 20
229.2332097114
 30
0.0
 10
21.1627320045
 20
229.0781767423
 30
0.0
 10
21.3890680654
 20
228.7922192993
 30
0.0
 10
21.6795425359
 20
228.5708443065
 30
0.0
 10
21.8337677782
 20
228.4817422606
 30
0.0
  0
SPLINE
  5
2AC
100
AcDbEntity
  8
0
100
AcDbSpline
 62
7
  6
CONTINUOUS
 70
0
 71
3
 72
9
 73
5
 74
0
 42
0.0000001
 43
0.0000001
 44
0.0000000001
 40
0.0
 40
0.0
 40
0.0
 40
0.0
 40
0.5063725991
 40
1.0
 40
1.0
 40
1.0
 40
1.0
 10
31.3966219264
 20
220.5106953483
 30
0.0
 10
31.4933108723
 20
220.3556623792
 30
0.0
 10
31.7196469332
 20
220.0697049362
 30
0.0
 10
32.0101214037
 20
219.8483299434
 30
0.0
 10
32.1643466461
 20
219.7592278975
 30
0.0
  0
SPLINE
  5
2AD
100
AcDbEntity
  8
0
100
AcDbSpline
 62
7
  6
CONTINUOUS
 70
0
 71
3
 72
9
 73
5
 74
0
 42
0.0000001
 43
0.0000001
 44
0.0000000001
 40
0.0
 40
0.0
 40
0.0
 40
0.0
 40
0.5063725991
 40
1.0
 40
1.0
 40
1.0
 40
1.0
 10
10.7354641908
 20
214.9723587388
 30
0.0
 10
10.8321531367
 20
214.8173257697
 30
0.0
 10
11.0584891976
 20
214.5313683266
 30
0.0
 10
11.348963668
 20
214.3099933338
 30
0.0
 10
11.5031889104
 20
214.220891288
 30
0.0
  0
SPLINE
  5
2AE
100
AcDbEntity
  8
0
100
AcDbSpline
 62
7
  6
CONTINUOUS
 70
0
 71
3
 72
20
 73
16
 74
0
 42
0.0000001
 43
0.0000001
 44
0.0000000001
 40
0.0
 40
0.0
 40
0.0
 40
0.0
 40
0.0524886434
 40
0.1058788304
 40
0.1609446359
 40
0.2182401375
 40
0.340076149
 40
0.4047856399
 40
0.4714397647
 40
0.6080573039
 40
0.7449175056
 40
0.8118575972
 40
0.8769396555
 40
0.9397340303
 40
1.0
 40
1.0
 40
1.0
 40
1.0
 10
38.2592987372
 20
238.2787006098
 30
0.0
 10
39.0457167558
 20
237.8244516666
 30
0.0
 10
40.5416358328
 20
236.7408602998
 30
0.0
 10
42.4329987813
 20
234.6734508605
 30
0.0
 10
43.937220486
 20
232.2115737678
 30
0.0
 10
45.4088028469
 20
228.4172880452
 30
0.0
 10
45.9241290273
 20
224.1523926722
 30
0.0
 10
45.5602323041
 20
219.778919371
 30
0.0
 10
44.5813751657
 20
215.2341698977
 30
0.0
 10
42.2823895836
 20
209.7526926236
 30
0.0
 10
38.7769338368
 20
204.9457390712
 30
0.0
 10
35.3885912164
 20
201.742465826
 30
0.0
 10
32.6546735556
 20
199.75308323
 30
0.0
 10
29.7769899554
 20
198.2095393974
 30
0.0
 10
27.7630833447
 20
197.4875293858
 30
0.0
 10
26.7558916133
 20
197.2175461201
 30
0.0
  0
SPLINE
  5
2AF
100
AcDbEntity
  8
0
100
AcDbSpline
 62
7
  6
CONTINUOUS
 70
0
 71
3
 72
14
 73
10
 74
0
 42
0.0000001
 43
0.0000001
 44
0.0000000001
 40
0.0
 40
0.0
 40
0.0
 40
0.0
 40
0.2346073929
 40
0.3603379301
 40
0.4894684284
 40
0.6200482101
 40
0.7499714674
 40
0.8772023527
 40
1.0
 40
1.0
 40
1.0
 40
1.0
 10
26.7558916133
 20
212.9840815905
 30
0.0
 10
26.0020138763
 20
212.7820005299
 30
0.0
 10
24.9032861024
 20
212.2204048481
 30
0.0
 10
23.6716805772
 20
211.1506291523
 30
0.0
 10
22.8405086974
 20
210.1666806982
 30
0.0
 10
22.1586777733
 20
209.0589273074
 30
0.0
 10
21.6503271062
 20
207.8680019752
 30
0.0
 10
21.3349839668
 20
206.6389725202
 30
0.0
 10
21.2600236562
 20
205.8058323646
 30
0.0
 10
21.2600236556
 20
205.3973088731
 30
0.0
  0
SPLINE
  5
2B0
100
AcDbEntity
  8
0
100
AcDbSpline
 62
7
  6
CONTINUOUS
 70
0
 71
3
 72
11
 73
7
 74
0
 42
0.0000001
 43
0.0000001
 44
0.0000000001
 40
0.0
 40
0.0
 40
0.0
 40
0.0
 40
0.271774877
 40
0.5268700653
 40
0.7676346301
 40
1.0
 40
1.0
 40
1.0
 40
1.0
 10
32.5197039291
 20
231.3988932394
 30
0.0
 10
32.5197039291
 20
231.8756814524
 30
0.0
 10
32.4270040233
 20
232.8039302097
 30
0.0
 10
31.9830221463
 20
234.0897580913
 30
0.0
 10
31.2554580986
 20
235.1595917247
 30
0.0
 10
30.5970322712
 20
235.6892040083
 30
0.0
 10
30.2440212981
 20
235.8930713621
 30
0.0
  0
SPLINE
  5
2B1
100
AcDbEntity
  8
0
100
AcDbSpline
 62
7
  6
CONTINUOUS
 70
0
 71
3
 72
15
 73
11
 74
0
 42
0.0000001
 43
0.0000001
 44
0.0000000001
 40
0.0
 40
0.0
 40
0.0
 40
0.0
 40
0.0524625372
 40
0.1056460033
 40
0.2162145948
 40
0.335328669
 40
0.4632706134
 40
0.5978575783
 40
0.7353249013
 40
1.0
 40
1.0
 40
1.0
 40
1.0
 10
12.9371830608
 20
209.5538211592
 30
0.0
 10
13.1496870125
 20
209.43109801
 30
0.0
 10
13.6014668933
 20
209.2228314784
 30
0.0
 10
14.5856089878
 20
208.970451106
 30
0.0
 10
15.9350108405
 20
208.9889965413
 30
0.0
 10
17.5436246473
 20
209.5197842588
 30
0.0
 10
19.0552351791
 20
210.5010801152
 30
0.0
 10
20.3652852483
 20
211.8597360117
 30
0.0
 10
21.6988359871
 20
213.9980352882
 30
0.0
 10
22.1891250613
 20
215.9000150109
 30
0.0
 10
22.1891250613
 20
217.1380422667
 30
0.0
  0
SPLINE
  5
2B2
100
AcDbEntity
  8
0
100
AcDbSpline
 62
7
  6
CONTINUOUS
 70
0
 71
3
 72
11
 73
7
 74
0
 42
0.0000001
 43
0.0000001
 44
0.0000000001
 40
0.0
 40
0.0
 40
0.0
 40
0.0
 40
0.2634102161
 40
0.5159328297
 40
0.7602045476
 40
1.0
 40
1.0
 40
1.0
 40
1.0
 10
26.7558916133
 20
239.5068320382
 30
0.0
 10
27.7615041446
 20
239.7763919906
 30
0.0
 10
29.7799804528
 20
240.1430922162
 30
0.0
 10
32.8027451022
 20
240.1282455953
 30
0.0
 10
35.6728494048
 20
239.5330506654
 30
0.0
 10
37.4385936817
 20
238.7527543514
 30
0.0
 10
38.2592987372
 20
238.2787006098
 30
0.0
  0
SPLINE
  5
2B3
100
AcDbEntity
  8
0
100
AcDbSpline
 62
7
  6
CONTINUOUS
 70
0
 71
3
 72
11
 73
7
 74
0
 42
0.0000001
 43
0.0000001
 44
0.0000000001
 40
0.0
 40
0.0
 40
0.0
 40
0.0
 40
0.271774877
 40
0.5268700653
 40
0.7676346301
 40
1.0
 40
1.0
 40
1.0
 40
1.0
 10
42.850282797
 20
222.6763788763
 30
0.0
 10
42.850282797
 20
223.1531670893
 30
0.0
 10
42.7575828911
 20
224.0814158465
 30
0.0
 10
42.3136010141
 20
225.3672437282
 30
0.0
 10
41.5860369665
 20
226.4370773616
 30
0.0
 10
40.927611139
 20
226.9666896452
 30
0.0
 10
40.5746001659
 20
227.170556999
 30
0.0
  0
SPLINE
  5
2B4
100
AcDbEntity
  8
0
100
AcDbSpline
 62
7
  6
CONTINUOUS
 70
0
 71
3
 72
9
 73
5
 74
0
 42
0.0000001
 43
0.0000001
 44
0.0000000001
 40
0.0
 40
0.0
 40
0.0
 40
0.0
 40
0.480151452
 40
1.0
 40
1.0
 40
1.0
 40
1.0
 10
18.1511521166
 20
222.1858370941
 30
0.0
 10
18.4657051951
 20
221.7355134259
 30
0.0
 10
18.9503508155
 20
220.6726908273
 30
0.0
 10
19.0925395944
 20
219.5212910478
 30
0.0
 10
19.0925395944
 20
218.9265725235
 30
0.0
  0
SPLINE
  5
2B5
100
AcDbEntity
  8
0
100
AcDbSpline
 62
7
  6
CONTINUOUS
 70
0
 71
3
 72
14
 73
10
 74
0
 42
0.0000001
 43
0.0000001
 44
0.0000000001
 40
0.0
 40
0.0
 40
0.0
 40
0.0
 40
0.1052606218
 40
0.2158761856
 40
0.3350397663
 40
0.4630361708
 40
0.5976782969
 40
0.7352099851
 40
1.0
 40
1.0
 40
1.0
 40
1.0
 10
32.1643466461
 20
219.7592278975
 30
0.0
 10
32.387370508
 20
219.6303781576
 30
0.0
 10
32.898879119
 20
219.451068784
 30
0.0
 10
33.7327322965
 20
219.4639560277
 30
0.0
 10
34.5752826748
 20
219.7413125443
 30
0.0
 10
35.3661777052
 20
220.2550085764
 30
0.0
 10
36.0518675875
 20
220.9660286856
 30
0.0
 10
36.7497988615
 20
222.0851272142
 30
0.0
 10
37.0064140437
 20
223.0805525004
 30
0.0
 10
37.0064140437
 20
223.7284847857
 30
0.0
  0
SPLINE
  5
2B6
100
AcDbEntity
  8
0
100
AcDbSpline
 62
7
  6
CONTINUOUS
 70
0
 71
3
 72
14
 73
10
 74
0
 42
0.0000001
 43
0.0000001
 44
0.0000000001
 40
0.0
 40
0.0
 40
0.0
 40
0.0
 40
0.2686164723
 40
0.3932530389
 40
0.5129262831
 40
0.6303784462
 40
0.7488454196
 40
0.8713344666
 40
1.0
 40
1.0
 40
1.0
 40
1.0
 10
21.2600236556
 20
205.3973088731
 30
0.0
 10
21.2600236546
 20
204.6418510399
 30
0.0
 10
21.4485809494
 20
203.5130263999
 30
0.0
 10
22.1439336076
 20
202.2367808142
 30
0.0
 10
22.8368558249
 20
201.4768440096
 30
0.0
 10
23.6864792904
 20
200.9281535949
 30
0.0
 10
24.656211768
 20
200.6146599306
 30
0.0
 10
25.7031208169
 20
200.5474850805
 30
0.0
 10
26.4063716002
 20
200.6632404761
 30
0.0
 10
26.7558916133
 20
200.7569312319
 30
0.0
  0
SPLINE
  5
2B7
100
AcDbEntity
  8
0
100
AcDbSpline
 62
7
  6
CONTINUOUS
 70
0
 71
3
 72
12
 73
8
 74
0
 42
0.0000001
 43
0.0000001
 44
0.0000000001
 40
0.0
 40
0.0
 40
0.0
 40
0.0
 40
0.2349899832
 40
0.4894752595
 40
0.6202667695
 40
0.7503904793
 40
1.0
 40
1.0
 40
1.0
 40
1.0
 10
25.6298605283
 20
203.2459750959
 30
0.0
 10
26.1570205063
 20
203.3872832169
 30
0.0
 10
27.1961621347
 20
203.9181727943
 30
0.0
 10
28.2147885656
 20
204.968054384
 30
0.0
 10
28.8444797324
 20
205.9908828837
 30
0.0
 10
29.3113970903
 20
207.0835391204
 30
0.0
 10
29.4728358736
 20
207.9712867102
 30
0.0
 10
29.4728358733
 20
208.5510116594
 30
0.0
  0
SPLINE
  5
2B8
100
AcDbEntity
  8
0
100
AcDbSpline
 62
7
  6
CONTINUOUS
 70
0
 71
3
 72
11
 73
7
 74
0
 42
0.0000001
 43
0.0000001
 44
0.0000000001
 40
0.0
 40
0.0
 40
0.0
 40
0.0
 40
0.2717668071
 40
0.5268680781
 40
0.7676307415
 40
1.0
 40
1.0
 40
1.0
 40
1.0
 10
29.4728358733
 20
208.5510116594
 30
0.0
 10
29.4728358731
 20
208.8688979923
 30
0.0
 10
29.4110211363
 20
209.4877963161
 30
0.0
 10
29.1150335283
 20
210.3451256762
 30
0.0
 10
28.6299169496
 20
211.0584236109
 30
0.0
 10
28.1909381614
 20
211.4115796126
 30
0.0
 10
27.9555545719
 20
211.5474891138
 30
0.0
  0
SPLINE
  5
2B9
100
AcDbEntity
  8
0
100
AcDbSpline
 62
7
  6
CONTINUOUS
 70
0
 71
3
 72
15
 73
11
 74
0
 42
0.0000001
 43
0.0000001
 44
0.0000000001
 40
0.0
 40
0.0
 40
0.0
 40
0.0
 40
0.0524625372
 40
0.1056460033
 40
0.2162145948
 40
0.335328669
 40
0.4632706134
 40
0.5978575783
 40
0.7353249013
 40
1.0
 40
1.0
 40
1.0
 40
1.0
 10
33.5983407964
 20
215.0921577688
 30
0.0
 10
33.8108447482
 20
214.9694346196
 30
0.0
 10
34.262624629
 20
214.7611680879
 30
0.0
 10
35.2467667235
 20
214.5087877155
 30
0.0
 10
36.5961685761
 20
214.5273331508
 30
0.0
 10
38.2047823829
 20
215.0581208684
 30
0.0
 10
39.7163929148
 20
216.0394167247
 30
0.0
 10
41.026442984
 20
217.3980726212
 30
0.0
 10
42.3599937228
 20
219.5363718977
 30
0.0
 10
42.850282797
 20
221.4383516205
 30
0.0
 10
42.850282797
 20
222.6763788763
 30
0.0
  0
SPLINE
  5
2BA
100
AcDbEntity
  8
0
100
AcDbSpline
 62
7
  6
CONTINUOUS
 70
0
 71
3
 72
11
 73
7
 74
0
 42
0.0000001
 43
0.0000001
 44
0.0000000001
 40
0.0
 40
0.0
 40
0.0
 40
0.0
 40
0.271774877
 40
0.5268700653
 40
0.7676346301
 40
1.0
 40
1.0
 40
1.0
 40
1.0
 10
22.1891250613
 20
217.1380422667
 30
0.0
 10
22.1891250613
 20
217.6148304797
 30
0.0
 10
22.0964251554
 20
218.543079237
 30
0.0
 10
21.6524432785
 20
219.8289071186
 30
0.0
 10
20.9248792308
 20
220.8987407521
 30
0.0
 10
20.2664534034
 20
221.4283530356
 30
0.0
 10
19.9134424302
 20
221.6322203895
 30
0.0
  0
SPLINE
  5
2BB
100
AcDbEntity
  8
0
100
AcDbSpline
 62
7
  6
CONTINUOUS
 70
0
 71
3
 72
14
 73
10
 74
0
 42
0.0000001
 43
0.0000001
 44
0.0000000001
 40
0.0
 40
0.0
 40
0.0
 40
0.0
 40
0.2562060773
 40
0.3897701936
 40
0.5226491793
 40
0.6519161974
 40
0.7752021917
 40
0.8911819368
 40
1.0
 40
1.0
 40
1.0
 40
1.0
 10
29.4231184623
 20
233.1874234962
 30
0.0
 10
29.4231184623
 20
232.1473781294
 30
0.0
 10
29.076579799
 20
230.5514801621
 30
0.0
 10
28.1028096317
 20
228.6601072634
 30
0.0
 10
27.1237535641
 20
227.3745506201
 30
0.0
 10
25.9590014246
 20
226.3164371797
 30
0.0
 10
24.6670716392
 20
225.5405653213
 30
0.0
 10
23.314767908
 20
225.0906245462
 30
0.0
 10
22.3912795404
 20
225.0269829535
 30
0.0
 10
21.9508509904
 20
225.0609584326
 30
0.0
  0
SPLINE
  5
2BC
100
AcDbEntity
  8
0
100
AcDbSpline
 62
7
  6
CONTINUOUS
 70
0
 71
3
 72
11
 73
7
 74
0
 42
0.0000001
 43
0.0000001
 44
0.0000000001
 40
0.0
 40
0.0
 40
0.0
 40
0.0
 40
0.2717571886
 40
0.5268814665
 40
0.7676360547
 40
1.0
 40
1.0
 40
1.0
 40
1.0
 10
26.6758351759
 20
232.4509991488
 30
0.0
 10
26.6758351759
 20
232.7005131467
 30
0.0
 10
26.6272937424
 20
233.1863221256
 30
0.0
 10
26.3949908689
 20
233.859290926
 30
0.0
 10
26.0141654368
 20
234.4191934185
 30
0.0
 10
25.6695756078
 20
234.6963352599
 30
0.0
 10
25.4848445147
 20
234.8030617469
 30
0.0
  0
SPLINE
  5
2BD
100
AcDbEntity
  8
0
100
AcDbSpline
 62
7
  6
CONTINUOUS
 70
0
 71
3
 72
9
 73
5
 74
0
 42
0.0000001
 43
0.0000001
 44
0.0000000001
 40
0.0
 40
0.0
 40
0.0
 40
0.0
 40
0.480151452
 40
1.0
 40
1.0
 40
1.0
 40
1.0
 10
38.8123098522
 20
227.7241737036
 30
0.0
 10
39.1268629308
 20
227.2738500354
 30
0.0
 10
39.6115085512
 20
226.2110274369
 30
0.0
 10
39.7536973301
 20
225.0596276573
 30
0.0
 10
39.7536973301
 20
224.464909133
 30
0.0
  0
SPLINE
  5
2BE
100
AcDbEntity
  8
0
100
AcDbSpline
 62
7
  6
CONTINUOUS
 70
0
 71
3
 72
14
 73
10
 74
0
 42
0.0000001
 43
0.0000001
 44
0.0000000001
 40
0.0
 40
0.0
 40
0.0
 40
0.0
 40
0.1052606218
 40
0.2158761856
 40
0.3350397663
 40
0.4630361708
 40
0.5976782969
 40
0.7352099851
 40
1.0
 40
1.0
 40
1.0
 40
1.0
 10
21.8337677782
 20
228.4817422606
 30
0.0
 10
22.0567916402
 20
228.3528925207
 30
0.0
 10
22.5683002512
 20
228.1735831471
 30
0.0
 10
23.4021534287
 20
228.1864703908
 30
0.0
 10
24.2447038069
 20
228.4638269074
 30
0.0
 10
25.0355988374
 20
228.9775229395
 30
0.0
 10
25.7212887196
 20
229.6885430487
 30
0.0
 10
26.4192199936
 20
230.8076415773
 30
0.0
 10
26.6758351759
 20
231.8030668635
 30
0.0
 10
26.6758351759
 20
232.4509991488
 30
0.0
  0
SPLINE
  5
2BF
100
AcDbEntity
  8
0
100
AcDbSpline
 62
7
  6
CONTINUOUS
 70
0
 71
3
 72
14
 73
10
 74
0
 42
0.0000001
 43
0.0000001
 44
0.0000000001
 40
0.0
 40
0.0
 40
0.0
 40
0.0
 40
0.2346073929
 40
0.3603379301
 40
0.4894684284
 40
0.6200482101
 40
0.7499714674
 40
0.8772023527
 40
1.0
 40
1.0
 40
1.0
 40
1.0
 10
26.7558916133
 20
200.7569312319
 30
0.0
 10
27.5097693503
 20
200.9590122926
 30
0.0
 10
28.6084971242
 20
201.5206079743
 30
0.0
 10
29.8401026495
 20
202.5903836701
 30
0.0
 10
30.6712745293
 20
203.5743321242
 30
0.0
 10
31.3531054533
 20
204.6820855151
 30
0.0
 10
31.8614561205
 20
205.8730108473
 30
0.0
 10
32.1767992597
 20
207.1020403023
 30
0.0
 10
32.2517595707
 20
207.9351804578
 30
0.0
 10
32.251759571
 20
208.3437039494
 30
0.0
  0
SPLINE
  5
2C0
100
AcDbEntity
  8
0
100
AcDbSpline
 62
7
  6
CONTINUOUS
 70
0
 71
3
 72
14
 73
10
 74
0
 42
0.0000001
 43
0.0000001
 44
0.0000000001
 40
0.0
 40
0.0
 40
0.0
 40
0.0
 40
0.2562060773
 40
0.3897701936
 40
0.5226491793
 40
0.6519161974
 40
0.7752021917
 40
0.8911819368
 40
1.0
 40
1.0
 40
1.0
 40
1.0
 10
39.7536973301
 20
224.464909133
 30
0.0
 10
39.7536973301
 20
223.4248637663
 30
0.0
 10
39.4071586668
 20
221.828965799
 30
0.0
 10
38.4333884995
 20
219.9375929003
 30
0.0
 10
37.4543324319
 20
218.652036257
 30
0.0
 10
36.2895802925
 20
217.5939228166
 30
0.0
 10
34.997650507
 20
216.8180509581
 30
0.0
 10
33.6453467758
 20
216.3681101831
 30
0.0
 10
32.7218584082
 20
216.3044685904
 30
0.0
 10
32.2814298582
 20
216.3384440695
 30
0.0
  0
SPLINE
  5
2C1
100
AcDbEntity
  8
0
100
AcDbSpline
 62
7
  6
CONTINUOUS
 70
0
 71
3
 72
11
 73
7
 74
0
 42
0.0000001
 43
0.0000001
 44
0.0000000001
 40
0.0
 40
0.0
 40
0.0
 40
0.0
 40
0.2717571886
 40
0.5268814665
 40
0.7676360547
 40
1.0
 40
1.0
 40
1.0
 40
1.0
 10
37.0064140437
 20
223.7284847857
 30
0.0
 10
37.0064140437
 20
223.9779987836
 30
0.0
 10
36.9578726102
 20
224.4638077625
 30
0.0
 10
36.7255697367
 20
225.1367765629
 30
0.0
 10
36.3447443046
 20
225.6966790553
 30
0.0
 10
36.0001544756
 20
225.9738208968
 30
0.0
 10
35.8154233826
 20
226.0805473838
 30
0.0
  0
SPLINE
  5
2C2
100
AcDbEntity
  8
0
100
AcDbSpline
 62
7
  6
CONTINUOUS
 70
0
 71
3
 72
14
 73
10
 74
0
 42
0.0000001
 43
0.0000001
 44
0.0000000001
 40
0.0
 40
0.0
 40
0.0
 40
0.0
 40
0.2562060773
 40
0.3897701936
 40
0.5226491793
 40
0.6519161974
 40
0.7752021917
 40
0.8911819368
 40
1.0
 40
1.0
 40
1.0
 40
1.0
 10
19.0925395944
 20
218.9265725235
 30
0.0
 10
19.0925395944
 20
217.8865271567
 30
0.0
 10
18.7460009311
 20
216.2906291895
 30
0.0
 10
17.7722307639
 20
214.3992562908
 30
0.0
 10
16.7931746963
 20
213.1136996475
 30
0.0
 10
15.6284225568
 20
212.0555862071
 30
0.0
 10
14.3364927714
 20
211.2797143486
 30
0.0
 10
12.9841890402
 20
210.8297735735
 30
0.0
 10
12.0607006726
 20
210.7661319808
 30
0.0
 10
11.6202721226
 20
210.8001074599
 30
0.0
  0
SPLINE
  5
2C3
100
AcDbEntity
  8
0
100
AcDbSpline
 62
7
  6
CONTINUOUS
 70
0
 71
3
 72
11
 73
7
 74
0
 42
0.0000001
 43
0.0000001
 44
0.0000000001
 40
0.0
 40
0.0
 40
0.0
 40
0.0
 40
0.2717571886
 40
0.5268814665
 40
0.7676360547
 40
1.0
 40
1.0
 40
1.0
 40
1.0
 10
16.3452563081
 20
218.1901481761
 30
0.0
 10
16.3452563081
 20
218.439662174
 30
0.0
 10
16.2967148746
 20
218.925471153
 30
0.0
 10
16.064412001
 20
219.5984399534
 30
0.0
 10
15.6835865689
 20
220.1583424458
 30
0.0
 10
15.3389967399
 20
220.4354842873
 30
0.0
 10
15.1542656469
 20
220.5422107742
 30
0.0
  0
SPLINE
  5
2C4
100
AcDbEntity
  8
0
100
AcDbSpline
 62
7
  6
CONTINUOUS
 70
0
 71
3
 72
15
 73
11
 74
0
 42
0.0000001
 43
0.0000001
 44
0.0000000001
 40
0.0
 40
0.0
 40
0.0
 40
0.0
 40
0.0524625372
 40
0.1056460033
 40
0.2162145948
 40
0.335328669
 40
0.4632706134
 40
0.5978575783
 40
0.7353249013
 40
1.0
 40
1.0
 40
1.0
 40
1.0
 10
23.2677619286
 20
223.8146721319
 30
0.0
 10
23.4802658803
 20
223.6919489827
 30
0.0
 10
23.9320457611
 20
223.483682451
 30
0.0
 10
24.9161878557
 20
223.2313020787
 30
0.0
 10
26.2655897083
 20
223.2498475139
 30
0.0
 10
27.8742035151
 20
223.7806352315
 30
0.0
 10
29.3858140469
 20
224.7619310878
 30
0.0
 10
30.6958641162
 20
226.1205869843
 30
0.0
 10
32.029414855
 20
228.2588862608
 30
0.0
 10
32.5197039291
 20
230.1608659836
 30
0.0
 10
32.5197039291
 20
231.3988932394
 30
0.0
  0
SPLINE
  5
2C5
100
AcDbEntity
  8
0
100
AcDbSpline
 62
7
  6
CONTINUOUS
 70
0
 71
3
 72
14
 73
10
 74
0
 42
0.0000001
 43
0.0000001
 44
0.0000000001
 40
0.0
 40
0.0
 40
0.0
 40
0.0
 40
0.2686164723
 40
0.3932530389
 40
0.5129262831
 40
0.6303784462
 40
0.7488454196
 40
0.8713344666
 40
1.0
 40
1.0
 40
1.0
 40
1.0
 10
32.251759571
 20
208.3437039494
 30
0.0
 10
32.2517595716
 20
209.0991617826
 30
0.0
 10
32.0632022774
 20
210.2279864226
 30
0.0
 10
31.367849619
 20
211.5042320082
 30
0.0
 10
30.6749274018
 20
212.2641688129
 30
0.0
 10
29.8253039363
 20
212.8128592275
 30
0.0
 10
28.8555714586
 20
213.1263528918
 30
0.0
 10
27.8086624097
 20
213.1935277419
 30
0.0
 10
27.1054116265
 20
213.0777723464
 30
0.0
 10
26.7558916133
 20
212.9840815905
 30
0.0
  0
SPLINE
  5
2C6
100
AcDbEntity
  8
0
100
AcDbSpline
 62
7
  6
CONTINUOUS
 70
0
 71
3
 72
20
 73
16
 74
0
 42
0.0000001
 43
0.0000001
 44
0.0000000001
 40
0.0
 40
0.0
 40
0.0
 40
0.0
 40
0.0524886434
 40
0.1058788304
 40
0.1609446359
 40
0.2182401375
 40
0.340076149
 40
0.4047856399
 40
0.4714397647
 40
0.6080573039
 40
0.7449175056
 40
0.8118575972
 40
0.8769396555
 40
0.9397340303
 40
1.0
 40
1.0
 40
1.0
 40
1.0
 10
15.2524844894
 20
198.4456775485
 30
0.0
 10
14.4660664708
 20
198.8999264917
 30
0.0
 10
12.9701473939
 20
199.9835178585
 30
0.0
 10
11.0787844454
 20
202.0509272977
 30
0.0
 10
9.5745627407
 20
204.5128043905
 30
0.0
 10
8.1029803798
 20
208.307090113
 30
0.0
 10
7.5876541993
 20
212.5719854861
 30
0.0
 10
7.9515509226
 20
216.9454587873
 30
0.0
 10
8.9304080609
 20
221.4902082606
 30
0.0
 10
11.229393643
 20
226.9716855347
 30
0.0
 10
14.7348493898
 20
231.778639087
 30
0.0
 10
18.1231920103
 20
234.9819123322
 30
0.0
 10
20.8571096711
 20
236.9712949282
 30
0.0
 10
23.7347932712
 20
238.5148387609
 30
0.0
 10
25.7486998819
 20
239.2368487725
 30
0.0
 10
26.7558916133
 20
239.5068320382
 30
0.0
  0
SPLINE
  5
2C7
100
AcDbEntity
  8
0
100
AcDbSpline
 62
7
  6
CONTINUOUS
 70
0
 71
3
 72
9
 73
5
 74
0
 42
0.0000001
 43
0.0000001
 44
0.0000000001
 40
0.0
 40
0.0
 40
0.0
 40
0.0
 40
0.480151452
 40
1.0
 40
1.0
 40
1.0
 40
1.0
 10
28.4817309844
 20
236.4466880667
 30
0.0
 10
28.7962840629
 20
235.9963643985
 30
0.0
 10
29.2809296833
 20
234.9335418
 30
0.0
 10
29.4231184623
 20
233.7821420204
 30
0.0
 10
29.4231184623
 20
233.1874234962
 30
0.0
  0
SPLINE
  5
2C8
100
AcDbEntity
  8
0
100
AcDbSpline
 62
7
  6
CONTINUOUS
 70
0
 71
3
 72
10
 73
6
 74
0
 42
0.0000001
 43
0.0000001
 44
0.0000000001
 40
0.0
 40
0.0
 40
0.0
 40
0.0
 40
0.2403281525
 40
0.4850960851
 40
1.0
 40
1.0
 40
1.0
 40
1.0
 10
23.3041664971
 20
203.4942729863
 30
0.0
 10
23.4701127563
 20
203.3984563094
 30
0.0
 10
23.827246138
 20
203.240759449
 30
0.0
 10
24.6121505869
 20
203.0773294686
 30
0.0
 10
25.2333094052
 20
203.1396773943
 30
0.0
 10
25.6298605283
 20
203.2459750959
 30
0.0
  0
SPLINE
  5
2C9
100
AcDbEntity
  8
0
100
AcDbSpline
 62
7
  6
CONTINUOUS
 70
0
 71
3
 72
14
 73
10
 74
0
 42
0.0000001
 43
0.0000001
 44
0.0000000001
 40
0.0
 40
0.0
 40
0.0
 40
0.0
 40
0.1052606218
 40
0.2158761856
 40
0.3350397663
 40
0.4630361708
 40
0.5976782969
 40
0.7352099851
 40
1.0
 40
1.0
 40
1.0
 40
1.0
 10
11.5031889104
 20
214.220891288
 30
0.0
 10
11.7262127723
 20
214.092041548
 30
0.0
 10
12.2377213834
 20
213.9127321745
 30
0.0
 10
13.0715745608
 20
213.9256194182
 30
0.0
 10
13.9141249391
 20
214.2029759347
 30
0.0
 10
14.7050199696
 20
214.7166719669
 30
0.0
 10
15.3907098518
 20
215.427692076
 30
0.0
 10
16.0886411258
 20
216.5467906046
 30
0.0
 10
16.3452563081
 20
217.5422158908
 30
0.0
 10
16.3452563081
 20
218.1901481761
 30
0.0
  0
SPLINE
  5
2CA
100
AcDbEntity
  8
0
100
AcDbSpline
 62
7
  6
CONTINUOUS
 70
0
 71
3
 72
10
 73
6
 74
0
 42
0.0000001
 43
0.0000001
 44
0.0000000001
 40
0.0
 40
0.0
 40
0.0
 40
0.0
 40
0.5149063301
 40
0.7596734005
 40
1.0
 40
1.0
 40
1.0
 40
1.0
 10
-31.2605908826
 20
179.696944825
 30
0.0
 10
-31.9001918205
 20
179.5254962869
 30
0.0
 10
-32.902061647
 20
179.4249527429
 30
0.0
 10
-34.1680386379
 20
179.6885320794
 30
0.0
 10
-34.7440541291
 20
179.9428885125
 30
0.0
 10
-35.011706377
 20
180.097432131
 30
0.0
  0
SPLINE
  5
2CB
100
AcDbEntity
  8
0
100
AcDbSpline
 62
7
  6
CONTINUOUS
 70
0
 71
3
 72
13
 73
9
 74
0
 42
0.0000001
 43
0.0000001
 44
0.0000000001
 40
0.0
 40
0.0
 40
0.0
 40
0.0
 40
0.1054199736
 40
0.2162072625
 40
0.3355571307
 40
0.4637457895
 40
0.7347562963
 40
1.0
 40
1.0
 40
1.0
 40
1.0
 10
-31.2367913382
 20
265.9859427449
 30
0.0
 10
-31.3406502538
 20
266.045966181
 30
0.0
 10
-31.5788982151
 20
266.1294459988
 30
0.0
 10
-31.9672284891
 20
266.1234370843
 30
0.0
 10
-32.359716469
 20
265.9942795772
 30
0.0
 10
-32.8587822122
 20
265.6697747485
 30
0.0
 10
-33.3346849869
 20
265.0525872415
 30
0.0
 10
-33.4919959181
 20
264.4390740069
 30
0.0
 10
-33.4919959181
 20
264.1372562136
 30
0.0
  0
SPLINE
  5
2CC
100
AcDbEntity
  8
0
100
AcDbSpline
 62
7
  6
CONTINUOUS
 70
0
 71
3
 72
10
 73
6
 74
0
 42
0.0000001
 43
0.0000001
 44
0.0000000001
 40
0.0
 40
0.0
 40
0.0
 40
0.0
 40
0.5252520963
 40
0.7668039053
 40
1.0
 40
1.0
 40
1.0
 40
1.0
 10
-33.4919959181
 20
185.9938140719
 30
0.0
 10
-33.4919959181
 20
185.7700087657
 30
0.0
 10
-33.4264635871
 20
185.4331739858
 30
0.0
 10
-33.1837743117
 20
185.0772540151
 30
0.0
 10
-33.0233120673
 20
184.9480602812
 30
0.0
 10
-32.9372830459
 20
184.8983413194
 30
0.0
  0
SPLINE
  5
2CD
100
AcDbEntity
  8
0
100
AcDbSpline
 62
7
  6
CONTINUOUS
 70
0
 71
3
 72
13
 73
9
 74
0
 42
0.0000001
 43
0.0000001
 44
0.0000000001
 40
0.0
 40
0.0
 40
0.0
 40
0.0
 40
0.1054199736
 40
0.2162072625
 40
0.3355571307
 40
0.4637457895
 40
0.7347562963
 40
1.0
 40
1.0
 40
1.0
 40
1.0
 10
-31.2367913382
 20
187.8425006033
 30
0.0
 10
-31.3406502538
 20
187.9025240393
 30
0.0
 10
-31.5788982151
 20
187.9860038572
 30
0.0
 10
-31.9672284891
 20
187.9799949426
 30
0.0
 10
-32.359716469
 20
187.8508374355
 30
0.0
 10
-32.8587822122
 20
187.5263326068
 30
0.0
 10
-33.3346849869
 20
186.9091450998
 30
0.0
 10
-33.4919959181
 20
186.2956318652
 30
0.0
 10
-33.4919959181
 20
185.9938140719
 30
0.0
  0
SPLINE
  5
2CE
100
AcDbEntity
  8
0
100
AcDbSpline
 62
7
  6
CONTINUOUS
 70
0
 71
3
 72
10
 73
6
 74
0
 42
0.0000001
 43
0.0000001
 44
0.0000000001
 40
0.0
 40
0.0
 40
0.0
 40
0.0
 40
0.5252520963
 40
0.7668039053
 40
1.0
 40
1.0
 40
1.0
 40
1.0
 10
-33.4919959181
 20
264.1372562136
 30
0.0
 10
-33.4919959181
 20
263.9134509074
 30
0.0
 10
-33.4264635871
 20
263.5766161275
 30
0.0
 10
-33.1837743117
 20
263.2206961567
 30
0.0
 10
-33.0233120673
 20
263.0915024229
 30
0.0
 10
-32.9372830459
 20
263.0417834611
 30
0.0
  0
SPLINE
  5
2CF
100
AcDbEntity
  8
0
100
AcDbSpline
 62
7
  6
CONTINUOUS
 70
0
 71
3
 72
11
 73
7
 74
0
 42
0.0000001
 43
0.0000001
 44
0.0000000001
 40
0.0
 40
0.0
 40
0.0
 40
0.0
 40
0.271768352
 40
0.5268704044
 40
0.7676317877
 40
1.0
 40
1.0
 40
1.0
 40
1.0
 10
-40.2740159004
 20
186.5563900399
 30
0.0
 10
-40.2740159004
 20
186.0436678627
 30
0.0
 10
-40.1742939282
 20
185.0454448525
 30
0.0
 10
-39.6969154951
 20
183.6626485258
 30
0.0
 10
-38.9144556507
 20
182.5121805092
 30
0.0
 10
-38.2064314195
 20
181.942578822
 30
0.0
 10
-37.8267840835
 20
181.7233687117
 30
0.0
  0
SPLINE
  5
2D0
100
AcDbEntity
  8
0
100
AcDbSpline
 62
7
  6
CONTINUOUS
 70
0
 71
3
 72
13
 73
9
 74
0
 42
0.0000001
 43
0.0000001
 44
0.0000000001
 40
0.0
 40
0.0
 40
0.0
 40
0.0
 40
0.234808417
 40
0.3606347824
 40
0.4898729049
 40
0.6205617968
 40
0.7505834308
 40
1.0
 40
1.0
 40
1.0
 40
1.0
 10
-34.0756685797
 20
273.2563427652
 30
0.0
 10
-34.9259314599
 20
273.0284251384
 30
0.0
 10
-36.1651179696
 20
272.3950975915
 30
0.0
 10
-37.5540720168
 20
271.1884320041
 30
0.0
 10
-38.4914844994
 20
270.0789749218
 30
0.0
 10
-39.2605384662
 20
268.8288777016
 30
0.0
 10
-40.0136198134
 20
267.06684368
 30
0.0
 10
-40.2740159004
 20
265.6348774226
 30
0.0
 10
-40.2740159004
 20
264.6998321816
 30
0.0
  0
SPLINE
  5
2D1
100
AcDbEntity
  8
0
100
AcDbSpline
 62
7
  6
CONTINUOUS
 70
0
 71
3
 72
11
 73
7
 74
0
 42
0.0000001
 43
0.0000001
 44
0.0000000001
 40
0.0
 40
0.0
 40
0.0
 40
0.0
 40
0.2167334606
 40
0.4490795582
 40
0.7082881442
 40
1.0
 40
1.0
 40
1.0
 40
1.0
 10
3.35328372
 20
260.8941430848
 30
0.0
 10
3.4099484419
 20
260.9093291212
 30
0.0
 10
3.5226922515
 20
260.9610759038
 30
0.0
 10
3.6661616371
 20
261.0918220734
 30
0.0
 10
3.7835519447
 20
261.2704086658
 30
0.0
 10
3.8400235244
 20
261.4093489827
 30
0.0
 10
3.8643017598
 20
261.4844829494
 30
0.0
  0
SPLINE
  5
2D2
100
AcDbEntity
  8
0
100
AcDbSpline
 62
7
  6
CONTINUOUS
 70
0
 71
3
 72
13
 73
9
 74
0
 42
0.0000001
 43
0.0000001
 44
0.0000000001
 40
0.0
 40
0.0
 40
0.0
 40
0.0
 40
0.1158150315
 40
0.2327334866
 40
0.3517705012
 40
0.473781714
 40
0.7285667893
 40
1.0
 40
1.0
 40
1.0
 40
1.0
 10
42.7606823134
 20
246.0722051931
 30
0.0
 10
43.5689817941
 20
245.6053825801
 30
0.0
 10
45.1242967933
 20
244.5417443999
 30
0.0
 10
47.2050769789
 20
242.601502846
 30
0.0
 10
49.0120542303
 20
240.3393335732
 30
0.0
 10
51.052050584
 20
236.8898826946
 30
0.0
 10
52.7777150752
 20
231.8966404012
 30
0.0
 10
53.202173515
 20
227.6388945407
 30
0.0
 10
53.202173515
 20
225.4512599393
 30
0.0
  0
SPLINE
  5
2D3
100
AcDbEntity
  8
0
100
AcDbSpline
 62
7
  6
CONTINUOUS
 70
0
 71
3
 72
19
 73
15
 74
0
 42
0.0000001
 43
0.0000001
 44
0.0000000001
 40
0.0
 40
0.0
 40
0.0
 40
0.0
 40
0.0523306507
 40
0.1053801244
 40
0.15978562
 40
0.2160393059
 40
0.2744528807
 40
0.3351488564
 40
0.4627703741
 40
0.5970192603
 40
0.6655874471
 40
0.7343313618
 40
0.8699441127
 40
1.0
 40
1.0
 40
1.0
 40
1.0
 10
41.5103057653
 20
243.9073563642
 30
0.0
 10
40.6114832707
 20
244.4265429008
 30
0.0
 10
38.7007104806
 20
245.3073414769
 30
0.0
 10
35.6149560377
 20
246.0975484825
 30
0.0
 10
32.361731175
 20
246.3485037808
 30
0.0
 10
29.0069115454
 20
246.0577708045
 30
0.0
 10
25.614485547
 20
245.2340419057
 30
0.0
 10
21.0543544446
 20
243.4204731205
 30
0.0
 10
15.6297071189
 20
239.8986653901
 30
0.0
 10
11.0418346386
 20
235.1428686839
 30
0.0
 10
7.95227238
 20
230.7201250151
 30
0.0
 10
5.3311518705
 20
225.9733327985
 30
0.0
 10
3.0509479143
 20
219.6899473551
 30
0.0
 10
2.3757254852
 20
214.4066550102
 30
0.0
 10
2.3757254852
 20
211.8269518799
 30
0.0
  0
SPLINE
  5
2D4
100
AcDbEntity
  8
0
100
AcDbSpline
 62
7
  6
CONTINUOUS
 70
0
 71
3
 72
10
 73
6
 74
0
 42
0.0000001
 43
0.0000001
 44
0.0000000001
 40
0.0
 40
0.0
 40
0.0
 40
0.0
 40
0.2403242638
 40
0.4850896596
 40
1.0
 40
1.0
 40
1.0
 40
1.0
 10
-28.7417743911
 20
190.2123142776
 30
0.0
 10
-28.9202077857
 20
190.3153414127
 30
0.0
 10
-29.3042143453
 20
190.4849091029
 30
0.0
 10
-30.1481939995
 20
190.6606488877
 30
0.0
 10
-30.8161103817
 20
190.5936128458
 30
0.0
 10
-31.2425138843
 20
190.479313049
 30
0.0
  0
SPLINE
  5
2D5
100
AcDbEntity
  8
0
100
AcDbSpline
 62
7
  6
CONTINUOUS
 70
0
 71
3
 72
11
 73
7
 74
0
 42
0.0000001
 43
0.0000001
 44
0.0000000001
 40
0.0
 40
0.0
 40
0.0
 40
0.0
 40
0.2575259466
 40
0.5088228815
 40
0.7555702112
 40
1.0
 40
1.0
 40
1.0
 40
1.0
 10
21.7972137568
 20
188.1360331267
 30
0.0
 10
20.8132038077
 20
188.0812085048
 30
0.0
 10
18.8589975233
 20
188.1002248758
 30
0.0
 10
15.9903435791
 20
188.5336450697
 30
0.0
 10
13.2633458456
 20
189.367142844
 30
0.0
 10
11.5611147226
 20
190.1843223192
 30
0.0
 10
10.7510960911
 20
190.6521645909
 30
0.0
  0
SPLINE
  5
2D6
100
AcDbEntity
  8
0
100
AcDbSpline
 62
7
  6
CONTINUOUS
 70
0
 71
3
 72
13
 73
9
 74
0
 42
0.0000001
 43
0.0000001
 44
0.0000000001
 40
0.0
 40
0.0
 40
0.0
 40
0.0
 40
0.2457075376
 40
0.3736343433
 40
0.5027879268
 40
0.6315553219
 40
0.7583551687
 40
1.0
 40
1.0
 40
1.0
 40
1.0
 10
53.202173515
 20
225.4512599393
 30
0.0
 10
53.202173515
 20
221.9511276216
 30
0.0
 10
52.3471512447
 20
216.599512715
 30
0.0
 10
49.8314973948
 20
209.8814302564
 30
0.0
 10
47.2395356645
 20
205.0150835356
 30
0.0
 10
44.0432230986
 20
200.5417724359
 30
0.0
 10
39.1919752717
 20
195.3659820529
 30
0.0
 10
34.8173661296
 20
192.2850040955
 30
0.0
 10
31.7145694699
 20
190.7944346992
 30
0.0
  0
SPLINE
  5
2D7
100
AcDbEntity
  8
0
100
AcDbSpline
 62
7
  6
CONTINUOUS
 70
0
 71
3
 72
14
 73
10
 74
0
 42
0.0000001
 43
0.0000001
 44
0.0000000001
 40
0.0
 40
0.0
 40
0.0
 40
0.0
 40
0.2647836684
 40
0.4023089551
 40
0.5369530159
 40
0.6649530571
 40
0.7841200326
 40
0.8947373442
 40
1.0
 40
1.0
 40
1.0
 40
1.0
 10
31.7145694699
 20
190.2726822383
 30
0.0
 10
31.7145694699
 20
189.2076126516
 30
0.0
 10
31.2927566251
 20
187.5713494882
 30
0.0
 10
30.1455395846
 20
185.7317482916
 30
0.0
 10
29.0184353466
 20
184.5628937686
 30
0.0
 10
27.7182892312
 20
183.7184429853
 30
0.0
 10
26.3332392447
 20
183.2625439595
 30
0.0
 10
24.9624724618
 20
183.2413056472
 30
0.0
 10
24.1216687248
 20
183.5361338673
 30
0.0
 10
23.7550009393
 20
183.7478666325
 30
0.0
  0
SPLINE
  5
2D8
100
AcDbEntity
  8
0
100
AcDbSpline
 62
7
  6
CONTINUOUS
 70
0
 71
3
 72
11
 73
7
 74
0
 42
0.0000001
 43
0.0000001
 44
0.0000000001
 40
0.0
 40
0.0
 40
0.0
 40
0.0
 40
0.2717350397
 40
0.5268969419
 40
0.7676331593
 40
1.0
 40
1.0
 40
1.0
 40
1.0
 10
23.8633295303
 20
188.168114324
 30
0.0
 10
23.8633295303
 20
187.9288758688
 30
0.0
 10
23.9099145932
 20
187.4630325752
 30
0.0
 10
24.1326032188
 20
186.8176951192
 30
0.0
 10
24.4978672394
 20
186.2808546958
 30
0.0
 10
24.8282383253
 20
186.0150579946
 30
0.0
 10
25.0053902882
 20
185.9127376636
 30
0.0
  0
SPLINE
  5
2D9
100
AcDbEntity
  8
0
100
AcDbSpline
 62
7
  6
CONTINUOUS
 70
0
 71
3
 72
13
 73
9
 74
0
 42
0.0000001
 43
0.0000001
 44
0.0000000001
 40
0.0
 40
0.0
 40
0.0
 40
0.0
 40
0.271432411
 40
0.526217456
 40
0.6482289435
 40
0.7672664564
 40
0.8841850915
 40
1.0
 40
1.0
 40
1.0
 40
1.0
 10
2.3757254852
 20
211.8269518799
 30
0.0
 10
2.3757254852
 20
209.8102323882
 30
0.0
 10
2.767017901
 20
205.8851271614
 30
0.0
 10
4.3578826563
 20
201.2819952539
 30
0.0
 10
6.2384841609
 20
198.1020164366
 30
0.0
 10
7.9042817076
 20
196.0165613767
 30
0.0
 10
9.8225204632
 20
194.2279125854
 30
0.0
 10
11.2563376755
 20
193.247391582
 30
0.0
 10
12.0014817904
 20
192.8170294306
 30
0.0
  0
SPLINE
  5
2DA
100
AcDbEntity
  8
0
100
AcDbSpline
 62
7
  6
CONTINUOUS
 70
0
 71
3
 72
9
 73
5
 74
0
 42
0.0000001
 43
0.0000001
 44
0.0000000001
 40
0.0
 40
0.0
 40
0.0
 40
0.0
 40
0.4910985953
 40
1.0
 40
1.0
 40
1.0
 40
1.0
 10
31.2374421087
 20
289.6844972655
 30
0.0
 10
30.8953356251
 20
289.8351539734
 30
0.0
 10
30.1561864091
 20
290.0522425024
 30
0.0
 10
29.3878765692
 20
290.0828772144
 30
0.0
 10
29.0014304826
 20
290.0562623003
 30
0.0
  0
SPLINE
  5
2DB
100
AcDbEntity
  8
0
100
AcDbSpline
 62
7
  6
CONTINUOUS
 70
0
 71
3
 72
11
 73
7
 74
0
 42
0.0000001
 43
0.0000001
 44
0.0000000001
 40
0.0
 40
0.0
 40
0.0
 40
0.0
 40
0.2343782473
 40
0.478297659
 40
0.7333924044
 40
1.0
 40
1.0
 40
1.0
 40
1.0
 10
52.4003014378
 20
248.918708364
 30
0.0
 10
53.5273353465
 20
247.578316498
 30
0.0
 10
55.5470146593
 20
244.5963809939
 30
0.0
 10
57.7149951859
 20
239.5322430599
 30
0.0
 10
59.0280247993
 20
233.9377693044
 30
0.0
 10
59.3075476436
 20
230.032109998
 30
0.0
 10
59.3075476436
 20
228.0400523915
 30
0.0
  0
SPLINE
  5
2DC
100
AcDbEntity
  8
0
100
AcDbSpline
 62
7
  6
CONTINUOUS
 70
0
 71
3
 72
15
 73
11
 74
0
 42
0.0000001
 43
0.0000001
 44
0.0000000001
 40
0.0
 40
0.0
 40
0.0
 40
0.0
 40
0.1226793102
 40
0.2497804871
 40
0.3795759387
 40
0.5100271139
 40
0.6390304753
 40
0.7646372387
 40
0.8852762652
 40
1.0
 40
1.0
 40
1.0
 40
1.0
 10
59.3075476436
 20
228.0400523915
 30
0.0
 10
59.3075476436
 20
225.5366324013
 30
0.0
 10
58.8482456204
 20
220.4313230726
 30
0.0
 10
56.9157166777
 20
212.9000350686
 30
0.0
 10
53.8011095214
 20
205.6024529685
 30
0.0
 10
49.6215102292
 20
198.8136964663
 30
0.0
 10
44.5333568025
 20
192.7865595762
 30
0.0
 10
38.7234398107
 20
187.7474347184
 30
0.0
 10
32.4089782856
 20
183.8879644957
 30
0.0
 10
27.8911070122
 20
182.1558177367
 30
0.0
 10
25.6298605345
 20
181.5496782206
 30
0.0
  0
SPLINE
  5
2DD
100
AcDbEntity
  8
0
100
AcDbSpline
 62
7
  6
CONTINUOUS
 70
0
 71
3
 72
10
 73
6
 74
0
 42
0.0000001
 43
0.0000001
 44
0.0000000001
 40
0.0
 40
0.0
 40
0.0
 40
0.0
 40
0.521038262
 40
0.7634547985
 40
1.0
 40
1.0
 40
1.0
 40
1.0
 10
-12.6474719208
 20
265.5423611167
 30
0.0
 10
-11.8750105786
 20
266.5748448337
 30
0.0
 10
-10.5336138272
 20
267.9619558272
 30
0.0
 10
-8.4017188631
 20
269.2394910351
 30
0.0
 10
-7.282954505
 20
269.6558536122
 30
0.0
 10
-6.7175223164
 20
269.8074503943
 30
0.0
  0
SPLINE
  5
2DE
100
AcDbEntity
  8
0
100
AcDbSpline
 62
7
  6
CONTINUOUS
 70
0
 71
3
 72
9
 73
5
 74
0
 42
0.0000001
 43
0.0000001
 44
0.0000000001
 40
0.0
 40
0.0
 40
0.0
 40
0.0
 40
0.2448641828
 40
1.0
 40
1.0
 40
1.0
 40
1.0
 10
15.4750162912
 20
249.3681388464
 30
0.0
 10
15.4431852255
 20
248.7914872624
 30
0.0
 10
15.2306194242
 20
246.4414802321
 30
0.0
 10
14.697459764
 20
244.1229828597
 30
0.0
 10
14.141432241
 20
242.430960167
 30
0.0
  0
SPLINE
  5
2DF
100
AcDbEntity
  8
0
100
AcDbSpline
 62
7
  6
CONTINUOUS
 70
0
 71
3
 72
9
 73
5
 74
0
 42
0.0000001
 43
0.0000001
 44
0.0000000001
 40
0.0
 40
0.0
 40
0.0
 40
0.0
 40
0.2535439173
 40
1.0
 40
1.0
 40
1.0
 40
1.0
 10
34.8919534873
 20
251.7295825574
 30
0.0
 10
35.0325541279
 20
251.516502378
 30
0.0
 10
35.6111396023
 20
250.6922754103
 30
0.0
 10
36.2880188603
 20
249.9365252244
 30
0.0
 10
36.8400286847
 20
249.4264549747
 30
0.0
  0
SPLINE
  5
2E0
100
AcDbEntity
  8
0
100
AcDbSpline
 62
7
  6
CONTINUOUS
 70
0
 71
3
 72
11
 73
7
 74
0
 42
0.0000001
 43
0.0000001
 44
0.0000000001
 40
0.0
 40
0.0
 40
0.0
 40
0.0
 40
0.2655984915
 40
0.5205170054
 40
0.7648800058
 40
1.0
 40
1.0
 40
1.0
 40
1.0
 10
-10.8624515436
 20
211.6029375228
 30
0.0
 10
-10.8228313391
 20
209.5856877617
 30
0.0
 10
-10.4627443866
 20
205.6304005961
 30
0.0
 10
-9.0309967729
 20
199.9728553437
 30
0.0
 10
-6.752070357
 20
194.8497822861
 30
0.0
 10
-4.6653033769
 20
191.8315223391
 30
0.0
 10
-3.5060811564
 20
190.472706415
 30
0.0
  0
SPLINE
  5
2E1
100
AcDbEntity
  8
0
100
AcDbSpline
 62
7
  6
CONTINUOUS
 70
0
 71
3
 72
14
 73
10
 74
0
 42
0.0000001
 43
0.0000001
 44
0.0000000001
 40
0.0
 40
0.0
 40
0.0
 40
0.0
 40
0.244196398
 40
0.3708896695
 40
0.4989580176
 40
0.6271315181
 40
0.7541322969
 40
0.8787590272
 40
1.0
 40
1.0
 40
1.0
 40
1.0
 10
11.9534100624
 20
254.0446034584
 30
0.0
 10
8.4946802671
 20
251.8717000013
 30
0.0
 10
3.703176936
 20
247.7788753992
 30
0.0
 10
-1.5310943125
 20
241.2632201754
 30
0.0
 10
-4.9107524989
 20
235.8010019888
 30
0.0
 10
-7.6037113874
 20
229.9667765877
 30
0.0
 10
-9.5460632219
 20
223.9005748857
 30
0.0
 10
-10.6895771425
 20
217.752836904
 30
0.0
 10
-10.9022748871
 20
213.6305300425
 30
0.0
 10
-10.8624515436
 20
211.6029375228
 30
0.0
  0
SPLINE
  5
2E2
100
AcDbEntity
  8
0
100
AcDbSpline
 62
7
  6
CONTINUOUS
 70
0
 71
3
 72
13
 73
9
 74
0
 42
0.0000001
 43
0.0000001
 44
0.0000000001
 40
0.0
 40
0.0
 40
0.0
 40
0.0
 40
0.1054228116
 40
0.2162092768
 40
0.3355568365
 40
0.4637520711
 40
0.7347891091
 40
1.0
 40
1.0
 40
1.0
 40
1.0
 10
25.0053902882
 20
185.9127376636
 30
0.0
 10
25.2192568643
 20
185.7892115197
 30
0.0
 10
25.7097261769
 20
185.6172621483
 30
0.0
 10
26.5092528546
 20
185.6296120405
 30
0.0
 10
27.3173348249
 20
185.8955008637
 30
0.0
 10
28.3448835518
 20
186.5636699313
 30
0.0
 10
29.3245984925
 20
187.834437225
 30
0.0
 10
29.6484536963
 20
189.0975316166
 30
0.0
 10
29.6484536963
 20
189.7188485747
 30
0.0
  0
SPLINE
  5
2E3
100
AcDbEntity
  8
0
100
AcDbSpline
 62
7
  6
CONTINUOUS
 70
0
 71
3
 72
11
 73
7
 74
0
 42
0.0000001
 43
0.0000001
 44
0.0000000001
 40
0.0
 40
0.0
 40
0.0
 40
0.0
 40
0.2347910341
 40
0.5008850142
 40
0.7664968899
 40
1.0
 40
1.0
 40
1.0
 40
1.0
 10
1.7758662144
 20
264.0600683357
 30
0.0
 10
1.7175453327
 20
263.8287653806
 30
0.0
 10
1.6845311099
 20
263.3126462271
 30
0.0
 10
1.812004393
 20
262.5394292546
 30
0.0
 10
2.0923905236
 20
261.8091360298
 30
0.0
 10
2.3813293181
 20
261.3821191297
 30
0.0
 10
2.5484718063
 20
261.2137646887
 30
0.0
  0
SPLINE
  5
2E4
100
AcDbEntity
  8
0
100
AcDbSpline
 62
7
  6
CONTINUOUS
 70
0
 71
3
 72
9
 73
5
 74
0
 42
0.0000001
 43
0.0000001
 44
0.0000000001
 40
0.0
 40
0.0
 40
0.0
 40
0.0
 40
0.2668760426
 40
1.0
 40
1.0
 40
1.0
 40
1.0
 10
2.5484718063
 20
261.2137646887
 30
0.0
 10
2.5714213523
 20
261.1906487352
 30
0.0
 10
2.659741237
 20
261.1064573251
 30
0.0
 10
2.7579702415
 20
261.0320223983
 30
0.0
 10
2.8354554134
 20
260.9872684021
 30
0.0
  0
SPLINE
  5
2E5
100
AcDbEntity
  8
0
100
AcDbSpline
 62
7
  6
CONTINUOUS
 70
0
 71
3
 72
11
 73
7
 74
0
 42
0.0000001
 43
0.0000001
 44
0.0000000001
 40
0.0
 40
0.0
 40
0.0
 40
0.0
 40
0.271772124
 40
0.5268740629
 40
0.7676338636
 40
1.0
 40
1.0
 40
1.0
 40
1.0
 10
-27.1102823358
 20
186.9903073041
 30
0.0
 10
-27.1102823358
 20
187.3321264243
 30
0.0
 10
-27.1767554714
 20
187.9976144216
 30
0.0
 10
-27.4950311634
 20
188.9194725053
 30
0.0
 10
-28.0166648627
 20
189.6864461376
 30
0.0
 10
-28.4886780404
 20
190.0661768801
 30
0.0
 10
-28.7417743911
 20
190.2123142776
 30
0.0
  0
SPLINE
  5
2E6
100
AcDbEntity
  8
0
100
AcDbSpline
 62
7
  6
CONTINUOUS
 70
0
 71
3
 72
9
 73
5
 74
0
 42
0.0000001
 43
0.0000001
 44
0.0000000001
 40
0.0
 40
0.0
 40
0.0
 40
0.0
 40
0.477305613
 40
1.0
 40
1.0
 40
1.0
 40
1.0
 10
-28.8574762883
 20
190.1036815923
 30
0.0
 10
-28.5592174274
 20
189.7679401117
 30
0.0
 10
-28.0892707092
 20
188.9197424571
 30
0.0
 10
-27.9548056449
 20
187.9698825414
 30
0.0
 10
-27.9548056449
 20
187.4780882832
 30
0.0
  0
SPLINE
  5
2E7
100
AcDbEntity
  8
0
100
AcDbSpline
 62
7
  6
CONTINUOUS
 70
0
 71
3
 72
12
 73
8
 74
0
 42
0.0000001
 43
0.0000001
 44
0.0000000001
 40
0.0
 40
0.0
 40
0.0
 40
0.0
 40
0.2349933756
 40
0.4894753556
 40
0.6202647794
 40
0.7503870015
 40
1.0
 40
1.0
 40
1.0
 40
1.0
 10
-31.2425138839
 20
259.4294090565
 30
0.0
 10
-30.6756675983
 20
259.5813553111
 30
0.0
 10
-29.5583159979
 20
260.1522152052
 30
0.0
 10
-28.4630286832
 20
261.2811174067
 30
0.0
 10
-27.7859496613
 20
262.3809162377
 30
0.0
 10
-27.2838808571
 20
263.5558101014
 30
0.0
 10
-27.1102823358
 20
264.5103812413
 30
0.0
 10
-27.1102823358
 20
265.1337494458
 30
0.0
  0
SPLINE
  5
2E8
100
AcDbEntity
  8
0
100
AcDbSpline
 62
7
  6
CONTINUOUS
 70
0
 71
3
 72
10
 73
6
 74
0
 42
0.0000001
 43
0.0000001
 44
0.0000000001
 40
0.0
 40
0.0
 40
0.0
 40
0.0
 40
0.5252520963
 40
0.7668039053
 40
1.0
 40
1.0
 40
1.0
 40
1.0
 10
-30.682078466
 20
186.7470278508
 30
0.0
 10
-30.682078466
 20
186.970833157
 30
0.0
 10
-30.747610797
 20
187.3076679368
 30
0.0
 10
-30.9903000723
 20
187.6635879076
 30
0.0
 10
-31.1507623168
 20
187.7927816414
 30
0.0
 10
-31.2367913382
 20
187.8425006033
 30
0.0
  0
SPLINE
  5
2E9
100
AcDbEntity
  8
0
100
AcDbSpline
 62
7
  6
CONTINUOUS
 70
0
 71
3
 72
13
 73
9
 74
0
 42
0.0000001
 43
0.0000001
 44
0.0000000001
 40
0.0
 40
0.0
 40
0.0
 40
0.0
 40
0.1054199736
 40
0.2162072625
 40
0.3355571307
 40
0.4637457895
 40
0.7347562963
 40
1.0
 40
1.0
 40
1.0
 40
1.0
 10
-32.9372830459
 20
184.8983413194
 30
0.0
 10
-32.8334241303
 20
184.8383178833
 30
0.0
 10
-32.595176169
 20
184.7548380655
 30
0.0
 10
-32.206845895
 20
184.76084698
 30
0.0
 10
-31.8143579151
 20
184.8900044871
 30
0.0
 10
-31.3152921719
 20
185.2145093159
 30
0.0
 10
-30.8393893972
 20
185.8316968229
 30
0.0
 10
-30.682078466
 20
186.4452100575
 30
0.0
 10
-30.682078466
 20
186.7470278508
 30
0.0
  0
SPLINE
  5
2EA
100
AcDbEntity
  8
0
100
AcDbSpline
 62
7
  6
CONTINUOUS
 70
0
 71
3
 72
19
 73
15
 74
0
 42
0.0000001
 43
0.0000001
 44
0.0000000001
 40
0.0
 40
0.0
 40
0.0
 40
0.0
 40
0.1300541387
 40
0.2656684259
 40
0.3344130209
 40
0.4029810348
 40
0.5372301382
 40
0.6648520298
 40
0.7255482972
 40
0.7839620871
 40
0.8402158029
 40
0.894621071
 40
0.9476700452
 40
1.0
 40
1.0
 40
1.0
 40
1.0
 10
0.3096097117
 20
211.2731182189
 30
0.0
 10
0.3096097117
 20
214.0714037842
 30
0.0
 10
1.0420450337
 20
219.8024294242
 30
0.0
 10
3.5154712419
 20
226.6183258752
 30
0.0
 10
6.3587387908
 20
231.7674327496
 30
0.0
 10
9.7101655008
 20
236.5649820532
 30
0.0
 10
14.6868692284
 20
241.7237990548
 30
0.0
 10
20.5712480883
 20
245.5440757575
 30
0.0
 10
25.5178440636
 20
247.511361873
 30
0.0
 10
29.197774448
 20
248.4049083551
 30
0.0
 10
32.8369056265
 20
248.7202817349
 30
0.0
 10
36.3658060888
 20
248.4480301882
 30
0.0
 10
39.7130566479
 20
247.59088126
 30
0.0
 10
41.7856617282
 20
246.6353153624
 30
0.0
 10
42.7606823134
 20
246.0722051931
 30
0.0
  0
SPLINE
  5
2EB
100
AcDbEntity
  8
0
100
AcDbSpline
 62
7
  6
CONTINUOUS
 70
0
 71
3
 72
10
 73
6
 74
0
 42
0.0000001
 43
0.0000001
 44
0.0000000001
 40
0.0
 40
0.0
 40
0.0
 40
0.0
 40
0.2358785295
 40
0.4779343468
 40
1.0
 40
1.0
 40
1.0
 40
1.0
 10
-6.7175223164
 20
269.8074503943
 30
0.0
 10
-6.1361766696
 20
269.9633136987
 30
0.0
 10
-4.9241648947
 20
270.1647392112
 30
0.0
 10
-2.3617262219
 20
270.104064179
 30
0.0
 10
-0.453345269
 20
269.5299195527
 30
0.0
 10
0.7632004848
 20
268.9871763332
 30
0.0
  0
SPLINE
  5
2EC
100
AcDbEntity
  8
0
100
AcDbSpline
 62
7
  6
CONTINUOUS
 70
0
 71
3
 72
14
 73
10
 74
0
 42
0.0000001
 43
0.0000001
 44
0.0000000001
 40
0.0
 40
0.0
 40
0.0
 40
0.0
 40
0.1173693746
 40
0.2397881738
 40
0.3661752132
 40
0.495033847
 40
0.6246428502
 40
0.7532128969
 40
1.0
 40
1.0
 40
1.0
 40
1.0
 10
29.6484536963
 20
192.2087403971
 30
0.0
 10
31.1462940374
 20
192.8093344579
 30
0.0
 10
34.1004186836
 20
194.3146152114
 30
0.0
 10
38.1791605717
 20
197.297771056
 30
0.0
 10
41.884587411
 20
200.9619458334
 30
0.0
 10
45.0971597433
 20
205.1872897312
 30
0.0
 10
47.7157552272
 20
209.8416627915
 30
0.0
 10
50.264121483
 20
216.3127676247
 30
0.0
 10
51.1360577414
 20
221.5042370345
 30
0.0
 10
51.1360577414
 20
224.8974262784
 30
0.0
  0
SPLINE
  5
2ED
100
AcDbEntity
  8
0
100
AcDbSpline
 62
7
  6
CONTINUOUS
 70
0
 71
3
 72
13
 73
9
 74
0
 42
0.0000001
 43
0.0000001
 44
0.0000000001
 40
0.0
 40
0.0
 40
0.0
 40
0.0
 40
0.271432317
 40
0.5262141489
 40
0.6482247315
 40
0.7672620358
 40
0.8841830189
 40
1.0
 40
1.0
 40
1.0
 40
1.0
 10
51.1360577414
 20
224.8974262784
 30
0.0
 10
51.1360577414
 20
226.9141451498
 30
0.0
 10
50.7447666551
 20
230.8392237443
 30
0.0
 10
49.1539414564
 20
235.442336803
 30
0.0
 10
47.273332105
 20
238.6222787879
 30
0.0
 10
45.6075186528
 20
240.7077214837
 30
0.0
 10
43.6893470956
 20
242.4965017516
 30
0.0
 10
42.2554393396
 20
243.4769451071
 30
0.0
 10
41.5103057653
 20
243.9073563642
 30
0.0
  0
SPLINE
  5
2EE
100
AcDbEntity
  8
0
100
AcDbSpline
 62
7
  6
CONTINUOUS
 70
0
 71
3
 72
9
 73
5
 74
0
 42
0.0000001
 43
0.0000001
 44
0.0000000001
 40
0.0
 40
0.0
 40
0.0
 40
0.0
 40
0.4897599303
 40
1.0
 40
1.0
 40
1.0
 40
1.0
 10
-12.6474719208
 20
264.4353564768
 30
0.0
 10
-12.6474719208
 20
261.8747072482
 30
0.0
 10
-13.6243858357
 20
256.626241483
 30
0.0
 10
-16.1341619276
 20
251.9394998754
 30
0.0
 10
-17.7332953637
 20
249.8041918974
 30
0.0
  0
SPLINE
  5
2EF
100
AcDbEntity
  8
0
100
AcDbSpline
 62
7
  6
CONTINUOUS
 70
0
 71
3
 72
11
 73
7
 74
0
 42
0.0000001
 43
0.0000001
 44
0.0000000001
 40
0.0
 40
0.0
 40
0.0
 40
0.0
 40
0.2323607163
 40
0.4731244148
 40
0.7282306892
 40
1.0
 40
1.0
 40
1.0
 40
1.0
 10
23.7550009393
 20
183.7478666325
 30
0.0
 10
23.4512990535
 20
183.9232396612
 30
0.0
 10
22.8848748521
 20
184.3788970498
 30
0.0
 10
22.2589078094
 20
185.2992729239
 30
0.0
 10
21.8769793522
 20
186.4055127889
 30
0.0
 10
21.7972137567
 20
187.2041015427
 30
0.0
 10
21.7972137568
 20
187.6142806648
 30
0.0
  0
SPLINE
  5
2F0
100
AcDbEntity
  8
0
100
AcDbSpline
 62
7
  6
CONTINUOUS
 70
0
 71
3
 72
10
 73
6
 74
0
 42
0.0000001
 43
0.0000001
 44
0.0000000001
 40
0.0
 40
0.0
 40
0.0
 40
0.0
 40
0.2559865608
 40
0.510976934
 40
1.0
 40
1.0
 40
1.0
 40
1.0
 10
-17.7332953637
 20
249.8041918974
 30
0.0
 10
-19.0188818365
 20
248.0875602604
 30
0.0
 10
-21.3241103048
 20
244.453702074
 30
0.0
 10
-24.6981389501
 20
236.7684401097
 30
0.0
 10
-25.8706128716
 20
230.4913682473
 30
0.0
 10
-25.8706128716
 20
226.3943285715
 30
0.0
  0
SPLINE
  5
2F1
100
AcDbEntity
  8
0
100
AcDbSpline
 62
7
  6
CONTINUOUS
 70
0
 71
3
 72
13
 73
9
 74
0
 42
0.0000001
 43
0.0000001
 44
0.0000000001
 40
0.0
 40
0.0
 40
0.0
 40
0.0
 40
0.2714336671
 40
0.5262166998
 40
0.6482284782
 40
0.7672657124
 40
0.8841842367
 40
1.0
 40
1.0
 40
1.0
 40
1.0
 10
-25.8706128716
 20
226.3943285715
 30
0.0
 10
-25.8706128716
 20
224.206690869
 30
0.0
 10
-25.4461500728
 20
219.9489597587
 30
0.0
 10
-23.7204946972
 20
214.9557247978
 30
0.0
 10
-21.6804901144
 20
211.5062897593
 30
0.0
 10
-19.8735065908
 20
209.2441227469
 30
0.0
 10
-17.7927623955
 20
207.3038263974
 30
0.0
 10
-16.2374192975
 20
206.2402204155
 30
0.0
 10
-15.4291264891
 20
205.7733749489
 30
0.0
  0
SPLINE
  5
2F2
100
AcDbEntity
  8
0
100
AcDbSpline
 62
7
  6
CONTINUOUS
 70
0
 71
3
 72
12
 73
8
 74
0
 42
0.0000001
 43
0.0000001
 44
0.0000000001
 40
0.0
 40
0.0
 40
0.0
 40
0.0
 40
0.1156091348
 40
0.2328463818
 40
0.4745758552
 40
0.7298139032
 40
1.0
 40
1.0
 40
1.0
 40
1.0
 10
8.9072039379
 20
191.8695776955
 30
0.0
 10
8.2297080353
 20
192.3772553586
 30
0.0
 10
6.9334629848
 20
193.494706505
 30
0.0
 10
4.6198937111
 20
196.0991333658
 30
0.0
 10
2.3168320259
 20
200.0218080423
 30
0.0
 10
0.6591682833
 20
205.4335968145
 30
0.0
 10
0.3096097117
 20
209.2945508075
 30
0.0
 10
0.3096097117
 20
211.2731182189
 30
0.0
  0
SPLINE
  5
2F3
100
AcDbEntity
  8
0
100
AcDbSpline
 62
7
  6
CONTINUOUS
 70
0
 71
3
 72
11
 73
7
 74
0
 42
0.0000001
 43
0.0000001
 44
0.0000000001
 40
0.0
 40
0.0
 40
0.0
 40
0.0
 40
0.2323682304
 40
0.4731296227
 40
0.7282316635
 40
1.0
 40
1.0
 40
1.0
 40
1.0
 10
-35.011706377
 20
180.097432131
 30
0.0
 10
-35.3913537515
 20
180.3166422422
 30
0.0
 10
-36.0993780291
 20
180.8862439685
 30
0.0
 10
-36.8818378259
 20
182.0367120485
 30
0.0
 10
-37.3592162591
 20
183.4195083337
 30
0.0
 10
-37.4589382033
 20
184.4177312954
 30
0.0
 10
-37.4589382033
 20
184.9304534429
 30
0.0
  0
SPLINE
  5
2F4
100
AcDbEntity
  8
0
100
AcDbSpline
 62
7
  6
CONTINUOUS
 70
0
 71
3
 72
13
 73
9
 74
0
 42
0.0000001
 43
0.0000001
 44
0.0000000001
 40
0.0
 40
0.0
 40
0.0
 40
0.0
 40
0.1054199736
 40
0.2162072625
 40
0.3355571307
 40
0.4637457895
 40
0.7347562963
 40
1.0
 40
1.0
 40
1.0
 40
1.0
 10
-32.9372830459
 20
263.0417834611
 30
0.0
 10
-32.8334241303
 20
262.981760025
 30
0.0
 10
-32.595176169
 20
262.8982802072
 30
0.0
 10
-32.206845895
 20
262.9042891217
 30
0.0
 10
-31.8143579151
 20
263.0334466288
 30
0.0
 10
-31.3152921719
 20
263.3579514575
 30
0.0
 10
-30.8393893972
 20
263.9751389645
 30
0.0
 10
-30.682078466
 20
264.5886521991
 30
0.0
 10
-30.682078466
 20
264.8904699924
 30
0.0
  0
SPLINE
  5
2F5
100
AcDbEntity
  8
0
100
AcDbSpline
 62
7
  6
CONTINUOUS
 70
0
 71
3
 72
11
 73
7
 74
0
 42
0.0000001
 43
0.0000001
 44
0.0000000001
 40
0.0
 40
0.0
 40
0.0
 40
0.0
 40
0.2428152408
 40
0.4886832966
 40
0.7403665505
 40
1.0
 40
1.0
 40
1.0
 40
1.0
 10
12.0014817904
 20
192.8170294306
 30
0.0
 10
12.8611947661
 20
192.3204973928
 30
0.0
 10
14.6832142446
 20
191.4715820124
 30
0.0
 10
17.6203068952
 20
190.6824309926
 30
0.0
 10
20.7153037492
 20
190.3854950757
 30
0.0
 10
22.8113280263
 20
190.5158411729
 30
0.0
 10
23.8633295303
 20
190.6580061464
 30
0.0
  0
SPLINE
  5
2F6
100
AcDbEntity
  8
0
100
AcDbSpline
 62
7
  6
CONTINUOUS
 70
0
 71
3
 72
8
 73
4
 74
0
 42
0.0000001
 43
0.0000001
 44
0.0000000001
 40
0.0
 40
0.0
 40
0.0
 40
0.0
 40
1.0
 40
1.0
 40
1.0
 40
1.0
 10
3.1216309278
 20
260.8823707534
 30
0.0
 10
3.1592023595
 20
260.8767648847
 30
0.0
 10
3.1974708289
 20
260.8745176377
 30
0.0
 10
3.2354230674
 20
260.876150374
 30
0.0
  0
SPLINE
  5
2F7
100
AcDbEntity
  8
0
100
AcDbSpline
 62
7
  6
CONTINUOUS
 70
0
 71
3
 72
13
 73
9
 74
0
 42
0.0000001
 43
0.0000001
 44
0.0000000001
 40
0.0
 40
0.0
 40
0.0
 40
0.0
 40
0.27090513
 40
0.5258696631
 40
0.6481023029
 40
0.7673390796
 40
0.8843569097
 40
1.0
 40
1.0
 40
1.0
 40
1.0
 10
-0.8164213672
 20
211.9234928577
 30
0.0
 10
-0.8164213672
 20
209.8226977281
 30
0.0
 10
-0.4243608132
 20
205.7302095299
 30
0.0
 10
1.1633543327
 20
200.9080546999
 30
0.0
 10
3.0446516606
 20
197.5381226856
 30
0.0
 10
4.7142511453
 20
195.3042776083
 30
0.0
 10
6.6412340233
 20
193.3599056796
 30
0.0
 10
8.0873359902
 20
192.2685968209
 30
0.0
 10
8.8406276168
 20
191.7820097167
 30
0.0
  0
SPLINE
  5
2F8
100
AcDbEntity
  8
0
100
AcDbSpline
 62
7
  6
CONTINUOUS
 70
0
 71
3
 72
11
 73
7
 74
0
 42
0.0000001
 43
0.0000001
 44
0.0000000001
 40
0.0
 40
0.0
 40
0.0
 40
0.0
 40
0.2497052839
 40
0.505047183
 40
0.7577197025
 40
1.0
 40
1.0
 40
1.0
 40
1.0
 10
14.141432241
 20
242.430960167
 30
0.0
 10
11.8715903381
 20
240.6047776376
 30
0.0
 10
7.7067961499
 20
236.3554054967
 30
0.0
 10
2.9658336902
 20
228.819793432
 30
0.0
 10
-0.068664669
 20
220.5407684878
 30
0.0
 10
-0.8164213672
 20
214.750133913
 30
0.0
 10
-0.8164213672
 20
211.9234928577
 30
0.0
  0
SPLINE
  5
2F9
100
AcDbEntity
  8
0
100
AcDbSpline
 62
7
  6
CONTINUOUS
 70
0
 71
3
 72
13
 73
9
 74
0
 42
0.0000001
 43
0.0000001
 44
0.0000000001
 40
0.0
 40
0.0
 40
0.0
 40
0.0
 40
0.2438453498
 40
0.3706233202
 40
0.4988838895
 40
0.6272963665
 40
0.7545196736
 40
1.0
 40
1.0
 40
1.0
 40
1.0
 10
-8.0478257157
 20
209.9850740228
 30
0.0
 10
-8.0478257157
 20
214.0546006756
 30
0.0
 10
-7.140636097
 20
220.2694514386
 30
0.0
 10
-4.4420948808
 20
228.1578650644
 30
0.0
 10
-1.6488123132
 20
233.9342209378
 30
0.0
 10
1.818795322
 20
239.3414384495
 30
0.0
 10
7.1526618175
 20
245.7977232074
 30
0.0
 10
11.9929214734
 20
249.8513708264
 30
0.0
 10
15.4750529216
 20
252.0097579674
 30
0.0
  0
SPLINE
  5
2FA
100
AcDbEntity
  8
0
100
AcDbSpline
 62
7
  6
CONTINUOUS
 70
0
 71
3
 72
11
 73
7
 74
0
 42
0.0000001
 43
0.0000001
 44
0.0000000001
 40
0.0
 40
0.0
 40
0.0
 40
0.0
 40
0.2343782637
 40
0.4782977078
 40
0.7333924434
 40
1.0
 40
1.0
 40
1.0
 40
1.0
 10
-1.140614519
 20
189.1064610755
 30
0.0
 10
-2.2676398102
 20
190.4468547093
 30
0.0
 10
-4.2873150704
 20
193.4287817765
 30
0.0
 10
-6.4552806832
 20
198.492912383
 30
0.0
 10
-7.7683046296
 20
204.0873721618
 30
0.0
 10
-8.0478257157
 20
207.993021616
 30
0.0
 10
-8.0478257157
 20
209.9850740228
 30
0.0
  0
SPLINE
  5
2FB
100
AcDbEntity
  8
0
100
AcDbSpline
 62
7
  6
CONTINUOUS
 70
0
 71
3
 72
12
 73
8
 74
0
 42
0.0000001
 43
0.0000001
 44
0.0000000001
 40
0.0
 40
0.0
 40
0.0
 40
0.0
 40
0.2496129985
 40
0.3797352206
 40
0.5105246444
 40
0.7650066244
 40
1.0
 40
1.0
 40
1.0
 40
1.0
 10
-27.9548056449
 20
265.6215304249
 30
0.0
 10
-27.9548056449
 20
264.9981622205
 30
0.0
 10
-28.1284041662
 20
264.0435910807
 30
0.0
 10
-28.6304729703
 20
262.8686972171
 30
0.0
 10
-29.307551992
 20
261.7688983861
 30
0.0
 10
-30.4028393066
 20
260.6399961847
 30
0.0
 10
-31.5201909068
 20
260.0691362904
 30
0.0
 10
-32.0870371924
 20
259.9171900358
 30
0.0
  0
SPLINE
  5
2FC
100
AcDbEntity
  8
0
100
AcDbSpline
 62
7
  6
CONTINUOUS
 70
0
 71
3
 72
13
 73
9
 74
0
 42
0.0000001
 43
0.0000001
 44
0.0000000001
 40
0.0
 40
0.0
 40
0.0
 40
0.0
 40
0.2494166047
 40
0.3794382448
 40
0.5101271402
 40
0.6393652584
 40
0.765191617
 40
1.0
 40
1.0
 40
1.0
 40
1.0
 10
-37.4589382033
 20
263.0738955845
 30
0.0
 10
-37.4589382033
 20
264.0089409587
 30
0.0
 10
-37.1985420654
 20
265.4409073811
 30
0.0
 10
-36.4454605398
 20
267.2029415106
 30
0.0
 10
-35.6764065175
 20
268.453038718
 30
0.0
 10
-34.7389940111
 20
269.5624957453
 30
0.0
 10
-33.3500400091
 20
270.7691611277
 30
0.0
 10
-32.1108536399
 20
271.4024885743
 30
0.0
 10
-31.2605908826
 20
271.6304061681
 30
0.0
  0
SPLINE
  5
2FD
100
AcDbEntity
  8
0
100
AcDbSpline
 62
7
  6
CONTINUOUS
 70
0
 71
3
 72
10
 73
6
 74
0
 42
0.0000001
 43
0.0000001
 44
0.0000000001
 40
0.0
 40
0.0
 40
0.0
 40
0.0
 40
0.5252520963
 40
0.7668039053
 40
1.0
 40
1.0
 40
1.0
 40
1.0
 10
-30.682078466
 20
264.8904699924
 30
0.0
 10
-30.682078466
 20
265.1142752986
 30
0.0
 10
-30.747610797
 20
265.4511100785
 30
0.0
 10
-30.9903000723
 20
265.8070300493
 30
0.0
 10
-31.1507623168
 20
265.9362237831
 30
0.0
 10
-31.2367913382
 20
265.9859427449
 30
0.0
  0
SPLINE
  5
2FE
100
AcDbEntity
  8
0
100
AcDbSpline
 62
7
  6
CONTINUOUS
 70
0
 71
3
 72
9
 73
5
 74
0
 42
0.0000001
 43
0.0000001
 44
0.0000000001
 40
0.0
 40
0.0
 40
0.0
 40
0.0
 40
0.2549881867
 40
1.0
 40
1.0
 40
1.0
 40
1.0
 10
5.3748420445
 20
248.8210304252
 30
0.0
 10
5.4666713917
 20
249.2290380742
 30
0.0
 10
5.7849087736
 20
250.8381312202
 30
0.0
 10
5.9320408803
 20
252.4822583286
 30
0.0
 10
5.9320408803
 20
253.7041749362
 30
0.0
  0
ENDSEC
  0
SECTION
  2
OBJECTS
  0
DICTIONARY
  5
C
100
AcDbDictionary
280
0
281
1
  3
ACAD_GROUP
350
D
  3
ACAD_MLINESTYLE
350
17
  3
ACAD_LAYOUT
350
1A
  3
ACAD_PLOTSETTINGS
350
19
  3
ACAD_PLOTSTYLENAME
350
E
  0
DICTIONARY
  5
D
102
{ACAD_REACTORS
330
C
102
}
100
AcDbDictionary
280
0
281
1
  0
ACDBDICTIONARYWDFLT
  5
E
102
{ACAD_REACTORS
330
C
102
}
100
AcDbDictionary
281
1
  3
Normal
350
F
100
AcDbDictionaryWithDefault
340
F
  0
DICTIONARY
  5
17
102
{ACAD_REACTORS
330
C
102
}
100
AcDbDictionary
280
0
281
1
  3
Standard
350
18
  0
DICTIONARY
  5
19
102
{ACAD_REACTORS
330
C
102
}
100
AcDbDictionary
281
1
  0
DICTIONARY
  5
1A
102
{ACAD_REACTORS
330
C
102
}
100
AcDbDictionary
281
1
  3
Model
350
2FF
  3
Layout1
350
300
  0
ACDBPLACEHOLDER
  5
F
102
{ACAD_REACTORS
330
E
102
}
  0
MLINESTYLE
  5
18
102
{ACAD_REACTORS
330
17
102
}
100
AcDbMlineStyle
  2
STANDARD
 70
0
  3

 62
256
 51
90.0
 52
90.0
 71
2
 49
0.5
 62
256
  6
BYLAYER
 49
-0.5
 62
256
  6
BYLAYER
  0
LAYOUT
  5
2FF
102
{ACAD_REACTORS
330
1A
102
}
100
AcDbPlotSettings
  1

  2
none_device
  4
ANSI_C_(22.00_x_17.00_Inches)
  6

 40
0.0
 41
0.0
 42
0.0
 43
0.0
 44
558.8
 45
431.8
 46
0.0
 47
0.0
 48
0.0
 49
0.0
140
0.0
141
0.0
142
1.0
143
1.0
 70
1024
 72
1
 73
0
 74
0
  7

 75
0
147
1.0
148
0.0
149
0.0
100
AcDbLayout
  1
Model
 70
0
 71
0
 10
0.0
 20
0.0
 11
558.8
 21
431.8
 12
0.0
 22
0.0
 32
0.0
 14
0.0
 24
0.0
 34
0.0
 15
0.0
 25
0.0
 35
0.0
146
0.0
 13
0.0
 23
0.0
 33
0.0
 16
1.0
 26
0.0
 36
0.0
 17
0.0
 27
1.0
 37
0.0
 76
0
330
216
345
0
346
0
  0
LAYOUT
  5
300
102
{ACAD_REACTORS
330
1A
102
}
100
AcDbPlotSettings
  1

  2
none_device
  4
ANSI_C_(22.00_x_17.00_Inches)
  6

 40
0.0
 41
0.0
 42
0.0
 43
0.0
 44
558.8
 45
431.8
 46
0.0
 47
0.0
 48
0.0
 49
0.0
140
0.0
141
0.0
142
1.0
143
1.0
 70
0
 72
1
 73
0
 74
0
  7

 75
0
147
1.0
148
0.0
149
0.0
100
AcDbLayout
  1
Layout1
 70
0
 71
1
 10
0.0
 20
0.0
 11
558.8
 21
431.8
 12
0.0
 22
0.0
 32
0.0
 14
0.0
 24
0.0
 34
0.0
 15
0.0
 25
0.0
 35
0.0
146
0.0
 13
0.0
 23
0.0
 33
0.0
 16
1.0
 26
0.0
 36
0.0
 17
0.0
 27
1.0
 37
0.0
 76
0
330
217
345
0
346
0
  0
ENDSEC
  0
EOF
