999
DXF file: Y:\3D PRATIKA-KAEDRA_OLGA\TRAVAIL_PHASE_5\CAD3D\PKF32G435_3D-Simplified\PKF32G435_2D-isometric.dxf
999
Pro/ENGINEER 2018260 by Parametric Technology Corporation
  0
SECTION
  2
HEADER
  9
$ACADVER
  1
AC1027
  9
$DWGCODEPAGE
  3
ANSI_1252
  9
$EXTMAX
 10
558.8
 20
431.8
 30
0.0
  9
$EXTMIN
 10
0.0
 20
0.0
 30
0.0
  9
$LIMMIN
 10
0.0
 20
0.0
  9
$LIMMAX
 10
558.8
 20
431.8
  9
$VIEWCTR
 10
279.4
 20
215.9
  9
$VIEWSIZE
 40
431.8
  9
$CLAYER
  8
0
  9
$LTSCALE
 40
30.734
  9
$CELTYPE
  6
BYLAYER
  9
$DIMSCALE
 40
1.0
  9
$DIMASZ
 40
0.1875
  9
$DIMEXO
 40
0.0625
  9
$DIMDLI
 40
21.2344
  9
$DIMEXE
 40
0.125
  9
$DIMCEN
 40
5.0292
  9
$DIMLFAC
 40
1.0
  9
$DIMBLK
  1
_CLOSED
  9
$DIMALT
 70
0
  9
$DIMALTF
 40
0.0393700787
  9
$DIMTXT
 40
0.15625
  9
$DIMTOL
 70
0
  9
$DIMLIM
 70
0
  9
$DIMTFAC
 40
1.0
  9
$DIMGAP
 40
0.625
  9
$DIMDSEP
 70
46
  9
$AUNITS
 70
0
  9
$PDMODE
 70
3
  9
$PDSIZE
 40
0.3125
  9
$HANDSEED
  5
2FC
  9
$TILEMODE
 70
1
  9
$MEASUREMENT
 70
1
  9
$INSUNITS
 70
4
  0
ENDSEC
  0
SECTION
  2
CLASSES
  0
CLASS
  1
ACDBDICTIONARYWDFLT
  2
AcDbDictionaryWithDefault
  3
AutoCAD 2000
 90
0
 91
1
280
0
281
0
  0
CLASS
  1
ACDBPLACEHOLDER
  2
AcDbPlaceHolder
  3
AutoCAD 2000
 90
0
 91
1
280
0
281
0
  0
CLASS
  1
LAYOUT
  2
AcDbLayout
  3
AutoCAD 2000
 90
0
 91
0
280
0
281
0
  0
ENDSEC
  0
SECTION
  2
TABLES
  0
TABLE
  2
VPORT
  5
8
100
AcDbSymbolTable
 70
2
  0
VPORT
  5
1F4
100
AcDbSymbolTableRecord
100
AcDbViewportTableRecord
  2
*ACTIVE
 70
0
 10
0.0
 20
0.0
 11
1.0
 21
1.0
 12
279.4
 22
215.9
 13
0.0
 23
0.0
 14
1.0
 24
1.0
 15
0.0
 25
0.0
 16
0.0
 26
0.0
 36
1.0
 17
0.0
 27
0.0
 37
0.0
 40
431.8
 41
1.2941176471
 42
50.0
 43
0.0
 44
0.0
 50
0.0
 51
0.0
 71
0
 72
100
 73
1
 74
1
 75
0
 76
0
 77
0
 78
0
  0
ENDTAB
  0
TABLE
  2
LTYPE
  5
5
100
AcDbSymbolTable
 70
6
  0
LTYPE
  5
14
100
AcDbSymbolTableRecord
100
AcDbLinetypeTableRecord
  2
BYBLOCK
 70
0
  3

 72
65
 73
0
 40
0.0
  0
LTYPE
  5
15
100
AcDbSymbolTableRecord
100
AcDbLinetypeTableRecord
  2
BYLAYER
 70
0
  3

 72
65
 73
0
 40
0.0
  0
LTYPE
  5
16
100
AcDbSymbolTableRecord
100
AcDbLinetypeTableRecord
  2
CONTINUOUS
 70
64
  3
Solid line
 72
65
 73
0
 40
0.0
  0
LTYPE
  5
1F5
100
AcDbSymbolTableRecord
100
AcDbLinetypeTableRecord
  2
CENTER
 70
64
  3
____ _ ____ _ ____ _ ____ _ ____ _ ____ _ ____
 72
65
 73
4
 40
0.6
 49
0.375
 74
0
 49
-0.075
 74
0
 49
0.075
 74
0
 49
-0.075
 74
0
  0
LTYPE
  5
1F6
100
AcDbSymbolTableRecord
100
AcDbLinetypeTableRecord
  2
HIDDEN
 70
64
  3
- - - - - - - - - - - - - - - - - - - -
 72
65
 73
2
 40
0.2
 49
0.1
 74
0
 49
-0.1
 74
0
  0
LTYPE
  5
1F7
100
AcDbSymbolTableRecord
100
AcDbLinetypeTableRecord
  2
PHANTOM
 70
64
  3
_____ _ _ _____ _ _ _____ _ _ _____
 72
65
 73
6
 40
0.8
 49
0.45
 74
0
 49
-0.05
 74
0
 49
0.1
 74
0
 49
-0.05
 74
0
 49
0.1
 74
0
 49
-0.05
 74
0
  0
LTYPE
  5
1F8
100
AcDbSymbolTableRecord
100
AcDbLinetypeTableRecord
  2
DOT
 70
64
  3
. . . . . . . . . . . . . . . . . . . .
 72
65
 73
2
 40
0.2
 49
0.1
 74
0
 49
-0.1
 74
0
  0
LTYPE
  5
1F9
100
AcDbSymbolTableRecord
100
AcDbLinetypeTableRecord
  2
DASHED
 70
64
  3
- - - - - - - - - - - - - - - - - - - -
 72
65
 73
2
 40
0.2
 49
0.1
 74
0
 49
-0.1
 74
0
  0
ENDTAB
  0
TABLE
  2
LAYER
  5
2
100
AcDbSymbolTable
 70
36
  0
LAYER
  5
10
100
AcDbSymbolTableRecord
100
AcDbLayerTableRecord
  2
0
 70
0
 62
7
  6
CONTINUOUS
370
-3
390
F
  0
LAYER
  5
1FA
100
AcDbSymbolTableRecord
100
AcDbLayerTableRecord
  2
DEFAULT_1
 70
0
 62
7
  6
CENTER
370
-3
390
F
  0
LAYER
  5
1FB
100
AcDbSymbolTableRecord
100
AcDbLayerTableRecord
  2
DEFAULT_2
 70
0
 62
8
  6
HIDDEN
370
-3
390
F
  0
LAYER
  5
1FC
100
AcDbSymbolTableRecord
100
AcDbLayerTableRecord
  2
DEFAULT_3
 70
0
 62
7
  6
PHANTOM
370
-3
390
F
  0
LAYER
  5
1FD
100
AcDbSymbolTableRecord
100
AcDbLayerTableRecord
  2
01_ALL_DTM_PLN
 70
0
 62
7
  6
CONTINUOUS
370
-3
390
F
  0
LAYER
  5
1FE
100
AcDbSymbolTableRecord
100
AcDbLayerTableRecord
  2
01__ASM_ALL_DTM_PLN
 70
0
 62
7
  6
CONTINUOUS
370
-3
390
F
  0
LAYER
  5
1FF
100
AcDbSymbolTableRecord
100
AcDbLayerTableRecord
  2
01__ASM_DEF_DTM_PLN
 70
0
 62
7
  6
CONTINUOUS
370
-3
390
F
  0
LAYER
  5
200
100
AcDbSymbolTableRecord
100
AcDbLayerTableRecord
  2
01___PRT_ALL_DTM_PLN
 70
0
 62
7
  6
CONTINUOUS
370
-3
390
F
  0
LAYER
  5
201
100
AcDbSymbolTableRecord
100
AcDbLayerTableRecord
  2
01___PRT_DEF_DTM_PLN
 70
0
 62
7
  6
CONTINUOUS
370
-3
390
F
  0
LAYER
  5
202
100
AcDbSymbolTableRecord
100
AcDbLayerTableRecord
  2
02_ALL_AXES
 70
0
 62
7
  6
CONTINUOUS
370
-3
390
F
  0
LAYER
  5
203
100
AcDbSymbolTableRecord
100
AcDbLayerTableRecord
  2
02__ASM_ALL_AXES
 70
0
 62
7
  6
CONTINUOUS
370
-3
390
F
  0
LAYER
  5
204
100
AcDbSymbolTableRecord
100
AcDbLayerTableRecord
  2
02___PRT_ALL_AXES
 70
0
 62
7
  6
CONTINUOUS
370
-3
390
F
  0
LAYER
  5
205
100
AcDbSymbolTableRecord
100
AcDbLayerTableRecord
  2
03_ALL_CURVES
 70
0
 62
7
  6
CONTINUOUS
370
-3
390
F
  0
LAYER
  5
206
100
AcDbSymbolTableRecord
100
AcDbLayerTableRecord
  2
03__ASM_ALL_CURVES
 70
0
 62
7
  6
CONTINUOUS
370
-3
390
F
  0
LAYER
  5
207
100
AcDbSymbolTableRecord
100
AcDbLayerTableRecord
  2
03___PRT_ALL_CURVES
 70
0
 62
7
  6
CONTINUOUS
370
-3
390
F
  0
LAYER
  5
208
100
AcDbSymbolTableRecord
100
AcDbLayerTableRecord
  2
04_ALL_DTM_PNT
 70
0
 62
7
  6
CONTINUOUS
370
-3
390
F
  0
LAYER
  5
209
100
AcDbSymbolTableRecord
100
AcDbLayerTableRecord
  2
04__ASM_ALL_DTM_PNT
 70
0
 62
7
  6
CONTINUOUS
370
-3
390
F
  0
LAYER
  5
20A
100
AcDbSymbolTableRecord
100
AcDbLayerTableRecord
  2
04___PRT_ALL_DTM_PNT
 70
0
 62
7
  6
CONTINUOUS
370
-3
390
F
  0
LAYER
  5
20B
100
AcDbSymbolTableRecord
100
AcDbLayerTableRecord
  2
05_ALL_DTM_CSYS
 70
0
 62
7
  6
CONTINUOUS
370
-3
390
F
  0
LAYER
  5
20C
100
AcDbSymbolTableRecord
100
AcDbLayerTableRecord
  2
05__ASM_ALL_DTM_CSYS
 70
0
 62
7
  6
CONTINUOUS
370
-3
390
F
  0
LAYER
  5
20D
100
AcDbSymbolTableRecord
100
AcDbLayerTableRecord
  2
05__ASM_DEF_DTM_CSYS
 70
0
 62
7
  6
CONTINUOUS
370
-3
390
F
  0
LAYER
  5
20E
100
AcDbSymbolTableRecord
100
AcDbLayerTableRecord
  2
05___PRT_ALL_DTM_CSYS
 70
0
 62
7
  6
CONTINUOUS
370
-3
390
F
  0
LAYER
  5
20F
100
AcDbSymbolTableRecord
100
AcDbLayerTableRecord
  2
05___PRT_DEF_DTM_CSYS
 70
0
 62
7
  6
CONTINUOUS
370
-3
390
F
  0
LAYER
  5
210
100
AcDbSymbolTableRecord
100
AcDbLayerTableRecord
  2
06_ALL_SURFS
 70
0
 62
7
  6
CONTINUOUS
370
-3
390
F
  0
LAYER
  5
211
100
AcDbSymbolTableRecord
100
AcDbLayerTableRecord
  2
06__ASM_ALL_SURFS
 70
0
 62
7
  6
CONTINUOUS
370
-3
390
F
  0
LAYER
  5
212
100
AcDbSymbolTableRecord
100
AcDbLayerTableRecord
  2
06___PRT_ALL_SURFS
 70
0
 62
7
  6
CONTINUOUS
370
-3
390
F
  0
LAYER
  5
213
100
AcDbSymbolTableRecord
100
AcDbLayerTableRecord
  2
07__ASM_ALL_SKELETONS
 70
0
 62
7
  6
CONTINUOUS
370
-3
390
F
  0
ENDTAB
  0
TABLE
  2
STYLE
  5
3
100
AcDbSymbolTable
 70
1
  0
STYLE
  5
11
100
AcDbSymbolTableRecord
100
AcDbTextStyleTableRecord
  2
STANDARD
 70
0
 40
0.0
 41
0.8
 50
0.0
 71
0
 42
0.2
  3
txt
  4

  0
STYLE
  5
214
100
AcDbSymbolTableRecord
100
AcDbTextStyleTableRecord
  2
TEXTSTYLE_1
 70
0
 40
0.0
 41
0.8
 50
0.0
 71
0
 42
0.2
  3
gdt
  4

  0
ENDTAB
  0
TABLE
  2
VIEW
  5
6
100
AcDbSymbolTable
 70
0
  0
ENDTAB
  0
TABLE
  2
UCS
  5
7
100
AcDbSymbolTable
 70
0
  0
ENDTAB
  0
TABLE
  2
APPID
  5
9
100
AcDbSymbolTable
 70
1
  0
APPID
  5
215
100
AcDbSymbolTableRecord
100
AcDbRegAppTableRecord
  2
ACAD
 70
0
  0
ENDTAB
  0
TABLE
  2
BLOCK_RECORD
  5
1
100
AcDbSymbolTable
 70
0
  0
BLOCK_RECORD
  5
216
100
AcDbSymbolTableRecord
100
AcDbBlockTableRecord
  2
*Model_Space
  0
BLOCK_RECORD
  5
217
100
AcDbSymbolTableRecord
100
AcDbBlockTableRecord
  2
*Paper_Space
  0
BLOCK_RECORD
  5
218
100
AcDbSymbolTableRecord
100
AcDbBlockTableRecord
  2
_CLOSED
  0
ENDTAB
  0
TABLE
  2
DIMSTYLE
  5
A
100
AcDbSymbolTable
 70
1
100
AcDbDimStyleTable
 71
0
  0
DIMSTYLE
105
219
100
AcDbSymbolTableRecord
100
AcDbDimStyleTableRecord
  2
STANDARD
 70
0
  3

  4

 40
1.0
 41
0.1875
 42
0.0625
 43
0.38
 44
0.125
 45
0.0
 46
0.0
 47
0.01
 48
0.01
140
0.15625
141
0.09
142
0.0
143
25.4
144
1.0
145
0.0
146
1.0
147
0.625
 71
0.0
 72
0.0
 73
1
 74
1
 75
0
 76
0
 77
0
 78
8
 79
2
170
0
171
1
172
0
173
0
174
0
175
0
176
0
177
0
178
0
270
2
179
2
271
2
272
2
273
2
274
2
275
0
280
0
281
0
282
0
283
1
284
8
285
0
286
0
287
3
288
0
340
11
278
46
341
218
342
218
343
218
344
218
  0
ENDTAB
  0
ENDSEC
  0
SECTION
  2
BLOCKS
  0
BLOCK
  5
20
100
AcDbEntity
  8
0
100
AcDbBlockBegin
  2
*Model_Space
 70
0
 10
0.0
 20
0.0
 30
0.0
  3
*Model_Space
  1

  0
ENDBLK
  5
21
100
AcDbEntity
  8
0
100
AcDbBlockEnd
  0
BLOCK
  5
1C
100
AcDbEntity
  8
0
100
AcDbBlockBegin
  2
*Paper_Space
 70
0
 10
0.0
 20
0.0
 30
0.0
  3
*Paper_Space
  1

  0
ENDBLK
  5
1D
100
AcDbEntity
  8
0
100
AcDbBlockEnd
  0
BLOCK
  5
21A
100
AcDbEntity
  8
0
100
AcDbBlockBegin
  2
_CLOSED
 70
64
 10
0.0
 20
0.0
  3
_CLOSED
  1

  0
LINE
  5
21B
100
AcDbEntity
  8
0
  6
BYBLOCK
 62
0
100
AcDbLine
 10
0.0
 20
0.0
 11
-1.0
 21
0.1666666667
  0
LINE
  5
21C
100
AcDbEntity
  8
0
  6
BYBLOCK
 62
0
100
AcDbLine
 10
-1.0
 20
0.1666666667
 11
-1.0
 21
-0.1666666667
  0
LINE
  5
21D
100
AcDbEntity
  8
0
  6
BYBLOCK
 62
0
100
AcDbLine
 10
-1.0
 20
-0.1666666667
 11
0.0
 21
0.0
  0
LINE
  5
21E
100
AcDbEntity
  8
0
  6
BYBLOCK
 62
0
100
AcDbLine
 10
-1.0
 20
0.0
 11
0.0
 21
0.0
  0
ENDBLK
  5
21F
100
AcDbEntity
  8
0
  6
BYBLOCK
 62
0
100
AcDbBlockEnd
  0
ENDSEC
  0
SECTION
  2
ENTITIES
  0
LINE
  5
220
100
AcDbEntity
  8
0
100
AcDbLine
 62
7
  6
CONTINUOUS
 10
-24.6942599444
 20
179.7000042318
 11
9.2112187796
 21
188.7885536966
  0
LINE
  5
221
100
AcDbEntity
  8
0
100
AcDbLine
 62
7
  6
CONTINUOUS
 10
-1.0857448825
 20
186.2163977783
 11
9.0733719999
 21
188.9396047578
  0
LINE
  5
222
100
AcDbEntity
  8
0
100
AcDbLine
 62
7
  6
CONTINUOUS
 10
-28.8445684913
 20
179.3016513533
 11
-25.5387832536
 21
180.1877852109
  0
LINE
  5
223
100
AcDbEntity
  8
0
100
AcDbLine
 62
7
  6
CONTINUOUS
 10
-34.1983925029
 20
188.6440520593
 11
-28.8264914926
 21
190.0840195775
  0
LINE
  5
224
100
AcDbEntity
  8
0
100
AcDbLine
 62
7
  6
CONTINUOUS
 10
-35.4107720862
 20
181.3280571902
 11
-32.595694389
 21
179.7021205932
  0
LINE
  5
225
100
AcDbEntity
  8
0
100
AcDbLine
 62
7
  6
CONTINUOUS
 10
-37.8579935091
 20
186.1610965683
 11
-35.042915812
 21
184.5351599712
  0
LINE
  5
226
100
AcDbEntity
  8
0
100
AcDbLine
 62
7
  6
CONTINUOUS
 10
-24.6942599444
 20
179.7000042318
 11
-25.5387832536
 21
180.1877852109
  0
LINE
  5
227
100
AcDbEntity
  8
0
100
AcDbLine
 62
7
  6
CONTINUOUS
 10
-34.1983925029
 20
188.6440520593
 11
-35.042915812
 21
189.1318330384
  0
LINE
  5
228
100
AcDbEntity
  8
0
100
AcDbLine
 62
7
  6
CONTINUOUS
 10
-24.6942599444
 20
186.5950138325
 11
-25.5387832536
 21
187.0827948116
  0
LINE
  5
229
100
AcDbEntity
  8
0
100
AcDbLine
 62
7
  6
CONTINUOUS
 10
-37.8579935091
 20
186.1610965683
 11
-37.8579935091
 21
264.3045387099
  0
LINE
  5
22A
100
AcDbEntity
  8
0
100
AcDbLine
 62
7
  6
CONTINUOUS
 10
28.0458829258
 20
177.936713602
 11
24.4978396686
 21
179.9852509046
  0
LINE
  5
22B
100
AcDbEntity
  8
0
100
AcDbLine
 62
7
  6
CONTINUOUS
 10
-3.4576778533
 20
187.5864482677
 11
-1.0857448825
 21
186.2163977783
  0
LINE
  5
22C
100
AcDbEntity
  8
0
100
AcDbLine
 62
7
  6
CONTINUOUS
 10
-14.638600298
 20
202.5637662639
 11
-9.7643871531
 21
199.7485112738
  0
LINE
  5
22D
100
AcDbEntity
  8
0
100
AcDbLine
 62
7
  6
CONTINUOUS
 10
8.9888991955
 20
188.9169613595
 11
11.5416222853
 21
187.4425559113
  0
LINE
  5
22E
100
AcDbEntity
  8
0
100
AcDbLine
 62
7
  6
CONTINUOUS
 10
-35.042915812
 20
262.6786021129
 11
-35.042915812
 21
258.0819290457
  0
LINE
  5
22F
100
AcDbEntity
  8
0
100
AcDbLine
 62
7
  6
CONTINUOUS
 10
-35.042915812
 20
189.1318330384
 11
-35.042915812
 21
184.5351599712
  0
LINE
  5
230
100
AcDbEntity
  8
0
100
AcDbLine
 62
7
  6
CONTINUOUS
 10
-34.1983925029
 20
257.5941480666
 11
-34.1983925029
 21
188.6440520593
  0
LINE
  5
231
100
AcDbEntity
  8
0
100
AcDbLine
 62
7
  6
CONTINUOUS
 10
66.9559426549
 20
250.9621284571
 11
62.410487953
 21
249.743694403
  0
LINE
  5
232
100
AcDbEntity
  8
0
100
AcDbLine
 62
7
  6
CONTINUOUS
 10
57.1774740306
 20
251.0181328757
 11
47.0743253813
 21
248.3099284879
  0
LINE
  5
233
100
AcDbEntity
  8
0
100
AcDbLine
 62
7
  6
CONTINUOUS
 10
17.2553232625
 20
185.2844215202
 11
26.1710132865
 21
180.1348845419
  0
LINE
  5
234
100
AcDbEntity
  8
0
100
AcDbLine
 62
7
  6
CONTINUOUS
 10
22.9745386333
 20
184.7167647259
 11
24.2132361481
 21
184.0013160461
  0
LINE
  5
235
100
AcDbEntity
  8
0
100
AcDbLine
 62
7
  6
CONTINUOUS
 10
4.2724790371
 20
200.1976791176
 11
26.2793519217
 21
187.4869180448
  0
LINE
  5
236
100
AcDbEntity
  8
0
100
AcDbLine
 62
7
  6
CONTINUOUS
 10
16.0429985022
 20
195.23604787
 11
3.5198956526
 21
202.4691595004
  0
LINE
  5
237
100
AcDbEntity
  8
0
100
AcDbLine
 62
7
  6
CONTINUOUS
 10
17.3612538292
 20
194.5981920686
 11
32.0644760876
 21
186.1058839563
  0
LINE
  5
238
100
AcDbEntity
  8
0
100
AcDbLine
 62
7
  6
CONTINUOUS
 10
-25.5387832536
 20
180.1877852109
 11
-25.5387832536
 21
187.0827948116
  0
LINE
  5
239
100
AcDbEntity
  8
0
100
AcDbLine
 62
7
  6
CONTINUOUS
 10
-25.5387832536
 20
265.2262369533
 11
-25.5387832536
 21
272.121246554
  0
LINE
  5
23A
100
AcDbEntity
  8
0
100
AcDbLine
 62
7
  6
CONTINUOUS
 10
-24.6942599444
 20
271.6334655749
 11
-24.6942599444
 21
264.7384559741
  0
LINE
  5
23B
100
AcDbEntity
  8
0
100
AcDbLine
 62
7
  6
CONTINUOUS
 10
-24.6942599444
 20
179.7000042318
 11
-24.6942599444
 21
186.5950138325
  0
LINE
  5
23C
100
AcDbEntity
  8
0
100
AcDbLine
 62
7
  6
CONTINUOUS
 10
51.4808784839
 20
251.4970515254
 11
44.7307946309
 21
249.6876438814
  0
LINE
  5
23D
100
AcDbEntity
  8
0
100
AcDbLine
 62
7
  6
CONTINUOUS
 10
32.0644760876
 20
189.0376522954
 11
24.820830063
 21
193.2214477124
  0
LINE
  5
23E
100
AcDbEntity
  8
0
100
AcDbLine
 62
7
  6
CONTINUOUS
 10
7.3249692611
 20
283.1180747508
 11
7.4639933109
 21
284.1724839101
  0
LINE
  5
23F
100
AcDbEntity
  8
0
100
AcDbLine
 62
7
  6
CONTINUOUS
 10
-34.1983925029
 20
257.5941480666
 11
-35.042915812
 21
258.0819290457
  0
LINE
  5
240
100
AcDbEntity
  8
0
100
AcDbLine
 62
7
  6
CONTINUOUS
 10
8.0665555019
 20
258.8539739185
 11
8.0665555019
 21
255.333039433
  0
LINE
  5
241
100
AcDbEntity
  8
0
100
AcDbLine
 62
7
  6
CONTINUOUS
 10
11.1657291622
 20
256.1637899244
 11
11.1657291622
 21
257.2924454467
  0
LINE
  5
242
100
AcDbEntity
  8
0
100
AcDbLine
 62
7
  6
CONTINUOUS
 10
-34.1983925029
 20
257.5941480666
 11
-28.8264914926
 21
259.0341155848
  0
LINE
  5
243
100
AcDbEntity
  8
0
100
AcDbLine
 62
7
  6
CONTINUOUS
 10
-35.042915812
 20
258.0819290457
 11
-29.671014801
 21
259.5218965641
  0
LINE
  5
244
100
AcDbEntity
  8
0
100
AcDbLine
 62
7
  6
CONTINUOUS
 10
-10.2314495295
 20
265.9016273139
 11
-9.640954925
 21
266.0599126301
  0
LINE
  5
245
100
AcDbEntity
  8
0
100
AcDbLine
 62
7
  6
CONTINUOUS
 10
0.3446153776
 20
271.5088078603
 11
-3.6815625925
 21
270.4295687812
  0
LINE
  5
246
100
AcDbEntity
  8
0
100
AcDbLine
 62
7
  6
CONTINUOUS
 10
-28.8264914924
 20
259.0341155849
 11
-29.671014801
 21
259.5218965641
  0
LINE
  5
247
100
AcDbEntity
  8
0
100
AcDbLine
 62
7
  6
CONTINUOUS
 10
-35.042915812
 20
262.6786021129
 11
-37.8579935091
 21
264.3045387099
  0
LINE
  5
248
100
AcDbEntity
  8
0
100
AcDbLine
 62
7
  6
CONTINUOUS
 10
-14.9804320481
 20
253.7754852388
 11
0.6421049379
 21
244.7521980129
  0
LINE
  5
249
100
AcDbEntity
  8
0
100
AcDbLine
 62
7
  6
CONTINUOUS
 10
-25.5387832536
 20
265.2262369533
 11
-24.6942599444
 21
264.7384559741
  0
LINE
  5
24A
100
AcDbEntity
  8
0
100
AcDbLine
 62
7
  6
CONTINUOUS
 10
17.9219156353
 20
252.2615420915
 11
17.9219156353
 21
254.8148840695
  0
LINE
  5
24B
100
AcDbEntity
  8
0
100
AcDbLine
 62
7
  6
CONTINUOUS
 10
-24.6942599444
 20
271.6334655749
 11
2.9148442365
 21
279.0342373225
  0
LINE
  5
24C
100
AcDbEntity
  8
0
100
AcDbLine
 62
7
  6
CONTINUOUS
 10
-25.5387832536
 20
272.121246554
 11
-28.8445684913
 21
271.2351126965
  0
LINE
  5
24D
100
AcDbEntity
  8
0
100
AcDbLine
 62
7
  6
CONTINUOUS
 10
-31.6596461884
 20
272.8610492935
 11
7.3513506559
 21
283.3181608824
  0
LINE
  5
24E
100
AcDbEntity
  8
0
100
AcDbLine
 62
7
  6
CONTINUOUS
 10
30.7613618674
 20
290.8474129745
 11
31.9440540705
 21
291.1644406434
  0
LINE
  5
24F
100
AcDbEntity
  8
0
100
AcDbLine
 62
7
  6
CONTINUOUS
 10
12.1093426413
 20
285.8476374999
 11
13.292035972
 21
286.1646643604
  0
LINE
  5
250
100
AcDbEntity
  8
0
100
AcDbLine
 62
7
  6
CONTINUOUS
 10
9.6835997206
 20
286.5045902602
 11
29.5183111468
 21
291.8213934053
  0
LINE
  5
251
100
AcDbEntity
  8
0
100
AcDbLine
 62
7
  6
CONTINUOUS
 10
28.7649355696
 20
291.8274125577
 11
8.9302241434
 21
286.5106094125
  0
LINE
  5
252
100
AcDbEntity
  8
0
100
AcDbLine
 62
7
  6
CONTINUOUS
 10
-31.6596461884
 20
272.8610492935
 11
-28.8445684913
 21
271.2351126965
  0
LINE
  5
253
100
AcDbEntity
  8
0
100
AcDbLine
 62
7
  6
CONTINUOUS
 10
-24.6942599444
 20
271.6334655749
 11
-25.5387832536
 21
272.121246554
  0
LINE
  5
254
100
AcDbEntity
  8
0
100
AcDbLine
 62
7
  6
CONTINUOUS
 10
-10.2314495295
 20
265.9016273139
 11
8.0665555019
 21
255.333039433
  0
LINE
  5
255
100
AcDbEntity
  8
0
100
AcDbLine
 62
7
  6
CONTINUOUS
 10
24.2132361483
 20
184.7040475803
 11
24.2132361481
 21
184.0013160461
  0
LINE
  5
256
100
AcDbEntity
  8
0
100
AcDbLine
 62
7
  6
CONTINUOUS
 10
26.2793519217
 20
187.4869180448
 11
26.2793519217
 21
184.5551497053
  0
LINE
  5
257
100
AcDbEntity
  8
0
100
AcDbLine
 62
7
  6
CONTINUOUS
 10
28.0458829258
 20
179.6613502349
 11
28.0458829258
 21
177.936713602
  0
LINE
  5
258
100
AcDbEntity
  8
0
100
AcDbLine
 62
7
  6
CONTINUOUS
 10
32.0644760876
 20
186.105883956
 11
32.0644760876
 21
189.0376522954
  0
LINE
  5
259
100
AcDbEntity
  8
0
100
AcDbLine
 62
7
  6
CONTINUOUS
 10
24.4978396686
 20
179.9852509046
 11
24.517955293
 21
181.0896601388
  0
LINE
  5
25A
100
AcDbEntity
  8
0
100
AcDbLine
 62
7
  6
CONTINUOUS
 10
32.1562969815
 20
291.1178742531
 11
32.0538421065
 21
291.1053108494
  0
LINE
  5
25B
100
AcDbEntity
  8
0
100
AcDbLine
 62
7
  6
CONTINUOUS
 10
32.1638297255
 20
291.1077803435
 11
32.059546403
 21
291.0977345343
  0
LINE
  5
25C
100
AcDbEntity
  8
0
100
AcDbLine
 62
7
  6
CONTINUOUS
 10
42.3008295071
 20
240.697743345
 11
29.7443510734
 21
247.950132093
  0
LINE
  5
25D
100
AcDbEntity
  8
0
100
AcDbLine
 62
7
  6
CONTINUOUS
 10
34.1305918612
 20
186.659717617
 11
34.1305918612
 21
187.3624491529
  0
LINE
  5
25E
100
AcDbEntity
  8
0
100
AcDbLine
 62
7
  6
CONTINUOUS
 10
41.8935029985
 20
251.326410835
 11
46.802205724
 21
248.4912353037
  0
LINE
  5
25F
100
AcDbEntity
  8
0
100
AcDbLine
 62
7
  6
CONTINUOUS
 10
55.7610948765
 20
251.8360912483
 11
57.1774740306
 21
251.0181328757
  0
LINE
  5
260
100
AcDbEntity
  8
0
100
AcDbLine
 62
7
  6
CONTINUOUS
 10
62.410487953
 20
249.743694403
 11
61.2844568742
 21
250.3940690418
  0
LINE
  5
261
100
AcDbEntity
  8
0
100
AcDbLine
 62
7
  6
CONTINUOUS
 10
58.7165755374
 20
255.9850490641
 11
61.2360457676
 21
254.5297985387
  0
LINE
  5
262
100
AcDbEntity
  8
0
100
AcDbLine
 62
7
  6
CONTINUOUS
 10
12.3362866602
 20
285.7165588645
 11
12.1093426413
 21
285.8476374999
  0
LINE
  5
263
100
AcDbEntity
  8
0
100
AcDbLine
 62
7
  6
CONTINUOUS
 10
61.2360457676
 20
254.5297985387
 11
61.2360457676
 21
256.2105884058
  0
LINE
  5
264
100
AcDbEntity
  8
0
100
AcDbLine
 62
7
  6
CONTINUOUS
 10
62.410487953
 20
249.743694403
 11
62.4105274011
 21
252.7367105586
  0
LINE
  5
265
100
AcDbEntity
  8
0
100
AcDbLine
 62
7
  6
CONTINUOUS
 10
31.9440540309
 20
291.1644407154
 11
31.8050604487
 21
291.2035764127
  0
LINE
  5
266
100
AcDbEntity
  8
0
100
AcDbLine
 62
7
  6
CONTINUOUS
 10
66.9559426549
 20
250.9621284571
 11
66.9559293158
 21
253.6354702493
  0
LINE
  5
267
100
AcDbEntity
  8
0
100
AcDbLine
 62
7
  6
CONTINUOUS
 10
32.1709985962
 20
291.0333618832
 11
31.9440540309
 21
291.1644407154
  0
LINE
  5
268
100
AcDbEntity
  8
0
100
AcDbLine
 62
7
  6
CONTINUOUS
 10
61.2844568742
 20
250.3940690418
 11
60.9681238649
 21
252.504503049
  0
LINE
  5
269
100
AcDbEntity
  8
0
100
AcDbLine
 62
7
  6
CONTINUOUS
 10
81.0707571939
 20
261.527391551
 11
81.0707571938
 21
259.8466016838
  0
ARC
  5
26A
100
AcDbEntity
  8
0
100
AcDbCircle
 62
7
  6
CONTINUOUS
 10
-41.6489946488
 20
127.9930818493
 40
181.3602750324
100
AcDbArc
 50
47.4165901935
 51
49.1162736008
  0
ARC
  5
26B
100
AcDbEntity
  8
0
100
AcDbCircle
 62
7
  6
CONTINUOUS
 10
-60.2520504365
 20
124.0570291524
 40
179.5102246186
100
AcDbArc
 50
47.4078309872
 51
49.1250328071
  0
ARC
  5
26C
100
AcDbEntity
  8
0
100
AcDbCircle
 62
7
  6
CONTINUOUS
 10
43.7137905031
 20
198.0521529437
 40
93.6949374162
100
AcDbArc
 50
97.076558789
 51
97.2042741839
  0
ARC
  5
26D
100
AcDbEntity
  8
0
100
AcDbCircle
 62
7
  6
CONTINUOUS
 10
43.6578278129
 20
198.4944829146
 40
93.2490813594
100
AcDbArc
 50
97.204243768
 51
97.3680931362
  0
ARC
  5
26E
100
AcDbEntity
  8
0
100
AcDbCircle
 62
7
  6
CONTINUOUS
 10
43.5050176056
 20
199.664698229
 40
92.0689319474
100
AcDbArc
 50
97.3671745399
 51
97.9560983559
  0
ARC
  5
26F
100
AcDbEntity
  8
0
100
AcDbCircle
 62
7
  6
CONTINUOUS
 10
43.0387296059
 20
202.9653860664
 40
88.735473877
100
AcDbArc
 50
97.9529116879
 51
99.6730827796
  0
ARC
  5
270
100
AcDbEntity
  8
0
100
AcDbCircle
 62
7
  6
CONTINUOUS
 10
8.8336247598
 20
210.6389690639
 40
83.7761438172
100
AcDbArc
 50
74.0856894624
 51
75.705602739
  0
ARC
  5
271
100
AcDbEntity
  8
0
100
AcDbCircle
 62
7
  6
CONTINUOUS
 10
-10.8985590819
 20
205.699786949
 40
83.3848997069
100
AcDbArc
 50
73.9829091783
 51
75.7098059318
  0
ARC
  5
272
100
AcDbEntity
  8
0
100
AcDbCircle
 62
7
  6
CONTINUOUS
 10
16.5500230859
 20
251.8789582145
 40
42.3659402175
100
AcDbArc
 50
5.5618038877
 51
6.6690764713
  0
ARC
  5
273
100
AcDbEntity
  8
0
100
AcDbCircle
 62
7
  6
CONTINUOUS
 10
28.1333955646
 20
251.2565314344
 40
38.1537127697
100
AcDbArc
 50
115.5611981937
 51
117.1174545034
  0
ARC
  5
274
100
AcDbEntity
  8
0
100
AcDbCircle
 62
7
  6
CONTINUOUS
 10
29.003939324
 20
251.4099724366
 40
38.1412180935
100
AcDbArc
 50
114.3267773989
 51
115.9125258128
  0
ARC
  5
275
100
AcDbEntity
  8
0
100
AcDbCircle
 62
7
  6
CONTINUOUS
 10
27.7899335512
 20
253.9288038536
 40
35.3451059956
100
AcDbArc
 50
115.9267458334
 51
116.8109768085
  0
ARC
  5
276
100
AcDbEntity
  8
0
100
AcDbCircle
 62
7
  6
CONTINUOUS
 10
27.0273666382
 20
255.4374593456
 40
33.6546771515
100
AcDbArc
 50
116.8107832738
 51
117.7243870666
  0
ARC
  5
277
100
AcDbEntity
  8
0
100
AcDbCircle
 62
7
  6
CONTINUOUS
 10
26.2622249034
 20
256.8930891231
 40
32.0102015785
100
AcDbArc
 50
117.7241834711
 51
118.668810351
  0
ARC
  5
278
100
AcDbEntity
  8
0
100
AcDbCircle
 62
7
  6
CONTINUOUS
 10
28.2532399084
 20
268.7911204098
 40
28.0570762701
100
AcDbArc
 50
167.8563673838
 51
179.9980590508
  0
ARC
  5
279
100
AcDbEntity
  8
0
100
AcDbCircle
 62
7
  6
CONTINUOUS
 10
61.1390927981
 20
268.7911209842
 40
28.0570708723
100
AcDbArc
 50
0.0019397769
 51
12.1436337912
  0
ARC
  5
27A
100
AcDbEntity
  8
0
100
AcDbCircle
 62
7
  6
CONTINUOUS
 10
21.7759100966
 20
205.1529943503
 40
20.4548145952
100
AcDbArc
 50
231.8964002774
 51
239.9777763013
  0
ARC
  5
27B
100
AcDbEntity
  8
0
100
AcDbCircle
 62
7
  6
CONTINUOUS
 10
36.6146014889
 20
230.8537762486
 40
20.3682346747
100
AcDbArc
 50
59.1782826513
 51
59.9887637191
  0
ARC
  5
27C
100
AcDbEntity
  8
0
100
AcDbCircle
 62
7
  6
CONTINUOUS
 10
-8.4719352082
 20
256.167541243
 40
19.6376647287
100
AcDbArc
 50
355.877286909
 51
359.9890549754
  0
ARC
  5
27D
100
AcDbEntity
  8
0
100
AcDbCircle
 62
7
  6
CONTINUOUS
 10
-28.6867575692
 20
187.7154930378
 40
3.0021691145
100
AcDbArc
 50
41.5917396084
 51
50.7512790888
  0
SPLINE
  5
27E
100
AcDbEntity
  8
0
100
AcDbSpline
 62
7
  6
CONTINUOUS
 70
0
 71
3
 72
11
 73
7
 74
0
 42
0.0000001
 43
0.0000001
 44
0.0000000001
 40
0.0
 40
0.0
 40
0.0
 40
0.0
 40
0.305994985
 40
0.570941557
 40
0.7976282762
 40
1.0
 40
1.0
 40
1.0
 40
1.0
 10
7.4639933109
 20
284.1724839101
 30
0.0
 10
7.502515454
 20
284.4666507445
 30
0.0
 10
7.6156268884
 20
285.0120017981
 30
0.0
 10
7.9259676031
 20
285.7279404918
 30
0.0
 10
8.3608218795
 20
286.2569873357
 30
0.0
 10
8.740704795
 20
286.4598076198
 30
0.0
 10
8.9302227456
 20
286.510614803
 30
0.0
  0
SPLINE
  5
27F
100
AcDbEntity
  8
0
100
AcDbSpline
 62
7
  6
CONTINUOUS
 70
0
 71
3
 72
17
 73
13
 74
0
 42
0.0000001
 43
0.0000001
 44
0.0000000001
 40
0.0
 40
0.0
 40
0.0
 40
0.0
 40
0.1756587818
 40
0.3401092311
 40
0.4904432539
 40
0.6244287102
 40
0.7408196005
 40
0.8398566086
 40
0.8836558868
 40
0.9243434527
 40
0.962769985
 40
1.0
 40
1.0
 40
1.0
 40
1.0
 10
58.9048614163
 20
252.1989088722
 30
0.0
 10
61.0387024853
 20
252.4818057943
 30
0.0
 10
65.1541992916
 20
253.1638265621
 30
0.0
 10
71.0004682255
 20
254.5825756354
 30
0.0
 10
76.2211729688
 20
256.3354680416
 30
0.0
 10
80.6975793434
 20
258.3824443875
 30
0.0
 10
84.329766265
 20
260.6772786119
 30
0.0
 10
86.6842992333
 20
262.8538136828
 30
0.0
 10
88.001690855
 20
264.685422013
 30
0.0
 10
88.6869348363
 20
266.0344800322
 30
0.0
 10
89.1027005707
 20
267.4063085353
 30
0.0
 10
89.1961411736
 20
268.3358564347
 30
0.0
 10
89.1961470643
 20
268.7920707908
 30
0.0
  0
SPLINE
  5
280
100
AcDbEntity
  8
0
100
AcDbSpline
 62
7
  6
CONTINUOUS
 70
0
 71
3
 72
12
 73
8
 74
0
 42
0.0000001
 43
0.0000001
 44
0.0000000001
 40
0.0
 40
0.0
 40
0.0
 40
0.0
 40
0.2832883931
 40
0.5392235649
 40
0.7748781107
 40
0.888036595
 40
1.0
 40
1.0
 40
1.0
 40
1.0
 10
10.7423198018
 20
285.2161586691
 30
0.0
 10
9.4889963355
 20
284.5739031492
 30
0.0
 10
7.1682361437
 20
283.2128243659
 30
0.0
 10
4.1749161656
 20
280.7586223904
 30
0.0
 10
2.2846323425
 20
278.3760278564
 30
0.0
 10
1.2709035412
 20
276.3133392978
 30
0.0
 10
0.9409729925
 20
275.2374587213
 30
0.0
 10
0.8239872984
 20
274.6932920514
 30
0.0
  0
SPLINE
  5
281
100
AcDbEntity
  8
0
100
AcDbSpline
 62
7
  6
CONTINUOUS
 70
0
 71
3
 72
12
 73
8
 74
0
 42
0.0000001
 43
0.0000001
 44
0.0000000001
 40
0.0
 40
0.0
 40
0.0
 40
0.0
 40
0.1129879195
 40
0.2268143346
 40
0.4633119476
 40
0.7188259415
 40
1.0
 40
1.0
 40
1.0
 40
1.0
 10
88.5683399913
 20
274.6932921397
 30
0.0
 10
88.4560247269
 20
275.2157339664
 30
0.0
 10
88.1436999626
 20
276.2477224315
 30
0.0
 10
87.1927299406
 20
278.2294370818
 30
0.0
 10
85.4291396451
 20
280.5277532771
 30
0.0
 10
82.6349450094
 20
282.9137163305
 30
0.0
 10
80.4644714693
 20
284.2475053621
 30
0.0
 10
79.2936696366
 20
284.8780906449
 30
0.0
  0
SPLINE
  5
282
100
AcDbEntity
  8
0
100
AcDbSpline
 62
7
  6
CONTINUOUS
 70
0
 71
3
 72
15
 73
11
 74
0
 42
0.0000001
 43
0.0000001
 44
0.0000000001
 40
0.0
 40
0.0
 40
0.0
 40
0.0
 40
0.101149352
 40
0.212510165
 40
0.3330300824
 40
0.4609780222
 40
0.5941695954
 40
0.7301413414
 40
0.8662797519
 40
1.0
 40
1.0
 40
1.0
 40
1.0
 10
79.2936696366
 20
284.8780906449
 30
0.0
 10
77.8635921572
 20
285.64831989
 30
0.0
 10
74.7450532686
 20
287.0576655443
 30
0.0
 10
69.6639434159
 20
288.7474621643
 30
0.0
 10
64.0398091565
 20
290.1000673521
 30
0.0
 10
57.9870242441
 20
291.0931040089
 30
0.0
 10
51.635369622
 20
291.7079418282
 30
0.0
 10
45.1265601039
 20
291.9317462962
 30
0.0
 10
38.6079893591
 20
291.7599905211
 30
0.0
 10
34.2878202243
 20
291.3780845478
 30
0.0
 10
32.1562969815
 20
291.1178742531
 30
0.0
  0
SPLINE
  5
283
100
AcDbEntity
  8
0
100
AcDbSpline
 62
7
  6
CONTINUOUS
 70
0
 71
3
 72
9
 73
5
 74
0
 42
0.0000001
 43
0.0000001
 44
0.0000000001
 40
0.0
 40
0.0
 40
0.0
 40
0.0
 40
0.2586663963
 40
1.0
 40
1.0
 40
1.0
 40
1.0
 10
61.2360457676
 20
254.5297985387
 30
0.0
 10
62.1214135015
 20
254.6561793092
 30
0.0
 10
65.5376914041
 20
255.1884240444
 30
0.0
 10
68.9277679659
 20
255.897030921
 30
0.0
 10
71.4086767461
 20
256.5411837872
 30
0.0
  0
SPLINE
  5
284
100
AcDbEntity
  8
0
100
AcDbSpline
 62
7
  6
CONTINUOUS
 70
0
 71
3
 72
9
 73
5
 74
0
 42
0.0000001
 43
0.0000001
 44
0.0000000001
 40
0.0
 40
0.0
 40
0.0
 40
0.0
 40
0.5217592691
 40
1.0
 40
1.0
 40
1.0
 40
1.0
 10
71.4086767461
 20
256.5411837872
 30
0.0
 10
73.1291641748
 20
256.9878978773
 30
0.0
 10
76.3993650016
 20
257.954626755
 30
0.0
 10
79.582849283
 20
259.1827727882
 30
0.0
 10
81.0707571939
 20
259.8466016838
 30
0.0
  0
SPLINE
  5
285
100
AcDbEntity
  8
0
100
AcDbSpline
 62
7
  6
CONTINUOUS
 70
0
 71
3
 72
20
 73
16
 74
0
 42
0.0000001
 43
0.0000001
 44
0.0000000001
 40
0.0
 40
0.0
 40
0.0
 40
0.0
 40
0.0320817256
 40
0.0664652479
 40
0.1049315315
 40
0.1485767118
 40
0.1979143686
 40
0.2530321545
 40
0.3137152599
 40
0.3795301251
 40
0.4498804756
 40
0.5240468577
 40
0.6804617812
 40
0.8416444524
 40
1.0
 40
1.0
 40
1.0
 40
1.0
 10
0.1961745869
 20
268.7920710351
 30
0.0
 10
0.1961690019
 20
268.0943376601
 30
0.0
 10
0.4235941319
 20
266.6410606399
 30
0.0
 10
1.4092061107
 20
264.5558599227
 30
0.0
 10
2.9984948481
 20
262.5601286674
 30
0.0
 10
5.1578260891
 20
260.6690659209
 30
0.0
 10
7.8574430159
 20
258.8974665616
 30
0.0
 10
11.0629282284
 20
257.2648694549
 30
0.0
 10
14.7325201775
 20
255.791724022
 30
0.0
 10
18.8170877085
 20
254.4978901442
 30
0.0
 10
23.2610713752
 20
253.4011312546
 30
0.0
 10
29.6980021047
 20
252.2016117194
 30
0.0
 10
38.1872322837
 20
251.3097305377
 30
0.0
 10
48.5506485381
 20
251.1880300942
 30
0.0
 10
55.4907198372
 20
251.7462743447
 30
0.0
 10
58.9048614163
 20
252.1989088722
 30
0.0
  0
SPLINE
  5
286
100
AcDbEntity
  8
0
100
AcDbSpline
 62
7
  6
CONTINUOUS
 70
0
 71
3
 72
9
 73
5
 74
0
 42
0.0000001
 43
0.0000001
 44
0.0000000001
 40
0.0
 40
0.0
 40
0.0
 40
0.0
 40
0.5124228519
 40
1.0
 40
1.0
 40
1.0
 40
1.0
 10
29.5183111471
 20
291.8213934053
 30
0.0
 10
29.3926454713
 20
291.853786349
 30
0.0
 10
29.1392024689
 20
291.8903466166
 30
0.0
 10
28.8842037832
 20
291.8593924981
 30
0.0
 10
28.7649341719
 20
291.8274179468
 30
0.0
  0
SPLINE
  5
287
100
AcDbEntity
  8
0
100
AcDbSpline
 62
7
  6
CONTINUOUS
 70
0
 71
3
 72
9
 73
5
 74
0
 42
0.0000001
 43
0.0000001
 44
0.0000000001
 40
0.0
 40
0.0
 40
0.0
 40
0.0
 40
0.5191268523
 40
1.0
 40
1.0
 40
1.0
 40
1.0
 10
28.1407755755
 20
290.5388180425
 30
0.0
 10
26.032672961
 20
290.186516546
 30
0.0
 10
21.9945483748
 20
289.360777498
 30
0.0
 10
18.0388161576
 20
288.1934204726
 30
0.0
 10
16.1730404285
 20
287.5311143952
 30
0.0
  0
SPLINE
  5
288
100
AcDbEntity
  8
0
100
AcDbSpline
 62
7
  6
CONTINUOUS
 70
0
 71
3
 72
15
 73
11
 74
0
 42
0.0000001
 43
0.0000001
 44
0.0000000001
 40
0.0
 40
0.0
 40
0.0
 40
0.0
 40
0.1029651634
 40
0.205971459
 40
0.3129684476
 40
0.4273953824
 40
0.5518623534
 40
0.6881591808
 40
0.8374095349
 40
1.0
 40
1.0
 40
1.0
 40
1.0
 10
0.8240017311
 20
274.6932763443
 30
0.0
 10
0.7199898772
 20
274.2095664367
 30
0.0
 10
0.6124521482
 20
273.216543363
 30
0.0
 10
0.7827319484
 20
271.7108618141
 30
0.0
 10
1.2820041497
 20
270.2228518819
 30
0.0
 10
2.1001856941
 20
268.7665595217
 30
0.0
 10
3.2262967755
 20
267.3504819222
 30
0.0
 10
4.6505897943
 20
265.9821977935
 30
0.0
 10
6.3619078089
 20
264.6692967178
 30
0.0
 10
7.6319368138
 20
263.8700934865
 30
0.0
 10
8.3084720752
 20
263.4793334058
 30
0.0
  0
SPLINE
  5
289
100
AcDbEntity
  8
0
100
AcDbSpline
 62
7
  6
CONTINUOUS
 70
0
 71
3
 72
15
 73
11
 74
0
 42
0.0000001
 43
0.0000001
 44
0.0000000001
 40
0.0
 40
0.0
 40
0.0
 40
0.0
 40
0.0965695668
 40
0.2057651988
 40
0.3258932298
 40
0.4546734312
 40
0.5894350737
 40
0.7272720644
 40
0.8651370441
 40
1.0
 40
1.0
 40
1.0
 40
1.0
 10
8.3084720752
 20
263.4793334058
 30
0.0
 10
9.7438767548
 20
262.650257849
 30
0.0
 10
12.943063134
 20
261.1250884082
 30
0.0
 10
18.2370547288
 20
259.2933096429
 30
0.0
 10
24.2109487646
 20
257.8139838051
 30
0.0
 10
30.71218044
 20
256.7273862259
 30
0.0
 10
37.5747316404
 20
256.0612768947
 30
0.0
 10
44.6215714371
 20
255.8342028448
 30
0.0
 10
51.6700768196
 20
256.051889359
 30
0.0
 10
56.3343677915
 20
256.4979468067
 30
0.0
 10
58.6296260013
 20
256.7992334681
 30
0.0
  0
SPLINE
  5
28A
100
AcDbEntity
  8
0
100
AcDbSpline
 62
7
  6
CONTINUOUS
 70
0
 71
3
 72
15
 73
11
 74
0
 42
0.0000001
 43
0.0000001
 44
0.0000000001
 40
0.0
 40
0.0
 40
0.0
 40
0.0
 40
0.096570162
 40
0.2056330877
 40
0.3255484566
 40
0.4541038514
 40
0.5887103338
 40
0.7265362571
 40
0.8646179274
 40
1.0
 40
1.0
 40
1.0
 40
1.0
 10
79.0997810985
 20
284.6346555482
 30
0.0
 10
77.7608409601
 20
285.4080025057
 30
0.0
 10
74.7803540834
 20
286.8328397709
 30
0.0
 10
69.8509401443
 20
288.5495930621
 30
0.0
 10
64.2912399451
 20
289.9420769219
 30
0.0
 10
58.2397727276
 20
290.9739278294
 30
0.0
 10
51.84717285
 20
291.618763341
 30
0.0
 10
45.2742663533
 20
291.8596268566
 30
0.0
 10
38.6870494235
 20
291.6904097119
 30
0.0
 10
34.3221516505
 20
291.3004099441
 30
0.0
 10
32.1709990311
 20
291.033361688
 30
0.0
  0
SPLINE
  5
28B
100
AcDbEntity
  8
0
100
AcDbSpline
 62
7
  6
CONTINUOUS
 70
0
 71
3
 72
9
 73
5
 74
0
 42
0.0000001
 43
0.0000001
 44
0.0000000001
 40
0.0
 40
0.0
 40
0.0
 40
0.0
 40
0.4866727595
 40
1.0
 40
1.0
 40
1.0
 40
1.0
 10
11.6710267594
 20
285.6759614924
 30
0.0
 10
11.770286166
 20
285.723398049
 30
0.0
 10
11.995888741
 20
285.7808636783
 30
0.0
 10
12.2248366889
 20
285.7488610371
 30
0.0
 10
12.3362871996
 20
285.7165587209
 30
0.0
  0
SPLINE
  5
28C
100
AcDbEntity
  8
0
100
AcDbSpline
 62
7
  6
CONTINUOUS
 70
0
 71
3
 72
10
 73
6
 74
0
 42
0.0000001
 43
0.0000001
 44
0.0000000001
 40
0.0
 40
0.0
 40
0.0
 40
0.0
 40
0.5350042313
 40
0.7831467453
 40
1.0
 40
1.0
 40
1.0
 40
1.0
 10
58.629293072
 20
256.7991134914
 30
0.0
 10
58.5596139046
 20
257.3950936548
 30
0.0
 10
58.3111404468
 20
258.2592830313
 30
0.0
 10
57.7512767192
 20
259.2347035958
 30
0.0
 10
57.4052441877
 20
259.6326452376
 30
0.0
 10
57.2213281307
 20
259.7917928302
 30
0.0
  0
SPLINE
  5
28D
100
AcDbEntity
  8
0
100
AcDbSpline
 62
7
  6
CONTINUOUS
 70
0
 71
3
 72
23
 73
19
 74
0
 42
0.0000001
 43
0.0000001
 44
0.0000000001
 40
0.0
 40
0.0
 40
0.0
 40
0.0
 40
0.0101589842
 40
0.0165798263
 40
0.0238144614
 40
0.0324185563
 40
0.0527422128
 40
0.0759312686
 40
0.101058996
 40
0.1276152043
 40
0.1552890974
 40
0.1838769335
 40
0.30502495
 40
0.4340856401
 40
0.5008906489
 40
0.5689964482
 40
0.7086837733
 40
1.0
 40
1.0
 40
1.0
 40
1.0
 10
13.2920385241
 20
286.1646654908
 30
0.0
 10
13.2813734432
 20
286.1677255019
 30
0.0
 10
13.2616819281
 20
286.1752218744
 30
0.0
 10
13.2568241278
 20
286.2038165352
 30
0.0
 10
13.2687691454
 20
286.2258197101
 30
0.0
 10
13.2934619566
 20
286.256534036
 30
0.0
 10
13.337014292
 20
286.2938652919
 30
0.0
 10
13.3977089711
 20
286.3377398146
 30
0.0
 10
13.4665858955
 20
286.3819401845
 30
0.0
 10
13.541105867
 20
286.4261994619
 30
0.0
 10
13.6200434118
 20
286.4703850262
 30
0.0
 10
13.7909746895
 20
286.5616513371
 30
0.0
 10
14.0650783444
 20
286.6945689545
 30
0.0
 10
14.3814267874
 20
286.835350416
 30
0.0
 10
14.646887867
 20
286.9478353376
 30
0.0
 10
14.9242555918
 20
287.0619209864
 30
0.0
 10
15.4313097102
 20
287.2621046783
 30
0.0
 10
15.8731569803
 20
287.4246831131
 30
0.0
 10
16.172998284
 20
287.5311079062
 30
0.0
  0
SPLINE
  5
28E
100
AcDbEntity
  8
0
100
AcDbSpline
 62
7
  6
CONTINUOUS
 70
0
 71
3
 72
19
 73
15
 74
0
 42
0.0000001
 43
0.0000001
 44
0.0000000001
 40
0.0
 40
0.0
 40
0.0
 40
0.0
 40
0.1563252899
 40
0.225887664
 40
0.2899871196
 40
0.403778878
 40
0.4556048374
 40
0.5056398008
 40
0.5554104888
 40
0.6064730471
 40
0.7175474803
 40
0.7799121159
 40
0.8475980342
 40
1.0
 40
1.0
 40
1.0
 40
1.0
 10
10.9054606187
 20
284.9790784381
 30
0.0
 10
9.7548295012
 20
284.3498358214
 30
0.0
 10
8.1417409537
 20
283.3356274358
 30
0.0
 10
6.2799265753
 20
281.7629417013
 30
0.0
 10
4.8444774866
 20
280.2612655789
 30
0.0
 10
3.7677451671
 20
278.622166119
 30
0.0
 10
3.197356952
 20
276.8955215856
 30
0.0
 10
3.03003025
 20
275.6264152694
 30
0.0
 10
3.1132673352
 20
274.3553082914
 30
0.0
 10
3.5682715511
 20
272.6267818995
 30
0.0
 10
4.5389137012
 20
270.9703900449
 30
0.0
 10
5.8784206836
 20
269.4522429713
 30
0.0
 10
7.6391030123
 20
267.8594007413
 30
0.0
 10
9.1854130498
 20
266.8299585405
 30
0.0
 10
10.2925462102
 20
266.1904989884
 30
0.0
  0
SPLINE
  5
28F
100
AcDbEntity
  8
0
100
AcDbSpline
 62
7
  6
CONTINUOUS
 70
0
 71
3
 72
20
 73
16
 74
0
 42
0.0000001
 43
0.0000001
 44
0.0000000001
 40
0.0
 40
0.0
 40
0.0
 40
0.0
 40
0.1492872026
 40
0.2152024098
 40
0.275712656
 40
0.3315043775
 40
0.383568421
 40
0.4332301517
 40
0.4820750708
 40
0.5317869602
 40
0.5839459125
 40
0.6398674464
 40
0.7005384489
 40
0.8383402214
 40
1.0
 40
1.0
 40
1.0
 40
1.0
 10
79.0997810985
 20
284.6346555482
 30
0.0
 10
80.2540417806
 20
283.9679760148
 30
0.0
 10
81.8619733584
 20
282.891475101
 30
0.0
 10
83.6716309204
 20
281.2159735792
 30
0.0
 10
84.7263557586
 20
279.9709024109
 30
0.0
 10
85.5275115142
 20
278.6917623449
 30
0.0
 10
86.0670876223
 20
277.3847535533
 30
0.0
 10
86.3375369754
 20
276.0587775792
 30
0.0
 10
86.3332369357
 20
274.7260061482
 30
0.0
 10
86.0547306763
 20
273.4004113546
 30
0.0
 10
85.5069759895
 20
272.0942051731
 30
0.0
 10
84.6981423953
 20
270.8158197806
 30
0.0
 10
83.2182236552
 20
269.0842871837
 30
0.0
 10
80.6948324209
 20
267.0507878026
 30
0.0
 10
78.3541558303
 20
265.7397760716
 30
0.0
 10
77.0560395568
 20
265.1085959755
 30
0.0
  0
SPLINE
  5
290
100
AcDbEntity
  8
0
100
AcDbSpline
 62
7
  6
CONTINUOUS
 70
0
 71
3
 72
11
 73
7
 74
0
 42
0.0000001
 43
0.0000001
 44
0.0000000001
 40
0.0
 40
0.0
 40
0.0
 40
0.0
 40
0.2235393926
 40
0.466481124
 40
0.726306744
 40
1.0
 40
1.0
 40
1.0
 40
1.0
 10
81.0707571939
 20
261.527391551
 30
0.0
 10
79.6693669482
 20
260.9021624409
 30
0.0
 10
76.6807536705
 20
259.7391733405
 30
0.0
 10
71.9051296878
 20
258.2931720685
 30
0.0
 10
66.7089351358
 20
257.0901247271
 30
0.0
 10
63.0960225702
 20
256.4760885957
 30
0.0
 10
61.2360457676
 20
256.2105884058
 30
0.0
  0
SPLINE
  5
291
100
AcDbEntity
  8
0
100
AcDbSpline
 62
7
  6
CONTINUOUS
 70
0
 71
3
 72
12
 73
8
 74
0
 42
0.0000001
 43
0.0000001
 44
0.0000000001
 40
0.0
 40
0.0
 40
0.0
 40
0.0
 40
0.258159359
 40
0.5195410045
 40
0.7708946293
 40
0.8889373606
 40
1.0
 40
1.0
 40
1.0
 40
1.0
 10
57.2213281305
 20
259.7917928303
 30
0.0
 10
53.8889486652
 20
259.3781047928
 30
0.0
 10
47.1346170804
 20
258.9000238725
 30
0.0
 10
37.0970618851
 20
259.1451653246
 30
0.0
 10
28.9360490875
 20
260.1432927832
 30
0.0
 10
22.8172610452
 20
261.4293139355
 30
0.0
 10
19.9425091233
 20
262.2249316125
 30
0.0
 10
18.5655245205
 20
262.6618055263
 30
0.0
  0
SPLINE
  5
292
100
AcDbEntity
  8
0
100
AcDbSpline
 62
7
  6
CONTINUOUS
 70
0
 71
3
 72
9
 73
5
 74
0
 42
0.0000001
 43
0.0000001
 44
0.0000000001
 40
0.0
 40
0.0
 40
0.0
 40
0.0
 40
0.5284683801
 40
1.0
 40
1.0
 40
1.0
 40
1.0
 10
18.5655245205
 20
262.6618055263
 30
0.0
 10
17.0531889842
 20
263.1416220351
 30
0.0
 10
14.2265659282
 20
264.1666662794
 30
0.0
 10
11.5184420979
 20
265.4824442906
 30
0.0
 10
10.2925462102
 20
266.1904989884
 30
0.0
  0
SPLINE
  5
293
100
AcDbEntity
  8
0
100
AcDbSpline
 62
7
  6
CONTINUOUS
 70
0
 71
3
 72
9
 73
5
 74
0
 42
0.0000001
 43
0.0000001
 44
0.0000000001
 40
0.0
 40
0.0
 40
0.0
 40
0.0
 40
0.5224371946
 40
1.0
 40
1.0
 40
1.0
 40
1.0
 10
28.1288377341
 20
290.4392647305
 30
0.0
 10
26.0132371979
 20
290.0781374669
 30
0.0
 10
21.9876242579
 20
289.2353572715
 30
0.0
 10
18.0500339401
 20
288.0362494838
 30
0.0
 10
16.2096543707
 20
287.3566348731
 30
0.0
  0
SPLINE
  5
294
100
AcDbEntity
  8
0
100
AcDbSpline
 62
7
  6
CONTINUOUS
 70
0
 71
3
 72
9
 73
5
 74
0
 42
0.0000001
 43
0.0000001
 44
0.0000000001
 40
0.0
 40
0.0
 40
0.0
 40
0.0
 40
0.2571723816
 40
1.0
 40
1.0
 40
1.0
 40
1.0
 10
16.2096543707
 20
287.3566348731
 30
0.0
 10
15.9561766129
 20
287.263030711
 30
0.0
 10
14.9735452156
 20
286.89102066
 30
0.0
 10
14.0031907622
 20
286.4862486145
 30
0.0
 10
13.2920393488
 20
286.1646650219
 30
0.0
  0
SPLINE
  5
295
100
AcDbEntity
  8
0
100
AcDbSpline
 62
7
  6
CONTINUOUS
 70
0
 71
3
 72
9
 73
5
 74
0
 42
0.0000001
 43
0.0000001
 44
0.0000000001
 40
0.0
 40
0.0
 40
0.0
 40
0.0
 40
0.4875770807
 40
1.0
 40
1.0
 40
1.0
 40
1.0
 10
8.9302227456
 20
286.510614803
 30
0.0
 10
9.0494923397
 20
286.5425893579
 30
0.0
 10
9.3044910257
 20
286.5735435358
 30
0.0
 10
9.557934027
 20
286.5369832085
 30
0.0
 10
9.6835997209
 20
286.5045902601
 30
0.0
  0
SPLINE
  5
296
100
AcDbEntity
  8
0
100
AcDbSpline
 62
7
  6
CONTINUOUS
 70
0
 71
3
 72
17
 73
13
 74
0
 42
0.0000001
 43
0.0000001
 44
0.0000000001
 40
0.0
 40
0.0
 40
0.0
 40
0.0
 40
0.2502743926
 40
0.3763137454
 40
0.5029715194
 40
0.6302411969
 40
0.7580147051
 40
0.8219351356
 40
0.8855326476
 40
0.9475990114
 40
0.9764639352
 40
1.0
 40
1.0
 40
1.0
 40
1.0
 10
28.1407726836
 20
290.5388409797
 30
0.0
 10
28.3582511012
 20
290.5751808556
 30
0.0
 10
28.6855606573
 20
290.6280176686
 30
0.0
 10
29.1237436718
 20
290.6940161002
 30
0.0
 10
29.455177563
 20
290.7410756562
 30
0.0
 10
29.7886161324
 20
290.7847881392
 30
0.0
 10
30.0677578664
 20
290.8172055041
 30
0.0
 10
30.2916404721
 20
290.8390433462
 30
0.0
 10
30.4581099451
 20
290.851980545
 30
0.0
 10
30.5943159331
 20
290.8587403787
 30
0.0
 10
30.6949371166
 20
290.8570610802
 30
0.0
 10
30.7414274459
 20
290.8531314351
 30
0.0
 10
30.7613586582
 20
290.8474125399
 30
0.0
  0
SPLINE
  5
297
100
AcDbEntity
  8
0
100
AcDbSpline
 62
7
  6
CONTINUOUS
 70
0
 71
3
 72
15
 73
11
 74
0
 42
0.0000001
 43
0.0000001
 44
0.0000000001
 40
0.0
 40
0.0
 40
0.0
 40
0.0
 40
0.1657642907
 40
0.31740248
 40
0.4552241594
 40
0.5801621123
 40
0.6939333143
 40
0.7992448586
 40
0.899804316
 40
1.0
 40
1.0
 40
1.0
 40
1.0
 10
79.7647979523
 20
262.7580883026
 30
0.0
 10
80.5455964332
 20
263.1628174711
 30
0.0
 10
82.0130462372
 20
263.9935202227
 30
0.0
 10
84.0006895224
 20
265.3723400493
 30
0.0
 10
85.6629537512
 20
266.8194656049
 30
0.0
 10
86.9862161508
 20
268.3256329377
 30
0.0
 10
87.9575084729
 20
269.8823421137
 30
0.0
 10
88.5626548678
 20
271.4801925622
 30
0.0
 10
88.7874531782
 20
273.1026796924
 30
0.0
 10
88.6800313947
 20
274.1737906572
 30
0.0
 10
88.5682939746
 20
274.6935020698
 30
0.0
  0
SPLINE
  5
298
100
AcDbEntity
  8
0
100
AcDbSpline
 62
7
  6
CONTINUOUS
 70
0
 71
3
 72
11
 73
7
 74
0
 42
0.0000001
 43
0.0000001
 44
0.0000000001
 40
0.0
 40
0.0
 40
0.0
 40
0.0
 40
0.2634102731
 40
0.5159328529
 40
0.7602044305
 40
1.0
 40
1.0
 40
1.0
 40
1.0
 10
29.1719140046
 20
193.8344082144
 30
0.0
 10
28.0242031167
 20
193.5267580184
 30
0.0
 10
25.7205058355
 20
193.1082413042
 30
0.0
 10
22.2706098547
 20
193.1251857172
 30
0.0
 10
18.9949457042
 20
193.8044847451
 30
0.0
 10
16.9796928276
 20
194.6950405661
 30
0.0
 10
16.0430176441
 20
195.2360808911
 30
0.0
  0
SPLINE
  5
299
100
AcDbEntity
  8
0
100
AcDbSpline
 62
7
  6
CONTINUOUS
 70
0
 71
3
 72
11
 73
7
 74
0
 42
0.0000001
 43
0.0000001
 44
0.0000000001
 40
0.0
 40
0.0
 40
0.0
 40
0.0
 40
0.271774827
 40
0.5268698584
 40
0.7676346552
 40
1.0
 40
1.0
 40
1.0
 40
1.0
 10
11.5022415079
 20
208.9264792287
 30
0.0
 10
11.5022415079
 20
208.4498562599
 30
0.0
 10
11.5949091113
 20
207.5219293608
 30
0.0
 10
12.0387373627
 20
206.2365469695
 30
0.0
 10
12.7660490339
 20
205.1670834504
 30
0.0
 10
13.4242472861
 20
204.6376547701
 30
0.0
 10
13.7771357448
 20
204.4338577179
 30
0.0
  0
SPLINE
  5
29A
100
AcDbEntity
  8
0
100
AcDbSpline
 62
7
  6
CONTINUOUS
 70
0
 71
3
 72
11
 73
7
 74
0
 42
0.0000001
 43
0.0000001
 44
0.0000000001
 40
0.0
 40
0.0
 40
0.0
 40
0.0
 40
0.271774827
 40
0.5268698584
 40
0.7676346552
 40
1.0
 40
1.0
 40
1.0
 40
1.0
 10
16.0506380691
 20
225.7175891388
 30
0.0
 10
16.0506380691
 20
225.24096617
 30
0.0
 10
16.1433056724
 20
224.3130392709
 30
0.0
 10
16.5871339239
 20
223.0276568796
 30
0.0
 10
17.314445595
 20
221.9581933605
 30
0.0
 10
17.9726438473
 20
221.4287646802
 30
0.0
 10
18.325532306
 20
221.224967628
 30
0.0
  0
SPLINE
  5
29B
100
AcDbEntity
  8
0
100
AcDbSpline
 62
7
  6
CONTINUOUS
 70
0
 71
3
 72
11
 73
7
 74
0
 42
0.0000001
 43
0.0000001
 44
0.0000000001
 40
0.0
 40
0.0
 40
0.0
 40
0.0
 40
0.271774827
 40
0.5268698584
 40
0.7676346552
 40
1.0
 40
1.0
 40
1.0
 40
1.0
 10
30.7695585296
 20
229.6630764674
 30
0.0
 10
30.7695585296
 20
229.1864534985
 30
0.0
 10
30.8622261329
 20
228.2585265994
 30
0.0
 10
31.3060543844
 20
226.9731442082
 30
0.0
 10
32.0333660556
 20
225.9036806891
 30
0.0
 10
32.6915643078
 20
225.3742520087
 30
0.0
 10
33.0444527665
 20
225.1704549565
 30
0.0
  0
SPLINE
  5
29C
100
AcDbEntity
  8
0
100
AcDbSpline
 62
7
  6
CONTINUOUS
 70
0
 71
3
 72
11
 73
7
 74
0
 42
0.0000001
 43
0.0000001
 44
0.0000000001
 40
0.0
 40
0.0
 40
0.0
 40
0.0
 40
0.271774827
 40
0.5268698584
 40
0.7676346552
 40
1.0
 40
1.0
 40
1.0
 40
1.0
 10
35.3188740039
 20
215.3111789822
 30
0.0
 10
35.3188740039
 20
214.8345560134
 30
0.0
 10
35.4115416073
 20
213.9066291143
 30
0.0
 10
35.8553698587
 20
212.621246723
 30
0.0
 10
36.5826815299
 20
211.5517832039
 30
0.0
 10
37.2408797821
 20
211.0223545236
 30
0.0
 10
37.5937682408
 20
210.8185574714
 30
0.0
  0
SPLINE
  5
29D
100
AcDbEntity
  8
0
100
AcDbSpline
 62
7
  6
CONTINUOUS
 70
0
 71
3
 72
10
 73
6
 74
0
 42
0.0000001
 43
0.0000001
 44
0.0000000001
 40
0.0
 40
0.0
 40
0.0
 40
0.0
 40
0.2403281524
 40
0.485096085
 40
1.0
 40
1.0
 40
1.0
 40
1.0
 10
30.3715769632
 20
208.7159589166
 30
0.0
 10
30.2056307035
 20
208.8117755937
 30
0.0
 10
29.8484973209
 20
208.9694724545
 30
0.0
 10
29.0635928699
 20
209.1329024345
 30
0.0
 10
28.4424340497
 20
209.0705545082
 30
0.0
 10
28.0458829258
 20
208.9642568053
 30
0.0
  0
SPLINE
  5
29E
100
AcDbEntity
  8
0
100
AcDbSpline
 62
7
  6
CONTINUOUS
 70
0
 71
3
 72
9
 73
5
 74
0
 42
0.0000001
 43
0.0000001
 44
0.0000000001
 40
0.0
 40
0.0
 40
0.0
 40
0.0
 40
0.4872206454
 40
1.0
 40
1.0
 40
1.0
 40
1.0
 10
40.0911504091
 20
221.6422616618
 30
0.0
 10
39.8642559401
 20
221.7733474302
 30
0.0
 10
39.3429067446
 20
221.9543753153
 30
0.0
 10
38.7941764347
 20
221.9408546067
 30
0.0
 10
38.5224333276
 20
221.8938093546
 30
0.0
  0
SPLINE
  5
29F
100
AcDbEntity
  8
0
100
AcDbSpline
 62
7
  6
CONTINUOUS
 70
0
 71
3
 72
15
 73
11
 74
0
 42
0.0000001
 43
0.0000001
 44
0.0000000001
 40
0.0
 40
0.0
 40
0.0
 40
0.0
 40
0.0524624495
 40
0.1056459492
 40
0.2162146554
 40
0.3353288405
 40
0.4632709937
 40
0.5978579402
 40
0.7353253112
 40
1.0
 40
1.0
 40
1.0
 40
1.0
 10
44.5676111776
 20
222.8927730731
 30
0.0
 10
44.3551813094
 20
223.0154537102
 30
0.0
 10
43.9035579021
 20
223.2236474646
 30
0.0
 10
42.9197567
 20
223.4759412972
 30
0.0
 10
41.5708208765
 20
223.4574016775
 30
0.0
 10
39.9627625037
 20
222.9267968671
 30
0.0
 10
38.4516749471
 20
221.9458391665
 30
0.0
 10
37.1420785786
 20
220.5876525031
 30
0.0
 10
35.8089919996
 20
218.450094571
 30
0.0
 10
35.3188740039
 20
216.5487754721
 30
0.0
 10
35.3188740039
 20
215.3111789822
 30
0.0
  0
SPLINE
  5
2A0
100
AcDbEntity
  8
0
100
AcDbSpline
 62
7
  6
CONTINUOUS
 70
0
 71
3
 72
9
 73
5
 74
0
 42
0.0000001
 43
0.0000001
 44
0.0000000001
 40
0.0
 40
0.0
 40
0.0
 40
0.0
 40
0.4872206454
 40
1.0
 40
1.0
 40
1.0
 40
1.0
 10
35.5418349348
 20
235.994159147
 30
0.0
 10
35.3149404658
 20
236.1252449153
 30
0.0
 10
34.7935912703
 20
236.3062728004
 30
0.0
 10
34.2448609604
 20
236.2927520918
 30
0.0
 10
33.9731178533
 20
236.2457068398
 30
0.0
  0
SPLINE
  5
2A1
100
AcDbEntity
  8
0
100
AcDbSpline
 62
7
  6
CONTINUOUS
 70
0
 71
3
 72
15
 73
11
 74
0
 42
0.0000001
 43
0.0000001
 44
0.0000000001
 40
0.0
 40
0.0
 40
0.0
 40
0.0
 40
0.0524624495
 40
0.1056459492
 40
0.2162146554
 40
0.3353288405
 40
0.4632709937
 40
0.5978579402
 40
0.7353253112
 40
1.0
 40
1.0
 40
1.0
 40
1.0
 10
40.0182957033
 20
237.2446705582
 30
0.0
 10
39.8058658351
 20
237.3673511953
 30
0.0
 10
39.3542424278
 20
237.5755449497
 30
0.0
 10
38.3704412257
 20
237.8278387823
 30
0.0
 10
37.0215054022
 20
237.8092991627
 30
0.0
 10
35.4134470293
 20
237.2786943523
 30
0.0
 10
33.9023594728
 20
236.2977366516
 30
0.0
 10
32.5927631042
 20
234.9395499883
 30
0.0
 10
31.2596765252
 20
232.8019920561
 30
0.0
 10
30.7695585296
 20
230.9006729573
 30
0.0
 10
30.7695585296
 20
229.6630764674
 30
0.0
  0
SPLINE
  5
2A2
100
AcDbEntity
  8
0
100
AcDbSpline
 62
7
  6
CONTINUOUS
 70
0
 71
3
 72
9
 73
5
 74
0
 42
0.0000001
 43
0.0000001
 44
0.0000000001
 40
0.0
 40
0.0
 40
0.0
 40
0.0
 40
0.4872206454
 40
1.0
 40
1.0
 40
1.0
 40
1.0
 10
20.8229144743
 20
232.0486718184
 30
0.0
 10
20.5960200052
 20
232.1797575868
 30
0.0
 10
20.0746708098
 20
232.3607854719
 30
0.0
 10
19.5259404999
 20
232.3472647633
 30
0.0
 10
19.2541973928
 20
232.3002195112
 30
0.0
  0
SPLINE
  5
2A3
100
AcDbEntity
  8
0
100
AcDbSpline
 62
7
  6
CONTINUOUS
 70
0
 71
3
 72
15
 73
11
 74
0
 42
0.0000001
 43
0.0000001
 44
0.0000000001
 40
0.0
 40
0.0
 40
0.0
 40
0.0
 40
0.0524624495
 40
0.1056459492
 40
0.2162146554
 40
0.3353288405
 40
0.4632709937
 40
0.5978579402
 40
0.7353253112
 40
1.0
 40
1.0
 40
1.0
 40
1.0
 10
25.2993752428
 20
233.2991832297
 30
0.0
 10
25.0869453746
 20
233.4218638668
 30
0.0
 10
24.6353219672
 20
233.6300576212
 30
0.0
 10
23.6515207652
 20
233.8823514538
 30
0.0
 10
22.3025849417
 20
233.8638118341
 30
0.0
 10
20.6945265688
 20
233.3332070237
 30
0.0
 10
19.1834390123
 20
232.352249323
 30
0.0
 10
17.8738426437
 20
230.9940626597
 30
0.0
 10
16.5407560647
 20
228.8565047276
 30
0.0
 10
16.0506380691
 20
226.9551856287
 30
0.0
 10
16.0506380691
 20
225.7175891388
 30
0.0
  0
SPLINE
  5
2A4
100
AcDbEntity
  8
0
100
AcDbSpline
 62
7
  6
CONTINUOUS
 70
0
 71
3
 72
9
 73
5
 74
0
 42
0.0000001
 43
0.0000001
 44
0.0000000001
 40
0.0
 40
0.0
 40
0.0
 40
0.0
 40
0.4872206454
 40
1.0
 40
1.0
 40
1.0
 40
1.0
 10
16.2745179131
 20
215.2575619083
 30
0.0
 10
16.0476234441
 20
215.3886476766
 30
0.0
 10
15.5262742486
 20
215.5696755618
 30
0.0
 10
14.9775439387
 20
215.5561548532
 30
0.0
 10
14.7058008316
 20
215.5091096011
 30
0.0
  0
SPLINE
  5
2A5
100
AcDbEntity
  8
0
100
AcDbSpline
 62
7
  6
CONTINUOUS
 70
0
 71
3
 72
15
 73
11
 74
0
 42
0.0000001
 43
0.0000001
 44
0.0000000001
 40
0.0
 40
0.0
 40
0.0
 40
0.0
 40
0.0524624495
 40
0.1056459492
 40
0.2162146554
 40
0.3353288405
 40
0.4632709937
 40
0.5978579402
 40
0.7353253112
 40
1.0
 40
1.0
 40
1.0
 40
1.0
 10
20.7509786817
 20
216.5080733196
 30
0.0
 10
20.5385488134
 20
216.6307539567
 30
0.0
 10
20.0869254061
 20
216.8389477111
 30
0.0
 10
19.103124204
 20
217.0912415437
 30
0.0
 10
17.7541883805
 20
217.072701924
 30
0.0
 10
16.1461300077
 20
216.5420971136
 30
0.0
 10
14.6350424511
 20
215.5611394129
 30
0.0
 10
13.3254460826
 20
214.2029527496
 30
0.0
 10
11.9923595036
 20
212.0653948175
 30
0.0
 10
11.5022415079
 20
210.1640757186
 30
0.0
 10
11.5022415079
 20
208.9264792287
 30
0.0
  0
SPLINE
  5
2A6
100
AcDbEntity
  8
0
100
AcDbSpline
 62
7
  6
CONTINUOUS
 70
0
 71
3
 72
9
 73
5
 74
0
 42
0.0000001
 43
0.0000001
 44
0.0000000001
 40
0.0
 40
0.0
 40
0.0
 40
0.0
 40
0.5134609316
 40
1.0
 40
1.0
 40
1.0
 40
1.0
 10
11.6033927504
 20
210.220574485
 30
0.0
 10
11.6965899168
 20
209.950896018
 30
0.0
 10
11.9597786847
 20
209.4478744564
 30
0.0
 10
12.3893351129
 20
209.0714944773
 30
0.0
 10
12.6234411191
 20
208.9362423232
 30
0.0
  0
SPLINE
  5
2A7
100
AcDbEntity
  8
0
100
AcDbSpline
 62
7
  6
CONTINUOUS
 70
0
 71
3
 72
9
 73
5
 74
0
 42
0.0000001
 43
0.0000001
 44
0.0000000001
 40
0.0
 40
0.0
 40
0.0
 40
0.0
 40
0.5134609316
 40
1.0
 40
1.0
 40
1.0
 40
1.0
 10
16.1517893115
 20
227.0116843951
 30
0.0
 10
16.244986478
 20
226.7420059281
 30
0.0
 10
16.5081752458
 20
226.2389843665
 30
0.0
 10
16.9377316741
 20
225.8626043874
 30
0.0
 10
17.1718376802
 20
225.7273522333
 30
0.0
  0
SPLINE
  5
2A8
100
AcDbEntity
  8
0
100
AcDbSpline
 62
7
  6
CONTINUOUS
 70
0
 71
3
 72
9
 73
5
 74
0
 42
0.0000001
 43
0.0000001
 44
0.0000000001
 40
0.0
 40
0.0
 40
0.0
 40
0.0
 40
0.5134609316
 40
1.0
 40
1.0
 40
1.0
 40
1.0
 10
30.8707097721
 20
230.9571717237
 30
0.0
 10
30.9639069385
 20
230.6874932566
 30
0.0
 10
31.2270957064
 20
230.1844716951
 30
0.0
 10
31.6566521346
 20
229.808091716
 30
0.0
 10
31.8907581408
 20
229.6728395619
 30
0.0
  0
SPLINE
  5
2A9
100
AcDbEntity
  8
0
100
AcDbSpline
 62
7
  6
CONTINUOUS
 70
0
 71
3
 72
9
 73
5
 74
0
 42
0.0000001
 43
0.0000001
 44
0.0000000001
 40
0.0
 40
0.0
 40
0.0
 40
0.0
 40
0.5134609316
 40
1.0
 40
1.0
 40
1.0
 40
1.0
 10
35.4200252464
 20
216.6052742385
 30
0.0
 10
35.5132224128
 20
216.3355957715
 30
0.0
 10
35.7764111807
 20
215.8325742099
 30
0.0
 10
36.2059676089
 20
215.4561942308
 30
0.0
 10
36.4400736151
 20
215.3209420767
 30
0.0
  0
SPLINE
  5
2AA
100
AcDbEntity
  8
0
100
AcDbSpline
 62
7
  6
CONTINUOUS
 70
0
 71
3
 72
11
 73
7
 74
0
 42
0.0000001
 43
0.0000001
 44
0.0000000001
 40
0.0
 40
0.0
 40
0.0
 40
0.0
 40
0.2717668072
 40
0.5268680782
 40
0.7676307416
 40
1.0
 40
1.0
 40
1.0
 40
1.0
 10
24.202907587
 20
203.6592202511
 30
0.0
 10
24.2029075864
 20
203.3413339174
 30
0.0
 10
24.2647223228
 20
202.7224355922
 30
0.0
 10
24.5607099303
 20
201.8651062298
 30
0.0
 10
25.0458265094
 20
201.1518082931
 30
0.0
 10
25.4848052984
 20
200.7986522906
 30
0.0
 10
25.7201888884
 20
200.662742789
 30
0.0
  0
SPLINE
  5
2AB
100
AcDbEntity
  8
0
100
AcDbSpline
 62
7
  6
CONTINUOUS
 70
0
 71
3
 72
12
 73
8
 74
0
 42
0.0000001
 43
0.0000001
 44
0.0000000001
 40
0.0
 40
0.0
 40
0.0
 40
0.0
 40
0.2349899833
 40
0.4894752595
 40
0.6202667695
 40
0.7503904793
 40
1.0
 40
1.0
 40
1.0
 40
1.0
 10
28.0458829258
 20
208.9642568053
 30
0.0
 10
27.5187229491
 20
208.8229486833
 30
0.0
 10
26.4795813232
 20
208.2920591067
 30
0.0
 10
25.4609548948
 20
207.2421775186
 30
0.0
 10
24.8312637291
 20
206.2193490213
 30
0.0
 10
24.3643463714
 20
205.126692787
 30
0.0
 10
24.2029075879
 20
204.2389451992
 30
0.0
 10
24.202907587
 20
203.6592202511
 30
0.0
  0
SPLINE
  5
2AC
100
AcDbEntity
  8
0
100
AcDbSpline
 62
7
  6
CONTINUOUS
 70
0
 71
3
 72
20
 73
16
 74
0
 42
0.0000001
 43
0.0000001
 44
0.0000000001
 40
0.0
 40
0.0
 40
0.0
 40
0.0
 40
0.0524886937
 40
0.1058789059
 40
0.1609447296
 40
0.2182402318
 40
0.3400761704
 40
0.4047856122
 40
0.4714397065
 40
0.608057272
 40
0.7449175453
 40
0.8118576339
 40
0.8769396341
 40
0.9397340024
 40
1.0
 40
1.0
 40
1.0
 40
1.0
 10
42.3008103652
 20
240.6977103238
 30
0.0
 10
43.1983539882
 20
240.1792730874
 30
0.0
 10
44.9056552753
 20
238.9425640407
 30
0.0
 10
47.0642778873
 20
236.5830171702
 30
0.0
 10
48.7810533814
 20
233.7732632703
 30
0.0
 10
50.4605761417
 20
229.4428264233
 30
0.0
 10
51.048719631
 20
224.5752823709
 30
0.0
 10
50.6334027852
 20
219.5838182999
 30
0.0
 10
49.5162288284
 20
214.3968738224
 30
0.0
 10
46.8923849375
 20
208.1408347857
 30
0.0
 10
42.8915894659
 20
202.6546329498
 30
0.0
 10
39.0244566003
 20
198.9987211961
 30
0.0
 10
35.9042237075
 20
196.7282296422
 30
0.0
 10
32.619909629
 20
194.9665755679
 30
0.0
 10
30.3214275272
 20
194.1425416166
 30
0.0
 10
29.1719140046
 20
193.8344082144
 30
0.0
  0
SPLINE
  5
2AD
100
AcDbEntity
  8
0
100
AcDbSpline
 62
7
  6
CONTINUOUS
 70
0
 71
3
 72
11
 73
7
 74
0
 42
0.0000001
 43
0.0000001
 44
0.0000000001
 40
0.0
 40
0.0
 40
0.0
 40
0.0
 40
0.271774827
 40
0.5268698584
 40
0.7676346552
 40
1.0
 40
1.0
 40
1.0
 40
1.0
 10
42.2931899402
 20
232.7520490474
 30
0.0
 10
42.2931899402
 20
233.2286720162
 30
0.0
 10
42.2005223369
 20
234.1565989153
 30
0.0
 10
41.7566940854
 20
235.4419813066
 30
0.0
 10
41.0293824143
 20
236.5114448257
 30
0.0
 10
40.371184162
 20
237.040873506
 30
0.0
 10
40.0182957033
 20
237.2446705582
 30
0.0
  0
SPLINE
  5
2AE
100
AcDbEntity
  8
0
100
AcDbSpline
 62
7
  6
CONTINUOUS
 70
0
 71
3
 72
9
 73
5
 74
0
 42
0.0000001
 43
0.0000001
 44
0.0000000001
 40
0.0
 40
0.0
 40
0.0
 40
0.0
 40
0.4792511153
 40
1.0
 40
1.0
 40
1.0
 40
1.0
 10
19.1772389816
 20
217.0271259955
 30
0.0
 10
19.5215945963
 20
216.5692661453
 30
0.0
 10
20.0553519153
 20
215.4680210127
 30
0.0
 10
20.2107952214
 20
214.2638970351
 30
0.0
 10
20.2107952214
 20
213.6413884058
 30
0.0
  0
SPLINE
  5
2AF
100
AcDbEntity
  8
0
100
AcDbSpline
 62
7
  6
CONTINUOUS
 70
0
 71
3
 72
11
 73
7
 74
0
 42
0.0000001
 43
0.0000001
 44
0.0000000001
 40
0.0
 40
0.0
 40
0.0
 40
0.0
 40
0.2634102731
 40
0.5159328529
 40
0.7602044305
 40
1.0
 40
1.0
 40
1.0
 40
1.0
 10
29.1719140046
 20
242.0993830005
 30
0.0
 10
30.3196248926
 20
242.4070331965
 30
0.0
 10
32.6233221738
 20
242.8255499108
 30
0.0
 10
36.0732181546
 20
242.8086054978
 30
0.0
 10
39.3488823051
 20
242.1293064698
 30
0.0
 10
41.3641351817
 20
241.2387506488
 30
0.0
 10
42.3008103652
 20
240.6977103238
 30
0.0
  0
SPLINE
  5
2B0
100
AcDbEntity
  8
0
100
AcDbSpline
 62
7
  6
CONTINUOUS
 70
0
 71
3
 72
14
 73
10
 74
0
 42
0.0000001
 43
0.0000001
 44
0.0000000001
 40
0.0
 40
0.0
 40
0.0
 40
0.0
 40
0.1052603002
 40
0.2158757457
 40
0.3350391856
 40
0.4630355292
 40
0.5976775257
 40
0.7352094838
 40
1.0
 40
1.0
 40
1.0
 40
1.0
 10
36.4400736151
 20
215.3209420767
 30
0.0
 10
36.663096867
 20
215.1920928612
 30
0.0
 10
37.1746041228
 20
215.0127833483
 30
0.0
 10
38.0084559162
 20
215.0256697856
 30
0.0
 10
38.8510058125
 20
215.3030250823
 30
0.0
 10
39.6419007493
 20
215.8167197235
 30
0.0
 10
40.3275917772
 20
216.5277389977
 30
0.0
 10
41.0255246128
 20
217.6468384215
 30
0.0
 10
41.2821410415
 20
218.6422655113
 30
0.0
 10
41.2821410415
 20
219.2901990143
 30
0.0
  0
SPLINE
  5
2B1
100
AcDbEntity
  8
0
100
AcDbSpline
 62
7
  6
CONTINUOUS
 70
0
 71
3
 72
11
 73
7
 74
0
 42
0.0000001
 43
0.0000001
 44
0.0000000001
 40
0.0
 40
0.0
 40
0.0
 40
0.0
 40
0.271774827
 40
0.5268698584
 40
0.7676346552
 40
1.0
 40
1.0
 40
1.0
 40
1.0
 10
46.8425054145
 20
218.4001515622
 30
0.0
 10
46.8425054145
 20
218.8767745311
 30
0.0
 10
46.7498378112
 20
219.8047014301
 30
0.0
 10
46.3060095597
 20
221.0900838214
 30
0.0
 10
45.5786978886
 20
222.1595473405
 30
0.0
 10
44.9204996363
 20
222.6889760209
 30
0.0
 10
44.5676111776
 20
222.8927730731
 30
0.0
  0
SPLINE
  5
2B2
100
AcDbEntity
  8
0
100
AcDbSpline
 62
7
  6
CONTINUOUS
 70
0
 71
3
 72
15
 73
11
 74
0
 42
0.0000001
 43
0.0000001
 44
0.0000000001
 40
0.0
 40
0.0
 40
0.0
 40
0.0
 40
0.0524624495
 40
0.1056459492
 40
0.2162146554
 40
0.3353288405
 40
0.4632709937
 40
0.5978579402
 40
0.7353253112
 40
1.0
 40
1.0
 40
1.0
 40
1.0
 10
37.5937682408
 20
210.8185574714
 30
0.0
 10
37.806198109
 20
210.6958768342
 30
0.0
 10
38.2578215164
 20
210.4876830799
 30
0.0
 10
39.2416227184
 20
210.2353892472
 30
0.0
 10
40.5905585419
 20
210.2539288669
 30
0.0
 10
42.1986169148
 20
210.7845336773
 30
0.0
 10
43.7097044713
 20
211.765491378
 30
0.0
 10
45.0193008399
 20
213.1236780413
 30
0.0
 10
46.3523874189
 20
215.2612359735
 30
0.0
 10
46.8425054145
 20
217.1625550723
 30
0.0
 10
46.8425054145
 20
218.4001515622
 30
0.0
  0
SPLINE
  5
2B3
100
AcDbEntity
  8
0
100
AcDbSpline
 62
7
  6
CONTINUOUS
 70
0
 71
3
 72
11
 73
7
 74
0
 42
0.0000001
 43
0.0000001
 44
0.0000000001
 40
0.0
 40
0.0
 40
0.0
 40
0.0
 40
0.271774827
 40
0.5268698584
 40
0.7676346552
 40
1.0
 40
1.0
 40
1.0
 40
1.0
 10
27.5742694797
 20
228.8065617188
 30
0.0
 10
27.5742694797
 20
229.2831846877
 30
0.0
 10
27.4816018764
 20
230.2111115867
 30
0.0
 10
27.0377736249
 20
231.496493978
 30
0.0
 10
26.3104619537
 20
232.5659574971
 30
0.0
 10
25.6522637015
 20
233.0953861775
 30
0.0
 10
25.2993752428
 20
233.2991832297
 30
0.0
  0
SPLINE
  5
2B4
100
AcDbEntity
  8
0
100
AcDbSpline
 62
7
  6
CONTINUOUS
 70
0
 71
3
 72
9
 73
5
 74
0
 42
0.0000001
 43
0.0000001
 44
0.0000000001
 40
0.0
 40
0.0
 40
0.0
 40
0.0
 40
0.4792511153
 40
1.0
 40
1.0
 40
1.0
 40
1.0
 10
42.9938714776
 20
223.4118257491
 30
0.0
 10
43.3382270923
 20
222.9539658988
 30
0.0
 10
43.8719844113
 20
221.8527207662
 30
0.0
 10
44.0274277174
 20
220.6485967886
 30
0.0
 10
44.0274277174
 20
220.0260881593
 30
0.0
  0
SPLINE
  5
2B5
100
AcDbEntity
  8
0
100
AcDbSpline
 62
7
  6
CONTINUOUS
 70
0
 71
3
 72
14
 73
10
 74
0
 42
0.0000001
 43
0.0000001
 44
0.0000000001
 40
0.0
 40
0.0
 40
0.0
 40
0.0
 40
0.1052603002
 40
0.2158757457
 40
0.3350391856
 40
0.4630355292
 40
0.5976775257
 40
0.7352094838
 40
1.0
 40
1.0
 40
1.0
 40
1.0
 10
31.8907581408
 20
229.6728395619
 30
0.0
 10
32.1137813927
 20
229.5439903464
 30
0.0
 10
32.6252886485
 20
229.3646808334
 30
0.0
 10
33.4591404419
 20
229.3775672707
 30
0.0
 10
34.3016903382
 20
229.6549225675
 30
0.0
 10
35.092585275
 20
230.1686172086
 30
0.0
 10
35.7782763029
 20
230.8796364828
 30
0.0
 10
36.4762091385
 20
231.9987359067
 30
0.0
 10
36.7328255672
 20
232.9941629964
 30
0.0
 10
36.7328255672
 20
233.6420964994
 30
0.0
  0
SPLINE
  5
2B6
100
AcDbEntity
  8
0
100
AcDbSpline
 62
7
  6
CONTINUOUS
 70
0
 71
3
 72
14
 73
10
 74
0
 42
0.0000001
 43
0.0000001
 44
0.0000000001
 40
0.0
 40
0.0
 40
0.0
 40
0.0
 40
0.2686164723
 40
0.3932530389
 40
0.5129262831
 40
0.6303784462
 40
0.7488454196
 40
0.8713344666
 40
1.0
 40
1.0
 40
1.0
 40
1.0
 10
23.676046047
 20
202.5657786759
 30
0.0
 10
23.6760460457
 20
201.8103208426
 30
0.0
 10
23.8646033408
 20
200.6814962026
 30
0.0
 10
24.5599559989
 20
199.405250617
 30
0.0
 10
25.2528782162
 20
198.6453138124
 30
0.0
 10
26.1025016817
 20
198.0966233977
 30
0.0
 10
27.0722341593
 20
197.7831297334
 30
0.0
 10
28.1191432082
 20
197.7159548833
 30
0.0
 10
28.8223939915
 20
197.8317102788
 30
0.0
 10
29.1719140046
 20
197.9254010347
 30
0.0
  0
SPLINE
  5
2B7
100
AcDbEntity
  8
0
100
AcDbSpline
 62
7
  6
CONTINUOUS
 70
0
 71
3
 72
15
 73
11
 74
0
 42
0.0000001
 43
0.0000001
 44
0.0000000001
 40
0.0
 40
0.0
 40
0.0
 40
0.0
 40
0.0524624495
 40
0.1056459492
 40
0.2162146554
 40
0.3353288405
 40
0.4632709937
 40
0.5978579402
 40
0.7353253112
 40
1.0
 40
1.0
 40
1.0
 40
1.0
 10
33.0444527665
 20
225.1704549565
 30
0.0
 10
33.2568826347
 20
225.0477743194
 30
0.0
 10
33.7085060421
 20
224.839580565
 30
0.0
 10
34.6923072441
 20
224.5872867324
 30
0.0
 10
36.0412430676
 20
224.6058263521
 30
0.0
 10
37.6493014405
 20
225.1364311624
 30
0.0
 10
39.160388997
 20
226.1173888631
 30
0.0
 10
40.4699853656
 20
227.4755755265
 30
0.0
 10
41.8030719446
 20
229.6131334586
 30
0.0
 10
42.2931899402
 20
231.5144525575
 30
0.0
 10
42.2931899402
 20
232.7520490474
 30
0.0
  0
SPLINE
  5
2B8
100
AcDbEntity
  8
0
100
AcDbSpline
 62
7
  6
CONTINUOUS
 70
0
 71
3
 72
14
 73
10
 74
0
 42
0.0000001
 43
0.0000001
 44
0.0000000001
 40
0.0
 40
0.0
 40
0.0
 40
0.0
 40
0.2346073929
 40
0.3603379301
 40
0.4894684284
 40
0.6200482101
 40
0.7499714674
 40
0.8772023527
 40
1.0
 40
1.0
 40
1.0
 40
1.0
 10
29.1719140046
 20
197.9254010347
 30
0.0
 10
29.9257917416
 20
198.1274820953
 30
0.0
 10
31.0245195155
 20
198.6890777771
 30
0.0
 10
32.2561250408
 20
199.7588534729
 30
0.0
 10
33.0872969206
 20
200.742801927
 30
0.0
 10
33.7691278447
 20
201.8505553178
 30
0.0
 10
34.2774785118
 20
203.0414806501
 30
0.0
 10
34.5928216511
 20
204.2705101051
 30
0.0
 10
34.667781962
 20
205.1036502606
 30
0.0
 10
34.6677819623
 20
205.5121737521
 30
0.0
  0
SPLINE
  5
2B9
100
AcDbEntity
  8
0
100
AcDbSpline
 62
7
  6
CONTINUOUS
 70
0
 71
3
 72
14
 73
10
 74
0
 42
0.0000001
 43
0.0000001
 44
0.0000000001
 40
0.0
 40
0.0
 40
0.0
 40
0.0
 40
0.257132217
 40
0.3911512539
 40
0.5242842538
 40
0.6535041431
 40
0.7764183323
 40
0.891792128
 40
1.0
 40
1.0
 40
1.0
 40
1.0
 10
20.2107952214
 20
213.6413884058
 30
0.0
 10
20.2107952214
 20
212.5806934295
 30
0.0
 10
19.8502634573
 20
210.9528174258
 30
0.0
 10
18.8406897292
 20
209.0334000817
 30
0.0
 10
17.8279116034
 20
207.736831113
 30
0.0
 10
16.626723093
 20
206.681566424
 30
0.0
 10
15.2996201497
 20
205.9245079539
 30
0.0
 10
13.9177030364
 20
205.5104986738
 30
0.0
 10
12.981486997
 20
205.4835017768
 30
0.0
 10
12.5384574481
 20
205.5379907345
 30
0.0
  0
SPLINE
  5
2BA
100
AcDbEntity
  8
0
100
AcDbSpline
 62
7
  6
CONTINUOUS
 70
0
 71
3
 72
11
 73
7
 74
0
 42
0.0000001
 43
0.0000001
 44
0.0000000001
 40
0.0
 40
0.0
 40
0.0
 40
0.0
 40
0.2717577763
 40
0.5268821179
 40
0.7676367252
 40
1.0
 40
1.0
 40
1.0
 40
1.0
 10
17.4655085455
 20
212.9054992608
 30
0.0
 10
17.4655085455
 20
213.1550137906
 30
0.0
 10
17.4169666288
 20
213.6408232924
 30
0.0
 10
17.184663652
 20
214.3137927597
 30
0.0
 10
16.8038375301
 20
214.8736940474
 30
0.0
 10
16.4592485291
 20
215.1508358394
 30
0.0
 10
16.2745179131
 20
215.2575619083
 30
0.0
  0
SPLINE
  5
2BB
100
AcDbEntity
  8
0
100
AcDbSpline
 62
7
  6
CONTINUOUS
 70
0
 71
3
 72
9
 73
5
 74
0
 42
0.0000001
 43
0.0000001
 44
0.0000000001
 40
0.0
 40
0.0
 40
0.0
 40
0.0
 40
0.4792511153
 40
1.0
 40
1.0
 40
1.0
 40
1.0
 10
38.4445560033
 20
237.7637232342
 30
0.0
 10
38.788911618
 20
237.3058633839
 30
0.0
 10
39.322668937
 20
236.2046182514
 30
0.0
 10
39.4781122431
 20
235.0004942738
 30
0.0
 10
39.4781122431
 20
234.3779856444
 30
0.0
  0
SPLINE
  5
2BC
100
AcDbEntity
  8
0
100
AcDbSpline
 62
7
  6
CONTINUOUS
 70
0
 71
3
 72
14
 73
10
 74
0
 42
0.0000001
 43
0.0000001
 44
0.0000000001
 40
0.0
 40
0.0
 40
0.0
 40
0.0
 40
0.1052603002
 40
0.2158757457
 40
0.3350391856
 40
0.4630355292
 40
0.5976775257
 40
0.7352094838
 40
1.0
 40
1.0
 40
1.0
 40
1.0
 10
17.1718376802
 20
225.7273522333
 30
0.0
 10
17.3948609322
 20
225.5985030178
 30
0.0
 10
17.906368188
 20
225.4191935049
 30
0.0
 10
18.7402199814
 20
225.4320799422
 30
0.0
 10
19.5827698777
 20
225.7094352389
 30
0.0
 10
20.3736648144
 20
226.2231298801
 30
0.0
 10
21.0593558423
 20
226.9341491543
 30
0.0
 10
21.7572886779
 20
228.0532485781
 30
0.0
 10
22.0139051067
 20
229.0486756679
 30
0.0
 10
22.0139051067
 20
229.6966091709
 30
0.0
  0
SPLINE
  5
2BD
100
AcDbEntity
  8
0
100
AcDbSpline
 62
7
  6
CONTINUOUS
 70
0
 71
3
 72
14
 73
10
 74
0
 42
0.0000001
 43
0.0000001
 44
0.0000000001
 40
0.0
 40
0.0
 40
0.0
 40
0.0
 40
0.2686164723
 40
0.3932530389
 40
0.5129262831
 40
0.6303784462
 40
0.7488454196
 40
0.8713344666
 40
1.0
 40
1.0
 40
1.0
 40
1.0
 10
34.6677819623
 20
205.5121737521
 30
0.0
 10
34.667781963
 20
206.2676315853
 30
0.0
 10
34.4792246687
 20
207.3964562254
 30
0.0
 10
33.7838720104
 20
208.672701811
 30
0.0
 10
33.0909497931
 20
209.4326386156
 30
0.0
 10
32.2413263276
 20
209.9813290303
 30
0.0
 10
31.27159385
 20
210.2948226946
 30
0.0
 10
30.2246848011
 20
210.3619975447
 30
0.0
 10
29.5214340178
 20
210.2462421491
 30
0.0
 10
29.1719140046
 20
210.1525513933
 30
0.0
  0
SPLINE
  5
2BE
100
AcDbEntity
  8
0
100
AcDbSpline
 62
7
  6
CONTINUOUS
 70
0
 71
3
 72
14
 73
10
 74
0
 42
0.0000001
 43
0.0000001
 44
0.0000000001
 40
0.0
 40
0.0
 40
0.0
 40
0.0
 40
0.257132217
 40
0.3911512539
 40
0.5242842538
 40
0.6535041431
 40
0.7764183323
 40
0.891792128
 40
1.0
 40
1.0
 40
1.0
 40
1.0
 10
24.7591917826
 20
230.4324983159
 30
0.0
 10
24.7591917826
 20
229.3718033396
 30
0.0
 10
24.3986600184
 20
227.7439273359
 30
0.0
 10
23.3890862903
 20
225.8245099918
 30
0.0
 10
22.3763081646
 20
224.5279410231
 30
0.0
 10
21.1751196541
 20
223.4726763341
 30
0.0
 10
19.8480167108
 20
222.715617864
 30
0.0
 10
18.4660995976
 20
222.3016085839
 30
0.0
 10
17.5298835581
 20
222.2746116869
 30
0.0
 10
17.0868540092
 20
222.3291006446
 30
0.0
  0
SPLINE
  5
2BF
100
AcDbEntity
  8
0
100
AcDbSpline
 62
7
  6
CONTINUOUS
 70
0
 71
3
 72
11
 73
7
 74
0
 42
0.0000001
 43
0.0000001
 44
0.0000000001
 40
0.0
 40
0.0
 40
0.0
 40
0.0
 40
0.2717577763
 40
0.5268821179
 40
0.7676367252
 40
1.0
 40
1.0
 40
1.0
 40
1.0
 10
22.0139051067
 20
229.6966091709
 30
0.0
 10
22.0139051067
 20
229.9461237007
 30
0.0
 10
21.9653631899
 20
230.4319332025
 30
0.0
 10
21.7330602132
 20
231.1049026698
 30
0.0
 10
21.3522340912
 20
231.6648039575
 30
0.0
 10
21.0076450903
 20
231.9419457495
 30
0.0
 10
20.8229144743
 20
232.0486718184
 30
0.0
  0
SPLINE
  5
2C0
100
AcDbEntity
  8
0
100
AcDbSpline
 62
7
  6
CONTINUOUS
 70
0
 71
3
 72
14
 73
10
 74
0
 42
0.0000001
 43
0.0000001
 44
0.0000000001
 40
0.0
 40
0.0
 40
0.0
 40
0.0
 40
0.2346073929
 40
0.3603379301
 40
0.4894684284
 40
0.6200482101
 40
0.7499714674
 40
0.8772023527
 40
1.0
 40
1.0
 40
1.0
 40
1.0
 10
29.1719140046
 20
210.1525513933
 30
0.0
 10
28.4180362677
 20
209.9504703326
 30
0.0
 10
27.3193084938
 20
209.3888746509
 30
0.0
 10
26.0877029685
 20
208.3190989551
 30
0.0
 10
25.2565310887
 20
207.335150501
 30
0.0
 10
24.5747001646
 20
206.2273971101
 30
0.0
 10
24.0663494975
 20
205.0364717779
 30
0.0
 10
23.7510063581
 20
203.8074423229
 30
0.0
 10
23.6760460476
 20
202.9743021674
 30
0.0
 10
23.676046047
 20
202.5657786759
 30
0.0
  0
SPLINE
  5
2C1
100
AcDbEntity
  8
0
100
AcDbSpline
 62
7
  6
CONTINUOUS
 70
0
 71
3
 72
14
 73
10
 74
0
 42
0.0000001
 43
0.0000001
 44
0.0000000001
 40
0.0
 40
0.0
 40
0.0
 40
0.0
 40
0.257132217
 40
0.3911512539
 40
0.5242842538
 40
0.6535041431
 40
0.7764183323
 40
0.891792128
 40
1.0
 40
1.0
 40
1.0
 40
1.0
 10
39.4781122431
 20
234.3779856444
 30
0.0
 10
39.4781122431
 20
233.3172906682
 30
0.0
 10
39.1175804789
 20
231.6894146645
 30
0.0
 10
38.1080067509
 20
229.7699973203
 30
0.0
 10
37.0952286251
 20
228.4734283516
 30
0.0
 10
35.8940401147
 20
227.4181636627
 30
0.0
 10
34.5669371713
 20
226.6611051925
 30
0.0
 10
33.1850200581
 20
226.2470959125
 30
0.0
 10
32.2488040187
 20
226.2200990155
 30
0.0
 10
31.8057744697
 20
226.2745879732
 30
0.0
  0
SPLINE
  5
2C2
100
AcDbEntity
  8
0
100
AcDbSpline
 62
7
  6
CONTINUOUS
 70
0
 71
3
 72
11
 73
7
 74
0
 42
0.0000001
 43
0.0000001
 44
0.0000000001
 40
0.0
 40
0.0
 40
0.0
 40
0.0
 40
0.2717577763
 40
0.5268821179
 40
0.7676367252
 40
1.0
 40
1.0
 40
1.0
 40
1.0
 10
36.7328255672
 20
233.6420964994
 30
0.0
 10
36.7328255672
 20
233.8916110293
 30
0.0
 10
36.6842836504
 20
234.377420531
 30
0.0
 10
36.4519806737
 20
235.0503899983
 30
0.0
 10
36.0711545518
 20
235.6102912861
 30
0.0
 10
35.7265655508
 20
235.8874330781
 30
0.0
 10
35.5418349348
 20
235.994159147
 30
0.0
  0
SPLINE
  5
2C3
100
AcDbEntity
  8
0
100
AcDbSpline
 62
7
  6
CONTINUOUS
 70
0
 71
3
 72
14
 73
10
 74
0
 42
0.0000001
 43
0.0000001
 44
0.0000000001
 40
0.0
 40
0.0
 40
0.0
 40
0.0
 40
0.257132217
 40
0.3911512539
 40
0.5242842538
 40
0.6535041431
 40
0.7764183323
 40
0.891792128
 40
1.0
 40
1.0
 40
1.0
 40
1.0
 10
44.0274277174
 20
220.0260881593
 30
0.0
 10
44.0274277174
 20
218.965393183
 30
0.0
 10
43.6668959533
 20
217.3375171793
 30
0.0
 10
42.6573222252
 20
215.4180998352
 30
0.0
 10
41.6445440994
 20
214.1215308665
 30
0.0
 10
40.443355589
 20
213.0662661775
 30
0.0
 10
39.1162526457
 20
212.3092077074
 30
0.0
 10
37.7343355324
 20
211.8951984273
 30
0.0
 10
36.798119493
 20
211.8682015303
 30
0.0
 10
36.3550899441
 20
211.922690488
 30
0.0
  0
SPLINE
  5
2C4
100
AcDbEntity
  8
0
100
AcDbSpline
 62
7
  6
CONTINUOUS
 70
0
 71
3
 72
11
 73
7
 74
0
 42
0.0000001
 43
0.0000001
 44
0.0000000001
 40
0.0
 40
0.0
 40
0.0
 40
0.0
 40
0.2717577763
 40
0.5268821179
 40
0.7676367252
 40
1.0
 40
1.0
 40
1.0
 40
1.0
 10
41.2821410415
 20
219.2901990143
 30
0.0
 10
41.2821410415
 20
219.5397135441
 30
0.0
 10
41.2335991248
 20
220.0255230459
 30
0.0
 10
41.001296148
 20
220.6984925132
 30
0.0
 10
40.6204700261
 20
221.2583938009
 30
0.0
 10
40.2758810251
 20
221.5355355929
 30
0.0
 10
40.0911504091
 20
221.6422616618
 30
0.0
  0
SPLINE
  5
2C5
100
AcDbEntity
  8
0
100
AcDbSpline
 62
7
  6
CONTINUOUS
 70
0
 71
3
 72
15
 73
11
 74
0
 42
0.0000001
 43
0.0000001
 44
0.0000000001
 40
0.0
 40
0.0
 40
0.0
 40
0.0
 40
0.0524624495
 40
0.1056459492
 40
0.2162146554
 40
0.3353288405
 40
0.4632709937
 40
0.5978579402
 40
0.7353253112
 40
1.0
 40
1.0
 40
1.0
 40
1.0
 10
18.325532306
 20
221.224967628
 30
0.0
 10
18.5379621742
 20
221.1022869908
 30
0.0
 10
18.9895855815
 20
220.8940932365
 30
0.0
 10
19.9733867836
 20
220.6417994038
 30
0.0
 10
21.3223226071
 20
220.6603390235
 30
0.0
 10
22.93038098
 20
221.1909438339
 30
0.0
 10
24.4414685365
 20
222.1719015346
 30
0.0
 10
25.7510649051
 20
223.5300881979
 30
0.0
 10
27.0841514841
 20
225.6676461301
 30
0.0
 10
27.5742694797
 20
227.5689652289
 30
0.0
 10
27.5742694797
 20
228.8065617188
 30
0.0
  0
SPLINE
  5
2C6
100
AcDbEntity
  8
0
100
AcDbSpline
 62
7
  6
CONTINUOUS
 70
0
 71
3
 72
12
 73
8
 74
0
 42
0.0000001
 43
0.0000001
 44
0.0000000001
 40
0.0
 40
0.0
 40
0.0
 40
0.0
 40
0.2349899833
 40
0.4894752595
 40
0.6202667696
 40
0.7503904793
 40
1.0
 40
1.0
 40
1.0
 40
1.0
 10
28.0458829258
 20
200.4144449004
 30
0.0
 10
28.5730429031
 20
200.5557530225
 30
0.0
 10
29.6121845302
 20
201.0866426
 30
0.0
 10
30.6308109593
 20
202.1365241899
 30
0.0
 10
31.260502125
 20
203.1593526889
 30
0.0
 10
31.7274194819
 20
204.2520089247
 30
0.0
 10
31.888858265
 20
205.1397565136
 30
0.0
 10
31.8888582646
 20
205.7194814622
 30
0.0
  0
SPLINE
  5
2C7
100
AcDbEntity
  8
0
100
AcDbSpline
 62
7
  6
CONTINUOUS
 70
0
 71
3
 72
11
 73
7
 74
0
 42
0.0000001
 43
0.0000001
 44
0.0000000001
 40
0.0
 40
0.0
 40
0.0
 40
0.0
 40
0.2717668071
 40
0.5268680781
 40
0.7676307415
 40
1.0
 40
1.0
 40
1.0
 40
1.0
 10
31.8888582646
 20
205.7194814622
 30
0.0
 10
31.8888582644
 20
206.0373677951
 30
0.0
 10
31.8270435276
 20
206.6562661188
 30
0.0
 10
31.5310559196
 20
207.513595479
 30
0.0
 10
31.0459393409
 20
208.2268934137
 30
0.0
 10
30.6069605527
 20
208.5800494153
 30
0.0
 10
30.3715769632
 20
208.7159589166
 30
0.0
  0
SPLINE
  5
2C8
100
AcDbEntity
  8
0
100
AcDbSpline
 62
7
  6
CONTINUOUS
 70
0
 71
3
 72
9
 73
5
 74
0
 42
0.0000001
 43
0.0000001
 44
0.0000000001
 40
0.0
 40
0.0
 40
0.0
 40
0.0
 40
0.4792511153
 40
1.0
 40
1.0
 40
1.0
 40
1.0
 10
23.7256355428
 20
233.8182359056
 30
0.0
 10
24.0699911575
 20
233.3603760554
 30
0.0
 10
24.6037484765
 20
232.2591309228
 30
0.0
 10
24.7591917826
 20
231.0550069452
 30
0.0
 10
24.7591917826
 20
230.4324983159
 30
0.0
  0
SPLINE
  5
2C9
100
AcDbEntity
  8
0
100
AcDbSpline
 62
7
  6
CONTINUOUS
 70
0
 71
3
 72
20
 73
16
 74
0
 42
0.0000001
 43
0.0000001
 44
0.0000000001
 40
0.0
 40
0.0
 40
0.0
 40
0.0
 40
0.0524886937
 40
0.1058789059
 40
0.1609447296
 40
0.2182402318
 40
0.3400761704
 40
0.4047856122
 40
0.4714397065
 40
0.608057272
 40
0.7449175453
 40
0.8118576339
 40
0.8769396341
 40
0.9397340024
 40
1.0
 40
1.0
 40
1.0
 40
1.0
 10
16.0430176441
 20
195.2360808911
 30
0.0
 10
15.1454740211
 20
195.7545181276
 30
0.0
 10
13.438172734
 20
196.9912271743
 30
0.0
 10
11.279550122
 20
199.3507740448
 30
0.0
 10
9.5627746279
 20
202.1605279447
 30
0.0
 10
7.8832518676
 20
206.4909647917
 30
0.0
 10
7.2951083783
 20
211.358508844
 30
0.0
 10
7.7104252241
 20
216.3499729151
 30
0.0
 10
8.8275991809
 20
221.5369173925
 30
0.0
 10
11.4514430718
 20
227.7929564292
 30
0.0
 10
15.4522385434
 20
233.2791582652
 30
0.0
 10
19.319371409
 20
236.9350700189
 30
0.0
 10
22.4396043018
 20
239.2055615728
 30
0.0
 10
25.7239183803
 20
240.9672156471
 30
0.0
 10
28.0224004821
 20
241.7912495984
 30
0.0
 10
29.1719140046
 20
242.0993830005
 30
0.0
  0
SPLINE
  5
2CA
100
AcDbEntity
  8
0
100
AcDbSpline
 62
7
  6
CONTINUOUS
 70
0
 71
3
 72
14
 73
10
 74
0
 42
0.0000001
 43
0.0000001
 44
0.0000000001
 40
0.0
 40
0.0
 40
0.0
 40
0.0
 40
0.1052603002
 40
0.2158757457
 40
0.3350391856
 40
0.4630355292
 40
0.5976775257
 40
0.7352094838
 40
1.0
 40
1.0
 40
1.0
 40
1.0
 10
12.6234411191
 20
208.9362423232
 30
0.0
 10
12.846464371
 20
208.8073931077
 30
0.0
 10
13.3579716268
 20
208.6280835948
 30
0.0
 10
14.1918234202
 20
208.6409700321
 30
0.0
 10
15.0343733165
 20
208.9183253288
 30
0.0
 10
15.8252682533
 20
209.43201997
 30
0.0
 10
16.5109592812
 20
210.1430392442
 30
0.0
 10
17.2088921168
 20
211.262138668
 30
0.0
 10
17.4655085455
 20
212.2575657578
 30
0.0
 10
17.4655085455
 20
212.9054992608
 30
0.0
  0
SPLINE
  5
2CB
100
AcDbEntity
  8
0
100
AcDbSpline
 62
7
  6
CONTINUOUS
 70
0
 71
3
 72
11
 73
7
 74
0
 42
0.0000001
 43
0.0000001
 44
0.0000000001
 40
0.0
 40
0.0
 40
0.0
 40
0.0
 40
0.271774827
 40
0.5268698584
 40
0.7676346552
 40
1.0
 40
1.0
 40
1.0
 40
1.0
 10
23.0258729185
 20
212.0154518087
 30
0.0
 10
23.0258729185
 20
212.4920747776
 30
0.0
 10
22.9332053152
 20
213.4200016766
 30
0.0
 10
22.4893770637
 20
214.7053840679
 30
0.0
 10
21.7620653926
 20
215.774847587
 30
0.0
 10
21.1038671403
 20
216.3042762674
 30
0.0
 10
20.7509786817
 20
216.5080733196
 30
0.0
  0
SPLINE
  5
2CC
100
AcDbEntity
  8
0
100
AcDbSpline
 62
7
  6
CONTINUOUS
 70
0
 71
3
 72
10
 73
6
 74
0
 42
0.0000001
 43
0.0000001
 44
0.0000000001
 40
0.0
 40
0.0
 40
0.0
 40
0.0
 40
0.2403281524
 40
0.485096085
 40
1.0
 40
1.0
 40
1.0
 40
1.0
 10
25.7201888884
 20
200.662742789
 30
0.0
 10
25.8861351481
 20
200.566926112
 30
0.0
 10
26.2432685307
 20
200.4092292512
 30
0.0
 10
27.0281729817
 20
200.2457992711
 30
0.0
 10
27.6493318019
 20
200.3081471974
 30
0.0
 10
28.0458829258
 20
200.4144449004
 30
0.0
  0
SPLINE
  5
2CD
100
AcDbEntity
  8
0
100
AcDbSpline
 62
7
  6
CONTINUOUS
 70
0
 71
3
 72
15
 73
11
 74
0
 42
0.0000001
 43
0.0000001
 44
0.0000000001
 40
0.0
 40
0.0
 40
0.0
 40
0.0
 40
0.0524624495
 40
0.1056459492
 40
0.2162146554
 40
0.3353288405
 40
0.4632709937
 40
0.5978579402
 40
0.7353253112
 40
1.0
 40
1.0
 40
1.0
 40
1.0
 10
13.7771357448
 20
204.4338577179
 30
0.0
 10
13.9895656131
 20
204.3111770807
 30
0.0
 10
14.4411890204
 20
204.1029833264
 30
0.0
 10
15.4249902225
 20
203.8506894937
 30
0.0
 10
16.7739260459
 20
203.8692291134
 30
0.0
 10
18.3819844188
 20
204.3998339238
 30
0.0
 10
19.8930719753
 20
205.3807916245
 30
0.0
 10
21.2026683439
 20
206.7389782878
 30
0.0
 10
22.5357549229
 20
208.87653622
 30
0.0
 10
23.0258729185
 20
210.7778553188
 30
0.0
 10
23.0258729185
 20
212.0154518087
 30
0.0
  0
SPLINE
  5
2CE
100
AcDbEntity
  8
0
100
AcDbSpline
 62
7
  6
CONTINUOUS
 70
0
 71
3
 72
10
 73
6
 74
0
 42
0.0000001
 43
0.0000001
 44
0.0000000001
 40
0.0
 40
0.0
 40
0.0
 40
0.0
 40
0.5252430948
 40
0.7667940878
 40
1.0
 40
1.0
 40
1.0
 40
1.0
 10
-31.0759735267
 20
263.7419627419
 30
0.0
 10
-31.0759735267
 20
263.5181613112
 30
0.0
 10
-31.010445276
 20
263.1813316457
 30
0.0
 10
-30.7677583645
 20
262.8254077669
 30
0.0
 10
-30.6072890614
 20
262.696218189
 30
0.0
 10
-30.521258729
 20
262.6464931714
 30
0.0
  0
SPLINE
  5
2CF
100
AcDbEntity
  8
0
100
AcDbSpline
 62
7
  6
CONTINUOUS
 70
0
 71
3
 72
11
 73
7
 74
0
 42
0.0000001
 43
0.0000001
 44
0.0000000001
 40
0.0
 40
0.0
 40
0.0
 40
0.0
 40
0.2397937174
 40
0.4840642576
 40
0.7365884588
 40
1.0
 40
1.0
 40
1.0
 40
1.0
 10
45.4267704584
 20
246.1098655311
 30
0.0
 10
44.2670898844
 20
246.7797313645
 30
0.0
 10
41.7720185773
 20
247.8823092808
 30
0.0
 10
37.7164378742
 20
248.7233606012
 30
0.0
 10
33.4451178794
 20
248.7443361528
 30
0.0
 10
30.5928990991
 20
248.2261733894
 30
0.0
 10
29.1719140046
 20
247.845270544
 30
0.0
  0
SPLINE
  5
2D0
100
AcDbEntity
  8
0
100
AcDbSpline
 62
7
  6
CONTINUOUS
 70
0
 71
3
 72
13
 73
9
 74
0
 42
0.0000001
 43
0.0000001
 44
0.0000000001
 40
0.0
 40
0.0
 40
0.0
 40
0.0
 40
0.234810382
 40
0.3606361165
 40
0.4898729104
 40
0.6205604861
 40
0.7505813797
 40
1.0
 40
1.0
 40
1.0
 40
1.0
 10
-31.6596461884
 20
272.8610492935
 30
0.0
 10
-32.5099156167
 20
272.6331299115
 30
0.0
 10
-33.7491054405
 20
271.9997952911
 30
0.0
 10
-35.1380481425
 20
270.7931199356
 30
0.0
 10
-36.0754578635
 20
269.683677957
 30
0.0
 10
-36.8444982843
 20
268.4335884709
 30
0.0
 10
-37.5975924267
 20
266.6715622957
 30
0.0
 10
-37.8579935091
 20
265.2395910165
 30
0.0
 10
-37.8579935091
 20
264.3045387099
 30
0.0
  0
SPLINE
  5
2D1
100
AcDbEntity
  8
0
100
AcDbSpline
 62
7
  6
CONTINUOUS
 70
0
 71
3
 72
11
 73
7
 74
0
 42
0.0000001
 43
0.0000001
 44
0.0000000001
 40
0.0
 40
0.0
 40
0.0
 40
0.0
 40
0.271772124
 40
0.5268740629
 40
0.7676338636
 40
1.0
 40
1.0
 40
1.0
 40
1.0
 10
-37.8579935091
 20
186.1610965683
 30
0.0
 10
-37.8579935091
 20
185.648367888
 30
0.0
 10
-37.7582838057
 20
184.6501358921
 30
0.0
 10
-37.2808702677
 20
183.2673487664
 30
0.0
 10
-36.4984197187
 20
182.116888318
 30
0.0
 10
-35.7903999522
 20
181.5472922044
 30
0.0
 10
-35.4107554262
 20
181.3280861081
 30
0.0
  0
SPLINE
  5
2D2
100
AcDbEntity
  8
0
100
AcDbSpline
 62
7
  6
CONTINUOUS
 70
0
 71
3
 72
20
 73
16
 74
0
 42
0.0000001
 43
0.0000001
 44
0.0000000001
 40
0.0
 40
0.0
 40
0.0
 40
0.0
 40
0.0523254985
 40
0.1054814301
 40
0.1601380584
 40
0.2167942783
 40
0.2757423096
 40
0.3370631423
 40
0.4659544348
 40
0.5330809702
 40
0.6012643296
 40
0.7382756449
 40
0.8061146416
 40
0.872690373
 40
1.0
 40
1.0
 40
1.0
 40
1.0
 10
47.0506414545
 20
248.3453185934
 30
0.0
 10
48.1592313632
 20
247.6838970503
 30
0.0
 10
50.2715084028
 20
246.1325070053
 30
0.0
 10
52.9770036589
 20
243.2244423755
 30
0.0
 10
55.1783672209
 20
239.7912904504
 30
0.0
 10
56.8308927539
 20
235.9099446948
 30
0.0
 10
57.9044963253
 20
231.6620131313
 30
0.0
 10
58.5492979967
 20
225.5323473185
 30
0.0
 10
57.9349624612
 20
219.1348361065
 30
0.0
 10
56.2058580212
 20
212.8404050879
 30
0.0
 10
53.7075758706
 20
206.5910918112
 30
0.0
 10
50.184636336
 20
200.7750487513
 30
0.0
 10
45.809620584
 20
195.6890451124
 30
0.0
 10
41.0648994239
 20
191.2972693656
 30
0.0
 10
36.98378304
 20
188.6754969601
 30
0.0
 10
34.1305918612
 20
187.3624491529
 30
0.0
  0
SPLINE
  5
2D3
100
AcDbEntity
  8
0
100
AcDbSpline
 62
7
  6
CONTINUOUS
 70
0
 71
3
 72
10
 73
6
 74
0
 42
0.0000001
 43
0.0000001
 44
0.0000000001
 40
0.0
 40
0.0
 40
0.0
 40
0.0
 40
0.5149103404
 40
0.7596757362
 40
1.0
 40
1.0
 40
1.0
 40
1.0
 10
-28.8445684913
 20
179.3016513533
 30
0.0
 10
-29.4841737449
 20
179.1302016584
 30
0.0
 10
-30.4860483177
 20
179.029647596
 30
0.0
 10
-31.7520177982
 20
179.2932572732
 30
0.0
 10
-32.3280276373
 20
179.5476088084
 30
0.0
 10
-32.595677729
 20
179.702149511
 30
0.0
  0
SPLINE
  5
2D4
100
AcDbEntity
  8
0
100
AcDbSpline
 62
7
  6
CONTINUOUS
 70
0
 71
3
 72
10
 73
6
 74
0
 42
0.0000001
 43
0.0000001
 44
0.0000000001
 40
0.0
 40
0.0
 40
0.0
 40
0.0
 40
0.5252430948
 40
0.7667940878
 40
1.0
 40
1.0
 40
1.0
 40
1.0
 10
-31.0759735267
 20
185.5985206002
 30
0.0
 10
-31.0759735267
 20
185.3747191695
 30
0.0
 10
-31.010445276
 20
185.037889504
 30
0.0
 10
-30.7677583645
 20
184.6819656253
 30
0.0
 10
-30.6072890614
 20
184.5527760474
 30
0.0
 10
-30.521258729
 20
184.5030510298
 30
0.0
  0
SPLINE
  5
2D5
100
AcDbEntity
  8
0
100
AcDbSpline
 62
7
  6
CONTINUOUS
 70
0
 71
3
 72
13
 73
9
 74
0
 42
0.0000001
 43
0.0000001
 44
0.0000000001
 40
0.0
 40
0.0
 40
0.0
 40
0.0
 40
0.1054260364
 40
0.2162111602
 40
0.3355564676
 40
0.4637456454
 40
0.7347621352
 40
1.0
 40
1.0
 40
1.0
 40
1.0
 10
-28.8207708725
 20
265.5906460913
 30
0.0
 10
-28.9246329579
 20
265.6506777554
 30
0.0
 10
-29.1628911891
 20
265.7341480685
 30
0.0
 10
-29.5512178892
 20
265.728140596
 30
0.0
 10
-29.9436995828
 20
265.5989843029
 30
0.0
 10
-30.4427649856
 20
265.2744762918
 30
0.0
 10
-30.9186708536
 20
264.6572883633
 30
0.0
 10
-31.0759735267
 20
264.0437737977
 30
0.0
 10
-31.0759735267
 20
263.7419627419
 30
0.0
  0
SPLINE
  5
2D6
100
AcDbEntity
  8
0
100
AcDbSpline
 62
7
  6
CONTINUOUS
 70
0
 71
3
 72
11
 73
7
 74
0
 42
0.0000001
 43
0.0000001
 44
0.0000000001
 40
0.0
 40
0.0
 40
0.0
 40
0.0
 40
0.2580479907
 40
0.5094306555
 40
0.7559634489
 40
1.0
 40
1.0
 40
1.0
 40
1.0
 10
24.2132361483
 20
184.7040475803
 30
0.0
 10
23.0853447822
 20
184.6184319053
 30
0.0
 10
20.8437719975
 20
184.5991892269
 30
0.0
 10
17.5489723911
 20
185.0507119895
 30
0.0
 10
14.4187132749
 20
185.9780966427
 30
0.0
 10
12.4679269571
 20
186.9075267044
 30
0.0
 10
11.5416325695
 20
187.4425735868
 30
0.0
  0
SPLINE
  5
2D7
100
AcDbEntity
  8
0
100
AcDbSpline
 62
7
  6
CONTINUOUS
 70
0
 71
3
 72
14
 73
10
 74
0
 42
0.0000001
 43
0.0000001
 44
0.0000000001
 40
0.0
 40
0.0
 40
0.0
 40
0.0
 40
0.2647837441
 40
0.4023089711
 40
0.5369529473
 40
0.6649529929
 40
0.7841200305
 40
0.8947373724
 40
1.0
 40
1.0
 40
1.0
 40
1.0
 10
34.1305918612
 20
186.659717617
 30
0.0
 10
34.1305918612
 20
185.5946477288
 30
0.0
 10
33.708778821
 20
183.9583845141
 30
0.0
 10
32.5615618856
 20
182.1187836099
 30
0.0
 10
31.4344581021
 20
180.9499294548
 30
0.0
 10
30.1343121218
 20
180.1054786164
 30
0.0
 10
28.7492617924
 20
179.6495793331
 30
0.0
 10
27.3784947413
 20
179.6283410534
 30
0.0
 10
26.5376909998
 20
179.9231692749
 30
0.0
 10
26.1710233305
 20
180.1349020129
 30
0.0
  0
SPLINE
  5
2D8
100
AcDbEntity
  8
0
100
AcDbSpline
 62
7
  6
CONTINUOUS
 70
0
 71
3
 72
11
 73
7
 74
0
 42
0.0000001
 43
0.0000001
 44
0.0000000001
 40
0.0
 40
0.0
 40
0.0
 40
0.0
 40
0.2717350397
 40
0.5268969419
 40
0.7676331593
 40
1.0
 40
1.0
 40
1.0
 40
1.0
 10
26.2793519217
 20
184.5551497053
 30
0.0
 10
26.2793519217
 20
184.3159112501
 30
0.0
 10
26.3259369846
 20
183.8500679565
 30
0.0
 10
26.5486256101
 20
183.2047305005
 30
0.0
 10
26.9138896308
 20
182.6678900771
 30
0.0
 10
27.2442607166
 20
182.402093376
 30
0.0
 10
27.4214126795
 20
182.299773045
 30
0.0
  0
SPLINE
  5
2D9
100
AcDbEntity
  8
0
100
AcDbSpline
 62
7
  6
CONTINUOUS
 70
0
 71
3
 72
20
 73
16
 74
0
 42
0.0000001
 43
0.0000001
 44
0.0000000001
 40
0.0
 40
0.0
 40
0.0
 40
0.0
 40
0.0602653282
 40
0.1230594012
 40
0.1881409608
 40
0.2550807793
 40
0.3919428645
 40
0.5285616375
 40
0.5952158924
 40
0.6599252503
 40
0.781760701
 40
0.8390560147
 40
0.8941217069
 40
0.9475119469
 40
1.0
 40
1.0
 40
1.0
 40
1.0
 10
29.1719140046
 20
247.845270544
 30
0.0
 10
27.74871966
 20
247.463775497
 30
0.0
 10
24.9029967029
 20
246.4435494147
 30
0.0
 10
20.8367180273
 20
244.2624790055
 30
0.0
 10
16.9735792526
 20
241.4514100765
 30
0.0
 10
12.1856561472
 20
236.9250314904
 30
0.0
 10
7.2322290978
 20
230.1325269006
 30
0.0
 10
3.9836304968
 20
222.3868620148
 30
0.0
 10
2.6004693849
 20
215.9648829479
 30
0.0
 10
2.0862861956
 20
209.7849711355
 30
0.0
 10
2.8144796367
 20
203.7584944655
 30
0.0
 10
4.8939075498
 20
198.3970201197
 30
0.0
 10
7.0194398623
 20
194.9182700046
 30
0.0
 10
9.6920518382
 20
191.9969825616
 30
0.0
 10
11.8057984152
 20
190.4657495568
 30
0.0
 10
12.9170553753
 20
189.8239225067
 30
0.0
  0
SPLINE
  5
2DA
100
AcDbEntity
  8
0
100
AcDbSpline
 62
7
  6
CONTINUOUS
 70
0
 71
3
 72
13
 73
9
 74
0
 42
0.0000001
 43
0.0000001
 44
0.0000000001
 40
0.0
 40
0.0
 40
0.0
 40
0.0
 40
0.1054260364
 40
0.2162111602
 40
0.3355564676
 40
0.4637456454
 40
0.7347621352
 40
1.0
 40
1.0
 40
1.0
 40
1.0
 10
-28.8207708725
 20
187.4472039496
 30
0.0
 10
-28.9246329579
 20
187.5072356137
 30
0.0
 10
-29.1628911891
 20
187.5907059268
 30
0.0
 10
-29.5512178892
 20
187.5846984543
 30
0.0
 10
-29.9436995828
 20
187.4555421612
 30
0.0
 10
-30.4427649856
 20
187.1310341502
 30
0.0
 10
-30.9186708536
 20
186.5138462216
 30
0.0
 10
-31.0759735267
 20
185.900331656
 30
0.0
 10
-31.0759735267
 20
185.5985206002
 30
0.0
  0
SPLINE
  5
2DB
100
AcDbEntity
  8
0
100
AcDbSpline
 62
7
  6
CONTINUOUS
 70
0
 71
3
 72
10
 73
6
 74
0
 42
0.0000001
 43
0.0000001
 44
0.0000000001
 40
0.0
 40
0.0
 40
0.0
 40
0.0
 40
0.2403242638
 40
0.4850896596
 40
1.0
 40
1.0
 40
1.0
 40
1.0
 10
-26.3257519997
 20
189.817020806
 30
0.0
 10
-26.5041853943
 20
189.9200479411
 30
0.0
 10
-26.888191954
 20
190.0896156313
 30
0.0
 10
-27.7321716081
 20
190.2653554161
 30
0.0
 10
-28.4000879904
 20
190.1983193741
 30
0.0
 10
-28.826491493
 20
190.0840195774
 30
0.0
  0
SPLINE
  5
2DC
100
AcDbEntity
  8
0
100
AcDbSpline
 62
7
  6
CONTINUOUS
 70
0
 71
3
 72
11
 73
7
 74
0
 42
0.0000001
 43
0.0000001
 44
0.0000000001
 40
0.0
 40
0.0
 40
0.0
 40
0.0
 40
0.2705374013
 40
0.5242004538
 40
0.7653883145
 40
1.0
 40
1.0
 40
1.0
 40
1.0
 10
-9.9276949738
 20
265.7261843238
 30
0.0
 10
-9.5169046755
 20
266.31644153
 30
0.0
 10
-8.6430035254
 20
267.4093044522
 30
0.0
 10
-7.1299491796
 20
268.7836966534
 30
0.0
 10
-5.4756910345
 20
269.816141049
 30
0.0
 10
-4.2839180199
 20
270.2680434822
 30
0.0
 10
-3.6815555316
 20
270.4295424762
 30
0.0
  0
SPLINE
  5
2DD
100
AcDbEntity
  8
0
100
AcDbSpline
 62
7
  6
CONTINUOUS
 70
0
 71
3
 72
11
 73
7
 74
0
 42
0.0000001
 43
0.0000001
 44
0.0000000001
 40
0.0
 40
0.0
 40
0.0
 40
0.0
 40
0.2656232547
 40
0.5205447595
 40
0.7648985691
 40
1.0
 40
1.0
 40
1.0
 40
1.0
 10
-11.3390279293
 20
210.4325985942
 30
0.0
 10
-11.3000129444
 20
208.2536648311
 30
0.0
 10
-10.9196537047
 20
203.9810343572
 30
0.0
 10
-9.3889382288
 20
197.8669112577
 30
0.0
 10
-6.9450712648
 20
192.3266438307
 30
0.0
 10
-4.7036851944
 20
189.0588795997
 30
0.0
 10
-3.4577553183
 20
187.586400139
 30
0.0
  0
SPLINE
  5
2DE
100
AcDbEntity
  8
0
100
AcDbSpline
 62
7
  6
CONTINUOUS
 70
0
 71
3
 72
14
 73
10
 74
0
 42
0.0000001
 43
0.0000001
 44
0.0000000001
 40
0.0
 40
0.0
 40
0.0
 40
0.0
 40
0.2444040568
 40
0.3711469702
 40
0.4992291645
 40
0.6273805911
 40
0.7543258329
 40
0.8788680354
 40
1.0
 40
1.0
 40
1.0
 40
1.0
 10
13.3928067864
 20
256.4082071291
 30
0.0
 10
9.649487965
 20
254.0433787078
 30
0.0
 10
4.4632224337
 20
249.6014062738
 30
0.0
 10
-1.2051905591
 20
242.5376454865
 30
0.0
 10
-4.8661432704
 20
236.6213207093
 30
0.0
 10
-7.7855547619
 20
230.3050874405
 30
0.0
 10
-9.8945023718
 20
223.7398290632
 30
0.0
 10
-11.1407943199
 20
217.0875295227
 30
0.0
 10
-11.3783150237
 20
212.6267293054
 30
0.0
 10
-11.3390279293
 20
210.4325985942
 30
0.0
  0
SPLINE
  5
2DF
100
AcDbEntity
  8
0
100
AcDbSpline
 62
7
  6
CONTINUOUS
 70
0
 71
3
 72
9
 73
5
 74
0
 42
0.0000001
 43
0.0000001
 44
0.0000000001
 40
0.0
 40
0.0
 40
0.0
 40
0.0
 40
0.2434719838
 40
1.0
 40
1.0
 40
1.0
 40
1.0
 10
17.9219156353
 20
252.2615420915
 30
0.0
 10
17.9219156353
 20
251.7029709665
 30
0.0
 10
17.8218469905
 20
249.4093098586
 30
0.0
 10
17.335777141
 20
247.1371228987
 30
0.0
 10
16.789558691
 20
245.4896945387
 30
0.0
  0
SPLINE
  5
2E0
100
AcDbEntity
  8
0
100
AcDbSpline
 62
7
  6
CONTINUOUS
 70
0
 71
3
 72
11
 73
7
 74
0
 42
0.0000001
 43
0.0000001
 44
0.0000000001
 40
0.0
 40
0.0
 40
0.0
 40
0.0
 40
0.2344241041
 40
0.4783749029
 40
0.7334580688
 40
1.0
 40
1.0
 40
1.0
 40
1.0
 10
57.1774870111
 20
251.0182059904
 30
0.0
 10
58.3916638772
 20
249.5638872804
 30
0.0
 10
60.566842132
 20
246.3319208635
 30
0.0
 10
62.9013392671
 20
240.8498199443
 30
0.0
 10
64.3151069519
 20
234.7979307722
 30
0.0
 10
64.6161321179
 20
230.5742279323
 30
0.0
 10
64.6161321179
 20
228.4201260452
 30
0.0
  0
SPLINE
  5
2E1
100
AcDbEntity
  8
0
100
AcDbSpline
 62
7
  6
CONTINUOUS
 70
0
 71
3
 72
15
 73
11
 74
0
 42
0.0000001
 43
0.0000001
 44
0.0000000001
 40
0.0
 40
0.0
 40
0.0
 40
0.0
 40
0.1226793102
 40
0.2497804871
 40
0.3795759387
 40
0.5100271139
 40
0.6390304753
 40
0.7646372387
 40
0.8852762652
 40
1.0
 40
1.0
 40
1.0
 40
1.0
 10
64.6161321179
 20
228.4201260452
 30
0.0
 10
64.6161321179
 20
225.7016883872
 30
0.0
 10
64.1173808412
 20
220.1578862326
 30
0.0
 10
62.0188678175
 20
211.9797391363
 30
0.0
 10
58.6367483901
 20
204.0553708435
 30
0.0
 10
54.0981651097
 20
196.6835309608
 30
0.0
 10
48.5729923702
 20
190.1387258715
 30
0.0
 10
42.2640641031
 20
184.6667927437
 30
0.0
 10
35.4072561893
 20
180.4758342811
 30
0.0
 10
30.5013468924
 20
178.5949141807
 30
0.0
 10
28.0458829258
 20
177.936713602
 30
0.0
  0
SPLINE
  5
2E2
100
AcDbEntity
  8
0
100
AcDbSpline
 62
7
  6
CONTINUOUS
 70
0
 71
3
 72
12
 73
8
 74
0
 42
0.0000001
 43
0.0000001
 44
0.0000000001
 40
0.0
 40
0.0
 40
0.0
 40
0.0
 40
0.2349933756
 40
0.4894753556
 40
0.6202647794
 40
0.7503870015
 40
1.0
 40
1.0
 40
1.0
 40
1.0
 10
-28.8264914926
 20
259.0341155848
 30
0.0
 10
-28.259645207
 20
259.1860618394
 30
0.0
 10
-27.1422936066
 20
259.7569217335
 30
0.0
 10
-26.0470062919
 20
260.885823935
 30
0.0
 10
-25.36992727
 20
261.985622766
 30
0.0
 10
-24.8678584657
 20
263.1605166298
 30
0.0
 10
-24.6942599444
 20
264.1150877697
 30
0.0
 10
-24.6942599444
 20
264.7384559741
 30
0.0
  0
SPLINE
  5
2E3
100
AcDbEntity
  8
0
100
AcDbSpline
 62
7
  6
CONTINUOUS
 70
0
 71
3
 72
13
 73
9
 74
0
 42
0.0000001
 43
0.0000001
 44
0.0000000001
 40
0.0
 40
0.0
 40
0.0
 40
0.0
 40
0.1054260364
 40
0.2162111602
 40
0.3355564676
 40
0.4637456454
 40
0.7347621352
 40
1.0
 40
1.0
 40
1.0
 40
1.0
 10
-30.521258729
 20
262.6464931714
 30
0.0
 10
-30.4173966436
 20
262.5864615073
 30
0.0
 10
-30.1791384124
 20
262.5029911943
 30
0.0
 10
-29.7908117122
 20
262.5089986667
 30
0.0
 10
-29.3983300186
 20
262.6381549599
 30
0.0
 10
-28.8992646158
 20
262.9626629709
 30
0.0
 10
-28.4233587478
 20
263.5798508994
 30
0.0
 10
-28.2660560747
 20
264.193365465
 30
0.0
 10
-28.2660560747
 20
264.4951765208
 30
0.0
  0
SPLINE
  5
2E4
100
AcDbEntity
  8
0
100
AcDbSpline
 62
7
  6
CONTINUOUS
 70
0
 71
3
 72
9
 73
5
 74
0
 42
0.0000001
 43
0.0000001
 44
0.0000000001
 40
0.0
 40
0.0
 40
0.0
 40
0.0
 40
0.2429892131
 40
1.0
 40
1.0
 40
1.0
 40
1.0
 10
4.756430903
 20
201.7642582379
 30
0.0
 10
4.7521695983
 20
201.6289196554
 30
0.0
 10
4.7039584797
 20
201.073120335
 30
0.0
 10
4.5388283074
 20
200.5292416658
 30
0.0
 10
4.3621678154
 20
200.1461706244
 30
0.0
  0
SPLINE
  5
2E5
100
AcDbEntity
  8
0
100
AcDbSpline
 62
7
  6
CONTINUOUS
 70
0
 71
3
 72
11
 73
7
 74
0
 42
0.0000001
 43
0.0000001
 44
0.0000000001
 40
0.0
 40
0.0
 40
0.0
 40
0.0
 40
0.2425463816
 40
0.4882672656
 40
0.7400278575
 40
1.0
 40
1.0
 40
1.0
 40
1.0
 10
12.9170553753
 20
189.8239225067
 30
0.0
 10
13.8838773228
 20
189.2655165745
 30
0.0
 10
15.9357162367
 20
188.3141568844
 30
0.0
 10
19.2462302588
 20
187.4437102619
 30
0.0
 10
22.7352084464
 20
187.1389954002
 30
0.0
 10
25.0954611869
 20
187.3122250976
 30
0.0
 10
26.2793519217
 20
187.4869180448
 30
0.0
  0
SPLINE
  5
2E6
100
AcDbEntity
  8
0
100
AcDbSpline
 62
7
  6
CONTINUOUS
 70
0
 71
3
 72
9
 73
5
 74
0
 42
0.0000001
 43
0.0000001
 44
0.0000000001
 40
0.0
 40
0.0
 40
0.0
 40
0.0
 40
0.492540214
 40
1.0
 40
1.0
 40
1.0
 40
1.0
 10
-3.6815555316
 20
270.4295424762
 30
0.0
 10
-3.0543904479
 20
270.5976912771
 30
0.0
 10
-1.7417503559
 20
270.8056272657
 30
0.0
 10
-0.4156492522
 20
270.7445308726
 30
0.0
 10
0.2471425039
 20
270.6537231607
 30
0.0
  0
SPLINE
  5
2E7
100
AcDbEntity
  8
0
100
AcDbSpline
 62
7
  6
CONTINUOUS
 70
0
 71
3
 72
10
 73
6
 74
0
 42
0.0000001
 43
0.0000001
 44
0.0000000001
 40
0.0
 40
0.0
 40
0.0
 40
0.0
 40
0.4898584147
 40
0.7452770754
 40
1.0
 40
1.0
 40
1.0
 40
1.0
 10
-10.2314495295
 20
265.9016273139
 30
0.0
 10
-10.2314495295
 20
263.737641898
 30
0.0
 10
-10.9293813808
 20
260.4178879549
 30
0.0
 10
-12.8997481552
 20
256.4530350468
 30
0.0
 10
-14.2383984342
 20
254.621410648
 30
0.0
 10
-14.9804320537
 20
253.7754852325
 30
0.0
  0
SPLINE
  5
2E8
100
AcDbEntity
  8
0
100
AcDbSpline
 62
7
  6
CONTINUOUS
 70
0
 71
3
 72
11
 73
7
 74
0
 42
0.0000001
 43
0.0000001
 44
0.0000000001
 40
0.0
 40
0.0
 40
0.0
 40
0.0
 40
0.2634097535
 40
0.5159320736
 40
0.7602037461
 40
1.0
 40
1.0
 40
1.0
 40
1.0
 10
29.1719140046
 20
250.3734407309
 30
0.0
 10
30.7131255723
 20
250.7865709416
 30
0.0
 10
33.8066629408
 20
251.3485820102
 30
0.0
 10
38.4393837167
 20
251.325822539
 30
0.0
 10
42.8381479474
 20
250.4136308847
 30
0.0
 10
45.5443474211
 20
249.2177244
 30
0.0
 10
46.8021778965
 20
248.4911873597
 30
0.0
  0
SPLINE
  5
2E9
100
AcDbEntity
  8
0
100
AcDbSpline
 62
7
  6
CONTINUOUS
 70
0
 71
3
 72
16
 73
12
 74
0
 42
0.0000001
 43
0.0000001
 44
0.0000000001
 40
0.0
 40
0.0
 40
0.0
 40
0.0
 40
0.2761416294
 40
0.4122917212
 40
0.5432046127
 40
0.667097934
 40
0.7834496058
 40
0.839193842
 40
0.8935976908
 40
0.9470473111
 40
1.0
 40
1.0
 40
1.0
 40
1.0
 10
-14.9804320537
 20
253.7754852325
 30
0.0
 10
-18.487839257
 20
249.7770075162
 30
0.0
 10
-22.7096664181
 20
242.8007485312
 30
0.0
 10
-25.6470805719
 20
232.7189252588
 30
0.0
 10
-26.3924263328
 20
225.1744110746
 30
0.0
 10
-25.63155807
 20
218.0125461337
 30
0.0
 10
-23.7208591282
 20
212.5719473019
 30
0.0
 10
-21.4793209859
 20
208.8152478958
 30
0.0
 10
-19.4987021567
 20
206.3502735532
 30
0.0
 10
-17.2217754897
 20
204.234824453
 30
0.0
 10
-15.5217689732
 20
203.0739339765
 30
0.0
 10
-14.6385844834
 20
202.5637936512
 30
0.0
  0
SPLINE
  5
2EA
100
AcDbEntity
  8
0
100
AcDbSpline
 62
7
  6
CONTINUOUS
 70
0
 71
3
 72
19
 73
15
 74
0
 42
0.0000001
 43
0.0000001
 44
0.0000000001
 40
0.0
 40
0.0
 40
0.0
 40
0.0
 40
0.052625086
 40
0.1066041902
 40
0.1625229261
 40
0.2207476075
 40
0.3441346857
 40
0.4092377752
 40
0.476001565
 40
0.6120837874
 40
0.7477106152
 40
0.8139330125
 40
0.8783285293
 40
1.0
 40
1.0
 40
1.0
 40
1.0
 10
9.153544395
 20
189.0571773714
 30
0.0
 10
8.0952256853
 20
189.8869730986
 30
0.0
 10
6.1123207549
 20
191.7839970422
 30
0.0
 10
3.6891411607
 20
195.1839199847
 30
0.0
 10
1.8388096421
 20
199.0852692642
 30
0.0
 10
0.1553586618
 20
204.9396857669
 30
0.0
 10
-0.177618996
 20
211.3331229915
 30
0.0
 10
0.7135127696
 20
217.8053382576
 30
0.0
 10
2.4636021271
 20
224.4416610599
 30
0.0
 10
6.1208129864
 20
232.3667005623
 30
0.0
 10
11.4334148314
 20
239.2757640811
 30
0.0
 10
16.4788115997
 20
243.8653744104
 30
0.0
 10
21.7524554031
 20
247.589809339
 30
0.0
 10
26.168609479
 20
249.5683884867
 30
0.0
 10
29.1719140046
 20
250.3734407309
 30
0.0
  0
SPLINE
  5
2EB
100
AcDbEntity
  8
0
100
AcDbSpline
 62
7
  6
CONTINUOUS
 70
0
 71
3
 72
20
 73
16
 74
0
 42
0.0000001
 43
0.0000001
 44
0.0000000001
 40
0.0
 40
0.0
 40
0.0
 40
0.0
 40
0.1257124264
 40
0.191810059
 40
0.2593919081
 40
0.3964653541
 40
0.4649100803
 40
0.5323847475
 40
0.6620225535
 40
0.7236682349
 40
0.7828645479
 40
0.8396828453
 40
0.8944263442
 40
0.9476259033
 40
1.0
 40
1.0
 40
1.0
 40
1.0
 10
32.0644760876
 20
189.0376522954
 30
0.0
 10
34.8110296483
 20
190.1048329024
 30
0.0
 10
38.7741741413
 20
192.3746658511
 30
0.0
 10
43.4109866301
 20
196.3201967624
 30
0.0
 10
47.7316535115
 20
200.9863800027
 30
0.0
 10
51.2453261883
 20
206.4144746048
 30
0.0
 10
53.7752879961
 20
212.3045630972
 30
0.0
 10
55.561853115
 20
218.2771493457
 30
0.0
 10
56.2626768997
 20
224.3802649967
 30
0.0
 10
55.7289405583
 20
230.2435984893
 30
0.0
 10
54.7470611068
 20
234.3075696447
 30
0.0
 10
53.1951479335
 20
238.0166043041
 30
0.0
 10
51.1029740478
 20
241.2876099535
 30
0.0
 10
48.515618051
 20
244.0423704997
 30
0.0
 10
46.4897798455
 20
245.4958398375
 30
0.0
 10
45.4267704584
 20
246.1098655311
 30
0.0
  0
SPLINE
  5
2EC
100
AcDbEntity
  8
0
100
AcDbSpline
 62
7
  6
CONTINUOUS
 70
0
 71
3
 72
13
 73
9
 74
0
 42
0.0000001
 43
0.0000001
 44
0.0000000001
 40
0.0
 40
0.0
 40
0.0
 40
0.0
 40
0.1054260364
 40
0.2162111602
 40
0.3355564676
 40
0.4637456454
 40
0.7347621352
 40
1.0
 40
1.0
 40
1.0
 40
1.0
 10
-30.521258729
 20
184.5030510298
 30
0.0
 10
-30.4173966436
 20
184.4430193657
 30
0.0
 10
-30.1791384124
 20
184.3595490526
 30
0.0
 10
-29.7908117122
 20
184.3655565251
 30
0.0
 10
-29.3983300186
 20
184.4947128182
 30
0.0
 10
-28.8992646158
 20
184.8192208292
 30
0.0
 10
-28.4233587478
 20
185.4364087577
 30
0.0
 10
-28.2660560747
 20
186.0499233234
 30
0.0
 10
-28.2660560747
 20
186.3517343791
 30
0.0
  0
SPLINE
  5
2ED
100
AcDbEntity
  8
0
100
AcDbSpline
 62
7
  6
CONTINUOUS
 70
0
 71
3
 72
11
 73
7
 74
0
 42
0.0000001
 43
0.0000001
 44
0.0000000001
 40
0.0
 40
0.0
 40
0.0
 40
0.0
 40
0.2323661364
 40
0.4731259371
 40
0.728227876
 40
1.0
 40
1.0
 40
1.0
 40
1.0
 10
-32.595677729
 20
179.702149511
 30
0.0
 10
-32.9753222551
 20
179.9213556073
 30
0.0
 10
-33.6833420216
 20
180.490951721
 30
0.0
 10
-34.4657925705
 20
181.6414121694
 30
0.0
 10
-34.9432061086
 20
183.024199295
 30
0.0
 10
-35.042915812
 20
184.0224312909
 30
0.0
 10
-35.042915812
 20
184.5351599712
 30
0.0
  0
SPLINE
  5
2EE
100
AcDbEntity
  8
0
100
AcDbSpline
 62
7
  6
CONTINUOUS
 70
0
 71
3
 72
11
 73
7
 74
0
 42
0.0000001
 43
0.0000001
 44
0.0000000001
 40
0.0
 40
0.0
 40
0.0
 40
0.0
 40
0.2323606058
 40
0.4731242784
 40
0.7282305678
 40
1.0
 40
1.0
 40
1.0
 40
1.0
 10
26.1710233305
 20
180.1349020129
 30
0.0
 10
25.867321604
 20
180.3102749827
 30
0.0
 10
25.3008975377
 20
180.7659321679
 30
0.0
 10
24.6749304409
 20
181.6863077916
 30
0.0
 10
24.2930018488
 20
182.7925477854
 30
0.0
 10
24.213236148
 20
183.5911367416
 30
0.0
 10
24.2132361481
 20
184.0013160461
 30
0.0
  0
SPLINE
  5
2EF
100
AcDbEntity
  8
0
100
AcDbSpline
 62
7
  6
CONTINUOUS
 70
0
 71
3
 72
9
 73
5
 74
0
 42
0.0000001
 43
0.0000001
 44
0.0000000001
 40
0.0
 40
0.0
 40
0.0
 40
0.0
 40
0.2546131836
 40
1.0
 40
1.0
 40
1.0
 40
1.0
 10
7.7310851853
 20
252.0567345569
 30
0.0
 10
7.7864679317
 20
252.3309719016
 30
0.0
 10
7.9784260864
 20
253.412974287
 30
0.0
 10
8.0665555019
 20
254.5139942971
 30
0.0
 10
8.0665555019
 20
255.333039433
 30
0.0
  0
SPLINE
  5
2F0
100
AcDbEntity
  8
0
100
AcDbSpline
 62
7
  6
CONTINUOUS
 70
0
 71
3
 72
9
 73
5
 74
0
 42
0.0000001
 43
0.0000001
 44
0.0000000001
 40
0.0
 40
0.0
 40
0.0
 40
0.0
 40
0.477305613
 40
1.0
 40
1.0
 40
1.0
 40
1.0
 10
-26.4414538969
 20
189.7083881207
 30
0.0
 10
-26.143195036
 20
189.3726466401
 30
0.0
 10
-25.6732483178
 20
188.5244489855
 30
0.0
 10
-25.5387832536
 20
187.5745890697
 30
0.0
 10
-25.5387832536
 20
187.0827948116
 30
0.0
  0
SPLINE
  5
2F1
100
AcDbEntity
  8
0
100
AcDbSpline
 62
7
  6
CONTINUOUS
 70
0
 71
3
 72
13
 73
9
 74
0
 42
0.0000001
 43
0.0000001
 44
0.0000000001
 40
0.0
 40
0.0
 40
0.0
 40
0.0
 40
0.1054228116
 40
0.2162092768
 40
0.3355568365
 40
0.4637520711
 40
0.7347891091
 40
1.0
 40
1.0
 40
1.0
 40
1.0
 10
27.4214126795
 20
182.299773045
 30
0.0
 10
27.6352792557
 20
182.1762469011
 30
0.0
 10
28.1257485682
 20
182.0042975296
 30
0.0
 10
28.9252752459
 20
182.0166474218
 30
0.0
 10
29.7333572162
 20
182.2825362451
 30
0.0
 10
30.7609059431
 20
182.9507053126
 30
0.0
 10
31.7406208838
 20
184.2214726063
 30
0.0
 10
32.0644760876
 20
185.4845669979
 30
0.0
 10
32.0644760876
 20
186.105883956
 30
0.0
  0
SPLINE
  5
2F2
100
AcDbEntity
  8
0
100
AcDbSpline
 62
7
  6
CONTINUOUS
 70
0
 71
3
 72
13
 73
9
 74
0
 42
0.0000001
 43
0.0000001
 44
0.0000000001
 40
0.0
 40
0.0
 40
0.0
 40
0.0
 40
0.2494186203
 40
0.3794395139
 40
0.5101270896
 40
0.6393638835
 40
0.765189618
 40
1.0
 40
1.0
 40
1.0
 40
1.0
 10
-35.042915812
 20
262.6786021129
 30
0.0
 10
-35.042915812
 20
263.6136544194
 30
0.0
 10
-34.7825147296
 20
265.0456256986
 30
0.0
 10
-34.0294205872
 20
266.8076518738
 30
0.0
 10
-33.2603801664
 20
268.05774136
 30
0.0
 10
-32.3229704453
 20
269.1671833386
 30
0.0
 10
-30.9340277433
 20
270.373858694
 30
0.0
 10
-29.6948379196
 20
271.0071933145
 30
0.0
 10
-28.8445684913
 20
271.2351126965
 30
0.0
  0
SPLINE
  5
2F3
100
AcDbEntity
  8
0
100
AcDbSpline
 62
7
  6
CONTINUOUS
 70
0
 71
3
 72
12
 73
8
 74
0
 42
0.0000001
 43
0.0000001
 44
0.0000000001
 40
0.0
 40
0.0
 40
0.0
 40
0.0
 40
0.2496129985
 40
0.3797352206
 40
0.5105246444
 40
0.7650066244
 40
1.0
 40
1.0
 40
1.0
 40
1.0
 10
-25.5387832536
 20
265.2262369533
 30
0.0
 10
-25.5387832536
 20
264.6028687489
 30
0.0
 10
-25.7123817748
 20
263.6482976091
 30
0.0
 10
-26.2144505789
 20
262.4734037456
 30
0.0
 10
-26.8915296006
 20
261.3736049146
 30
0.0
 10
-27.9868169151
 20
260.2447027133
 30
0.0
 10
-29.1041685152
 20
259.6738428188
 30
0.0
 10
-29.6710148007
 20
259.5218965642
 30
0.0
  0
SPLINE
  5
2F4
100
AcDbEntity
  8
0
100
AcDbSpline
 62
7
  6
CONTINUOUS
 70
0
 71
3
 72
10
 73
6
 74
0
 42
0.0000001
 43
0.0000001
 44
0.0000000001
 40
0.0
 40
0.0
 40
0.0
 40
0.0
 40
0.5252430948
 40
0.7667940878
 40
1.0
 40
1.0
 40
1.0
 40
1.0
 10
-28.2660560747
 20
264.4951765208
 30
0.0
 10
-28.2660560747
 20
264.7189779515
 30
0.0
 10
-28.3315843254
 20
265.0558076171
 30
0.0
 10
-28.5742712369
 20
265.4117314958
 30
0.0
 10
-28.73474054
 20
265.5409210737
 30
0.0
 10
-28.8207708725
 20
265.5906460913
 30
0.0
  0
SPLINE
  5
2F5
100
AcDbEntity
  8
0
100
AcDbSpline
 62
7
  6
CONTINUOUS
 70
0
 71
3
 72
11
 73
7
 74
0
 42
0.0000001
 43
0.0000001
 44
0.0000000001
 40
0.0
 40
0.0
 40
0.0
 40
0.0
 40
0.271772124
 40
0.5268740629
 40
0.7676338636
 40
1.0
 40
1.0
 40
1.0
 40
1.0
 10
-24.6942599444
 20
186.5950138325
 30
0.0
 10
-24.6942599444
 20
186.9368329527
 30
0.0
 10
-24.76073308
 20
187.6023209499
 30
0.0
 10
-25.0790087721
 20
188.5241790337
 30
0.0
 10
-25.6006424714
 20
189.291152666
 30
0.0
 10
-26.072655649
 20
189.6708834084
 30
0.0
 10
-26.3257519997
 20
189.817020806
 30
0.0
  0
SPLINE
  5
2F6
100
AcDbEntity
  8
0
100
AcDbSpline
 62
7
  6
CONTINUOUS
 70
0
 71
3
 72
10
 73
6
 74
0
 42
0.0000001
 43
0.0000001
 44
0.0000000001
 40
0.0
 40
0.0
 40
0.0
 40
0.0
 40
0.5252430948
 40
0.7667940878
 40
1.0
 40
1.0
 40
1.0
 40
1.0
 10
-28.2660560747
 20
186.3517343791
 30
0.0
 10
-28.2660560747
 20
186.5755358099
 30
0.0
 10
-28.3315843254
 20
186.9123654754
 30
0.0
 10
-28.5742712369
 20
187.2682893541
 30
0.0
 10
-28.73474054
 20
187.397478932
 30
0.0
 10
-28.8207708725
 20
187.4472039496
 30
0.0
  0
SPLINE
  5
2F7
100
AcDbEntity
  8
0
100
AcDbSpline
 62
7
  6
CONTINUOUS
 70
0
 71
3
 72
18
 73
14
 74
0
 42
0.0000001
 43
0.0000001
 44
0.0000000001
 40
0.0
 40
0.0
 40
0.0
 40
0.0
 40
0.1324148782
 40
0.2686334348
 40
0.3371396288
 40
0.4052364052
 40
0.5382752092
 40
0.6649127455
 40
0.7834497155
 40
0.8398055807
 40
0.8944065359
 40
0.9476405954
 40
1.0
 40
1.0
 40
1.0
 40
1.0
 10
16.789558691
 20
245.4896945387
 30
0.0
 10
14.4629618174
 20
243.7818575313
 30
0.0
 10
10.1143641903
 20
239.7890969696
 30
0.0
 10
5.7538558778
 20
233.816282306
 30
0.0
 10
2.9666413319
 20
228.5540217953
 30
0.0
 10
0.7282106887
 20
223.1117544691
 30
0.0
 10
-1.009651452
 20
216.1270794853
 30
0.0
 10
-1.2825197667
 20
207.8234911459
 30
0.0
 10
0.0782407142
 20
201.310402984
 30
0.0
 10
2.1067988745
 20
196.7212466345
 30
0.0
 10
4.0274369784
 20
193.6845527
 30
0.0
 10
6.3416413973
 20
191.0510144016
 30
0.0
 10
8.1325507882
 20
189.585555162
 30
0.0
 10
9.0733684053
 20
188.9395876433
 30
0.0
  0
SPLINE
  5
2F8
100
AcDbEntity
  8
0
100
AcDbSpline
 62
7
  6
CONTINUOUS
 70
0
 71
3
 72
13
 73
9
 74
0
 42
0.0000001
 43
0.0000001
 44
0.0000000001
 40
0.0
 40
0.0
 40
0.0
 40
0.0
 40
0.2441422651
 40
0.371109689
 40
0.4995205752
 40
0.6279966939
 40
0.7551552439
 40
1.0
 40
1.0
 40
1.0
 40
1.0
 10
-8.5243662663
 20
208.8144144474
 30
0.0
 10
-8.5243662663
 20
213.3067489554
 30
0.0
 10
-7.5062149802
 20
220.1687721999
 30
0.0
 10
-4.4833747743
 20
228.8625449302
 30
0.0
 10
-1.3567986733
 20
235.217355941
 30
0.0
 10
2.5202125073
 20
241.1483501507
 30
0.0
 10
8.4705153654
 20
248.1938746953
 30
0.0
 10
13.8644033295
 20
252.5807916414
 30
0.0
 10
17.7362671168
 20
254.8842769556
 30
0.0
  0
SPLINE
  5
2F9
100
AcDbEntity
  8
0
100
AcDbSpline
 62
7
  6
CONTINUOUS
 70
0
 71
3
 72
11
 73
7
 74
0
 42
0.0000001
 43
0.0000001
 44
0.0000000001
 40
0.0
 40
0.0
 40
0.0
 40
0.0
 40
0.2344241165
 40
0.4783749401
 40
0.7334580984
 40
1.0
 40
1.0
 40
1.0
 40
1.0
 10
-1.0857499445
 20
186.2163701577
 30
0.0
 10
-2.2999196671
 20
187.6706903172
 30
0.0
 10
-4.4750946971
 20
190.9026496818
 30
0.0
 10
-6.8095795047
 20
196.3847445381
 30
0.0
 10
-8.2233425517
 20
202.4366221507
 30
0.0
 10
-8.5243662663
 20
206.6603168544
 30
0.0
 10
-8.5243662663
 20
208.8144144474
 30
0.0
  0
ENDSEC
  0
SECTION
  2
OBJECTS
  0
DICTIONARY
  5
C
100
AcDbDictionary
280
0
281
1
  3
ACAD_GROUP
350
D
  3
ACAD_MLINESTYLE
350
17
  3
ACAD_LAYOUT
350
1A
  3
ACAD_PLOTSETTINGS
350
19
  3
ACAD_PLOTSTYLENAME
350
E
  0
DICTIONARY
  5
D
102
{ACAD_REACTORS
330
C
102
}
100
AcDbDictionary
280
0
281
1
  0
ACDBDICTIONARYWDFLT
  5
E
102
{ACAD_REACTORS
330
C
102
}
100
AcDbDictionary
281
1
  3
Normal
350
F
100
AcDbDictionaryWithDefault
340
F
  0
DICTIONARY
  5
17
102
{ACAD_REACTORS
330
C
102
}
100
AcDbDictionary
280
0
281
1
  3
Standard
350
18
  0
DICTIONARY
  5
19
102
{ACAD_REACTORS
330
C
102
}
100
AcDbDictionary
281
1
  0
DICTIONARY
  5
1A
102
{ACAD_REACTORS
330
C
102
}
100
AcDbDictionary
281
1
  3
Model
350
2FA
  3
Layout1
350
2FB
  0
ACDBPLACEHOLDER
  5
F
102
{ACAD_REACTORS
330
E
102
}
  0
MLINESTYLE
  5
18
102
{ACAD_REACTORS
330
17
102
}
100
AcDbMlineStyle
  2
STANDARD
 70
0
  3

 62
256
 51
90.0
 52
90.0
 71
2
 49
0.5
 62
256
  6
BYLAYER
 49
-0.5
 62
256
  6
BYLAYER
  0
LAYOUT
  5
2FA
102
{ACAD_REACTORS
330
1A
102
}
100
AcDbPlotSettings
  1

  2
none_device
  4
ANSI_C_(22.00_x_17.00_Inches)
  6

 40
0.0
 41
0.0
 42
0.0
 43
0.0
 44
558.8
 45
431.8
 46
0.0
 47
0.0
 48
0.0
 49
0.0
140
0.0
141
0.0
142
1.0
143
1.0
 70
1024
 72
1
 73
0
 74
0
  7

 75
0
147
1.0
148
0.0
149
0.0
100
AcDbLayout
  1
Model
 70
0
 71
0
 10
0.0
 20
0.0
 11
558.8
 21
431.8
 12
0.0
 22
0.0
 32
0.0
 14
0.0
 24
0.0
 34
0.0
 15
0.0
 25
0.0
 35
0.0
146
0.0
 13
0.0
 23
0.0
 33
0.0
 16
1.0
 26
0.0
 36
0.0
 17
0.0
 27
1.0
 37
0.0
 76
0
330
216
345
0
346
0
  0
LAYOUT
  5
2FB
102
{ACAD_REACTORS
330
1A
102
}
100
AcDbPlotSettings
  1

  2
none_device
  4
ANSI_C_(22.00_x_17.00_Inches)
  6

 40
0.0
 41
0.0
 42
0.0
 43
0.0
 44
558.8
 45
431.8
 46
0.0
 47
0.0
 48
0.0
 49
0.0
140
0.0
141
0.0
142
1.0
143
1.0
 70
0
 72
1
 73
0
 74
0
  7

 75
0
147
1.0
148
0.0
149
0.0
100
AcDbLayout
  1
Layout1
 70
0
 71
1
 10
0.0
 20
0.0
 11
558.8
 21
431.8
 12
0.0
 22
0.0
 32
0.0
 14
0.0
 24
0.0
 34
0.0
 15
0.0
 25
0.0
 35
0.0
146
0.0
 13
0.0
 23
0.0
 33
0.0
 16
1.0
 26
0.0
 36
0.0
 17
0.0
 27
1.0
 37
0.0
 76
0
330
217
345
0
346
0
  0
ENDSEC
  0
EOF
