999
DXF file: Y:\3D PRATIKA-KAEDRA_OLGA\TRAVAIL_PHASE_5\CAD3D\PKF32G734_3D-Simplified\PKF32G734_2D-isometric.dxf
999
Pro/ENGINEER 2018260 by Parametric Technology Corporation
  0
SECTION
  2
HEADER
  9
$ACADVER
  1
AC1027
  9
$DWGCODEPAGE
  3
ANSI_1252
  9
$EXTMAX
 10
558.8
 20
431.8
 30
0.0
  9
$EXTMIN
 10
0.0
 20
0.0
 30
0.0
  9
$LIMMIN
 10
0.0
 20
0.0
  9
$LIMMAX
 10
558.8
 20
431.8
  9
$VIEWCTR
 10
279.4
 20
215.9
  9
$VIEWSIZE
 40
431.8
  9
$CLAYER
  8
0
  9
$LTSCALE
 40
30.734
  9
$CELTYPE
  6
BYLAYER
  9
$DIMSCALE
 40
1.0
  9
$DIMASZ
 40
0.1875
  9
$DIMEXO
 40
0.0625
  9
$DIMDLI
 40
21.2344
  9
$DIMEXE
 40
0.125
  9
$DIMCEN
 40
5.0292
  9
$DIMLFAC
 40
1.0
  9
$DIMBLK
  1
_CLOSED
  9
$DIMALT
 70
0
  9
$DIMALTF
 40
0.0393700787
  9
$DIMTXT
 40
0.15625
  9
$DIMTOL
 70
0
  9
$DIMLIM
 70
0
  9
$DIMTFAC
 40
1.0
  9
$DIMGAP
 40
0.625
  9
$DIMDSEP
 70
46
  9
$AUNITS
 70
0
  9
$PDMODE
 70
3
  9
$PDSIZE
 40
0.3125
  9
$HANDSEED
  5
3A8
  9
$TILEMODE
 70
1
  9
$MEASUREMENT
 70
1
  9
$INSUNITS
 70
4
  0
ENDSEC
  0
SECTION
  2
CLASSES
  0
CLASS
  1
ACDBDICTIONARYWDFLT
  2
AcDbDictionaryWithDefault
  3
AutoCAD 2000
 90
0
 91
1
280
0
281
0
  0
CLASS
  1
ACDBPLACEHOLDER
  2
AcDbPlaceHolder
  3
AutoCAD 2000
 90
0
 91
1
280
0
281
0
  0
CLASS
  1
LAYOUT
  2
AcDbLayout
  3
AutoCAD 2000
 90
0
 91
0
280
0
281
0
  0
ENDSEC
  0
SECTION
  2
TABLES
  0
TABLE
  2
VPORT
  5
8
100
AcDbSymbolTable
 70
2
  0
VPORT
  5
1F4
100
AcDbSymbolTableRecord
100
AcDbViewportTableRecord
  2
*ACTIVE
 70
0
 10
0.0
 20
0.0
 11
1.0
 21
1.0
 12
279.4
 22
215.9
 13
0.0
 23
0.0
 14
1.0
 24
1.0
 15
0.0
 25
0.0
 16
0.0
 26
0.0
 36
1.0
 17
0.0
 27
0.0
 37
0.0
 40
431.8
 41
1.2941176471
 42
50.0
 43
0.0
 44
0.0
 50
0.0
 51
0.0
 71
0
 72
100
 73
1
 74
1
 75
0
 76
0
 77
0
 78
0
  0
ENDTAB
  0
TABLE
  2
LTYPE
  5
5
100
AcDbSymbolTable
 70
6
  0
LTYPE
  5
14
100
AcDbSymbolTableRecord
100
AcDbLinetypeTableRecord
  2
BYBLOCK
 70
0
  3

 72
65
 73
0
 40
0.0
  0
LTYPE
  5
15
100
AcDbSymbolTableRecord
100
AcDbLinetypeTableRecord
  2
BYLAYER
 70
0
  3

 72
65
 73
0
 40
0.0
  0
LTYPE
  5
16
100
AcDbSymbolTableRecord
100
AcDbLinetypeTableRecord
  2
CONTINUOUS
 70
64
  3
Solid line
 72
65
 73
0
 40
0.0
  0
LTYPE
  5
1F5
100
AcDbSymbolTableRecord
100
AcDbLinetypeTableRecord
  2
CENTER
 70
64
  3
____ _ ____ _ ____ _ ____ _ ____ _ ____ _ ____
 72
65
 73
4
 40
0.6
 49
0.375
 74
0
 49
-0.075
 74
0
 49
0.075
 74
0
 49
-0.075
 74
0
  0
LTYPE
  5
1F6
100
AcDbSymbolTableRecord
100
AcDbLinetypeTableRecord
  2
HIDDEN
 70
64
  3
- - - - - - - - - - - - - - - - - - - -
 72
65
 73
2
 40
0.2
 49
0.1
 74
0
 49
-0.1
 74
0
  0
LTYPE
  5
1F7
100
AcDbSymbolTableRecord
100
AcDbLinetypeTableRecord
  2
PHANTOM
 70
64
  3
_____ _ _ _____ _ _ _____ _ _ _____
 72
65
 73
6
 40
0.8
 49
0.45
 74
0
 49
-0.05
 74
0
 49
0.1
 74
0
 49
-0.05
 74
0
 49
0.1
 74
0
 49
-0.05
 74
0
  0
LTYPE
  5
1F8
100
AcDbSymbolTableRecord
100
AcDbLinetypeTableRecord
  2
DOT
 70
64
  3
. . . . . . . . . . . . . . . . . . . .
 72
65
 73
2
 40
0.2
 49
0.1
 74
0
 49
-0.1
 74
0
  0
LTYPE
  5
1F9
100
AcDbSymbolTableRecord
100
AcDbLinetypeTableRecord
  2
DASHED
 70
64
  3
- - - - - - - - - - - - - - - - - - - -
 72
65
 73
2
 40
0.2
 49
0.1
 74
0
 49
-0.1
 74
0
  0
ENDTAB
  0
TABLE
  2
LAYER
  5
2
100
AcDbSymbolTable
 70
36
  0
LAYER
  5
10
100
AcDbSymbolTableRecord
100
AcDbLayerTableRecord
  2
0
 70
0
 62
7
  6
CONTINUOUS
370
-3
390
F
  0
LAYER
  5
1FA
100
AcDbSymbolTableRecord
100
AcDbLayerTableRecord
  2
DEFAULT_1
 70
0
 62
7
  6
CENTER
370
-3
390
F
  0
LAYER
  5
1FB
100
AcDbSymbolTableRecord
100
AcDbLayerTableRecord
  2
DEFAULT_2
 70
0
 62
8
  6
HIDDEN
370
-3
390
F
  0
LAYER
  5
1FC
100
AcDbSymbolTableRecord
100
AcDbLayerTableRecord
  2
DEFAULT_3
 70
0
 62
7
  6
PHANTOM
370
-3
390
F
  0
LAYER
  5
1FD
100
AcDbSymbolTableRecord
100
AcDbLayerTableRecord
  2
01_ALL_DTM_PLN
 70
0
 62
7
  6
CONTINUOUS
370
-3
390
F
  0
LAYER
  5
1FE
100
AcDbSymbolTableRecord
100
AcDbLayerTableRecord
  2
01__ASM_ALL_DTM_PLN
 70
0
 62
7
  6
CONTINUOUS
370
-3
390
F
  0
LAYER
  5
1FF
100
AcDbSymbolTableRecord
100
AcDbLayerTableRecord
  2
01__ASM_DEF_DTM_PLN
 70
0
 62
7
  6
CONTINUOUS
370
-3
390
F
  0
LAYER
  5
200
100
AcDbSymbolTableRecord
100
AcDbLayerTableRecord
  2
01___PRT_ALL_DTM_PLN
 70
0
 62
7
  6
CONTINUOUS
370
-3
390
F
  0
LAYER
  5
201
100
AcDbSymbolTableRecord
100
AcDbLayerTableRecord
  2
01___PRT_DEF_DTM_PLN
 70
0
 62
7
  6
CONTINUOUS
370
-3
390
F
  0
LAYER
  5
202
100
AcDbSymbolTableRecord
100
AcDbLayerTableRecord
  2
02_ALL_AXES
 70
0
 62
7
  6
CONTINUOUS
370
-3
390
F
  0
LAYER
  5
203
100
AcDbSymbolTableRecord
100
AcDbLayerTableRecord
  2
02__ASM_ALL_AXES
 70
0
 62
7
  6
CONTINUOUS
370
-3
390
F
  0
LAYER
  5
204
100
AcDbSymbolTableRecord
100
AcDbLayerTableRecord
  2
02___PRT_ALL_AXES
 70
0
 62
7
  6
CONTINUOUS
370
-3
390
F
  0
LAYER
  5
205
100
AcDbSymbolTableRecord
100
AcDbLayerTableRecord
  2
03_ALL_CURVES
 70
0
 62
7
  6
CONTINUOUS
370
-3
390
F
  0
LAYER
  5
206
100
AcDbSymbolTableRecord
100
AcDbLayerTableRecord
  2
03__ASM_ALL_CURVES
 70
0
 62
7
  6
CONTINUOUS
370
-3
390
F
  0
LAYER
  5
207
100
AcDbSymbolTableRecord
100
AcDbLayerTableRecord
  2
03___PRT_ALL_CURVES
 70
0
 62
7
  6
CONTINUOUS
370
-3
390
F
  0
LAYER
  5
208
100
AcDbSymbolTableRecord
100
AcDbLayerTableRecord
  2
04_ALL_DTM_PNT
 70
0
 62
7
  6
CONTINUOUS
370
-3
390
F
  0
LAYER
  5
209
100
AcDbSymbolTableRecord
100
AcDbLayerTableRecord
  2
04__ASM_ALL_DTM_PNT
 70
0
 62
7
  6
CONTINUOUS
370
-3
390
F
  0
LAYER
  5
20A
100
AcDbSymbolTableRecord
100
AcDbLayerTableRecord
  2
04___PRT_ALL_DTM_PNT
 70
0
 62
7
  6
CONTINUOUS
370
-3
390
F
  0
LAYER
  5
20B
100
AcDbSymbolTableRecord
100
AcDbLayerTableRecord
  2
05_ALL_DTM_CSYS
 70
0
 62
7
  6
CONTINUOUS
370
-3
390
F
  0
LAYER
  5
20C
100
AcDbSymbolTableRecord
100
AcDbLayerTableRecord
  2
05__ASM_ALL_DTM_CSYS
 70
0
 62
7
  6
CONTINUOUS
370
-3
390
F
  0
LAYER
  5
20D
100
AcDbSymbolTableRecord
100
AcDbLayerTableRecord
  2
05__ASM_DEF_DTM_CSYS
 70
0
 62
7
  6
CONTINUOUS
370
-3
390
F
  0
LAYER
  5
20E
100
AcDbSymbolTableRecord
100
AcDbLayerTableRecord
  2
05___PRT_ALL_DTM_CSYS
 70
0
 62
7
  6
CONTINUOUS
370
-3
390
F
  0
LAYER
  5
20F
100
AcDbSymbolTableRecord
100
AcDbLayerTableRecord
  2
05___PRT_DEF_DTM_CSYS
 70
0
 62
7
  6
CONTINUOUS
370
-3
390
F
  0
LAYER
  5
210
100
AcDbSymbolTableRecord
100
AcDbLayerTableRecord
  2
06_ALL_SURFS
 70
0
 62
7
  6
CONTINUOUS
370
-3
390
F
  0
LAYER
  5
211
100
AcDbSymbolTableRecord
100
AcDbLayerTableRecord
  2
06__ASM_ALL_SURFS
 70
0
 62
7
  6
CONTINUOUS
370
-3
390
F
  0
LAYER
  5
212
100
AcDbSymbolTableRecord
100
AcDbLayerTableRecord
  2
06___PRT_ALL_SURFS
 70
0
 62
7
  6
CONTINUOUS
370
-3
390
F
  0
LAYER
  5
213
100
AcDbSymbolTableRecord
100
AcDbLayerTableRecord
  2
07__ASM_ALL_SKELETONS
 70
0
 62
7
  6
CONTINUOUS
370
-3
390
F
  0
ENDTAB
  0
TABLE
  2
STYLE
  5
3
100
AcDbSymbolTable
 70
1
  0
STYLE
  5
11
100
AcDbSymbolTableRecord
100
AcDbTextStyleTableRecord
  2
STANDARD
 70
0
 40
0.0
 41
0.8
 50
0.0
 71
0
 42
0.2
  3
txt
  4

  0
STYLE
  5
214
100
AcDbSymbolTableRecord
100
AcDbTextStyleTableRecord
  2
TEXTSTYLE_1
 70
0
 40
0.0
 41
0.8
 50
0.0
 71
0
 42
0.2
  3
gdt
  4

  0
ENDTAB
  0
TABLE
  2
VIEW
  5
6
100
AcDbSymbolTable
 70
0
  0
ENDTAB
  0
TABLE
  2
UCS
  5
7
100
AcDbSymbolTable
 70
0
  0
ENDTAB
  0
TABLE
  2
APPID
  5
9
100
AcDbSymbolTable
 70
1
  0
APPID
  5
215
100
AcDbSymbolTableRecord
100
AcDbRegAppTableRecord
  2
ACAD
 70
0
  0
ENDTAB
  0
TABLE
  2
BLOCK_RECORD
  5
1
100
AcDbSymbolTable
 70
0
  0
BLOCK_RECORD
  5
216
100
AcDbSymbolTableRecord
100
AcDbBlockTableRecord
  2
*Model_Space
  0
BLOCK_RECORD
  5
217
100
AcDbSymbolTableRecord
100
AcDbBlockTableRecord
  2
*Paper_Space
  0
BLOCK_RECORD
  5
218
100
AcDbSymbolTableRecord
100
AcDbBlockTableRecord
  2
_CLOSED
  0
ENDTAB
  0
TABLE
  2
DIMSTYLE
  5
A
100
AcDbSymbolTable
 70
1
100
AcDbDimStyleTable
 71
0
  0
DIMSTYLE
105
219
100
AcDbSymbolTableRecord
100
AcDbDimStyleTableRecord
  2
STANDARD
 70
0
  3

  4

 40
1.0
 41
0.1875
 42
0.0625
 43
0.38
 44
0.125
 45
0.0
 46
0.0
 47
0.01
 48
0.01
140
0.15625
141
0.09
142
0.0
143
25.4
144
1.0
145
0.0
146
1.0
147
0.625
 71
0.0
 72
0.0
 73
1
 74
1
 75
0
 76
0
 77
0
 78
8
 79
2
170
0
171
1
172
0
173
0
174
0
175
0
176
0
177
0
178
0
270
2
179
2
271
2
272
2
273
2
274
2
275
0
280
0
281
0
282
0
283
1
284
8
285
0
286
0
287
3
288
0
340
11
278
46
341
218
342
218
343
218
344
218
  0
ENDTAB
  0
ENDSEC
  0
SECTION
  2
BLOCKS
  0
BLOCK
  5
20
100
AcDbEntity
  8
0
100
AcDbBlockBegin
  2
*Model_Space
 70
0
 10
0.0
 20
0.0
 30
0.0
  3
*Model_Space
  1

  0
ENDBLK
  5
21
100
AcDbEntity
  8
0
100
AcDbBlockEnd
  0
BLOCK
  5
1C
100
AcDbEntity
  8
0
100
AcDbBlockBegin
  2
*Paper_Space
 70
0
 10
0.0
 20
0.0
 30
0.0
  3
*Paper_Space
  1

  0
ENDBLK
  5
1D
100
AcDbEntity
  8
0
100
AcDbBlockEnd
  0
BLOCK
  5
21A
100
AcDbEntity
  8
0
100
AcDbBlockBegin
  2
_CLOSED
 70
64
 10
0.0
 20
0.0
  3
_CLOSED
  1

  0
LINE
  5
21B
100
AcDbEntity
  8
0
  6
BYBLOCK
 62
0
100
AcDbLine
 10
0.0
 20
0.0
 11
-1.0
 21
0.1666666667
  0
LINE
  5
21C
100
AcDbEntity
  8
0
  6
BYBLOCK
 62
0
100
AcDbLine
 10
-1.0
 20
0.1666666667
 11
-1.0
 21
-0.1666666667
  0
LINE
  5
21D
100
AcDbEntity
  8
0
  6
BYBLOCK
 62
0
100
AcDbLine
 10
-1.0
 20
-0.1666666667
 11
0.0
 21
0.0
  0
LINE
  5
21E
100
AcDbEntity
  8
0
  6
BYBLOCK
 62
0
100
AcDbLine
 10
-1.0
 20
0.0
 11
0.0
 21
0.0
  0
ENDBLK
  5
21F
100
AcDbEntity
  8
0
  6
BYBLOCK
 62
0
100
AcDbBlockEnd
  0
ENDSEC
  0
SECTION
  2
ENTITIES
  0
LINE
  5
220
100
AcDbEntity
  8
0
100
AcDbLine
 62
7
  6
CONTINUOUS
 10
-23.3413675723
 20
283.4951261396
 11
-23.3310326939
 21
283.4990371096
  0
LWPOLYLINE
  5
221
100
AcDbEntity
  8
0
100
AcDbPolyline
 62
7
  6
CONTINUOUS
 90
4
 70
0
 10
-25.0989310826
 20
276.4683613682
 10
-25.8009507837
 20
276.1353042117
 10
-26.3302332334
 20
275.1117591417
 10
-26.3498588767
 20
274.9472551633
  0
LWPOLYLINE
  5
222
100
AcDbEntity
  8
0
100
AcDbPolyline
 62
7
  6
CONTINUOUS
 90
4
 70
0
 10
-22.6711665633
 20
268.944108431
 10
-23.5144751025
 20
268.4921913573
 10
-25.2743235443
 20
266.8961578534
 10
-26.2321003502
 20
265.0184075605
  0
LINE
  5
223
100
AcDbEntity
  8
0
100
AcDbLine
 62
7
  6
CONTINUOUS
 10
-22.1357041227
 20
269.1887859386
 11
-22.6708875128
 21
268.9442415698
  0
LINE
  5
224
100
AcDbEntity
  8
0
100
AcDbLine
 62
7
  6
CONTINUOUS
 10
-11.2121751467
 20
283.8809766352
 11
-11.1480515723
 21
283.9412416103
  0
LINE
  5
225
100
AcDbEntity
  8
0
100
AcDbLine
 62
7
  6
CONTINUOUS
 10
-58.7821876205
 20
191.0368178475
 11
-55.9671099233
 21
189.4108812504
  0
LINE
  5
226
100
AcDbEntity
  8
0
100
AcDbLine
 62
7
  6
CONTINUOUS
 10
-61.2294090434
 20
195.8698572255
 11
-58.4143313463
 21
194.2439206284
  0
LINE
  5
227
100
AcDbEntity
  8
0
100
AcDbLine
 62
7
  6
CONTINUOUS
 10
-48.0656754787
 20
189.408764889
 11
-48.9101987879
 21
189.8965458681
  0
LINE
  5
228
100
AcDbEntity
  8
0
100
AcDbLine
 62
7
  6
CONTINUOUS
 10
-61.2294090434
 20
195.8698572255
 11
-61.2294090434
 21
274.0132993671
  0
LINE
  5
229
100
AcDbEntity
  8
0
100
AcDbLine
 62
7
  6
CONTINUOUS
 10
-58.4143313463
 20
272.3873627701
 11
-58.4143313463
 21
267.7906897029
  0
LINE
  5
22A
100
AcDbEntity
  8
0
100
AcDbLine
 62
7
  6
CONTINUOUS
 10
-58.4143313463
 20
198.8405936956
 11
-58.4143313463
 21
194.2439206284
  0
LINE
  5
22B
100
AcDbEntity
  8
0
100
AcDbLine
 62
7
  6
CONTINUOUS
 10
-57.5698080371
 20
267.3029087238
 11
-57.5698080371
 21
198.3528127165
  0
LINE
  5
22C
100
AcDbEntity
  8
0
100
AcDbLine
 62
7
  6
CONTINUOUS
 10
-19.9464566678
 20
258.4934285979
 11
-19.9857195442
 21
258.4530960314
  0
LINE
  5
22D
100
AcDbEntity
  8
0
100
AcDbLine
 62
7
  6
CONTINUOUS
 10
-19.9417811554
 20
258.4915553361
 11
-19.9857195442
 21
258.4530960314
  0
LINE
  5
22E
100
AcDbEntity
  8
0
100
AcDbLine
 62
7
  6
CONTINUOUS
 10
-48.0656754787
 20
189.408764889
 11
-9.6359553358
 21
199.7100620711
  0
LINE
  5
22F
100
AcDbEntity
  8
0
100
AcDbLine
 62
7
  6
CONTINUOUS
 10
-52.2159840256
 20
189.0104120106
 11
-48.9101987879
 21
189.8965458681
  0
LINE
  5
230
100
AcDbEntity
  8
0
100
AcDbLine
 62
7
  6
CONTINUOUS
 10
-22.0960025336
 20
198.4199559426
 11
-12.1147647926
 21
201.095481443
  0
LINE
  5
231
100
AcDbEntity
  8
0
100
AcDbLine
 62
7
  6
CONTINUOUS
 10
-57.5698080371
 20
198.3528127165
 11
-58.4143313463
 21
198.8405936956
  0
LINE
  5
232
100
AcDbEntity
  8
0
100
AcDbLine
 62
7
  6
CONTINUOUS
 10
-48.0656754787
 20
196.3037744897
 11
-48.9101987879
 21
196.7915554688
  0
LINE
  5
233
100
AcDbEntity
  8
0
100
AcDbLine
 62
7
  6
CONTINUOUS
 10
-48.9101987879
 20
189.8965458681
 11
-48.9101987879
 21
196.7915554688
  0
LINE
  5
234
100
AcDbEntity
  8
0
100
AcDbLine
 62
7
  6
CONTINUOUS
 10
-48.9101987879
 20
274.9349976105
 11
-48.9101987879
 21
281.8300072112
  0
LINE
  5
235
100
AcDbEntity
  8
0
100
AcDbLine
 62
7
  6
CONTINUOUS
 10
-48.0656754787
 20
281.3422262321
 11
-48.0656754787
 21
274.4472166314
  0
LINE
  5
236
100
AcDbEntity
  8
0
100
AcDbLine
 62
7
  6
CONTINUOUS
 10
-48.0656754787
 20
189.408764889
 11
-48.0656754787
 21
196.3037744897
  0
LINE
  5
237
100
AcDbEntity
  8
0
100
AcDbLine
 62
7
  6
CONTINUOUS
 10
-19.9477779675
 20
258.4984064807
 11
-19.9857196421
 21
258.4530954076
  0
LINE
  5
238
100
AcDbEntity
  8
0
100
AcDbLine
 62
7
  6
CONTINUOUS
 10
-57.5698080371
 20
198.3528127165
 11
-52.1979070269
 21
199.7927802347
  0
LINE
  5
239
100
AcDbEntity
  8
0
100
AcDbLine
 62
7
  6
CONTINUOUS
 10
-24.3323448306
 20
282.6834106125
 11
-24.3303982443
 21
282.6945279379
  0
LINE
  5
23A
100
AcDbEntity
  8
0
100
AcDbLine
 62
7
  6
CONTINUOUS
 10
-23.3758744987
 20
282.3852768536
 11
-23.258233974
 21
282.9620497118
  0
LINE
  5
23B
100
AcDbEntity
  8
0
100
AcDbLine
 62
7
  6
CONTINUOUS
 10
4.6744673915
 20
190.8631454062
 11
1.11830862
 21
192.9162862605
  0
LINE
  5
23C
100
AcDbEntity
  8
0
100
AcDbLine
 62
7
  6
CONTINUOUS
 10
-24.4613901996
 20
199.7862236232
 11
-22.0960025336
 21
198.4199559426
  0
LINE
  5
23D
100
AcDbEntity
  8
0
100
AcDbLine
 62
7
  6
CONTINUOUS
 10
-36.3845279433
 20
215.0868277442
 11
-30.5400398811
 21
211.7111599816
  0
LINE
  5
23E
100
AcDbEntity
  8
0
100
AcDbLine
 62
7
  6
CONTINUOUS
 10
-12.1262064822
 20
201.0756717867
 11
-10.20430536
 21
199.9656173915
  0
LINE
  5
23F
100
AcDbEntity
  8
0
100
AcDbLine
 62
7
  6
CONTINUOUS
 10
-33.6028650638
 20
274.8558283022
 11
-33.6028650638
 21
273.7488236623
  0
LINE
  5
240
100
AcDbEntity
  8
0
100
AcDbLine
 62
7
  6
CONTINUOUS
 10
-24.3328475627
 20
282.6758781695
 11
-24.3323448306
 21
282.6834106125
  0
LINE
  5
241
100
AcDbEntity
  8
0
100
AcDbLine
 62
7
  6
CONTINUOUS
 10
-26.3496332437
 20
274.9501797449
 11
-26.3498071344
 21
274.948103924
  0
LINE
  5
242
100
AcDbEntity
  8
0
100
AcDbLine
 62
7
  6
CONTINUOUS
 10
-25.1974061818
 20
276.4798347458
 11
-25.2005049328
 21
276.447833693
  0
LINE
  5
243
100
AcDbEntity
  8
0
100
AcDbLine
 62
7
  6
CONTINUOUS
 10
-25.1471748427
 20
276.4753714176
 11
-25.1513623579
 21
276.4434865514
  0
LINE
  5
244
100
AcDbEntity
  8
0
100
AcDbLine
 62
7
  6
CONTINUOUS
 10
-24.333336682
 20
282.6769475798
 11
-24.3322175544
 21
282.6837602562
  0
LINE
  5
245
100
AcDbEntity
  8
0
100
AcDbLine
 62
7
  6
CONTINUOUS
 10
-6.3021397575
 20
198.318310897
 11
2.7995977522
 21
193.0613163462
  0
LINE
  5
246
100
AcDbEntity
  8
0
100
AcDbLine
 62
7
  6
CONTINUOUS
 10
-0.1187770093
 20
197.4825711971
 11
0.8418206138
 21
196.9277478499
  0
LINE
  5
247
100
AcDbEntity
  8
0
100
AcDbLine
 62
7
  6
CONTINUOUS
 10
-16.6675385017
 20
211.2779040779
 11
2.9079363874
 21
199.971473332
  0
LINE
  5
248
100
AcDbEntity
  8
0
100
AcDbLine
 62
7
  6
CONTINUOUS
 10
-17.6888372344
 20
214.2700099655
 11
8.6930605534
 21
199.0323157602
  0
LINE
  5
249
100
AcDbEntity
  8
0
100
AcDbLine
 62
7
  6
CONTINUOUS
 10
-5.7029253673
 20
207.7591158875
 11
-17.7876028923
 21
214.7390011928
  0
LINE
  5
24A
100
AcDbEntity
  8
0
100
AcDbLine
 62
7
  6
CONTINUOUS
 10
8.6930605534
 20
201.5222075827
 11
0.9753688809
 21
205.979802962
  0
LINE
  5
24B
100
AcDbEntity
  8
0
100
AcDbLine
 62
7
  6
CONTINUOUS
 10
-11.2121751467
 20
284.9382114407
 11
-11.2121751467
 21
283.8809766352
  0
LINE
  5
24C
100
AcDbEntity
  8
0
100
AcDbLine
 62
7
  6
CONTINUOUS
 10
-11.1209120503
 20
285.5476569094
 11
-11.1209120503
 21
283.8434880481
  0
LINE
  5
24D
100
AcDbEntity
  8
0
100
AcDbLine
 62
7
  6
CONTINUOUS
 10
-11.3208998276
 20
284.7710645837
 11
-11.3209120503
 21
284.7600595283
  0
LINE
  5
24E
100
AcDbEntity
  8
0
100
AcDbLine
 62
7
  6
CONTINUOUS
 10
26.9058189167
 20
249.4541748371
 11
26.9368711419
 21
249.4849961311
  0
LINE
  5
24F
100
AcDbEntity
  8
0
100
AcDbLine
 62
7
  6
CONTINUOUS
 10
26.9058189167
 20
249.4541748371
 11
26.9374033477
 21
249.4849381322
  0
LINE
  5
250
100
AcDbEntity
  8
0
100
AcDbLine
 62
7
  6
CONTINUOUS
 10
66.0716880448
 20
263.0255520306
 11
66.1799443987
 21
263.0470353201
  0
LINE
  5
251
100
AcDbEntity
  8
0
100
AcDbLine
 62
7
  6
CONTINUOUS
 10
-57.5698080371
 20
267.3029087238
 11
-58.4143313463
 21
267.7906897029
  0
LINE
  5
252
100
AcDbEntity
  8
0
100
AcDbLine
 62
7
  6
CONTINUOUS
 10
-7.8271576528
 20
253.0392589553
 11
-7.83617229
 21
253.0868340717
  0
LINE
  5
253
100
AcDbEntity
  8
0
100
AcDbLine
 62
7
  6
CONTINUOUS
 10
0.8418206138
 20
197.4495003122
 11
0.8418206138
 21
196.9277478499
  0
LINE
  5
254
100
AcDbEntity
  8
0
100
AcDbLine
 62
7
  6
CONTINUOUS
 10
2.9079363874
 20
197.4815815101
 11
2.9079363874
 21
199.971473332
  0
LINE
  5
255
100
AcDbEntity
  8
0
100
AcDbLine
 62
7
  6
CONTINUOUS
 10
4.6744673915
 20
192.5877799037
 11
4.6744673915
 21
190.8631454062
  0
LINE
  5
256
100
AcDbEntity
  8
0
100
AcDbLine
 62
7
  6
CONTINUOUS
 10
8.6930605534
 20
201.5222075827
 11
8.6930605534
 21
199.0323157602
  0
LINE
  5
257
100
AcDbEntity
  8
0
100
AcDbLine
 62
7
  6
CONTINUOUS
 10
1.11830862
 20
192.9162862605
 11
1.1403962365
 21
194.0196403274
  0
LINE
  5
258
100
AcDbEntity
  8
0
100
AcDbLine
 62
7
  6
CONTINUOUS
 10
44.2470528564
 20
251.7861275097
 11
44.2806476297
 21
251.8315376147
  0
LINE
  5
259
100
AcDbEntity
  8
0
100
AcDbLine
 62
7
  6
CONTINUOUS
 10
44.2470528564
 20
251.7861275097
 11
44.2810119265
 21
251.8315879017
  0
LINE
  5
25A
100
AcDbEntity
  8
0
100
AcDbLine
 62
7
  6
CONTINUOUS
 10
58.1211863501
 20
256.5553083162
 11
58.0002767174
 21
256.551761267
  0
LINE
  5
25B
100
AcDbEntity
  8
0
100
AcDbLine
 62
7
  6
CONTINUOUS
 10
-38.6886885006
 20
259.1176590912
 11
-22.711135137
 21
249.8893209988
  0
LINE
  5
25C
100
AcDbEntity
  8
0
100
AcDbLine
 62
7
  6
CONTINUOUS
 10
-52.1979070266
 20
268.7428762421
 11
-53.0424303353
 21
269.2306572213
  0
LINE
  5
25D
100
AcDbEntity
  8
0
100
AcDbLine
 62
7
  6
CONTINUOUS
 10
-58.4143313463
 20
272.3873627701
 11
-61.2294090434
 21
274.0132993671
  0
LINE
  5
25E
100
AcDbEntity
  8
0
100
AcDbLine
 62
7
  6
CONTINUOUS
 10
-48.9101987879
 20
274.9349976105
 11
-48.0656754787
 21
274.4472166314
  0
LINE
  5
25F
100
AcDbEntity
  8
0
100
AcDbLine
 62
7
  6
CONTINUOUS
 10
10.7591763269
 20
199.5861494225
 11
10.7591763269
 21
200.1079018848
  0
LINE
  5
260
100
AcDbEntity
  8
0
100
AcDbLine
 62
7
  6
CONTINUOUS
 10
52.2092586685
 20
282.7359968194
 11
52.2165697496
 21
282.7517651035
  0
LINE
  5
261
100
AcDbEntity
  8
0
100
AcDbLine
 62
7
  6
CONTINUOUS
 10
52.0978193485
 20
282.7336360058
 11
52.1056445805
 21
282.7493716744
  0
LINE
  5
262
100
AcDbEntity
  8
0
100
AcDbLine
 62
7
  6
CONTINUOUS
 10
52.7792603294
 20
282.7933856821
 11
52.7876380507
 21
282.8094110747
  0
LINE
  5
263
100
AcDbEntity
  8
0
100
AcDbLine
 62
7
  6
CONTINUOUS
 10
44.2470527191
 20
251.7861273245
 11
44.3622085894
 21
251.7711981386
  0
LINE
  5
264
100
AcDbEntity
  8
0
100
AcDbLine
 62
7
  6
CONTINUOUS
 10
26.9058192369
 20
249.4541747183
 11
26.9976901309
 21
249.4230421701
  0
LINE
  5
265
100
AcDbEntity
  8
0
100
AcDbLine
 62
7
  6
CONTINUOUS
 10
-55.0310617227
 20
282.5698099507
 11
-52.2159840256
 21
280.9438733537
  0
LINE
  5
266
100
AcDbEntity
  8
0
100
AcDbLine
 62
7
  6
CONTINUOUS
 10
-48.0656754787
 20
281.3422262321
 11
-48.9101987879
 21
281.8300072112
  0
LINE
  5
267
100
AcDbEntity
  8
0
100
AcDbLine
 62
7
  6
CONTINUOUS
 10
-33.6028650638
 20
273.7488236623
 11
-26.5921857079
 21
269.6995854667
  0
LINE
  5
268
100
AcDbEntity
  8
0
100
AcDbLine
 62
7
  6
CONTINUOUS
 10
52.767736833
 20
282.7943213773
 11
52.7734652262
 21
282.8105545105
  0
LINE
  5
269
100
AcDbEntity
  8
0
100
AcDbLine
 62
7
  6
CONTINUOUS
 10
-57.5698080371
 20
267.3029087238
 11
-52.1979070269
 21
268.742876242
  0
LINE
  5
26A
100
AcDbEntity
  8
0
100
AcDbLine
 62
7
  6
CONTINUOUS
 10
-58.4143313463
 20
267.7906897029
 11
-53.0424303353
 21
269.2306572213
  0
LINE
  5
26B
100
AcDbEntity
  8
0
100
AcDbLine
 62
7
  6
CONTINUOUS
 10
-24.694882207
 20
279.9192490947
 11
-27.6729288295
 21
279.1209673699
  0
LINE
  5
26C
100
AcDbEntity
  8
0
100
AcDbLine
 62
7
  6
CONTINUOUS
 10
-24.1586794145
 20
276.6549594767
 11
-25.098221438
 21
276.4685033134
  0
LINE
  5
26D
100
AcDbEntity
  8
0
100
AcDbLine
 62
7
  6
CONTINUOUS
 10
-24.1630941367
 20
276.6540833447
 11
-23.6014385136
 21
276.6989260097
  0
LINE
  5
26E
100
AcDbEntity
  8
0
100
AcDbLine
 62
7
  6
CONTINUOUS
 10
17.303922308
 20
247.5921966419
 11
14.3623836619
 21
249.2911747345
  0
LINE
  5
26F
100
AcDbEntity
  8
0
100
AcDbLine
 62
7
  6
CONTINUOUS
 10
8.6166232678
 20
249.9109222388
 11
8.6712218196
 21
249.8683259595
  0
LINE
  5
270
100
AcDbEntity
  8
0
100
AcDbLine
 62
7
  6
CONTINUOUS
 10
58.0200427943
 20
256.5982818558
 11
58.000277385
 21
256.5517615136
  0
LINE
  5
271
100
AcDbEntity
  8
0
100
AcDbLine
 62
7
  6
CONTINUOUS
 10
58.0216140457
 20
256.5985053474
 11
58.000277385
 21
256.5517615136
  0
LINE
  5
272
100
AcDbEntity
  8
0
100
AcDbLine
 62
7
  6
CONTINUOUS
 10
-48.0656754787
 20
281.3422262321
 11
-20.0887683116
 21
288.8415895867
  0
LINE
  5
273
100
AcDbEntity
  8
0
100
AcDbLine
 62
7
  6
CONTINUOUS
 10
-48.9101987879
 20
281.8300072112
 11
-52.2159840256
 21
280.9438733537
  0
LINE
  5
274
100
AcDbEntity
  8
0
100
AcDbLine
 62
7
  6
CONTINUOUS
 10
-55.0310617227
 20
282.5698099507
 11
-13.4838568393
 21
293.7067660098
  0
LWPOLYLINE
  5
275
100
AcDbEntity
  8
0
100
AcDbPolyline
 62
7
  6
CONTINUOUS
 90
4
 70
0
 10
-23.3608193251
 20
283.491357202
 10
-23.7551789173
 20
283.4149467773
 10
-24.2285635711
 20
282.9943239387
 10
-24.3324037882
 20
282.6832305685
  0
LINE
  5
276
100
AcDbEntity
  8
0
100
AcDbLine
 62
7
  6
CONTINUOUS
 10
-23.3437099643
 20
283.4985537663
 11
-23.3306383821
 21
283.4990297961
  0
LINE
  5
277
100
AcDbEntity
  8
0
100
AcDbLine
 62
7
  6
CONTINUOUS
 10
-23.0586607144
 20
283.5070288265
 11
-23.3310326939
 21
283.4990371096
  0
LINE
  5
278
100
AcDbEntity
  8
0
100
AcDbLine
 62
7
  6
CONTINUOUS
 10
-11.1209120503
 20
284.9408892082
 11
-11.2121751467
 21
284.9382114407
  0
LINE
  5
279
100
AcDbEntity
  8
0
100
AcDbLine
 62
7
  6
CONTINUOUS
 10
52.6790879497
 20
284.7600595283
 11
52.6789386221
 21
284.7985256565
  0
LINE
  5
27A
100
AcDbEntity
  8
0
100
AcDbLine
 62
7
  6
CONTINUOUS
 10
52.4790879497
 20
285.5476569094
 11
52.4790879497
 21
283.5003246268
  0
LINE
  5
27B
100
AcDbEntity
  8
0
100
AcDbLine
 62
7
  6
CONTINUOUS
 10
67.0861070332
 20
270.2324532962
 11
67.0891012603
 21
270.2740782999
  0
LINE
  5
27C
100
AcDbEntity
  8
0
100
AcDbLine
 62
7
  6
CONTINUOUS
 10
66.0716891371
 20
263.0255524163
 11
66.075556934
 21
263.0590782554
  0
LINE
  5
27D
100
AcDbEntity
  8
0
100
AcDbLine
 62
7
  6
CONTINUOUS
 10
66.0716891371
 20
263.0255524163
 11
66.0769471771
 21
263.0593751499
  0
LINE
  5
27E
100
AcDbEntity
  8
0
100
AcDbLine
 62
7
  6
CONTINUOUS
 10
64.6642353698
 20
282.6910173731
 11
64.6613473844
 21
282.7259842531
  0
LINE
  5
27F
100
AcDbEntity
  8
0
100
AcDbLine
 62
7
  6
CONTINUOUS
 10
64.6615968344
 20
282.7062782955
 11
64.6613761263
 21
282.7263123361
  0
LINE
  5
280
100
AcDbEntity
  8
0
100
AcDbLine
 62
7
  6
CONTINUOUS
 10
67.1290573837
 20
270.2503644356
 11
67.131354952
 21
270.2917541488
  0
LWPOLYLINE
  5
281
100
AcDbEntity
  8
0
100
AcDbPolyline
 62
7
  6
CONTINUOUS
 90
3
 70
0
 10
65.4590927524
 20
280.8445863623
 10
65.2556902291
 20
281.6772851066
 10
64.8779119891
 20
282.7085350744
  0
LINE
  5
282
100
AcDbEntity
  8
0
100
AcDbLine
 62
7
  6
CONTINUOUS
 10
64.6259107539
 20
282.9156244394
 11
64.6164174924
 21
282.9620130956
  0
LINE
  5
283
100
AcDbEntity
  8
0
100
AcDbLine
 62
7
  6
CONTINUOUS
 10
65.4582169471
 20
280.8489198376
 11
65.4590433659
 21
280.8447920071
  0
LINE
  5
284
100
AcDbEntity
  8
0
100
AcDbLine
 62
7
  6
CONTINUOUS
 10
64.6648055536
 20
282.7063580124
 11
64.6613761263
 21
282.7263123361
  0
LWPOLYLINE
  5
285
100
AcDbEntity
  8
0
100
AcDbPolyline
 62
7
  6
CONTINUOUS
 90
3
 70
0
 10
67.5164482853
 20
275.619592574
 10
67.1824063264
 20
277.849774957
 10
66.1065978075
 20
281.7203900194
  0
LINE
  5
286
100
AcDbEntity
  8
0
100
AcDbLine
 62
7
  6
CONTINUOUS
 10
67.5165234951
 20
275.6189509331
 11
67.5182011204
 21
275.6037768685
  0
LINE
  5
287
100
AcDbEntity
  8
0
100
AcDbLine
 62
7
  6
CONTINUOUS
 10
64.5825134483
 20
283.3017099814
 11
64.4774823043
 21
283.4892021913
  0
LWPOLYLINE
  5
288
100
AcDbEntity
  8
0
100
AcDbPolyline
 62
7
  6
CONTINUOUS
 90
4
 70
0
 10
66.1065978075
 20
281.7203900194
 10
64.5236115106
 20
284.9398681692
 10
62.4762777654
 20
287.5198781219
 10
62.2817148406
 20
287.674702641
  0
LWPOLYLINE
  5
289
100
AcDbEntity
  8
0
100
AcDbPolyline
 62
7
  6
CONTINUOUS
 90
3
 70
0
 10
64.8778561961
 20
282.7086607499
 10
64.7698301925
 20
282.9388092839
 10
64.5825134483
 20
283.3017099814
  0
LINE
  5
28A
100
AcDbEntity
  8
0
100
AcDbLine
 62
7
  6
CONTINUOUS
 10
64.8779119891
 20
282.7085350744
 11
64.8781479221
 21
282.7080095255
  0
ARC
  5
28B
100
AcDbEntity
  8
0
100
AcDbCircle
 62
7
  6
CONTINUOUS
 10
-994.8933258094
 20
249.645488819
 40
1020.9477140625
100
AcDbArc
 50
0.6576701316
 51
0.8147165987
  0
ARC
  5
28C
100
AcDbEntity
  8
0
100
AcDbCircle
 62
7
  6
CONTINUOUS
 10
185.5099383607
 20
78.3113360074
 40
233.2495422376
100
AcDbArc
 50
130.6763206555
 51
132.8110069819
  0
ARC
  5
28D
100
AcDbEntity
  8
0
100
AcDbCircle
 62
7
  6
CONTINUOUS
 10
20.664282956
 20
215.6923664756
 40
82.6039765832
100
AcDbArc
 50
91.6806522553
 51
91.9175426828
  0
ARC
  5
28E
100
AcDbEntity
  8
0
100
AcDbCircle
 62
7
  6
CONTINUOUS
 10
25.7331796645
 20
201.7338176543
 40
62.5392977329
100
AcDbArc
 50
91.6258643104
 51
105.8640623068
  0
ARC
  5
28F
100
AcDbEntity
  8
0
100
AcDbCircle
 62
7
  6
CONTINUOUS
 10
-0.9266298276
 20
216.0226580993
 40
18.5446273474
100
AcDbArc
 50
233.1502479768
 51
239.9808989341
  0
ARC
  5
290
100
AcDbEntity
  8
0
100
AcDbCircle
 62
7
  6
CONTINUOUS
 10
-52.0581731035
 20
197.424253695
 40
3.0021691145
100
AcDbArc
 50
41.5917396084
 51
50.7512790888
  0
ARC
  5
291
100
AcDbEntity
  8
0
100
AcDbCircle
 62
7
  6
CONTINUOUS
 10
-130.9517710586
 20
251.3103597068
 40
173.9072762882
100
AcDbArc
 50
4.0159193971
 51
4.934073233
  0
ARC
  5
292
100
AcDbEntity
  8
0
100
AcDbCircle
 62
7
  6
CONTINUOUS
 10
-44.3694922691
 20
255.9345010062
 40
100.8307755623
100
AcDbArc
 50
6.8406148018
 51
8.4073272808
  0
ARC
  5
293
100
AcDbEntity
  8
0
100
AcDbCircle
 62
7
  6
CONTINUOUS
 10
-34.2383709651
 20
260.7572087651
 40
28.8674296761
100
AcDbArc
 50
341.8073644312
 51
343.3592831331
  0
ARC
  5
294
100
AcDbEntity
  8
0
100
AcDbCircle
 62
7
  6
CONTINUOUS
 10
-36.8722916269
 20
299.8895218115
 40
104.3022791712
100
AcDbArc
 50
335.4773200967
 51
336.0719183573
  0
ARC
  5
295
100
AcDbEntity
  8
0
100
AcDbCircle
 62
7
  6
CONTINUOUS
 10
64.0824467231
 20
258.4099128784
 40
83.1209469145
100
AcDbArc
 50
169.9713806397
 51
171.8522592188
  0
ARC
  5
296
100
AcDbEntity
  8
0
100
AcDbCircle
 62
7
  6
CONTINUOUS
 10
52.7166219522
 20
268.3751766211
 40
79.3390945933
100
AcDbArc
 50
175.2477559914
 51
179.9864885952
  0
ARC
  5
297
100
AcDbEntity
  8
0
100
AcDbCircle
 62
7
  6
CONTINUOUS
 10
-8.9303917351
 20
267.1822839562
 40
76.9110461709
100
AcDbArc
 50
359.9759600637
 51
6.2862863207
  0
ARC
  5
298
100
AcDbEntity
  8
0
100
AcDbCircle
 62
7
  6
CONTINUOUS
 10
-11.6592073469
 20
262.4879545154
 40
76.1621201172
100
AcDbArc
 50
8.7313920666
 51
10.768149372
  0
ARC
  5
299
100
AcDbEntity
  8
0
100
AcDbCircle
 62
7
  6
CONTINUOUS
 10
49.4960219989
 20
269.2269087451
 40
75.0447409813
100
AcDbArc
 50
169.6616166713
 51
174.4538187763
  0
ARC
  5
29A
100
AcDbEntity
  8
0
100
AcDbCircle
 62
7
  6
CONTINUOUS
 10
-7.2761175255
 20
266.2736990803
 40
74.180323403
100
AcDbArc
 50
6.2711671994
 51
11.3314077652
  0
ARC
  5
29B
100
AcDbEntity
  8
0
100
AcDbCircle
 62
7
  6
CONTINUOUS
 10
44.8210734204
 20
265.4971197579
 40
69.3333984619
100
AcDbArc
 50
168.4984387686
 51
170.7022620118
  0
ARC
  5
29C
100
AcDbEntity
  8
0
100
AcDbCircle
 62
7
  6
CONTINUOUS
 10
-0.0222179677
 20
271.0585408364
 40
25.9160368319
100
AcDbArc
 50
120.4784746193
 51
122.7399092258
  0
ARC
  5
29D
100
AcDbEntity
  8
0
100
AcDbCircle
 62
7
  6
CONTINUOUS
 10
-19.1198318028
 20
260.1671550854
 40
9.0042297236
100
AcDbArc
 50
112.3540645406
 51
112.7148420647
  0
ARC
  5
29E
100
AcDbEntity
  8
0
100
AcDbCircle
 62
7
  6
CONTINUOUS
 10
-20.0316811139
 20
262.5793617049
 40
6.5814978991
100
AcDbArc
 50
158.6424215775
 51
160.1413114245
  0
ARC
  5
29F
100
AcDbEntity
  8
0
100
AcDbCircle
 62
7
  6
CONTINUOUS
 10
38.655524984
 20
290.1986910395
 40
38.8538708679
100
AcDbArc
 50
295.4301513326
 51
296.9359045323
  0
ARC
  5
2A0
100
AcDbEntity
  8
0
100
AcDbCircle
 62
7
  6
CONTINUOUS
 10
40.0084990427
 20
288.1014975603
 40
36.3263429039
100
AcDbArc
 50
294.9885533959
 51
296.6275412603
  0
ARC
  5
2A1
100
AcDbEntity
  8
0
100
AcDbCircle
 62
7
  6
CONTINUOUS
 10
-4.8237948113
 20
297.643513218
 40
27.9386613392
100
AcDbArc
 50
239.7542627039
 51
242.3980819292
  0
ARC
  5
2A2
100
AcDbEntity
  8
0
100
AcDbCircle
 62
7
  6
CONTINUOUS
 10
40.3925820918
 20
293.3865896065
 40
27.2081482961
100
AcDbArc
 50
300.6798761544
 51
303.4191335169
  0
ARC
  5
2A3
100
AcDbEntity
  8
0
100
AcDbCircle
 62
7
  6
CONTINUOUS
 10
47.1629634796
 20
275.7414605941
 40
19.4044315853
100
AcDbArc
 50
46.2136453118
 51
49.0187652092
  0
ARC
  5
2A4
100
AcDbEntity
  8
0
100
AcDbCircle
 62
7
  6
CONTINUOUS
 10
48.3150333372
 20
275.6333047702
 40
18.4981460089
100
AcDbArc
 50
22.4718141749
 51
23.2744841926
  0
ARC
  5
2A5
100
AcDbEntity
  8
0
100
AcDbCircle
 62
7
  6
CONTINUOUS
 10
48.7105494737
 20
275.8038476493
 40
18.0674283071
100
AcDbArc
 50
23.273273818
 51
24.3969962602
  0
ARC
  5
2A6
100
AcDbEntity
  8
0
100
AcDbCircle
 62
7
  6
CONTINUOUS
 10
49.2691029553
 20
276.0583735543
 40
17.4536170884
100
AcDbArc
 50
24.3934382746
 51
26.1658131952
  0
ARC
  5
2A7
100
AcDbEntity
  8
0
100
AcDbCircle
 62
7
  6
CONTINUOUS
 10
-9.1063646782
 20
283.0349337381
 40
14.4467834297
100
AcDbArc
 50
191.0905637297
 51
191.4158511167
  0
ARC
  5
2A8
100
AcDbEntity
  8
0
100
AcDbCircle
 62
7
  6
CONTINUOUS
 10
-10.4987117458
 20
279.7426344097
 40
13.217996062
100
AcDbArc
 50
146.8931045123
 51
150.4603102983
  0
ARC
  5
2A9
100
AcDbEntity
  8
0
100
AcDbCircle
 62
7
  6
CONTINUOUS
 10
-2.0346721321
 20
288.4729631995
 40
11.0180663252
100
AcDbArc
 50
223.5508688161
 51
223.946081754
  0
ARC
  5
2AA
100
AcDbEntity
  8
0
100
AcDbCircle
 62
7
  6
CONTINUOUS
 10
54.0860004611
 20
280.7704629572
 40
10.7560482944
100
AcDbArc
 50
11.7561646628
 51
14.6729423382
  0
ARC
  5
2AB
100
AcDbEntity
  8
0
100
AcDbCircle
 62
7
  6
CONTINUOUS
 10
-12.7443753879
 20
280.7739544623
 40
10.7391332616
100
AcDbArc
 50
165.6437606195
 51
168.2440572424
  0
ARC
  5
2AC
100
AcDbEntity
  8
0
100
AcDbCircle
 62
7
  6
CONTINUOUS
 10
-2.3968737754
 20
288.1321144085
 40
10.5207120561
100
AcDbArc
 50
221.3619473599
 51
223.564602249
  0
ARC
  5
2AD
100
AcDbEntity
  8
0
100
AcDbCircle
 62
7
  6
CONTINUOUS
 10
54.9185362333
 20
279.3014938875
 40
10.3850875136
100
AcDbArc
 50
8.5266971994
 51
9.1073811916
  0
ARC
  5
2AE
100
AcDbEntity
  8
0
100
AcDbCircle
 62
7
  6
CONTINUOUS
 10
-2.4442155793
 20
287.3848266534
 40
9.6531285299
100
AcDbArc
 50
220.5149663397
 51
224.3768720729
  0
ARC
  5
2AF
100
AcDbEntity
  8
0
100
AcDbCircle
 62
7
  6
CONTINUOUS
 10
52.182511987
 20
283.3156802221
 40
9.4542388295
100
AcDbArc
 50
36.2135000549
 51
36.8803021384
  0
ARC
  5
2B0
100
AcDbEntity
  8
0
100
AcDbCircle
 62
7
  6
CONTINUOUS
 10
-3.0927719079
 20
286.8280026274
 40
8.7983338279
100
AcDbArc
 50
217.9647840771
 51
220.5020372684
  0
ARC
  5
2B1
100
AcDbEntity
  8
0
100
AcDbCircle
 62
7
  6
CONTINUOUS
 10
46.2227516209
 20
286.2504574857
 40
7.4123888381
100
AcDbArc
 50
328.7414107145
 51
329.4062737796
  0
ARC
  5
2B2
100
AcDbEntity
  8
0
100
AcDbCircle
 62
7
  6
CONTINUOUS
 10
57.3885577632
 20
281.459461737
 40
7.3823903664
100
AcDbArc
 50
10.7445616161
 51
11.3936794504
  0
ARC
  5
2B3
100
AcDbEntity
  8
0
100
AcDbCircle
 62
7
  6
CONTINUOUS
 10
46.4521336257
 20
286.1162278624
 40
7.1466216366
100
AcDbArc
 50
329.396663089
 51
331.689990353
  0
ARC
  5
2B4
100
AcDbEntity
  8
0
100
AcDbCircle
 62
7
  6
CONTINUOUS
 10
-16.3036595713
 20
281.5143213942
 40
7.1036840292
100
AcDbArc
 50
168.2410884554
 51
171.4018873572
  0
ARC
  5
2B5
100
AcDbEntity
  8
0
100
AcDbCircle
 62
7
  6
CONTINUOUS
 10
-16.4187273476
 20
281.5324502128
 40
6.987199193
100
AcDbArc
 50
171.4078088412
 51
172.9802006868
  0
ARC
  5
2B6
100
AcDbEntity
  8
0
100
AcDbCircle
 62
7
  6
CONTINUOUS
 10
46.6660798665
 20
285.9996035531
 40
6.9029564977
100
AcDbArc
 50
331.7000593375
 51
332.3240576277
  0
ARC
  5
2B7
100
AcDbEntity
  8
0
100
AcDbCircle
 62
7
  6
CONTINUOUS
 10
-16.5200144072
 20
281.5456095424
 40
6.885063185
100
AcDbArc
 50
172.9858774529
 51
189.8686308347
  0
ARC
  5
2B8
100
AcDbEntity
  8
0
100
AcDbCircle
 62
7
  6
CONTINUOUS
 10
54.8109422775
 20
284.4689661977
 40
6.5681081053
100
AcDbArc
 50
9.8335570468
 51
10.7310381417
  0
ARC
  5
2B9
100
AcDbEntity
  8
0
100
AcDbCircle
 62
7
  6
CONTINUOUS
 10
58.867306866
 20
280.3342526669
 40
6.2940331763
100
AcDbArc
 50
21.8427349671
 51
23.4163757566
  0
ARC
  5
2BA
100
AcDbEntity
  8
0
100
AcDbCircle
 62
7
  6
CONTINUOUS
 10
47.1911450535
 20
285.0742901631
 40
5.5361553473
100
AcDbArc
 50
335.1957454894
 51
338.3204129966
  0
ARC
  5
2BB
100
AcDbEntity
  8
0
100
AcDbCircle
 62
7
  6
CONTINUOUS
 10
47.3605315307
 20
284.7031791305
 40
5.3234287907
100
AcDbArc
 50
10.7527532523
 51
17.6691861665
  0
ARC
  5
2BC
100
AcDbEntity
  8
0
100
AcDbCircle
 62
7
  6
CONTINUOUS
 10
-6.0361043214
 20
283.8503816867
 40
5.2891476404
100
AcDbArc
 50
165.529560585
 51
168.1311578914
  0
ARC
  5
2BD
100
AcDbEntity
  8
0
100
AcDbCircle
 62
7
  6
CONTINUOUS
 10
47.4030790462
 20
282.7957732125
 40
5.2799979775
100
AcDbArc
 50
10.7807137334
 51
14.7239183017
  0
ARC
  5
2BE
100
AcDbEntity
  8
0
100
AcDbCircle
 62
7
  6
CONTINUOUS
 10
47.5450162713
 20
284.7400725481
 40
5.1353004115
100
AcDbArc
 50
9.1899080757
 51
10.7323793038
  0
ARC
  5
2BF
100
AcDbEntity
  8
0
100
AcDbCircle
 62
7
  6
CONTINUOUS
 10
47.6583955513
 20
284.7572307675
 40
5.0206362645
100
AcDbArc
 50
0.4712638291
 51
9.203254666
  0
ARC
  5
2C0
100
AcDbEntity
  8
0
100
AcDbCircle
 62
7
  6
CONTINUOUS
 10
-6.3031686129
 20
284.756854156
 40
5.0177503568
100
AcDbArc
 50
170.7919137973
 51
179.8377363268
  0
ARC
  5
2C1
100
AcDbEntity
  8
0
100
AcDbCircle
 62
7
  6
CONTINUOUS
 10
61.4643060227
 20
282.2366213142
 40
3.2346005159
100
AcDbArc
 50
9.3606554265
 51
10.6709217935
  0
ARC
  5
2C2
100
AcDbEntity
  8
0
100
AcDbCircle
 62
7
  6
CONTINUOUS
 10
19.1061992989
 20
352.5950626535
 40
103.4353751635
100
AcDbArc
 50
264.7675760765
 51
274.324534918
  0
ARC
  5
2C3
100
AcDbEntity
  8
0
100
AcDbCircle
 62
7
  6
CONTINUOUS
 10
13.7603615848
 20
363.0252659766
 40
98.4704981842
100
AcDbArc
 50
265.9598600874
 51
267.1059539172
  0
ARC
  5
2C4
100
AcDbEntity
  8
0
100
AcDbCircle
 62
7
  6
CONTINUOUS
 10
15.6809149387
 20
360.8310647996
 40
97.2127449235
100
AcDbArc
 50
274.9050063293
 51
276.0644607499
  0
ARC
  5
2C5
100
AcDbEntity
  8
0
100
AcDbCircle
 62
7
  6
CONTINUOUS
 10
23.4399406424
 20
348.5927152201
 40
79.9201460831
100
AcDbArc
 50
279.1406280627
 51
281.6686832151
  0
ARC
  5
2C6
100
AcDbEntity
  8
0
100
AcDbCircle
 62
7
  6
CONTINUOUS
 10
8.1717100049
 20
332.4856751858
 40
66.3981799311
100
AcDbArc
 50
255.6913447979
 51
257.1779389218
  0
ARC
  5
2C7
100
AcDbEntity
  8
0
100
AcDbCircle
 62
7
  6
CONTINUOUS
 10
23.8850587813
 20
327.8225742594
 40
64.2532287622
100
AcDbArc
 50
285.130700916
 51
286.6647790145
  0
ARC
  5
2C8
100
AcDbEntity
  8
0
100
AcDbCircle
 62
7
  6
CONTINUOUS
 10
265.1438881423
 20
249.4024116741
 40
256.8100717304
100
AcDbArc
 50
176.5893908717
 51
177.212580424
  0
ARC
  5
2C9
100
AcDbEntity
  8
0
100
AcDbCircle
 62
7
  6
CONTINUOUS
 10
111.8384801527
 20
252.8006340777
 40
119.3412759505
100
AcDbArc
 50
172.8071925211
 51
174.1374051461
  0
SPLINE
  5
2CA
100
AcDbEntity
  8
0
100
AcDbSpline
 62
7
  6
CONTINUOUS
 70
0
 71
3
 72
15
 73
11
 74
0
 42
0.0000001
 43
0.0000001
 44
0.0000000001
 40
0.0
 40
0.0
 40
0.0
 40
0.0
 40
0.0895914929
 40
0.1840934677
 40
0.287535575
 40
0.4026926963
 40
0.5311694604
 40
0.6736448514
 40
0.8300903741
 40
1.0
 40
1.0
 40
1.0
 40
1.0
 10
-11.1208990918
 20
285.5476569093
 30
0.0
 10
-11.1208735237
 20
285.9790506247
 30
0.0
 10
-11.0013149859
 20
286.869296266
 30
0.0
 10
-10.4764036952
 20
288.1633570096
 30
0.0
 10
-9.6216387418
 20
289.4166429036
 30
0.0
 10
-8.4522344115
 20
290.6196567983
 30
0.0
 10
-6.9816961504
 20
291.7648555593
 30
0.0
 10
-5.2247216358
 20
292.8430460677
 30
0.0
 10
-3.1987577887
 20
293.8445689532
 30
0.0
 10
-1.7393761957
 20
294.4314714401
 30
0.0
 10
-0.971015672
 20
294.7124823754
 30
0.0
  0
SPLINE
  5
2CB
100
AcDbEntity
  8
0
100
AcDbSpline
 62
7
  6
CONTINUOUS
 70
0
 71
3
 72
9
 73
5
 74
0
 42
0.0000001
 43
0.0000001
 44
0.0000000001
 40
0.0
 40
0.0
 40
0.0
 40
0.0
 40
0.2413028477
 40
1.0
 40
1.0
 40
1.0
 40
1.0
 10
-0.971015672
 20
294.7124823754
 30
0.0
 10
-0.6743496265
 20
294.8209814462
 30
0.0
 10
0.5606438548
 20
295.2553622861
 30
0.0
 10
1.815868125
 20
295.6314611609
 30
0.0
 10
2.7751937959
 20
295.8886136667
 30
0.0
  0
SPLINE
  5
2CC
100
AcDbEntity
  8
0
100
AcDbSpline
 62
7
  6
CONTINUOUS
 70
0
 71
3
 72
22
 73
18
 74
0
 42
0.0000001
 43
0.0000001
 44
0.0000000001
 40
0.0
 40
0.0
 40
0.0
 40
0.0
 40
0.069935654
 40
0.1438308151
 40
0.2990280486
 40
0.4562311034
 40
0.5325772142
 40
0.6058484988
 40
0.6749835976
 40
0.7390515351
 40
0.7973018604
 40
0.8492329864
 40
0.8946948897
 40
0.9340516285
 40
0.968419828
 40
0.9844011905
 40
1.0
 40
1.0
 40
1.0
 40
1.0
 10
2.7751937959
 20
295.8886136667
 30
0.0
 10
4.0029496813
 20
296.2177203631
 30
0.0
 10
6.5538678437
 20
296.8004553842
 30
0.0
 10
11.9212269964
 20
297.6719894253
 30
0.0
 10
18.938359181
 20
298.1892415006
 30
0.0
 10
26.0146694699
 20
297.9744522696
 30
0.0
 10
31.5583019603
 20
297.3456162721
 30
0.0
 10
35.4781870071
 20
296.6654556828
 30
0.0
 10
39.1292705345
 20
295.7853244174
 30
0.0
 10
42.4461973274
 20
294.7213133289
 30
0.0
 10
45.3704196169
 20
293.4925386667
 30
0.0
 10
47.8518521725
 20
292.1202793888
 30
0.0
 10
49.849645354
 20
290.6243614233
 30
0.0
 10
51.3311603488
 20
289.0235863834
 30
0.0
 10
52.1235814366
 20
287.5705324748
 30
0.0
 10
52.4288566133
 20
286.4063346631
 30
0.0
 10
52.4790917946
 20
285.8311696634
 30
0.0
 10
52.4790749912
 20
285.5476569095
 30
0.0
  0
SPLINE
  5
2CD
100
AcDbEntity
  8
0
100
AcDbSpline
 62
7
  6
CONTINUOUS
 70
0
 71
3
 72
22
 73
18
 74
0
 42
0.0000001
 43
0.0000001
 44
0.0000000001
 40
0.0
 40
0.0
 40
0.0
 40
0.0
 40
0.069935654
 40
0.1438308151
 40
0.2990280486
 40
0.4562311034
 40
0.5325772142
 40
0.6058484988
 40
0.6749835976
 40
0.7390515351
 40
0.7973018604
 40
0.8492329864
 40
0.8946948897
 40
0.9340516285
 40
0.968419828
 40
0.9844011905
 40
1.0
 40
1.0
 40
1.0
 40
1.0
 10
38.5829821034
 20
275.2067001521
 30
0.0
 10
37.3552262181
 20
274.8775934557
 30
0.0
 10
34.8043080557
 20
274.2948584346
 30
0.0
 10
29.4369489029
 20
273.4233243935
 30
0.0
 10
22.4198167184
 20
272.9060723182
 30
0.0
 10
15.3435064294
 20
273.1208615492
 30
0.0
 10
9.7998739391
 20
273.7496975467
 30
0.0
 10
5.8799888923
 20
274.429858136
 30
0.0
 10
2.2289053649
 20
275.3099894014
 30
0.0
 10
-1.0880214281
 20
276.3740004899
 30
0.0
 10
-4.0122437176
 20
277.602775152
 30
0.0
 10
-6.4936762732
 20
278.9750344299
 30
0.0
 10
-8.4914694546
 20
280.4709523955
 30
0.0
 10
-9.9729844495
 20
282.0717274353
 30
0.0
 10
-10.7654055372
 20
283.524781344
 30
0.0
 10
-11.0706807139
 20
284.6889791557
 30
0.0
 10
-11.1209158952
 20
285.2641441554
 30
0.0
 10
-11.1208990918
 20
285.5476569093
 30
0.0
  0
SPLINE
  5
2CE
100
AcDbEntity
  8
0
100
AcDbSpline
 62
7
  6
CONTINUOUS
 70
0
 71
3
 72
9
 73
5
 74
0
 42
0.0000001
 43
0.0000001
 44
0.0000000001
 40
0.0
 40
0.0
 40
0.0
 40
0.0
 40
0.4860999705
 40
1.0
 40
1.0
 40
1.0
 40
1.0
 10
52.4790749912
 20
285.5476569095
 30
0.0
 10
52.4790488369
 20
285.10637335
 30
0.0
 10
52.3538238022
 20
284.1948860576
 30
0.0
 10
52.0019053495
 20
283.3479086275
 30
0.0
 10
51.7796107387
 20
282.9377543309
 30
0.0
  0
SPLINE
  5
2CF
100
AcDbEntity
  8
0
100
AcDbSpline
 62
7
  6
CONTINUOUS
 70
0
 71
3
 72
13
 73
9
 74
0
 42
0.0000001
 43
0.0000001
 44
0.0000000001
 40
0.0
 40
0.0
 40
0.0
 40
0.0
 40
0.186160302
 40
0.2946938583
 40
0.414314556
 40
0.5450980439
 40
0.686748619
 40
1.0
 40
1.0
 40
1.0
 40
1.0
 10
51.7796107387
 20
282.9377543309
 30
0.0
 10
51.3172156293
 20
282.0845922133
 30
0.0
 10
50.2976565864
 20
280.8888215827
 30
0.0
 10
48.617616089
 20
279.5323062202
 30
0.0
 10
47.0413672313
 20
278.5164013899
 30
0.0
 10
45.2301969016
 20
277.5654900522
 30
0.0
 10
42.4260277693
 20
276.3525417121
 30
0.0
 10
40.160205641
 20
275.6294835688
 30
0.0
 10
38.5829821034
 20
275.2067001521
 30
0.0
  0
SPLINE
  5
2D0
100
AcDbEntity
  8
0
100
AcDbSpline
 62
7
  6
CONTINUOUS
 70
0
 71
3
 72
11
 73
7
 74
0
 42
0.0000001
 43
0.0000001
 44
0.0000000001
 40
0.0
 40
0.0
 40
0.0
 40
0.0
 40
0.2634102161
 40
0.5159328297
 40
0.7602045476
 40
1.0
 40
1.0
 40
1.0
 40
1.0
 10
5.8004984704
 20
206.5310133056
 30
0.0
 10
4.7948859391
 20
206.2614533532
 30
0.0
 10
2.7764096309
 20
205.8947531276
 30
0.0
 10
-0.2463550185
 20
205.9095997485
 30
0.0
 10
-3.1164593211
 20
206.5047946784
 30
0.0
 10
-4.882203598
 20
207.2850909924
 30
0.0
 10
-5.7029086535
 20
207.759144734
 30
0.0
  0
SPLINE
  5
2D1
100
AcDbEntity
  8
0
100
AcDbSpline
 62
7
  6
CONTINUOUS
 70
0
 71
3
 72
11
 73
7
 74
0
 42
0.0000001
 43
0.0000001
 44
0.0000000001
 40
0.0
 40
0.0
 40
0.0
 40
0.0
 40
0.271774877
 40
0.5268700653
 40
0.7676346301
 40
1.0
 40
1.0
 40
1.0
 40
1.0
 10
0.0366861546
 20
237.6223174402
 30
0.0
 10
0.0366861546
 20
237.1455292272
 30
0.0
 10
0.1293860604
 20
236.2172804699
 30
0.0
 10
0.5733679374
 20
234.9314525883
 30
0.0
 10
1.300931985
 20
233.8616189548
 30
0.0
 10
1.9593578125
 20
233.3320066713
 30
0.0
 10
2.3123687856
 20
233.1281393175
 30
0.0
  0
SPLINE
  5
2D2
100
AcDbEntity
  8
0
100
AcDbSpline
 62
7
  6
CONTINUOUS
 70
0
 71
3
 72
11
 73
7
 74
0
 42
0.0000001
 43
0.0000001
 44
0.0000000001
 40
0.0
 40
0.0
 40
0.0
 40
0.0
 40
0.271774877
 40
0.5268700653
 40
0.7676346301
 40
1.0
 40
1.0
 40
1.0
 40
1.0
 10
10.3672650224
 20
228.8998030771
 30
0.0
 10
10.3672650224
 20
228.4230148641
 30
0.0
 10
10.4599649283
 20
227.4947661068
 30
0.0
 10
10.9039468052
 20
226.2089382252
 30
0.0
 10
11.6315108529
 20
225.1391045917
 30
0.0
 10
12.2899366803
 20
224.6094923082
 30
0.0
 10
12.6429476535
 20
224.4056249543
 30
0.0
  0
SPLINE
  5
2D3
100
AcDbEntity
  8
0
100
AcDbSpline
 62
7
  6
CONTINUOUS
 70
0
 71
3
 72
11
 73
7
 74
0
 42
0.0000001
 43
0.0000001
 44
0.0000000001
 40
0.0
 40
0.0
 40
0.0
 40
0.0
 40
0.271774877
 40
0.5268700653
 40
0.7676346301
 40
1.0
 40
1.0
 40
1.0
 40
1.0
 10
-10.2938927133
 20
223.3614664675
 30
0.0
 10
-10.2938927133
 20
222.8846782545
 30
0.0
 10
-10.2011928074
 20
221.9564294973
 30
0.0
 10
-9.7572109305
 20
220.6706016157
 30
0.0
 10
-9.0296468828
 20
219.6007679822
 30
0.0
 10
-8.3712210553
 20
219.0711556986
 30
0.0
 10
-8.0182100822
 20
218.8672883448
 30
0.0
  0
SPLINE
  5
2D4
100
AcDbEntity
  8
0
100
AcDbSpline
 62
7
  6
CONTINUOUS
 70
0
 71
3
 72
9
 73
5
 74
0
 42
0.0000001
 43
0.0000001
 44
0.0000000001
 40
0.0
 40
0.0
 40
0.0
 40
0.0
 40
0.4936190495
 40
1.0
 40
1.0
 40
1.0
 40
1.0
 10
-5.8011274961
 20
229.8556779598
 30
0.0
 10
-5.9556325641
 20
229.944941672
 30
0.0
 10
-6.2932576607
 20
230.0859756701
 30
0.0
 10
-6.6547365436
 20
230.1391302948
 30
0.0
 10
-6.8376854054
 20
230.1452278414
 30
0.0
  0
SPLINE
  5
2D5
100
AcDbEntity
  8
0
100
AcDbSpline
 62
7
  6
CONTINUOUS
 70
0
 71
3
 72
15
 73
11
 74
0
 42
0.0000001
 43
0.0000001
 44
0.0000000001
 40
0.0
 40
0.0
 40
0.0
 40
0.0
 40
0.0524625372
 40
0.1056460033
 40
0.2162145948
 40
0.335328669
 40
0.4632706134
 40
0.5978575783
 40
0.7353249013
 40
1.0
 40
1.0
 40
1.0
 40
1.0
 10
-1.0419507127
 20
230.945687575
 30
0.0
 10
-1.2544546645
 20
231.0684107242
 30
0.0
 10
-1.7062345453
 20
231.2766772559
 30
0.0
 10
-2.6903766398
 20
231.5290576283
 30
0.0
 10
-4.0397784924
 20
231.510512193
 30
0.0
 10
-5.6483922993
 20
230.9797244755
 30
0.0
 10
-7.1600028311
 20
229.9984286191
 30
0.0
 10
-8.4700529003
 20
228.6397727226
 30
0.0
 10
-9.8036036391
 20
226.5014734461
 30
0.0
 10
-10.2938927133
 20
224.5994937233
 30
0.0
 10
-10.2938927133
 20
223.3614664675
 30
0.0
  0
SPLINE
  5
2D6
100
AcDbEntity
  8
0
100
AcDbSpline
 62
7
  6
CONTINUOUS
 70
0
 71
3
 72
9
 73
5
 74
0
 42
0.0000001
 43
0.0000001
 44
0.0000000001
 40
0.0
 40
0.0
 40
0.0
 40
0.0
 40
0.4936190495
 40
1.0
 40
1.0
 40
1.0
 40
1.0
 10
14.8600302396
 20
235.3940145694
 30
0.0
 10
14.7055251716
 20
235.4832782816
 30
0.0
 10
14.367900075
 20
235.6243122796
 30
0.0
 10
14.0064211921
 20
235.6774669043
 30
0.0
 10
13.8234723302
 20
235.6835644509
 30
0.0
  0
SPLINE
  5
2D7
100
AcDbEntity
  8
0
100
AcDbSpline
 62
7
  6
CONTINUOUS
 70
0
 71
3
 72
15
 73
11
 74
0
 42
0.0000001
 43
0.0000001
 44
0.0000000001
 40
0.0
 40
0.0
 40
0.0
 40
0.0
 40
0.0524625372
 40
0.1056460033
 40
0.2162145948
 40
0.335328669
 40
0.4632706134
 40
0.5978575783
 40
0.7353249013
 40
1.0
 40
1.0
 40
1.0
 40
1.0
 10
19.6192070229
 20
236.4840241846
 30
0.0
 10
19.4067030712
 20
236.6067473338
 30
0.0
 10
18.9549231904
 20
236.8150138655
 30
0.0
 10
17.9707810958
 20
237.0673942378
 30
0.0
 10
16.6213792432
 20
237.0488488025
 30
0.0
 10
15.0127654364
 20
236.518061085
 30
0.0
 10
13.5011549046
 20
235.5367652286
 30
0.0
 10
12.1911048354
 20
234.1781093321
 30
0.0
 10
10.8575540966
 20
232.0398100556
 30
0.0
 10
10.3672650224
 20
230.1378303329
 30
0.0
 10
10.3672650224
 20
228.8998030771
 30
0.0
  0
SPLINE
  5
2D8
100
AcDbEntity
  8
0
100
AcDbSpline
 62
7
  6
CONTINUOUS
 70
0
 71
3
 72
9
 73
5
 74
0
 42
0.0000001
 43
0.0000001
 44
0.0000000001
 40
0.0
 40
0.0
 40
0.0
 40
0.0
 40
0.4936190495
 40
1.0
 40
1.0
 40
1.0
 40
1.0
 10
4.5294513718
 20
244.1165289325
 30
0.0
 10
4.3749463038
 20
244.2057926447
 30
0.0
 10
4.0373212072
 20
244.3468266428
 30
0.0
 10
3.6758423242
 20
244.3999812674
 30
0.0
 10
3.4928934624
 20
244.406078814
 30
0.0
  0
SPLINE
  5
2D9
100
AcDbEntity
  8
0
100
AcDbSpline
 62
7
  6
CONTINUOUS
 70
0
 71
3
 72
15
 73
11
 74
0
 42
0.0000001
 43
0.0000001
 44
0.0000000001
 40
0.0
 40
0.0
 40
0.0
 40
0.0
 40
0.0524625372
 40
0.1056460033
 40
0.2162145948
 40
0.335328669
 40
0.4632706134
 40
0.5978575783
 40
0.7353249013
 40
1.0
 40
1.0
 40
1.0
 40
1.0
 10
9.2886281551
 20
245.2065385477
 30
0.0
 10
9.0761242034
 20
245.3292616969
 30
0.0
 10
8.6243443225
 20
245.5375282286
 30
0.0
 10
7.640202228
 20
245.7899086009
 30
0.0
 10
6.2908003754
 20
245.7713631657
 30
0.0
 10
4.6821865686
 20
245.2405754481
 30
0.0
 10
3.1705760367
 20
244.2592795918
 30
0.0
 10
1.8605259675
 20
242.9006236953
 30
0.0
 10
0.5269752287
 20
240.7623244187
 30
0.0
 10
0.0366861546
 20
238.860344696
 30
0.0
 10
0.0366861546
 20
237.6223174402
 30
0.0
  0
SPLINE
  5
2DA
100
AcDbEntity
  8
0
100
AcDbSpline
 62
7
  6
CONTINUOUS
 70
0
 71
3
 72
10
 73
6
 74
0
 42
0.0000001
 43
0.0000001
 44
0.0000000001
 40
0.0
 40
0.0
 40
0.0
 40
0.0
 40
0.2403281524
 40
0.485096085
 40
1.0
 40
1.0
 40
1.0
 40
1.0
 10
7.0001614289
 20
220.8609562994
 30
0.0
 10
6.8342151692
 20
220.9567729765
 30
0.0
 10
6.4770817866
 20
221.1144698373
 30
0.0
 10
5.6921773356
 20
221.2778998174
 30
0.0
 10
5.0710185154
 20
221.215551891
 30
0.0
 10
4.6744673915
 20
221.1092541881
 30
0.0
  0
SPLINE
  5
2DB
100
AcDbEntity
  8
0
100
AcDbSpline
 62
7
  6
CONTINUOUS
 70
0
 71
3
 72
11
 73
7
 74
0
 42
0.0000001
 43
0.0000001
 44
0.0000000001
 40
0.0
 40
0.0
 40
0.0
 40
0.0
 40
0.2717668072
 40
0.5268680782
 40
0.7676307415
 40
1.0
 40
1.0
 40
1.0
 40
1.0
 10
0.8314920527
 20
215.804217633
 30
0.0
 10
0.8314920522
 20
215.4863312994
 30
0.0
 10
0.8933067887
 20
214.8674329743
 30
0.0
 10
1.1892943962
 20
214.0101036122
 30
0.0
 10
1.6744109753
 20
213.2968056758
 30
0.0
 10
2.1133897642
 20
212.9436496733
 30
0.0
 10
2.3487733541
 20
212.8077401718
 30
0.0
  0
SPLINE
  5
2DC
100
AcDbEntity
  8
0
100
AcDbSpline
 62
7
  6
CONTINUOUS
 70
0
 71
3
 72
12
 73
8
 74
0
 42
0.0000001
 43
0.0000001
 44
0.0000000001
 40
0.0
 40
0.0
 40
0.0
 40
0.0
 40
0.2349899833
 40
0.4894752595
 40
0.6202667695
 40
0.7503904793
 40
1.0
 40
1.0
 40
1.0
 40
1.0
 10
4.6744673915
 20
221.1092541881
 30
0.0
 10
4.1473074147
 20
220.9679460661
 30
0.0
 10
3.1081657887
 20
220.4370564893
 30
0.0
 10
2.0895393601
 20
219.3871749011
 30
0.0
 10
1.4598481945
 20
218.3643464035
 30
0.0
 10
0.9929308369
 20
217.2716901691
 30
0.0
 10
0.8314920535
 20
216.3839425811
 30
0.0
 10
0.8314920527
 20
215.804217633
 30
0.0
  0
SPLINE
  5
2DD
100
AcDbEntity
  8
0
100
AcDbSpline
 62
7
  6
CONTINUOUS
 70
0
 71
3
 72
9
 73
5
 74
0
 42
0.0000001
 43
0.0000001
 44
0.0000000001
 40
0.0
 40
0.0
 40
0.0
 40
0.0
 40
0.5063725991
 40
1.0
 40
1.0
 40
1.0
 40
1.0
 10
0.1106499156
 20
238.546676897
 30
0.0
 10
0.2073388615
 20
238.3916439279
 30
0.0
 10
0.4336749224
 20
238.1056864849
 30
0.0
 10
0.7241493929
 20
237.8843114921
 30
0.0
 10
0.8783746353
 20
237.7952094462
 30
0.0
  0
SPLINE
  5
2DE
100
AcDbEntity
  8
0
100
AcDbSpline
 62
7
  6
CONTINUOUS
 70
0
 71
3
 72
9
 73
5
 74
0
 42
0.0000001
 43
0.0000001
 44
0.0000000001
 40
0.0
 40
0.0
 40
0.0
 40
0.0
 40
0.5063725991
 40
1.0
 40
1.0
 40
1.0
 40
1.0
 10
10.4412287835
 20
229.8241625339
 30
0.0
 10
10.5379177294
 20
229.6691295648
 30
0.0
 10
10.7642537903
 20
229.3831721218
 30
0.0
 10
11.0547282607
 20
229.1617971289
 30
0.0
 10
11.2089535031
 20
229.0726950831
 30
0.0
  0
SPLINE
  5
2DF
100
AcDbEntity
  8
0
100
AcDbSpline
 62
7
  6
CONTINUOUS
 70
0
 71
3
 72
9
 73
5
 74
0
 42
0.0000001
 43
0.0000001
 44
0.0000000001
 40
0.0
 40
0.0
 40
0.0
 40
0.0
 40
0.5063725991
 40
1.0
 40
1.0
 40
1.0
 40
1.0
 10
-10.2199289522
 20
224.2858259244
 30
0.0
 10
-10.1232400063
 20
224.1307929552
 30
0.0
 10
-9.8969039454
 20
223.8448355122
 30
0.0
 10
-9.6064294749
 20
223.6234605194
 30
0.0
 10
-9.4522042326
 20
223.5343584735
 30
0.0
  0
SPLINE
  5
2E0
100
AcDbEntity
  8
0
100
AcDbSpline
 62
7
  6
CONTINUOUS
 70
0
 71
3
 72
20
 73
16
 74
0
 42
0.0000001
 43
0.0000001
 44
0.0000000001
 40
0.0
 40
0.0
 40
0.0
 40
0.0
 40
0.0524886434
 40
0.1058788304
 40
0.1609446359
 40
0.2182401375
 40
0.340076149
 40
0.4047856399
 40
0.4714397647
 40
0.6080573039
 40
0.7449175056
 40
0.8118575972
 40
0.8769396555
 40
0.9397340303
 40
1.0
 40
1.0
 40
1.0
 40
1.0
 10
17.3039055942
 20
247.5921677953
 30
0.0
 10
18.0903236128
 20
247.1379188521
 30
0.0
 10
19.5862426898
 20
246.0543274853
 30
0.0
 10
21.4776056383
 20
243.9869180461
 30
0.0
 10
22.981827343
 20
241.5250409534
 30
0.0
 10
24.4534097039
 20
237.7307552308
 30
0.0
 10
24.9687358844
 20
233.4658598577
 30
0.0
 10
24.6048391611
 20
229.0923865565
 30
0.0
 10
23.6259820228
 20
224.5476370832
 30
0.0
 10
21.3269964406
 20
219.0661598091
 30
0.0
 10
17.8215406939
 20
214.2592062568
 30
0.0
 10
14.4331980734
 20
211.0559330116
 30
0.0
 10
11.6992804126
 20
209.0665504156
 30
0.0
 10
8.8215968125
 20
207.523006583
 30
0.0
 10
6.8076902018
 20
206.8009965714
 30
0.0
 10
5.8004984704
 20
206.5310133056
 30
0.0
  0
SPLINE
  5
2E1
100
AcDbEntity
  8
0
100
AcDbSpline
 62
7
  6
CONTINUOUS
 70
0
 71
3
 72
14
 73
10
 74
0
 42
0.0000001
 43
0.0000001
 44
0.0000000001
 40
0.0
 40
0.0
 40
0.0
 40
0.0
 40
0.2346073929
 40
0.3603379301
 40
0.4894684284
 40
0.6200482101
 40
0.7499714674
 40
0.8772023527
 40
1.0
 40
1.0
 40
1.0
 40
1.0
 10
5.8004984704
 20
222.2975487761
 30
0.0
 10
5.0466207334
 20
222.0954677154
 30
0.0
 10
3.9478929595
 20
221.5338720337
 30
0.0
 10
2.7162874342
 20
220.4640963379
 30
0.0
 10
1.8851155544
 20
219.4801478838
 30
0.0
 10
1.2032846303
 20
218.3723944929
 30
0.0
 10
0.6949339632
 20
217.1814691607
 30
0.0
 10
0.3795908238
 20
215.9524397057
 30
0.0
 10
0.3046305133
 20
215.1192995502
 30
0.0
 10
0.3046305127
 20
214.7107760587
 30
0.0
  0
SPLINE
  5
2E2
100
AcDbEntity
  8
0
100
AcDbSpline
 62
7
  6
CONTINUOUS
 70
0
 71
3
 72
11
 73
7
 74
0
 42
0.0000001
 43
0.0000001
 44
0.0000000001
 40
0.0
 40
0.0
 40
0.0
 40
0.0
 40
0.271774877
 40
0.5268700653
 40
0.7676346301
 40
1.0
 40
1.0
 40
1.0
 40
1.0
 10
11.5643107862
 20
240.712360425
 30
0.0
 10
11.5643107862
 20
241.189148638
 30
0.0
 10
11.4716108803
 20
242.1173973952
 30
0.0
 10
11.0276290033
 20
243.4032252768
 30
0.0
 10
10.3000649557
 20
244.4730589103
 30
0.0
 10
9.6416391282
 20
245.0026711939
 30
0.0
 10
9.2886281551
 20
245.2065385477
 30
0.0
  0
SPLINE
  5
2E3
100
AcDbEntity
  8
0
100
AcDbSpline
 62
7
  6
CONTINUOUS
 70
0
 71
3
 72
15
 73
11
 74
0
 42
0.0000001
 43
0.0000001
 44
0.0000000001
 40
0.0
 40
0.0
 40
0.0
 40
0.0
 40
0.0524625372
 40
0.1056460033
 40
0.2162145948
 40
0.335328669
 40
0.4632706134
 40
0.5978575783
 40
0.7353249013
 40
1.0
 40
1.0
 40
1.0
 40
1.0
 10
-8.0182100822
 20
218.8672883448
 30
0.0
 10
-7.8057061305
 20
218.7445651956
 30
0.0
 10
-7.3539262497
 20
218.5362986639
 30
0.0
 10
-6.3697841551
 20
218.2839182916
 30
0.0
 10
-5.0203823025
 20
218.3024637268
 30
0.0
 10
-3.4117684957
 20
218.8332514444
 30
0.0
 10
-1.9001579639
 20
219.8145473007
 30
0.0
 10
-0.5901078946
 20
221.1732031972
 30
0.0
 10
0.7434428442
 20
223.3115024738
 30
0.0
 10
1.2337319183
 20
225.2134821965
 30
0.0
 10
1.2337319183
 20
226.4515094523
 30
0.0
  0
SPLINE
  5
2E4
100
AcDbEntity
  8
0
100
AcDbSpline
 62
7
  6
CONTINUOUS
 70
0
 71
3
 72
11
 73
7
 74
0
 42
0.0000001
 43
0.0000001
 44
0.0000000001
 40
0.0
 40
0.0
 40
0.0
 40
0.0
 40
0.2634102161
 40
0.5159328297
 40
0.7602045476
 40
1.0
 40
1.0
 40
1.0
 40
1.0
 10
5.8004984704
 20
248.8202992237
 30
0.0
 10
6.8061110016
 20
249.0898591762
 30
0.0
 10
8.8245873098
 20
249.4565594018
 30
0.0
 10
11.8473519592
 20
249.4417127809
 30
0.0
 10
14.7174562618
 20
248.846517851
 30
0.0
 10
16.4832005387
 20
248.0662215369
 30
0.0
 10
17.3039055942
 20
247.5921677953
 30
0.0
  0
SPLINE
  5
2E5
100
AcDbEntity
  8
0
100
AcDbSpline
 62
7
  6
CONTINUOUS
 70
0
 71
3
 72
11
 73
7
 74
0
 42
0.0000001
 43
0.0000001
 44
0.0000000001
 40
0.0
 40
0.0
 40
0.0
 40
0.0
 40
0.271774877
 40
0.5268700653
 40
0.7676346301
 40
1.0
 40
1.0
 40
1.0
 40
1.0
 10
21.894889654
 20
231.9898460618
 30
0.0
 10
21.894889654
 20
232.4666342748
 30
0.0
 10
21.8021897481
 20
233.3948830321
 30
0.0
 10
21.3582078712
 20
234.6807109137
 30
0.0
 10
20.6306438235
 20
235.7505445472
 30
0.0
 10
19.9722179961
 20
236.2801568307
 30
0.0
 10
19.6192070229
 20
236.4840241846
 30
0.0
  0
SPLINE
  5
2E6
100
AcDbEntity
  8
0
100
AcDbSpline
 62
7
  6
CONTINUOUS
 70
0
 71
3
 72
9
 73
5
 74
0
 42
0.0000001
 43
0.0000001
 44
0.0000000001
 40
0.0
 40
0.0
 40
0.0
 40
0.0
 40
0.480151452
 40
1.0
 40
1.0
 40
1.0
 40
1.0
 10
-2.8042410264
 20
231.4993042797
 30
0.0
 10
-2.4896879479
 20
231.0489806114
 30
0.0
 10
-2.0050423275
 20
229.9861580129
 30
0.0
 10
-1.8628535485
 20
228.8347582333
 30
0.0
 10
-1.8628535485
 20
228.2400397091
 30
0.0
  0
SPLINE
  5
2E7
100
AcDbEntity
  8
0
100
AcDbSpline
 62
7
  6
CONTINUOUS
 70
0
 71
3
 72
14
 73
10
 74
0
 42
0.0000001
 43
0.0000001
 44
0.0000000001
 40
0.0
 40
0.0
 40
0.0
 40
0.0
 40
0.1052606218
 40
0.2158761856
 40
0.3350397663
 40
0.4630361708
 40
0.5976782969
 40
0.7352099851
 40
1.0
 40
1.0
 40
1.0
 40
1.0
 10
11.2089535031
 20
229.0726950831
 30
0.0
 10
11.431977365
 20
228.9438453431
 30
0.0
 10
11.9434859761
 20
228.7645359696
 30
0.0
 10
12.7773391535
 20
228.7774232133
 30
0.0
 10
13.6198895318
 20
229.0547797298
 30
0.0
 10
14.4107845623
 20
229.568475762
 30
0.0
 10
15.0964744445
 20
230.2794958711
 30
0.0
 10
15.7944057185
 20
231.3985943997
 30
0.0
 10
16.0510209008
 20
232.394019686
 30
0.0
 10
16.0510209008
 20
233.0419519712
 30
0.0
  0
SPLINE
  5
2E8
100
AcDbEntity
  8
0
100
AcDbSpline
 62
7
  6
CONTINUOUS
 70
0
 71
3
 72
14
 73
10
 74
0
 42
0.0000001
 43
0.0000001
 44
0.0000000001
 40
0.0
 40
0.0
 40
0.0
 40
0.0
 40
0.2686164723
 40
0.3932530389
 40
0.5129262831
 40
0.6303784462
 40
0.7488454196
 40
0.8713344666
 40
1.0
 40
1.0
 40
1.0
 40
1.0
 10
0.3046305127
 20
214.7107760587
 30
0.0
 10
0.3046305116
 20
213.9553182254
 30
0.0
 10
0.4931878064
 20
212.8264935854
 30
0.0
 10
1.1885404646
 20
211.5502479998
 30
0.0
 10
1.8814626819
 20
210.7903111952
 30
0.0
 10
2.7310861474
 20
210.2416207805
 30
0.0
 10
3.7008186251
 20
209.9281271162
 30
0.0
 10
4.7477276739
 20
209.8609522661
 30
0.0
 10
5.4509784572
 20
209.9767076616
 30
0.0
 10
5.8004984704
 20
210.0703984175
 30
0.0
  0
SPLINE
  5
2E9
100
AcDbEntity
  8
0
100
AcDbSpline
 62
7
  6
CONTINUOUS
 70
0
 71
3
 72
12
 73
8
 74
0
 42
0.0000001
 43
0.0000001
 44
0.0000000001
 40
0.0
 40
0.0
 40
0.0
 40
0.0
 40
0.2349899832
 40
0.4894752595
 40
0.6202667695
 40
0.7503904793
 40
1.0
 40
1.0
 40
1.0
 40
1.0
 10
4.6744673853
 20
212.5594422815
 30
0.0
 10
5.2016273634
 20
212.7007504024
 30
0.0
 10
6.2407689918
 20
213.2316399798
 30
0.0
 10
7.2593954226
 20
214.2815215695
 30
0.0
 10
7.8890865894
 20
215.3043500692
 30
0.0
 10
8.3560039473
 20
216.397006306
 30
0.0
 10
8.5174427306
 20
217.2847538958
 30
0.0
 10
8.5174427303
 20
217.864478845
 30
0.0
  0
SPLINE
  5
2EA
100
AcDbEntity
  8
0
100
AcDbSpline
 62
7
  6
CONTINUOUS
 70
0
 71
3
 72
11
 73
7
 74
0
 42
0.0000001
 43
0.0000001
 44
0.0000000001
 40
0.0
 40
0.0
 40
0.0
 40
0.0
 40
0.2717668071
 40
0.5268680781
 40
0.7676307415
 40
1.0
 40
1.0
 40
1.0
 40
1.0
 10
8.5174427303
 20
217.864478845
 30
0.0
 10
8.5174427302
 20
218.1823651779
 30
0.0
 10
8.4556279933
 20
218.8012635016
 30
0.0
 10
8.1596403853
 20
219.6585928618
 30
0.0
 10
7.6745238066
 20
220.3718907965
 30
0.0
 10
7.2355450184
 20
220.7250467981
 30
0.0
 10
7.0001614289
 20
220.8609562994
 30
0.0
  0
SPLINE
  5
2EB
100
AcDbEntity
  8
0
100
AcDbSpline
 62
7
  6
CONTINUOUS
 70
0
 71
3
 72
15
 73
11
 74
0
 42
0.0000001
 43
0.0000001
 44
0.0000000001
 40
0.0
 40
0.0
 40
0.0
 40
0.0
 40
0.0524625372
 40
0.1056460033
 40
0.2162145948
 40
0.335328669
 40
0.4632706134
 40
0.5978575783
 40
0.7353249013
 40
1.0
 40
1.0
 40
1.0
 40
1.0
 10
12.6429476535
 20
224.4056249543
 30
0.0
 10
12.8554516052
 20
224.2829018051
 30
0.0
 10
13.307231486
 20
224.0746352735
 30
0.0
 10
14.2913735805
 20
223.8222549011
 30
0.0
 10
15.6407754332
 20
223.8408003364
 30
0.0
 10
17.24938924
 20
224.3715880539
 30
0.0
 10
18.7609997718
 20
225.3528839103
 30
0.0
 10
20.071049841
 20
226.7115398068
 30
0.0
 10
21.4046005798
 20
228.8498390833
 30
0.0
 10
21.894889654
 20
230.7518188061
 30
0.0
 10
21.894889654
 20
231.9898460618
 30
0.0
  0
SPLINE
  5
2EC
100
AcDbEntity
  8
0
100
AcDbSpline
 62
7
  6
CONTINUOUS
 70
0
 71
3
 72
11
 73
7
 74
0
 42
0.0000001
 43
0.0000001
 44
0.0000000001
 40
0.0
 40
0.0
 40
0.0
 40
0.0
 40
0.271774877
 40
0.5268700653
 40
0.7676346301
 40
1.0
 40
1.0
 40
1.0
 40
1.0
 10
1.2337319183
 20
226.4515094523
 30
0.0
 10
1.2337319183
 20
226.9282976653
 30
0.0
 10
1.1410320125
 20
227.8565464226
 30
0.0
 10
0.6970501355
 20
229.1423743042
 30
0.0
 10
-0.0305139122
 20
230.2122079376
 30
0.0
 10
-0.6889397396
 20
230.7418202212
 30
0.0
 10
-1.0419507127
 20
230.945687575
 30
0.0
  0
SPLINE
  5
2ED
100
AcDbEntity
  8
0
100
AcDbSpline
 62
7
  6
CONTINUOUS
 70
0
 71
3
 72
14
 73
10
 74
0
 42
0.0000001
 43
0.0000001
 44
0.0000000001
 40
0.0
 40
0.0
 40
0.0
 40
0.0
 40
0.2562060773
 40
0.3897701936
 40
0.5226491793
 40
0.6519161974
 40
0.7752021917
 40
0.8911819368
 40
1.0
 40
1.0
 40
1.0
 40
1.0
 10
8.4677253193
 20
242.5008906817
 30
0.0
 10
8.4677253193
 20
241.460845315
 30
0.0
 10
8.121186656
 20
239.8649473477
 30
0.0
 10
7.1474164887
 20
237.973574449
 30
0.0
 10
6.1683604211
 20
236.6880178057
 30
0.0
 10
5.0036082817
 20
235.6299043653
 30
0.0
 10
3.7116784962
 20
234.8540325068
 30
0.0
 10
2.359374765
 20
234.4040917318
 30
0.0
 10
1.4358863974
 20
234.3404501391
 30
0.0
 10
0.9954578474
 20
234.3744256181
 30
0.0
  0
SPLINE
  5
2EE
100
AcDbEntity
  8
0
100
AcDbSpline
 62
7
  6
CONTINUOUS
 70
0
 71
3
 72
11
 73
7
 74
0
 42
0.0000001
 43
0.0000001
 44
0.0000000001
 40
0.0
 40
0.0
 40
0.0
 40
0.0
 40
0.2717571886
 40
0.5268814665
 40
0.7676360547
 40
1.0
 40
1.0
 40
1.0
 40
1.0
 10
5.7204420329
 20
241.7644663343
 30
0.0
 10
5.7204420329
 20
242.0139803323
 30
0.0
 10
5.6719005994
 20
242.4997893112
 30
0.0
 10
5.4395977259
 20
243.1727581116
 30
0.0
 10
5.0587722938
 20
243.732660604
 30
0.0
 10
4.7141824648
 20
244.0098024455
 30
0.0
 10
4.5294513718
 20
244.1165289325
 30
0.0
  0
SPLINE
  5
2EF
100
AcDbEntity
  8
0
100
AcDbSpline
 62
7
  6
CONTINUOUS
 70
0
 71
3
 72
9
 73
5
 74
0
 42
0.0000001
 43
0.0000001
 44
0.0000000001
 40
0.0
 40
0.0
 40
0.0
 40
0.0
 40
0.480151452
 40
1.0
 40
1.0
 40
1.0
 40
1.0
 10
17.8569167093
 20
237.0376408892
 30
0.0
 10
18.1714697878
 20
236.587317221
 30
0.0
 10
18.6561154082
 20
235.5244946224
 30
0.0
 10
18.7983041871
 20
234.3730948429
 30
0.0
 10
18.7983041871
 20
233.7783763186
 30
0.0
  0
SPLINE
  5
2F0
100
AcDbEntity
  8
0
100
AcDbSpline
 62
7
  6
CONTINUOUS
 70
0
 71
3
 72
14
 73
10
 74
0
 42
0.0000001
 43
0.0000001
 44
0.0000000001
 40
0.0
 40
0.0
 40
0.0
 40
0.0
 40
0.1052606218
 40
0.2158761856
 40
0.3350397663
 40
0.4630361708
 40
0.5976782969
 40
0.7352099851
 40
1.0
 40
1.0
 40
1.0
 40
1.0
 10
0.8783746353
 20
237.7952094462
 30
0.0
 10
1.1013984972
 20
237.6663597063
 30
0.0
 10
1.6129071082
 20
237.4870503327
 30
0.0
 10
2.4467602857
 20
237.4999375764
 30
0.0
 10
3.289310664
 20
237.7772940929
 30
0.0
 10
4.0802056944
 20
238.2909901251
 30
0.0
 10
4.7658955767
 20
239.0020102343
 30
0.0
 10
5.4638268507
 20
240.1211087629
 30
0.0
 10
5.7204420329
 20
241.1165340491
 30
0.0
 10
5.7204420329
 20
241.7644663343
 30
0.0
  0
SPLINE
  5
2F1
100
AcDbEntity
  8
0
100
AcDbSpline
 62
7
  6
CONTINUOUS
 70
0
 71
3
 72
14
 73
10
 74
0
 42
0.0000001
 43
0.0000001
 44
0.0000000001
 40
0.0
 40
0.0
 40
0.0
 40
0.0
 40
0.2346073929
 40
0.3603379301
 40
0.4894684284
 40
0.6200482101
 40
0.7499714674
 40
0.8772023527
 40
1.0
 40
1.0
 40
1.0
 40
1.0
 10
5.8004984704
 20
210.0703984175
 30
0.0
 10
6.5543762073
 20
210.2724794781
 30
0.0
 10
7.6531039813
 20
210.8340751599
 30
0.0
 10
8.8847095065
 20
211.9038508557
 30
0.0
 10
9.7158813863
 20
212.8877993098
 30
0.0
 10
10.3977123104
 20
213.9955527006
 30
0.0
 10
10.9060629775
 20
215.1864780329
 30
0.0
 10
11.2214061168
 20
216.4155074879
 30
0.0
 10
11.2963664277
 20
217.2486476434
 30
0.0
 10
11.296366428
 20
217.6571711349
 30
0.0
  0
SPLINE
  5
2F2
100
AcDbEntity
  8
0
100
AcDbSpline
 62
7
  6
CONTINUOUS
 70
0
 71
3
 72
14
 73
10
 74
0
 42
0.0000001
 43
0.0000001
 44
0.0000000001
 40
0.0
 40
0.0
 40
0.0
 40
0.0
 40
0.2562060773
 40
0.3897701936
 40
0.5226491793
 40
0.6519161974
 40
0.7752021917
 40
0.8911819368
 40
1.0
 40
1.0
 40
1.0
 40
1.0
 10
18.7983041871
 20
233.7783763186
 30
0.0
 10
18.7983041871
 20
232.7383309519
 30
0.0
 10
18.4517655238
 20
231.1424329846
 30
0.0
 10
17.4779953566
 20
229.2510600859
 30
0.0
 10
16.498939289
 20
227.9655034426
 30
0.0
 10
15.3341871495
 20
226.9073900022
 30
0.0
 10
14.0422573641
 20
226.1315181437
 30
0.0
 10
12.6899536329
 20
225.6815773687
 30
0.0
 10
11.7664652653
 20
225.617935776
 30
0.0
 10
11.3260367153
 20
225.651911255
 30
0.0
  0
SPLINE
  5
2F3
100
AcDbEntity
  8
0
100
AcDbSpline
 62
7
  6
CONTINUOUS
 70
0
 71
3
 72
11
 73
7
 74
0
 42
0.0000001
 43
0.0000001
 44
0.0000000001
 40
0.0
 40
0.0
 40
0.0
 40
0.0
 40
0.2717571886
 40
0.5268814665
 40
0.7676360547
 40
1.0
 40
1.0
 40
1.0
 40
1.0
 10
16.0510209008
 20
233.0419519712
 30
0.0
 10
16.0510209008
 20
233.2914659691
 30
0.0
 10
16.0024794673
 20
233.7772749481
 30
0.0
 10
15.7701765937
 20
234.4502437485
 30
0.0
 10
15.3893511616
 20
235.0101462409
 30
0.0
 10
15.0447613326
 20
235.2872880824
 30
0.0
 10
14.8600302396
 20
235.3940145694
 30
0.0
  0
SPLINE
  5
2F4
100
AcDbEntity
  8
0
100
AcDbSpline
 62
7
  6
CONTINUOUS
 70
0
 71
3
 72
14
 73
10
 74
0
 42
0.0000001
 43
0.0000001
 44
0.0000000001
 40
0.0
 40
0.0
 40
0.0
 40
0.0
 40
0.2562060773
 40
0.3897701936
 40
0.5226491793
 40
0.6519161974
 40
0.7752021917
 40
0.8911819368
 40
1.0
 40
1.0
 40
1.0
 40
1.0
 10
-1.8628535485
 20
228.2400397091
 30
0.0
 10
-1.8628535485
 20
227.1999943423
 30
0.0
 10
-2.2093922118
 20
225.604096375
 30
0.0
 10
-3.1831623791
 20
223.7127234763
 30
0.0
 10
-4.1622184467
 20
222.427166833
 30
0.0
 10
-5.3269705862
 20
221.3690533927
 30
0.0
 10
-6.6189003716
 20
220.5931815342
 30
0.0
 10
-7.9712041028
 20
220.1432407591
 30
0.0
 10
-8.8946924704
 20
220.0795991664
 30
0.0
 10
-9.3351210204
 20
220.1135746455
 30
0.0
  0
SPLINE
  5
2F5
100
AcDbEntity
  8
0
100
AcDbSpline
 62
7
  6
CONTINUOUS
 70
0
 71
3
 72
11
 73
7
 74
0
 42
0.0000001
 43
0.0000001
 44
0.0000000001
 40
0.0
 40
0.0
 40
0.0
 40
0.0
 40
0.2717571886
 40
0.5268814665
 40
0.7676360547
 40
1.0
 40
1.0
 40
1.0
 40
1.0
 10
-4.6101368349
 20
227.5036153617
 30
0.0
 10
-4.6101368349
 20
227.7531293596
 30
0.0
 10
-4.6586782684
 20
228.2389383385
 30
0.0
 10
-4.8909811419
 20
228.9119071389
 30
0.0
 10
-5.271806574
 20
229.4718096314
 30
0.0
 10
-5.616396403
 20
229.7489514728
 30
0.0
 10
-5.8011274961
 20
229.8556779598
 30
0.0
  0
SPLINE
  5
2F6
100
AcDbEntity
  8
0
100
AcDbSpline
 62
7
  6
CONTINUOUS
 70
0
 71
3
 72
15
 73
11
 74
0
 42
0.0000001
 43
0.0000001
 44
0.0000000001
 40
0.0
 40
0.0
 40
0.0
 40
0.0
 40
0.0524625372
 40
0.1056460033
 40
0.2162145948
 40
0.335328669
 40
0.4632706134
 40
0.5978575783
 40
0.7353249013
 40
1.0
 40
1.0
 40
1.0
 40
1.0
 10
2.3123687856
 20
233.1281393175
 30
0.0
 10
2.5248727374
 20
233.0054161683
 30
0.0
 10
2.9766526182
 20
232.7971496366
 30
0.0
 10
3.9607947127
 20
232.5447692642
 30
0.0
 10
5.3101965653
 20
232.5633146995
 30
0.0
 10
6.9188103721
 20
233.094102417
 30
0.0
 10
8.430420904
 20
234.0753982734
 30
0.0
 10
9.7404709732
 20
235.4340541699
 30
0.0
 10
11.074021712
 20
237.5723534464
 30
0.0
 10
11.5643107862
 20
239.4743331692
 30
0.0
 10
11.5643107862
 20
240.712360425
 30
0.0
  0
SPLINE
  5
2F7
100
AcDbEntity
  8
0
100
AcDbSpline
 62
7
  6
CONTINUOUS
 70
0
 71
3
 72
14
 73
10
 74
0
 42
0.0000001
 43
0.0000001
 44
0.0000000001
 40
0.0
 40
0.0
 40
0.0
 40
0.0
 40
0.2686164723
 40
0.3932530389
 40
0.5129262831
 40
0.6303784462
 40
0.7488454196
 40
0.8713344666
 40
1.0
 40
1.0
 40
1.0
 40
1.0
 10
11.296366428
 20
217.6571711349
 30
0.0
 10
11.2963664286
 20
218.4126289682
 30
0.0
 10
11.1078091344
 20
219.5414536082
 30
0.0
 10
10.4124564761
 20
220.8176991938
 30
0.0
 10
9.7195342588
 20
221.5776359984
 30
0.0
 10
8.8699107933
 20
222.1263264131
 30
0.0
 10
7.9001783157
 20
222.4398200774
 30
0.0
 10
6.8532692668
 20
222.5069949275
 30
0.0
 10
6.1500184835
 20
222.391239532
 30
0.0
 10
5.8004984704
 20
222.2975487761
 30
0.0
  0
SPLINE
  5
2F8
100
AcDbEntity
  8
0
100
AcDbSpline
 62
7
  6
CONTINUOUS
 70
0
 71
3
 72
20
 73
16
 74
0
 42
0.0000001
 43
0.0000001
 44
0.0000000001
 40
0.0
 40
0.0
 40
0.0
 40
0.0
 40
0.0524886434
 40
0.1058788304
 40
0.1609446359
 40
0.2182401375
 40
0.340076149
 40
0.4047856399
 40
0.4714397647
 40
0.6080573039
 40
0.7449175056
 40
0.8118575972
 40
0.8769396555
 40
0.9397340303
 40
1.0
 40
1.0
 40
1.0
 40
1.0
 10
-5.7029086535
 20
207.759144734
 30
0.0
 10
-6.4893266721
 20
208.2133936773
 30
0.0
 10
-7.9852457491
 20
209.296985044
 30
0.0
 10
-9.8766086976
 20
211.3643944833
 30
0.0
 10
-11.3808304023
 20
213.826271576
 30
0.0
 10
-12.8524127632
 20
217.6205572986
 30
0.0
 10
-13.3677389436
 20
221.8854526716
 30
0.0
 10
-13.0038422204
 20
226.2589259728
 30
0.0
 10
-12.0249850821
 20
230.8036754462
 30
0.0
 10
-9.7259994999
 20
236.2851527202
 30
0.0
 10
-6.2205437532
 20
241.0921062726
 30
0.0
 10
-2.8322011327
 20
244.2953795178
 30
0.0
 10
-0.0982834719
 20
246.2847621138
 30
0.0
 10
2.7794001283
 20
247.8283059464
 30
0.0
 10
4.793306739
 20
248.550315958
 30
0.0
 10
5.8004984704
 20
248.8202992237
 30
0.0
  0
SPLINE
  5
2F9
100
AcDbEntity
  8
0
100
AcDbSpline
 62
7
  6
CONTINUOUS
 70
0
 71
3
 72
9
 73
5
 74
0
 42
0.0000001
 43
0.0000001
 44
0.0000000001
 40
0.0
 40
0.0
 40
0.0
 40
0.0
 40
0.480151452
 40
1.0
 40
1.0
 40
1.0
 40
1.0
 10
7.5263378414
 20
245.7601552523
 30
0.0
 10
7.84089092
 20
245.3098315841
 30
0.0
 10
8.3255365404
 20
244.2470089856
 30
0.0
 10
8.4677253193
 20
243.095609206
 30
0.0
 10
8.4677253193
 20
242.5008906817
 30
0.0
  0
SPLINE
  5
2FA
100
AcDbEntity
  8
0
100
AcDbSpline
 62
7
  6
CONTINUOUS
 70
0
 71
3
 72
10
 73
6
 74
0
 42
0.0000001
 43
0.0000001
 44
0.0000000001
 40
0.0
 40
0.0
 40
0.0
 40
0.0
 40
0.2403281525
 40
0.4850960851
 40
1.0
 40
1.0
 40
1.0
 40
1.0
 10
2.3487733541
 20
212.8077401718
 30
0.0
 10
2.5147196134
 20
212.711923495
 30
0.0
 10
2.871852995
 20
212.5542266345
 30
0.0
 10
3.6567574439
 20
212.3907966542
 30
0.0
 10
4.2779162623
 20
212.4531445799
 30
0.0
 10
4.6744673853
 20
212.5594422815
 30
0.0
  0
SPLINE
  5
2FB
100
AcDbEntity
  8
0
100
AcDbSpline
 62
7
  6
CONTINUOUS
 70
0
 71
3
 72
14
 73
10
 74
0
 42
0.0000001
 43
0.0000001
 44
0.0000000001
 40
0.0
 40
0.0
 40
0.0
 40
0.0
 40
0.1052606218
 40
0.2158761856
 40
0.3350397663
 40
0.4630361708
 40
0.5976782969
 40
0.7352099851
 40
1.0
 40
1.0
 40
1.0
 40
1.0
 10
-9.4522042326
 20
223.5343584735
 30
0.0
 10
-9.2291803706
 20
223.4055087336
 30
0.0
 10
-8.7176717596
 20
223.22619936
 30
0.0
 10
-7.8838185821
 20
223.2390866037
 30
0.0
 10
-7.0412682039
 20
223.5164431203
 30
0.0
 10
-6.2503731734
 20
224.0301391524
 30
0.0
 10
-5.5646832912
 20
224.7411592616
 30
0.0
 10
-4.8667520172
 20
225.8602577902
 30
0.0
 10
-4.6101368349
 20
226.8556830764
 30
0.0
 10
-4.6101368349
 20
227.5036153617
 30
0.0
  0
SPLINE
  5
2FC
100
AcDbEntity
  8
0
100
AcDbSpline
 62
7
  6
CONTINUOUS
 70
0
 71
3
 72
10
 73
6
 74
0
 42
0.0000001
 43
0.0000001
 44
0.0000000001
 40
0.0
 40
0.0
 40
0.0
 40
0.0
 40
0.4439738948
 40
0.7068752862
 40
1.0
 40
1.0
 40
1.0
 40
1.0
 10
-26.2218022148
 20
264.815110285
 30
0.0
 10
-25.7114083008
 20
263.5812924963
 30
0.0
 10
-24.3904025768
 20
261.8273702007
 30
0.0
 10
-22.1043277649
 20
259.8762659965
 30
0.0
 10
-20.7051502842
 20
258.949537184
 30
0.0
 10
-19.9477779675
 20
258.4984064807
 30
0.0
  0
SPLINE
  5
2FD
100
AcDbEntity
  8
0
100
AcDbSpline
 62
7
  6
CONTINUOUS
 70
0
 71
3
 72
11
 73
7
 74
0
 42
0.0000001
 43
0.0000001
 44
0.0000000001
 40
0.0
 40
0.0
 40
0.0
 40
0.0
 40
0.2250486901
 40
0.4400320019
 40
0.6936817623
 40
1.0
 40
1.0
 40
1.0
 40
1.0
 10
-19.9857196421
 20
258.4530954076
 30
0.0
 10
-20.0140889462
 20
258.4192144976
 30
0.0
 10
-20.0530422342
 20
258.3334035754
 30
0.0
 10
-20.0139785356
 20
258.1952099741
 30
0.0
 10
-19.9154432114
 20
258.0766473817
 30
0.0
 10
-19.8268013921
 20
258.0102627631
 30
0.0
 10
-19.776049149
 20
257.9779837286
 30
0.0
  0
SPLINE
  5
2FE
100
AcDbEntity
  8
0
100
AcDbSpline
 62
7
  6
CONTINUOUS
 70
0
 71
3
 72
10
 73
6
 74
0
 42
0.0000001
 43
0.0000001
 44
0.0000000001
 40
0.0
 40
0.0
 40
0.0
 40
0.0
 40
0.2197222758
 40
0.4605270932
 40
1.0
 40
1.0
 40
1.0
 40
1.0
 10
-19.776049149
 20
257.9779837286
 30
0.0
 10
-18.9760591477
 20
257.4692086963
 30
0.0
 10
-17.2394194706
 20
256.495607248
 30
0.0
 10
-13.3032882188
 20
254.7194406114
 30
0.0
 10
-10.0857385874
 20
253.6850463025
 30
0.0
 10
-7.83617229
 20
253.0868340717
 30
0.0
  0
SPLINE
  5
2FF
100
AcDbEntity
  8
0
100
AcDbSpline
 62
7
  6
CONTINUOUS
 70
0
 71
3
 72
10
 73
6
 74
0
 42
0.0000001
 43
0.0000001
 44
0.0000000001
 40
0.0
 40
0.0
 40
0.0
 40
0.0
 40
0.1759912128
 40
0.4056695171
 40
1.0
 40
1.0
 40
1.0
 40
1.0
 10
-7.8271576528
 20
253.0392589553
 30
0.0
 10
-7.8184660733
 20
252.9933966319
 30
0.0
 10
-7.7510705131
 20
252.900219842
 30
0.0
 10
-7.5325317912
 20
252.7504950849
 30
0.0
 10
-7.3230340805
 20
252.674856087
 30
0.0
 10
-7.1713681869
 20
252.6318845517
 30
0.0
  0
SPLINE
  5
300
100
AcDbEntity
  8
0
100
AcDbSpline
 62
7
  6
CONTINUOUS
 70
0
 71
3
 72
9
 73
5
 74
0
 42
0.0000001
 43
0.0000001
 44
0.0000000001
 40
0.0
 40
0.0
 40
0.0
 40
0.0
 40
0.48098968
 40
1.0
 40
1.0
 40
1.0
 40
1.0
 10
-7.1713681869
 20
252.6318845517
 30
0.0
 10
-4.6971509914
 20
251.9309006276
 30
0.0
 10
0.536436141
 20
250.783451198
 30
0.0
 10
5.8506773306
 20
250.1333755711
 30
0.0
 10
8.6166232678
 20
249.9109222388
 30
0.0
  0
SPLINE
  5
301
100
AcDbEntity
  8
0
100
AcDbSpline
 62
7
  6
CONTINUOUS
 70
0
 71
3
 72
10
 73
6
 74
0
 42
0.0000001
 43
0.0000001
 44
0.0000000001
 40
0.0
 40
0.0
 40
0.0
 40
0.0
 40
0.1991914249
 40
0.4418509027
 40
1.0
 40
1.0
 40
1.0
 40
1.0
 10
8.6712218196
 20
249.8683259595
 30
0.0
 10
8.7261292265
 20
249.825490071
 30
0.0
 10
8.8667380113
 20
249.7561167154
 30
0.0
 10
9.2001401923
 20
249.6512098498
 30
0.0
 10
9.4789887268
 20
249.6087195255
 30
0.0
 10
9.6732922576
 20
249.5907078913
 30
0.0
  0
SPLINE
  5
302
100
AcDbEntity
  8
0
100
AcDbSpline
 62
7
  6
CONTINUOUS
 70
0
 71
3
 72
10
 73
6
 74
0
 42
0.0000001
 43
0.0000001
 44
0.0000000001
 40
0.0
 40
0.0
 40
0.0
 40
0.0
 40
0.2280012205
 40
0.4792188479
 40
1.0
 40
1.0
 40
1.0
 40
1.0
 10
26.9976901309
 20
249.4230421701
 30
0.0
 10
27.0844969275
 20
249.3936262969
 30
0.0
 10
27.2732995172
 20
249.3509053469
 30
0.0
 10
27.672752963
 20
249.3040660619
 30
0.0
 10
27.9845617003
 20
249.3040666838
 30
0.0
 10
28.1934853276
 20
249.3174453257
 30
0.0
  0
SPLINE
  5
303
100
AcDbEntity
  8
0
100
AcDbSpline
 62
7
  6
CONTINUOUS
 70
0
 71
3
 72
9
 73
5
 74
0
 42
0.0000001
 43
0.0000001
 44
0.0000000001
 40
0.0
 40
0.0
 40
0.0
 40
0.0
 40
0.5170648722
 40
1.0
 40
1.0
 40
1.0
 40
1.0
 10
28.1934853276
 20
249.3174453257
 30
0.0
 10
30.990281218
 20
249.4965690652
 30
0.0
 10
36.3876744466
 20
250.0659170452
 30
0.0
 10
41.7136905918
 20
251.1276478685
 30
0.0
 10
44.2470527191
 20
251.7861273245
 30
0.0
  0
SPLINE
  5
304
100
AcDbEntity
  8
0
100
AcDbSpline
 62
7
  6
CONTINUOUS
 70
0
 71
3
 72
9
 73
5
 74
0
 42
0.0000001
 43
0.0000001
 44
0.0000000001
 40
0.0
 40
0.0
 40
0.0
 40
0.0
 40
0.513956832
 40
1.0
 40
1.0
 40
1.0
 40
1.0
 10
44.3622085894
 20
251.7711981386
 30
0.0
 10
44.5685841857
 20
251.7444440864
 30
0.0
 10
44.9767681203
 20
251.7463712528
 30
0.0
 10
45.3784632874
 20
251.8071509954
 30
0.0
 10
45.5696795158
 20
251.8536986033
 30
0.0
  0
SPLINE
  5
305
100
AcDbEntity
  8
0
100
AcDbSpline
 62
7
  6
CONTINUOUS
 70
0
 71
3
 72
9
 73
5
 74
0
 42
0.0000001
 43
0.0000001
 44
0.0000000001
 40
0.0
 40
0.0
 40
0.0
 40
0.0
 40
0.5257905035
 40
1.0
 40
1.0
 40
1.0
 40
1.0
 10
45.5696795158
 20
251.8536986033
 30
0.0
 10
47.3313666182
 20
252.2825683963
 30
0.0
 10
50.6524674698
 20
253.2271291225
 30
0.0
 10
53.871977816
 20
254.4846296993
 30
0.0
 10
55.3540972728
 20
255.1755836969
 30
0.0
  0
SPLINE
  5
306
100
AcDbEntity
  8
0
100
AcDbSpline
 62
7
  6
CONTINUOUS
 70
0
 71
3
 72
9
 73
5
 74
0
 42
0.0000001
 43
0.0000001
 44
0.0000000001
 40
0.0
 40
0.0
 40
0.0
 40
0.0
 40
0.2560399118
 40
1.0
 40
1.0
 40
1.0
 40
1.0
 10
56.2895606474
 20
255.6279664649
 30
0.0
 10
56.4378822018
 20
255.7023904212
 30
0.0
 10
57.0150577553
 20
255.9972467874
 30
0.0
 10
57.5835760572
 20
256.3091529908
 30
0.0
 10
58.0002767174
 20
256.551761267
 30
0.0
  0
SPLINE
  5
307
100
AcDbEntity
  8
0
100
AcDbSpline
 62
7
  6
CONTINUOUS
 70
0
 71
3
 72
9
 73
5
 74
0
 42
0.0000001
 43
0.0000001
 44
0.0000000001
 40
0.0
 40
0.0
 40
0.0
 40
0.0
 40
0.5513724947
 40
1.0
 40
1.0
 40
1.0
 40
1.0
 10
58.1211863501
 20
256.5553083162
 30
0.0
 10
58.3184013888
 20
256.561094878
 30
0.0
 10
58.6751970151
 20
256.6144584833
 30
0.0
 10
59.015633053
 20
256.7363666778
 30
0.0
 10
59.1565067713
 20
256.8133461538
 30
0.0
  0
SPLINE
  5
308
100
AcDbEntity
  8
0
100
AcDbSpline
 62
7
  6
CONTINUOUS
 70
0
 71
3
 72
10
 73
6
 74
0
 42
0.0000001
 43
0.0000001
 44
0.0000000001
 40
0.0
 40
0.0
 40
0.0
 40
0.0
 40
0.2925933893
 40
0.5558496721
 40
1.0
 40
1.0
 40
1.0
 40
1.0
 10
59.1565067713
 20
256.8133461538
 30
0.0
 10
59.9610667898
 20
257.2530154362
 30
0.0
 10
61.4556931959
 20
258.1580125777
 30
0.0
 10
63.9353713117
 20
260.070250452
 30
0.0
 10
65.4301110376
 20
261.7904823012
 30
0.0
 10
66.0716880448
 20
263.0255520306
 30
0.0
  0
SPLINE
  5
309
100
AcDbEntity
  8
0
100
AcDbSpline
 62
7
  6
CONTINUOUS
 70
0
 71
3
 72
9
 73
5
 74
0
 42
0.0000001
 43
0.0000001
 44
0.0000000001
 40
0.0
 40
0.0
 40
0.0
 40
0.0
 40
0.5920226049
 40
1.0
 40
1.0
 40
1.0
 40
1.0
 10
66.1799443987
 20
263.0470353201
 30
0.0
 10
66.3393481252
 20
263.0786697319
 30
0.0
 10
66.6029279788
 20
263.1658059329
 30
0.0
 10
66.8279661649
 20
263.3452412456
 30
0.0
 10
66.88549581
 20
263.441326597
 30
0.0
  0
SPLINE
  5
30A
100
AcDbEntity
  8
0
100
AcDbSpline
 62
7
  6
CONTINUOUS
 70
0
 71
3
 72
9
 73
5
 74
0
 42
0.0000001
 43
0.0000001
 44
0.0000000001
 40
0.0
 40
0.0
 40
0.0
 40
0.0
 40
0.5165517261
 40
1.0
 40
1.0
 40
1.0
 40
1.0
 10
66.88549581
 20
263.441326597
 30
0.0
 10
67.2307112151
 20
264.0179654417
 30
0.0
 10
67.7813727451
 20
265.2138265586
 30
0.0
 10
67.9806796012
 20
266.5210083211
 30
0.0
 10
67.9806748159
 20
267.1500139439
 30
0.0
  0
SPLINE
  5
30B
100
AcDbEntity
  8
0
100
AcDbSpline
 62
7
  6
CONTINUOUS
 70
0
 71
3
 72
9
 73
5
 74
0
 42
0.0000001
 43
0.0000001
 44
0.0000000001
 40
0.0
 40
0.0
 40
0.0
 40
0.0
 40
0.4843128838
 40
1.0
 40
1.0
 40
1.0
 40
1.0
 10
-11.3210661983
 20
284.7700898989
 30
0.0
 10
-11.3215266305
 20
284.4134185955
 30
0.0
 10
-11.2316017038
 20
283.6742551957
 30
0.0
 10
-10.9706651259
 20
282.978422313
 30
0.0
 10
-10.8035943031
 20
282.6373680707
 30
0.0
  0
SPLINE
  5
30C
100
AcDbEntity
  8
0
100
AcDbSpline
 62
7
  6
CONTINUOUS
 70
0
 71
3
 72
9
 73
5
 74
0
 42
0.0000001
 43
0.0000001
 44
0.0000000001
 40
0.0
 40
0.0
 40
0.0
 40
0.0
 40
0.2377626778
 40
1.0
 40
1.0
 40
1.0
 40
1.0
 10
-10.8035943031
 20
282.6373680707
 30
0.0
 10
-10.7531071483
 20
282.5343048426
 30
0.0
 10
-10.5281360709
 20
282.1070472343
 30
0.0
 10
-10.2554786626
 20
281.7056446006
 30
0.0
 10
-10.0292816137
 20
281.4154698332
 30
0.0
  0
SPLINE
  5
30D
100
AcDbEntity
  8
0
100
AcDbSpline
 62
7
  6
CONTINUOUS
 70
0
 71
3
 72
23
 73
19
 74
0
 42
0.0000001
 43
0.0000001
 44
0.0000000001
 40
0.0
 40
0.0
 40
0.0
 40
0.0
 40
0.0429297011
 40
0.094234834
 40
0.1534615379
 40
0.2196580293
 40
0.2915440734
 40
0.3676104837
 40
0.4461941428
 40
0.5255437244
 40
0.6038815774
 40
0.6794648282
 40
0.7506477535
 40
0.815948123
 40
0.8741244525
 40
0.9242802085
 40
0.9660589043
 40
1.0
 40
1.0
 40
1.0
 40
1.0
 10
-9.3438379102
 20
280.6336710407
 30
0.0
 10
-8.6842557367
 20
279.9580680112
 30
0.0
 10
-7.0425215296
 20
278.6645369718
 30
0.0
 10
-4.0736506133
 20
277.0398728901
 30
0.0
 10
-0.4513325911
 20
275.6073049842
 30
0.0
 10
3.7264900697
 20
274.4133962499
 30
0.0
 10
8.3502756292
 20
273.492754881
 30
0.0
 10
13.2977481865
 20
272.8721016694
 30
0.0
 10
18.4388986085
 20
272.568872383
 30
0.0
 10
23.6387916125
 20
272.5915569361
 30
0.0
 10
28.7610634226
 20
272.9395181151
 30
0.0
 10
33.6712858982
 20
273.6030309518
 30
0.0
 10
38.2402411367
 20
274.5633312414
 30
0.0
 10
42.3475076363
 20
275.7927590346
 30
0.0
 10
45.8839272058
 20
277.2544280841
 30
0.0
 10
48.7586478218
 20
278.9041874072
 30
0.0
 10
50.8976688488
 20
280.6868813951
 30
0.0
 10
51.8942253814
 20
282.0592354869
 30
0.0
 10
52.2092586685
 20
282.7359968194
 30
0.0
  0
SPLINE
  5
30E
100
AcDbEntity
  8
0
100
AcDbSpline
 62
7
  6
CONTINUOUS
 70
0
 71
3
 72
9
 73
5
 74
0
 42
0.0000001
 43
0.0000001
 44
0.0000000001
 40
0.0
 40
0.0
 40
0.0
 40
0.0
 40
0.5111884355
 40
1.0
 40
1.0
 40
1.0
 40
1.0
 10
52.3356962654
 20
283.0291474156
 30
0.0
 10
52.4495838262
 20
283.315874636
 30
0.0
 10
52.6243040025
 20
283.8977219796
 30
0.0
 10
52.6812201664
 20
284.5032144175
 30
0.0
 10
52.6787197699
 20
284.7982159435
 30
0.0
  0
SPLINE
  5
30F
100
AcDbEntity
  8
0
100
AcDbSpline
 62
7
  6
CONTINUOUS
 70
0
 71
3
 72
9
 73
5
 74
0
 42
0.0000001
 43
0.0000001
 44
0.0000000001
 40
0.0
 40
0.0
 40
0.0
 40
0.0
 40
0.7419443209
 40
1.0
 40
1.0
 40
1.0
 40
1.0
 10
-26.2321005829
 20
265.0184075592
 30
0.0
 10
-26.2478063139
 20
264.9699425535
 30
0.0
 10
-26.2502696433
 20
264.8967296019
 30
0.0
 10
-26.2285747309
 20
264.8314846131
 30
0.0
 10
-26.2218022148
 20
264.815110285
 30
0.0
  0
SPLINE
  5
310
100
AcDbEntity
  8
0
100
AcDbSpline
 62
7
  6
CONTINUOUS
 70
0
 71
3
 72
9
 73
5
 74
0
 42
0.0000001
 43
0.0000001
 44
0.0000000001
 40
0.0
 40
0.0
 40
0.0
 40
0.0
 40
0.4900908018
 40
1.0
 40
1.0
 40
1.0
 40
1.0
 10
-26.6224989152
 20
268.393872471
 30
0.0
 10
-26.6225092167
 20
267.9179677815
 30
0.0
 10
-26.5114414328
 20
266.9440546693
 30
0.0
 10
-26.1935056762
 20
266.018572437
 30
0.0
 10
-25.9899618467
 20
265.5671935912
 30
0.0
  0
SPLINE
  5
311
100
AcDbEntity
  8
0
100
AcDbSpline
 62
7
  6
CONTINUOUS
 70
0
 71
3
 72
10
 73
6
 74
0
 42
0.0000001
 43
0.0000001
 44
0.0000000001
 40
0.0
 40
0.0
 40
0.0
 40
0.0
 40
0.2448563338
 40
0.4910397362
 40
1.0
 40
1.0
 40
1.0
 40
1.0
 10
64.4912669251
 20
283.4949821302
 30
0.0
 10
64.3371869697
 20
284.0834911151
 30
0.0
 10
63.9264668387
 20
285.2394548686
 30
0.0
 10
62.7360222397
 20
287.4282544135
 30
0.0
 10
61.5030006274
 20
288.8748408016
 30
0.0
 10
60.5902725113
 20
289.7500057475
 30
0.0
  0
SPLINE
  5
312
100
AcDbEntity
  8
0
100
AcDbSpline
 62
7
  6
CONTINUOUS
 70
0
 71
3
 72
23
 73
19
 74
0
 42
0.0000001
 43
0.0000001
 44
0.0000000001
 40
0.0
 40
0.0
 40
0.0
 40
0.0
 40
0.04913032
 40
0.1032722312
 40
0.162779688
 40
0.2273623832
 40
0.2962630124
 40
0.36841091
 40
0.4425334281
 40
0.5172463158
 40
0.5911333505
 40
0.6628232052
 40
0.7310702574
 40
0.7948476332
 40
0.853463919
 40
0.9067233146
 40
0.9551099115
 40
1.0
 40
1.0
 40
1.0
 40
1.0
 10
59.8886189832
 20
290.3903396349
 30
0.0
 10
58.8127397005
 20
291.3259695709
 30
0.0
 10
56.3470272517
 20
293.060640891
 30
0.0
 10
52.1216468794
 20
295.1968255153
 30
0.0
 10
47.2645822507
 20
297.0017499445
 30
0.0
 10
41.8532965454
 20
298.470276438
 30
0.0
 10
35.9855584065
 20
299.5857884836
 30
0.0
 10
29.7811565964
 20
300.3302474956
 30
0.0
 10
23.3739917625
 20
300.6896583483
 30
0.0
 10
16.9064728419
 20
300.6568334615
 30
0.0
 10
10.5234169958
 20
300.232446322
 30
0.0
 10
4.3662297981
 20
299.4249078765
 30
0.0
 10
-1.4331073602
 20
298.2492157094
 30
0.0
 10
-6.7580951291
 20
296.7233833068
 30
0.0
 10
-11.5140756396
 20
294.8639037642
 30
0.0
 10
-15.630295124
 20
292.6690096706
 30
0.0
 10
-19.0538172068
 20
290.1139216378
 30
0.0
 10
-20.8596000653
 20
288.0538272989
 30
0.0
 10
-21.5708056392
 20
286.9623405471
 30
0.0
  0
SPLINE
  5
313
100
AcDbEntity
  8
0
100
AcDbSpline
 62
7
  6
CONTINUOUS
 70
0
 71
3
 72
9
 73
5
 74
0
 42
0.0000001
 43
0.0000001
 44
0.0000000001
 40
0.0
 40
0.0
 40
0.0
 40
0.0
 40
0.2509992684
 40
1.0
 40
1.0
 40
1.0
 40
1.0
 10
-21.9985583612
 20
286.2594547783
 30
0.0
 10
-22.1244069277
 20
286.0371986109
 30
0.0
 10
-22.5993681859
 20
285.1371696481
 30
0.0
 10
-22.9591920455
 20
284.1750976537
 30
0.0
 10
-23.1481557989
 20
283.4367230158
 30
0.0
  0
SPLINE
  5
314
100
AcDbEntity
  8
0
100
AcDbSpline
 62
7
  6
CONTINUOUS
 70
0
 71
3
 72
10
 73
6
 74
0
 42
0.0000001
 43
0.0000001
 44
0.0000000001
 40
0.0
 40
0.0
 40
0.0
 40
0.0
 40
0.1563163392
 40
0.5408126636
 40
1.0
 40
1.0
 40
1.0
 40
1.0
 10
23.9587640591
 20
264.2473924297
 30
0.0
 10
23.9631217096
 20
264.2336599305
 30
0.0
 10
23.9736870743
 20
264.18488063
 30
0.0
 10
23.9957324491
 20
264.0952029884
 30
0.0
 10
23.9964558709
 20
264.0165119151
 30
0.0
 10
23.9929907361
 20
263.9743317819
 30
0.0
  0
SPLINE
  5
315
100
AcDbEntity
  8
0
100
AcDbSpline
 62
7
  6
CONTINUOUS
 70
0
 71
3
 72
8
 73
4
 74
0
 42
0.0000001
 43
0.0000001
 44
0.0000000001
 40
0.0
 40
0.0
 40
0.0
 40
0.0
 40
1.0
 40
1.0
 40
1.0
 40
1.0
 10
23.9586695524
 20
264.2483473779
 30
0.0
 10
24.0255935646
 20
264.2507276309
 30
0.0
 10
24.0925427707
 20
264.2523380566
 30
0.0
 10
24.1594770072
 20
264.2544109751
 30
0.0
  0
SPLINE
  5
316
100
AcDbEntity
  8
0
100
AcDbSpline
 62
7
  6
CONTINUOUS
 70
0
 71
3
 72
17
 73
13
 74
0
 42
0.0000001
 43
0.0000001
 44
0.0000000001
 40
0.0
 40
0.0
 40
0.0
 40
0.0
 40
0.2512085664
 40
0.376702056
 40
0.5021039555
 40
0.6273943343
 40
0.7525335739
 40
0.8150262073
 40
0.877433339
 40
0.9396712494
 40
0.9706441178
 40
1.0
 40
1.0
 40
1.0
 40
1.0
 10
24.159180521
 20
264.2545258357
 30
0.0
 10
24.3108437391
 20
264.2592223617
 30
0.0
 10
24.5383183385
 20
264.2649211624
 30
0.0
 10
24.8415856456
 20
264.2686709821
 30
0.0
 10
25.0688064022
 20
264.2688602725
 30
0.0
 10
25.2958463587
 20
264.2656251652
 30
0.0
 10
25.4846283448
 20
264.2585407537
 30
0.0
 10
25.6355884998
 20
264.2481075272
 30
0.0
 10
25.7472418441
 20
264.2367862965
 30
0.0
 10
25.8426732726
 20
264.2209208625
 30
0.0
 10
25.9091419816
 20
264.2025201622
 30
0.0
 10
25.9508650314
 20
264.1800792019
 30
0.0
 10
25.9511845213
 20
264.1623504328
 30
0.0
  0
SPLINE
  5
317
100
AcDbEntity
  8
0
100
AcDbSpline
 62
7
  6
CONTINUOUS
 70
0
 71
3
 72
9
 73
5
 74
0
 42
0.0000001
 43
0.0000001
 44
0.0000000001
 40
0.0
 40
0.0
 40
0.0
 40
0.0
 40
0.5113639295
 40
1.0
 40
1.0
 40
1.0
 40
1.0
 10
24.159180521
 20
264.2545258357
 30
0.0
 10
26.9679899388
 20
264.3420510219
 30
0.0
 10
32.4564442668
 20
264.7199865208
 30
0.0
 10
37.8987625339
 20
265.5362847292
 30
0.0
 10
40.5326615467
 20
266.0590345356
 30
0.0
  0
SPLINE
  5
318
100
AcDbEntity
  8
0
100
AcDbSpline
 62
7
  6
CONTINUOUS
 70
0
 71
3
 72
9
 73
5
 74
0
 42
0.0000001
 43
0.0000001
 44
0.0000000001
 40
0.0
 40
0.0
 40
0.0
 40
0.0
 40
0.5115815985
 40
1.0
 40
1.0
 40
1.0
 40
1.0
 10
25.987152051
 20
261.3641708611
 30
0.0
 10
28.3770621697
 20
262.4138852642
 30
0.0
 10
33.1466477679
 20
264.2512105361
 30
0.0
 10
38.088784329
 20
265.5735120706
 30
0.0
 10
40.5332188432
 20
266.058562926
 30
0.0
  0
SPLINE
  5
319
100
AcDbEntity
  8
0
100
AcDbSpline
 62
7
  6
CONTINUOUS
 70
0
 71
3
 72
17
 73
13
 74
0
 42
0.0000001
 43
0.0000001
 44
0.0000000001
 40
0.0
 40
0.0
 40
0.0
 40
0.0
 40
0.2415667952
 40
0.369759859
 40
0.4346343914
 40
0.4996627432
 40
0.5646022931
 40
0.629227407
 40
0.6932941128
 40
0.7566100471
 40
0.8805281878
 40
1.0
 40
1.0
 40
1.0
 40
1.0
 10
40.5332188432
 20
266.058562926
 30
0.0
 10
37.7204463089
 20
265.3619709656
 30
0.0
 10
33.4857898133
 20
263.9927410424
 30
0.0
 10
28.6767252617
 20
261.9750665665
 30
0.0
 10
25.8740733701
 20
260.6585936596
 30
0.0
 10
23.782233745
 20
259.6155635184
 30
0.0
 10
21.7209638549
 20
258.5194384328
 30
0.0
 10
19.7022867578
 20
257.3699810853
 30
0.0
 10
17.7265568926
 20
256.1858527879
 30
0.0
 10
15.1732213998
 20
254.5829345427
 30
0.0
 10
12.1329860649
 20
252.5084896328
 30
0.0
 10
9.7949929897
 20
250.7577241101
 30
0.0
 10
8.6712220932
 20
249.8683266439
 30
0.0
  0
SPLINE
  5
31A
100
AcDbEntity
  8
0
100
AcDbSpline
 62
7
  6
CONTINUOUS
 70
0
 71
3
 72
9
 73
5
 74
0
 42
0.0000001
 43
0.0000001
 44
0.0000000001
 40
0.0
 40
0.0
 40
0.0
 40
0.0
 40
0.4887396649
 40
1.0
 40
1.0
 40
1.0
 40
1.0
 10
8.6166223694
 20
249.9109225467
 30
0.0
 10
11.2187393992
 20
252.0917689591
 30
0.0
 10
16.8025787475
 20
256.2504589519
 30
0.0
 10
22.815986898
 20
259.7649186967
 30
0.0
 10
25.987152051
 20
261.3641708611
 30
0.0
  0
SPLINE
  5
31B
100
AcDbEntity
  8
0
100
AcDbSpline
 62
7
  6
CONTINUOUS
 70
0
 71
3
 72
15
 73
11
 74
0
 42
0.0000001
 43
0.0000001
 44
0.0000000001
 40
0.0
 40
0.0
 40
0.0
 40
0.0
 40
0.1170235688
 40
0.2405552731
 40
0.3683051181
 40
0.4980280365
 40
0.6276376186
 40
0.7553539178
 40
0.8797940323
 40
1.0
 40
1.0
 40
1.0
 40
1.0
 10
40.6565576427
 20
265.7967208528
 30
0.0
 10
39.3310415432
 20
265.4415313441
 30
0.0
 10
36.6350628938
 20
264.6026230505
 30
0.0
 10
32.591116492
 20
263.0811724048
 30
0.0
 10
28.4957635809
 20
261.2890784156
 30
0.0
 10
24.4450762638
 20
259.2366152387
 30
0.0
 10
20.4850241178
 20
257.0163096352
 30
0.0
 10
16.6811752508
 20
254.6526596865
 30
0.0
 10
13.0829175916
 20
252.1759983122
 30
0.0
 10
10.7937766632
 20
250.4459936773
 30
0.0
 10
9.6733057601
 20
249.5907083623
 30
0.0
  0
SPLINE
  5
31C
100
AcDbEntity
  8
0
100
AcDbSpline
 62
7
  6
CONTINUOUS
 70
0
 71
3
 72
10
 73
6
 74
0
 42
0.0000001
 43
0.0000001
 44
0.0000000001
 40
0.0
 40
0.0
 40
0.0
 40
0.0
 40
0.2860665698
 40
0.5663279944
 40
1.0
 40
1.0
 40
1.0
 40
1.0
 10
40.65656389
 20
265.7967192281
 30
0.0
 10
40.6591850885
 20
265.8250870694
 30
0.0
 10
40.6549912498
 20
265.8832812766
 30
0.0
 10
40.6112847712
 20
265.9724164006
 30
0.0
 10
40.5705843977
 20
266.0363508113
 30
0.0
 10
40.5332319343
 20
266.0580309292
 30
0.0
  0
SPLINE
  5
31D
100
AcDbEntity
  8
0
100
AcDbSpline
 62
7
  6
CONTINUOUS
 70
0
 71
3
 72
8
 73
4
 74
0
 42
0.0000001
 43
0.0000001
 44
0.0000000001
 40
0.0
 40
0.0
 40
0.0
 40
0.0
 40
1.0
 40
1.0
 40
1.0
 40
1.0
 10
40.5326727788
 20
266.0589055126
 30
0.0
 10
40.5922310634
 20
266.0711430815
 30
0.0
 10
40.6519418967
 20
266.0826263853
 30
0.0
 10
40.7115572243
 20
266.0945829768
 30
0.0
  0
SPLINE
  5
31E
100
AcDbEntity
  8
0
100
AcDbSpline
 62
7
  6
CONTINUOUS
 70
0
 71
3
 72
17
 73
13
 74
0
 42
0.0000001
 43
0.0000001
 44
0.0000000001
 40
0.0
 40
0.0
 40
0.0
 40
0.0
 40
0.2539197593
 40
0.3802193835
 40
0.5060212262
 40
0.6312567804
 40
0.7557871686
 40
0.817713272
 40
0.8793128105
 40
0.94040194
 40
0.9706403269
 40
1.0
 40
1.0
 40
1.0
 40
1.0
 10
40.7119795445
 20
266.0947722003
 30
0.0
 10
40.8471375408
 20
266.121880547
 30
0.0
 10
41.0497700759
 20
266.1612719718
 30
0.0
 10
41.3201431182
 20
266.2099468012
 30
0.0
 10
41.5221869281
 20
266.243739869
 30
0.0
 10
41.723854268
 20
266.2740513486
 30
0.0
 10
41.8917142478
 20
266.2949255961
 30
0.0
 10
42.0260848487
 20
266.3067820972
 30
0.0
 10
42.1255605944
 20
266.3121472117
 30
0.0
 10
42.2107116191
 20
266.3099725997
 30
0.0
 10
42.2718316823
 20
266.3023829075
 30
0.0
 10
42.3096730529
 20
266.2839090624
 30
0.0
 10
42.3110706328
 20
266.2680314693
 30
0.0
  0
SPLINE
  5
31F
100
AcDbEntity
  8
0
100
AcDbSpline
 62
7
  6
CONTINUOUS
 70
0
 71
3
 72
9
 73
5
 74
0
 42
0.0000001
 43
0.0000001
 44
0.0000000001
 40
0.0
 40
0.0
 40
0.0
 40
0.0
 40
0.5293890373
 40
1.0
 40
1.0
 40
1.0
 40
1.0
 10
40.7119795445
 20
266.0947722003
 30
0.0
 10
43.1368918353
 20
266.5815063439
 30
0.0
 10
47.680617022
 20
267.7005901274
 30
0.0
 10
52.0817522102
 20
269.3126459783
 30
0.0
 10
54.0816183626
 20
270.2262592338
 30
0.0
  0
SPLINE
  5
320
100
AcDbEntity
  8
0
100
AcDbSpline
 62
7
  6
CONTINUOUS
 70
0
 71
3
 72
9
 73
5
 74
0
 42
0.0000001
 43
0.0000001
 44
0.0000000001
 40
0.0
 40
0.0
 40
0.0
 40
0.0
 40
0.5341284556
 40
1.0
 40
1.0
 40
1.0
 40
1.0
 10
42.5285102728
 20
263.4897050376
 30
0.0
 10
44.4959437627
 20
264.835006567
 30
0.0
 10
48.2518846321
 20
267.2498809087
 30
0.0
 10
52.1928443365
 20
269.3616233336
 30
0.0
 10
54.0836366787
 20
270.2255874376
 30
0.0
  0
SPLINE
  5
321
100
AcDbEntity
  8
0
100
AcDbSpline
 62
7
  6
CONTINUOUS
 70
0
 71
3
 72
9
 73
5
 74
0
 42
0.0000001
 43
0.0000001
 44
0.0000000001
 40
0.0
 40
0.0
 40
0.0
 40
0.0
 40
0.507943625
 40
1.0
 40
1.0
 40
1.0
 40
1.0
 10
26.9368711419
 20
249.4849961311
 30
0.0
 10
29.4564536355
 20
251.9854463223
 30
0.0
 10
34.5274088378
 20
256.7979078146
 30
0.0
 10
39.8395518312
 20
261.3463088579
 30
0.0
 10
42.5285102728
 20
263.4897050376
 30
0.0
  0
SPLINE
  5
322
100
AcDbEntity
  8
0
100
AcDbSpline
 62
7
  6
CONTINUOUS
 70
0
 71
3
 72
14
 73
10
 74
0
 42
0.0000001
 43
0.0000001
 44
0.0000000001
 40
0.0
 40
0.0
 40
0.0
 40
0.0
 40
0.0987946066
 40
0.2081400951
 40
0.3264907428
 40
0.4523862935
 40
0.5842739752
 40
0.7204579221
 40
1.0
 40
1.0
 40
1.0
 40
1.0
 10
54.2752822295
 20
269.9867245447
 30
0.0
 10
53.5627910307
 20
269.566440483
 30
0.0
 10
52.0848669978
 20
268.6417365775
 30
0.0
 10
49.8150222839
 20
267.1177785745
 30
0.0
 10
47.3979141293
 20
265.4075837611
 30
0.0
 10
44.8719842423
 20
263.5259466631
 30
0.0
 10
42.2766345548
 20
261.4894745128
 30
0.0
 10
38.7102842442
 20
258.6074935123
 30
0.0
 10
36.0538338378
 20
256.3568227281
 30
0.0
 10
34.2929224034
 20
254.8148398373
 30
0.0
  0
SPLINE
  5
323
100
AcDbEntity
  8
0
100
AcDbSpline
 62
7
  6
CONTINUOUS
 70
0
 71
3
 72
9
 73
5
 74
0
 42
0.0000001
 43
0.0000001
 44
0.0000000001
 40
0.0
 40
0.0
 40
0.0
 40
0.0
 40
0.501578094
 40
1.0
 40
1.0
 40
1.0
 40
1.0
 10
34.2929224034
 20
254.8148398373
 30
0.0
 10
33.260071508
 20
253.9104000237
 30
0.0
 10
31.2188027219
 20
252.0866754585
 30
0.0
 10
29.2032216079
 20
250.2348389457
 30
0.0
 10
28.1934986413
 20
249.3174478955
 30
0.0
  0
LINE
  5
324
100
AcDbEntity
  8
0
100
AcDbLine
 62
7
  6
CONTINUOUS
 10
33.4813797644
 20
255.2086687323
 11
33.7480546906
 21
255.4371977075
  0
SPLINE
  5
325
100
AcDbEntity
  8
0
100
AcDbSpline
 62
7
  6
CONTINUOUS
 70
0
 71
3
 72
13
 73
9
 74
0
 42
0.0000001
 43
0.0000001
 44
0.0000000001
 40
0.0
 40
0.0
 40
0.0
 40
0.0
 40
0.2792466744
 40
0.5471217637
 40
0.6731149824
 40
0.7916129922
 40
0.9011378767
 40
1.0
 40
1.0
 40
1.0
 40
1.0
 10
33.7480546906
 20
255.4371977075
 30
0.0
 10
35.5291293351
 20
256.9610272285
 30
0.0
 10
39.0656813612
 20
259.8923196491
 30
0.0
 10
43.5483923744
 20
263.3348724253
 30
0.0
 10
47.0548923126
 20
265.825860737
 30
0.0
 10
49.521668627
 20
267.4834496521
 30
0.0
 10
51.8454801805
 20
268.9435596424
 30
0.0
 10
53.3604007343
 20
269.8186796194
 30
0.0
 10
54.0836366787
 20
270.2255874376
 30
0.0
  0
SPLINE
  5
326
100
AcDbEntity
  8
0
100
AcDbSpline
 62
7
  6
CONTINUOUS
 70
0
 71
3
 72
9
 73
5
 74
0
 42
0.0000001
 43
0.0000001
 44
0.0000000001
 40
0.0
 40
0.0
 40
0.0
 40
0.0
 40
0.2226182235
 40
1.0
 40
1.0
 40
1.0
 40
1.0
 10
54.0836533305
 20
270.2251163582
 30
0.0
 10
54.1059571086
 20
270.2184395263
 30
0.0
 10
54.1995687322
 20
270.168143129
 30
0.0
 10
54.2587272049
 20
270.0663193311
 30
0.0
 10
54.2752881005
 20
269.9867242804
 30
0.0
  0
LINE
  5
327
100
AcDbEntity
  8
0
100
AcDbLine
 62
7
  6
CONTINUOUS
 10
54.0816423156
 20
270.2260986665
 11
54.212295705
 21
270.2860677774
  0
SPLINE
  5
328
100
AcDbEntity
  8
0
100
AcDbSpline
 62
7
  6
CONTINUOUS
 70
0
 71
3
 72
14
 73
10
 74
0
 42
0.0000001
 43
0.0000001
 44
0.0000000001
 40
0.0
 40
0.0
 40
0.0
 40
0.0
 40
0.2594722772
 40
0.5144494929
 40
0.6398845438
 40
0.7634887069
 40
0.8844000609
 40
0.9432054575
 40
1.0
 40
1.0
 40
1.0
 40
1.0
 10
54.2122780507
 20
270.2861639674
 30
0.0
 10
54.3105657023
 20
270.3314758782
 30
0.0
 10
54.5060427765
 20
270.4201730522
 30
0.0
 10
54.7510564703
 20
270.5254912159
 30
0.0
 10
54.9471862476
 20
270.6026666267
 30
0.0
 10
55.0907038232
 20
270.6551059733
 30
0.0
 10
55.2175532873
 20
270.689959677
 30
0.0
 10
55.3044936216
 20
270.7091471265
 30
0.0
 10
55.374206969
 20
270.700348572
 30
0.0
 10
55.3777321864
 20
270.6769225278
 30
0.0
  0
SPLINE
  5
329
100
AcDbEntity
  8
0
100
AcDbSpline
 62
7
  6
CONTINUOUS
 70
0
 71
3
 72
11
 73
7
 74
0
 42
0.0000001
 43
0.0000001
 44
0.0000000001
 40
0.0
 40
0.0
 40
0.0
 40
0.0
 40
0.2863118679
 40
0.5482581946
 40
0.7857929227
 40
1.0
 40
1.0
 40
1.0
 40
1.0
 10
54.2122780507
 20
270.2861639674
 30
0.0
 10
55.1004246418
 20
270.6956584782
 30
0.0
 10
56.7742203497
 20
271.5408226869
 30
0.0
 10
59.0589689005
 20
272.9574430584
 30
0.0
 10
60.9879951299
 20
274.4561619905
 30
0.0
 10
62.0789307965
 20
275.5566615143
 30
0.0
 10
62.5487265401
 20
276.1176257998
 30
0.0
  0
SPLINE
  5
32A
100
AcDbEntity
  8
0
100
AcDbSpline
 62
7
  6
CONTINUOUS
 70
0
 71
3
 72
10
 73
6
 74
0
 42
0.0000001
 43
0.0000001
 44
0.0000000001
 40
0.0
 40
0.0
 40
0.0
 40
0.0
 40
0.2955856753
 40
0.686007227
 40
1.0
 40
1.0
 40
1.0
 40
1.0
 10
55.7435238513
 20
267.9442194041
 30
0.0
 10
56.4135439707
 20
268.7501144945
 30
0.0
 10
57.9686166737
 20
270.62041526
 30
0.0
 10
60.2335745292
 20
273.3483490582
 30
0.0
 10
61.8365239926
 20
275.2637095694
 30
0.0
 10
62.551254291
 20
276.1172991827
 30
0.0
  0
SPLINE
  5
32B
100
AcDbEntity
  8
0
100
AcDbSpline
 62
7
  6
CONTINUOUS
 70
0
 71
3
 72
14
 73
10
 74
0
 42
0.0000001
 43
0.0000001
 44
0.0000000001
 40
0.0
 40
0.0
 40
0.0
 40
0.0
 40
0.2667647134
 40
0.3976949369
 40
0.5260705404
 40
0.6512672742
 40
0.7725914375
 40
0.8891288144
 40
1.0
 40
1.0
 40
1.0
 40
1.0
 10
44.2810119265
 20
251.8315879017
 30
0.0
 10
45.3333157089
 20
253.2405122453
 30
0.0
 10
46.8884743896
 20
255.3510995002
 30
0.0
 10
48.9346026046
 20
258.1510563094
 30
0.0
 10
50.4064964235
 20
260.2146164002
 30
0.0
 10
51.8278727554
 20
262.2362918411
 30
0.0
 10
53.2026673214
 20
264.1953397344
 30
0.0
 10
54.5044949292
 20
266.0901381562
 30
0.0
 10
55.3389122706
 20
267.3355672622
 30
0.0
 10
55.7435238513
 20
267.9442194041
 30
0.0
  0
SPLINE
  5
32C
100
AcDbEntity
  8
0
100
AcDbSpline
 62
7
  6
CONTINUOUS
 70
0
 71
3
 72
15
 73
11
 74
0
 42
0.0000001
 43
0.0000001
 44
0.0000000001
 40
0.0
 40
0.0
 40
0.0
 40
0.0
 40
0.0791627651
 40
0.1764506375
 40
0.2895665325
 40
0.4161167612
 40
0.5529281779
 40
0.6974100008
 40
0.8471935881
 40
1.0
 40
1.0
 40
1.0
 40
1.0
 10
62.7884297408
 20
275.9119980372
 30
0.0
 10
62.422218963
 20
275.2216438693
 30
0.0
 10
61.5544132098
 20
273.7102014655
 30
0.0
 10
60.0232408491
 20
271.2957132318
 30
0.0
 10
58.1572774377
 20
268.5417343869
 30
0.0
 10
56.0240546508
 20
265.4982095016
 30
0.0
 10
53.6410390167
 20
262.2527458583
 30
0.0
 10
51.0733486828
 20
258.8591089944
 30
0.0
 10
48.3754852913
 20
255.3663747135
 30
0.0
 10
46.5242517688
 20
253.0217227106
 30
0.0
 10
45.5696906135
 20
251.8537030838
 30
0.0
  0
SPLINE
  5
32D
100
AcDbEntity
  8
0
100
AcDbSpline
 62
7
  6
CONTINUOUS
 70
0
 71
3
 72
15
 73
11
 74
0
 42
0.0000001
 43
0.0000001
 44
0.0000000001
 40
0.0
 40
0.0
 40
0.0
 40
0.0
 40
0.3025068108
 40
0.5844485973
 40
0.7112205438
 40
0.8246096899
 40
0.8753394254
 40
0.9216821677
 40
0.9633863524
 40
1.0
 40
1.0
 40
1.0
 40
1.0
 10
44.362208877
 20
251.7711989158
 30
0.0
 10
46.2943626091
 20
254.1520714501
 30
0.0
 10
49.9944768392
 20
258.7787414571
 30
0.0
 10
54.395344371
 20
264.4893402278
 30
0.0
 10
57.5474142491
 20
268.7404026197
 30
0.0
 10
59.2701767639
 20
271.1335025155
 30
0.0
 10
60.4840501257
 20
272.8877986081
 30
0.0
 10
61.2673836131
 20
274.0562293824
 30
0.0
 10
61.9565322395
 20
275.1153171397
 30
0.0
 10
62.3694211291
 20
275.7937783907
 30
0.0
 10
62.551254291
 20
276.1172991827
 30
0.0
  0
SPLINE
  5
32E
100
AcDbEntity
  8
0
100
AcDbSpline
 62
7
  6
CONTINUOUS
 70
0
 71
3
 72
9
 73
5
 74
0
 42
0.0000001
 43
0.0000001
 44
0.0000000001
 40
0.0
 40
0.0
 40
0.0
 40
0.0
 40
0.5034058781
 40
1.0
 40
1.0
 40
1.0
 40
1.0
 10
62.5512744838
 20
276.1168306874
 30
0.0
 10
62.6061757774
 20
276.1117637183
 30
0.0
 10
62.7133779323
 20
276.0645951198
 30
0.0
 10
62.7768389248
 20
275.9651364339
 30
0.0
 10
62.7884367209
 20
275.9119988005
 30
0.0
  0
SPLINE
  5
32F
100
AcDbEntity
  8
0
100
AcDbSpline
 62
7
  6
CONTINUOUS
 70
0
 71
3
 72
9
 73
5
 74
0
 42
0.0000001
 43
0.0000001
 44
0.0000000001
 40
0.0
 40
0.0
 40
0.0
 40
0.0
 40
0.2538370624
 40
1.0
 40
1.0
 40
1.0
 40
1.0
 10
62.7884409383
 20
275.9119994977
 30
0.0
 10
62.8234809101
 20
275.978488934
 30
0.0
 10
62.9582566629
 20
276.2421294458
 30
0.0
 10
63.0796914369
 20
276.5126282967
 30
0.0
 10
63.1618038099
 20
276.7177300806
 30
0.0
  0
SPLINE
  5
330
100
AcDbEntity
  8
0
100
AcDbSpline
 62
7
  6
CONTINUOUS
 70
0
 71
3
 72
10
 73
6
 74
0
 42
0.0000001
 43
0.0000001
 44
0.0000000001
 40
0.0
 40
0.0
 40
0.0
 40
0.0
 40
0.2212192664
 40
0.4647284613
 40
1.0
 40
1.0
 40
1.0
 40
1.0
 10
63.6202889298
 20
274.0495515293
 30
0.0
 10
63.4474895129
 20
272.7857509236
 30
0.0
 10
62.931826039
 20
270.1510201518
 30
0.0
 10
61.3634994667
 20
264.598532477
 30
0.0
 10
59.7174808127
 20
260.4067757409
 30
0.0
 10
58.4657572199
 20
257.5855990338
 30
0.0
  0
LINE
  5
331
100
AcDbEntity
  8
0
100
AcDbLine
 62
7
  6
CONTINUOUS
 10
62.5487576554
 20
276.1174637811
 11
62.6107604296
 21
276.1920590705
  0
SPLINE
  5
332
100
AcDbEntity
  8
0
100
AcDbSpline
 62
7
  6
CONTINUOUS
 70
0
 71
3
 72
17
 73
13
 74
0
 42
0.0000001
 43
0.0000001
 44
0.0000000001
 40
0.0
 40
0.0
 40
0.0
 40
0.0
 40
0.0346792138
 40
0.0574218819
 40
0.0815748588
 40
0.1071553915
 40
0.161418168
 40
0.2186603303
 40
0.3388963514
 40
0.4645308201
 40
0.7267633313
 40
1.0
 40
1.0
 40
1.0
 40
1.0
 10
63.1618118245
 20
276.7177244759
 30
0.0
 10
63.1600717678
 20
276.7268059414
 30
0.0
 10
63.1485853455
 20
276.743356491
 30
0.0
 10
63.1254292863
 20
276.7378753957
 30
0.0
 10
63.1082500602
 20
276.7298206746
 30
0.0
 10
63.0847097579
 20
276.7147991905
 30
0.0
 10
63.0561533408
 20
276.6920001305
 30
0.0
 10
63.010507497
 20
276.6502840973
 30
0.0
 10
62.9540292723
 20
276.5924245695
 30
0.0
 10
62.8629100292
 20
276.4921519602
 30
0.0
 10
62.7482184053
 20
276.3582590724
 30
0.0
 10
62.6570877025
 20
276.2483528657
 30
0.0
 10
62.6107338082
 20
276.1921473722
 30
0.0
  0
SPLINE
  5
333
100
AcDbEntity
  8
0
100
AcDbSpline
 62
7
  6
CONTINUOUS
 70
0
 71
3
 72
11
 73
7
 74
0
 42
0.0000001
 43
0.0000001
 44
0.0000000001
 40
0.0
 40
0.0
 40
0.0
 40
0.0
 40
0.2751188601
 40
0.5274042053
 40
0.7654319808
 40
1.0
 40
1.0
 40
1.0
 40
1.0
 10
62.6107338082
 20
276.1921473722
 30
0.0
 10
63.0215938921
 20
276.6903105392
 30
0.0
 10
63.7394984807
 20
277.7076473598
 30
0.0
 10
64.480173664
 20
279.3586891224
 30
0.0
 10
64.8137504593
 20
281.0428747515
 30
0.0
 10
64.7572808853
 20
282.1636231262
 30
0.0
 10
64.6648055536
 20
282.7063580124
 30
0.0
  0
SPLINE
  5
334
100
AcDbEntity
  8
0
100
AcDbSpline
 62
7
  6
CONTINUOUS
 70
0
 71
3
 72
11
 73
7
 74
0
 42
0.0000001
 43
0.0000001
 44
0.0000000001
 40
0.0
 40
0.0
 40
0.0
 40
0.0
 40
0.3021618841
 40
0.5709075173
 40
0.8037193099
 40
1.0
 40
1.0
 40
1.0
 40
1.0
 10
63.6202889298
 20
274.0495515293
 30
0.0
 10
63.8615284214
 20
274.8989592134
 30
0.0
 10
64.2729583657
 20
276.5171328797
 30
0.0
 10
64.6813594032
 20
278.8330852968
 30
0.0
 10
64.8377553406
 20
280.869836444
 30
0.0
 10
64.7626634482
 20
282.128826108
 30
0.0
 10
64.6667809453
 20
282.6943417263
 30
0.0
  0
SPLINE
  5
335
100
AcDbEntity
  8
0
100
AcDbSpline
 62
7
  6
CONTINUOUS
 70
0
 71
3
 72
9
 73
5
 74
0
 42
0.0000001
 43
0.0000001
 44
0.0000000001
 40
0.0
 40
0.0
 40
0.0
 40
0.0
 40
0.2368099544
 40
1.0
 40
1.0
 40
1.0
 40
1.0
 10
64.7094824506
 20
282.6760122749
 30
0.0
 10
64.7621779411
 20
282.5445877481
 30
0.0
 10
64.966367767
 20
281.9822691997
 30
0.0
 10
65.1004626455
 20
281.3958784827
 30
0.0
 10
65.1727033485
 20
280.9453002749
 30
0.0
  0
SPLINE
  5
336
100
AcDbEntity
  8
0
100
AcDbSpline
 62
7
  6
CONTINUOUS
 70
0
 71
3
 72
17
 73
13
 74
0
 42
0.0000001
 43
0.0000001
 44
0.0000000001
 40
0.0
 40
0.0
 40
0.0
 40
0.0
 40
0.0866542863
 40
0.1865873317
 40
0.2992033582
 40
0.4232619288
 40
0.4890347642
 40
0.5570166268
 40
0.62703041
 40
0.6988444516
 40
0.8469970497
 40
1.0
 40
1.0
 40
1.0
 40
1.0
 10
65.1888361659
 20
280.8412932121
 30
0.0
 10
65.2984958564
 20
280.1099846604
 30
0.0
 10
65.3723805014
 20
278.5105638809
 30
0.0
 10
65.1442875995
 20
275.9633589905
 30
0.0
 10
64.6227221699
 20
273.1344058409
 30
0.0
 10
63.9352780123
 20
270.6444557867
 30
0.0
 10
63.2807035948
 20
268.5439507452
 30
0.0
 10
62.7131026005
 20
266.8998993013
 30
0.0
 10
62.0740648724
 20
265.2271127519
 30
0.0
 10
61.1383468718
 20
262.9361014898
 30
0.0
 10
59.8498544162
 20
260.0246905549
 30
0.0
 10
58.7130303772
 20
257.7191552912
 30
0.0
 10
58.1211865798
 20
256.5553091328
 30
0.0
  0
SPLINE
  5
337
100
AcDbEntity
  8
0
100
AcDbSpline
 62
7
  6
CONTINUOUS
 70
0
 71
3
 72
8
 73
4
 74
0
 42
0.0000001
 43
0.0000001
 44
0.0000000001
 40
0.0
 40
0.0
 40
0.0
 40
0.0
 40
1.0
 40
1.0
 40
1.0
 40
1.0
 10
64.6429775503
 20
282.8350213039
 30
0.0
 10
64.6812926871
 20
282.8372941138
 30
0.0
 10
64.7209922516
 20
282.831764421
 30
0.0
 10
64.7568844161
 20
282.8181641305
 30
0.0
  0
SPLINE
  5
338
100
AcDbEntity
  8
0
100
AcDbSpline
 62
7
  6
CONTINUOUS
 70
0
 71
3
 72
9
 73
5
 74
0
 42
0.0000001
 43
0.0000001
 44
0.0000000001
 40
0.0
 40
0.0
 40
0.0
 40
0.0
 40
0.2613303308
 40
1.0
 40
1.0
 40
1.0
 40
1.0
 10
64.7568844161
 20
282.8181641305
 30
0.0
 10
64.7703745159
 20
282.81305245
 30
0.0
 10
64.8202364282
 20
282.7892522017
 30
0.0
 10
64.8610317102
 20
282.7456559847
 30
0.0
 10
64.8778384507
 20
282.7085042715
 30
0.0
  0
SPLINE
  5
339
100
AcDbEntity
  8
0
100
AcDbSpline
 62
7
  6
CONTINUOUS
 70
0
 71
3
 72
11
 73
7
 74
0
 42
0.0000001
 43
0.0000001
 44
0.0000000001
 40
0.0
 40
0.0
 40
0.0
 40
0.0
 40
0.260325074
 40
0.5143216816
 40
0.7610824976
 40
1.0
 40
1.0
 40
1.0
 40
1.0
 10
66.0769471771
 20
263.0593751499
 30
0.0
 10
66.2279930454
 20
264.0330683206
 30
0.0
 10
66.47186404
 20
265.9656128698
 30
0.0
 10
66.6762563002
 20
268.840652002
 30
0.0
 10
66.6902350696
 20
271.6428006602
 30
0.0
 10
66.5547822838
 20
273.478252501
 30
0.0
 10
66.4553392955
 20
274.3770789964
 30
0.0
  0
SPLINE
  5
33A
100
AcDbEntity
  8
0
100
AcDbSpline
 62
7
  6
CONTINUOUS
 70
0
 71
3
 72
9
 73
5
 74
0
 42
0.0000001
 43
0.0000001
 44
0.0000000001
 40
0.0
 40
0.0
 40
0.0
 40
0.0
 40
0.4838124749
 40
1.0
 40
1.0
 40
1.0
 40
1.0
 10
67.5181563613
 20
275.6041495177
 30
0.0
 10
67.7341273258
 20
273.6466820254
 30
0.0
 10
67.7892826718
 20
269.5553863803
 30
0.0
 10
67.274657131
 20
265.5061072699
 30
0.0
 10
66.885498002
 20
263.4413332435
 30
0.0
  0
SPLINE
  5
33B
100
AcDbEntity
  8
0
100
AcDbSpline
 62
7
  6
CONTINUOUS
 70
0
 71
3
 72
9
 73
5
 74
0
 42
0.0000001
 43
0.0000001
 44
0.0000000001
 40
0.0
 40
0.0
 40
0.0
 40
0.0
 40
0.2559545789
 40
1.0
 40
1.0
 40
1.0
 40
1.0
 10
66.1799445333
 20
263.0470361662
 30
0.0
 10
66.302438643
 20
263.6549891341
 30
0.0
 10
66.7430090632
 20
266.037519923
 30
0.0
 10
67.0282702007
 20
268.4503831288
 30
0.0
 10
67.1290573837
 20
270.2503644356
 30
0.0
  0
SPLINE
  5
33C
100
AcDbEntity
  8
0
100
AcDbSpline
 62
7
  6
CONTINUOUS
 70
0
 71
3
 72
9
 73
5
 74
0
 42
0.0000001
 43
0.0000001
 44
0.0000000001
 40
0.0
 40
0.0
 40
0.0
 40
0.0
 40
0.5214185131
 40
1.0
 40
1.0
 40
1.0
 40
1.0
 10
67.131354952
 20
270.2917541488
 30
0.0
 10
67.2351050587
 20
272.1771799117
 30
0.0
 10
67.1994809344
 20
275.8127237726
 30
0.0
 10
66.5255740903
 20
279.400891721
 30
0.0
 10
66.005829315
 20
281.0542713287
 30
0.0
  0
SPLINE
  5
33D
100
AcDbEntity
  8
0
100
AcDbSpline
 62
7
  6
CONTINUOUS
 70
0
 71
3
 72
9
 73
5
 74
0
 42
0.0000001
 43
0.0000001
 44
0.0000000001
 40
0.0
 40
0.0
 40
0.0
 40
0.0
 40
0.2533849077
 40
1.0
 40
1.0
 40
1.0
 40
1.0
 10
66.005829315
 20
281.0542713287
 30
0.0
 10
65.9613857587
 20
281.1956523934
 30
0.0
 10
65.7802149824
 20
281.7517832018
 30
0.0
 10
65.5754957752
 20
282.3003063685
 30
0.0
 10
65.4085721348
 20
282.7038307154
 30
0.0
  0
SPLINE
  5
33E
100
AcDbEntity
  8
0
100
AcDbSpline
 62
7
  6
CONTINUOUS
 70
0
 71
3
 72
9
 73
5
 74
0
 42
0.0000001
 43
0.0000001
 44
0.0000000001
 40
0.0
 40
0.0
 40
0.0
 40
0.0
 40
0.255702606
 40
1.0
 40
1.0
 40
1.0
 40
1.0
 10
64.9341020627
 20
283.7549021507
 30
0.0
 10
64.8184011905
 20
283.9903272467
 30
0.0
 10
64.3449561143
 20
284.9004641635
 30
0.0
 10
63.7831192747
 20
285.7654882172
 30
0.0
 10
63.3156000129
 20
286.3691830984
 30
0.0
  0
SPLINE
  5
33F
100
AcDbEntity
  8
0
100
AcDbSpline
 62
7
  6
CONTINUOUS
 70
0
 71
3
 72
8
 73
4
 74
0
 42
0.0000001
 43
0.0000001
 44
0.0000000001
 40
0.0
 40
0.0
 40
0.0
 40
0.0
 40
1.0
 40
1.0
 40
1.0
 40
1.0
 10
-23.3031730064
 20
280.3652578948
 30
0.0
 10
-23.2967280145
 20
280.3293871224
 30
0.0
 10
-23.2915904971
 20
280.2932841928
 30
0.0
 10
-23.284802577
 20
280.2574767302
 30
0.0
  0
SPLINE
  5
340
100
AcDbEntity
  8
0
100
AcDbSpline
 62
7
  6
CONTINUOUS
 70
0
 71
3
 72
14
 73
10
 74
0
 42
0.0000001
 43
0.0000001
 44
0.0000000001
 40
0.0
 40
0.0
 40
0.0
 40
0.0
 40
0.3978715833
 40
0.5533186895
 40
0.6807202478
 40
0.7823852049
 40
0.8630244784
 40
0.9311847999
 40
1.0
 40
1.0
 40
1.0
 40
1.0
 10
-23.284802577
 20
280.2574767302
 30
0.0
 10
-23.4724271478
 20
280.6905811918
 30
0.0
 10
-23.7115114591
 20
281.3045734918
 30
0.0
 10
-23.9098229483
 20
282.0884161084
 30
0.0
 10
-23.9723290662
 20
282.5416645169
 30
0.0
 10
-23.9616474381
 20
282.9112517455
 30
0.0
 10
-23.8759260295
 20
283.2013417274
 30
0.0
 10
-23.7049802989
 20
283.4069305162
 30
0.0
 10
-23.5473857414
 20
283.4685312601
 30
0.0
 10
-23.4672847177
 20
283.4842878313
 30
0.0
  0
SPLINE
  5
341
100
AcDbEntity
  8
0
100
AcDbSpline
 62
7
  6
CONTINUOUS
 70
0
 71
3
 72
8
 73
4
 74
0
 42
0.0000001
 43
0.0000001
 44
0.0000000001
 40
0.0
 40
0.0
 40
0.0
 40
0.0
 40
1.0
 40
1.0
 40
1.0
 40
1.0
 10
-23.4672847177
 20
283.4842878313
 30
0.0
 10
-23.4265992342
 20
283.4922910214
 30
0.0
 10
-23.3851365624
 20
283.4967658657
 30
0.0
 10
-23.3437099643
 20
283.4985537663
 30
0.0
  0
SPLINE
  5
342
100
AcDbEntity
  8
0
100
AcDbSpline
 62
7
  6
CONTINUOUS
 70
0
 71
3
 72
15
 73
11
 74
0
 42
0.0000001
 43
0.0000001
 44
0.0000000001
 40
0.0
 40
0.0
 40
0.0
 40
0.0
 40
0.0877129988
 40
0.1878560577
 40
0.300578642
 40
0.4244394752
 40
0.557768968
 40
0.6992197969
 40
0.8472590146
 40
1.0
 40
1.0
 40
1.0
 40
1.0
 10
65.4590530124
 20
280.844680126
 30
0.0
 10
65.6035906753
 20
280.1223478062
 30
0.0
 10
65.7553883093
 20
278.5429929704
 30
0.0
 10
65.6398189293
 20
276.0161274327
 30
0.0
 10
65.2188811981
 20
273.2154595251
 30
0.0
 10
64.5032649121
 20
270.1893576192
 30
0.0
 10
63.5105012139
 20
266.9897492604
 30
0.0
 10
62.2721466887
 20
263.6600918372
 30
0.0
 10
60.8204785358
 20
260.2404130746
 30
0.0
 10
59.7364514332
 20
257.9575581952
 30
0.0
 10
59.1565139637
 20
256.8133520658
 30
0.0
  0
SPLINE
  5
343
100
AcDbEntity
  8
0
100
AcDbSpline
 62
7
  6
CONTINUOUS
 70
0
 71
3
 72
11
 73
7
 74
0
 42
0.0000001
 43
0.0000001
 44
0.0000000001
 40
0.0
 40
0.0
 40
0.0
 40
0.0
 40
0.3483317964
 40
0.6290116992
 40
0.8444228035
 40
1.0
 40
1.0
 40
1.0
 40
1.0
 10
-23.5326362636
 20
280.0708031034
 30
0.0
 10
-23.6707726149
 20
280.3590577733
 30
0.0
 10
-23.9103021994
 20
280.8843570478
 30
0.0
 10
-24.1843638273
 20
281.6107363243
 30
0.0
 10
-24.3336095058
 20
282.1901124546
 30
0.0
 10
-24.3559096309
 20
282.5359791135
 30
0.0
 10
-24.333336682
 20
282.6769475798
 30
0.0
  0
SPLINE
  5
344
100
AcDbEntity
  8
0
100
AcDbSpline
 62
7
  6
CONTINUOUS
 70
0
 71
3
 72
9
 73
5
 74
0
 42
0.0000001
 43
0.0000001
 44
0.0000000001
 40
0.0
 40
0.0
 40
0.0
 40
0.0
 40
0.507475799
 40
1.0
 40
1.0
 40
1.0
 40
1.0
 10
-23.2848097772
 20
280.256931822
 30
0.0
 10
-23.3407436822
 20
280.2607965459
 30
0.0
 10
-23.4576481099
 20
280.2279252627
 30
0.0
 10
-23.5229397483
 20
280.1243471452
 30
0.0
 10
-23.5326432965
 20
280.0708039513
 30
0.0
  0
SPLINE
  5
345
100
AcDbEntity
  8
0
100
AcDbSpline
 62
7
  6
CONTINUOUS
 70
0
 71
3
 72
9
 73
5
 74
0
 42
0.0000001
 43
0.0000001
 44
0.0000000001
 40
0.0
 40
0.0
 40
0.0
 40
0.0
 40
0.2457460824
 40
1.0
 40
1.0
 40
1.0
 40
1.0
 10
-23.5326476584
 20
280.0708041549
 30
0.0
 10
-23.5021932061
 20
280.0077058752
 30
0.0
 10
-23.3747173329
 20
279.7526662046
 30
0.0
 10
-23.2333575987
 20
279.5046139324
 30
0.0
 10
-23.1200698509
 20
279.3218337781
 30
0.0
  0
SPLINE
  5
346
100
AcDbEntity
  8
0
100
AcDbSpline
 62
7
  6
CONTINUOUS
 70
0
 71
3
 72
13
 73
9
 74
0
 42
0.0000001
 43
0.0000001
 44
0.0000000001
 40
0.0
 40
0.0
 40
0.0
 40
0.0
 40
0.2146393019
 40
0.4402615746
 40
0.6837702952
 40
0.819625288
 40
0.8968697642
 40
1.0
 40
1.0
 40
1.0
 40
1.0
 10
-23.2677363896
 20
280.1774741376
 30
0.0
 10
-23.2554671864
 20
280.1164507349
 30
0.0
 10
-23.2296201863
 20
279.991425491
 30
0.0
 10
-23.1884228794
 20
279.797427422
 30
0.0
 10
-23.1531328828
 20
279.6256830617
 30
0.0
 10
-23.129860814
 20
279.4950610143
 30
0.0
 10
-23.1188744162
 20
279.4044185098
 30
0.0
 10
-23.1141357904
 20
279.3511382841
 30
0.0
 10
-23.1200754267
 20
279.3218266459
 30
0.0
  0
LINE
  5
347
100
AcDbEntity
  8
0
100
AcDbLine
 62
7
  6
CONTINUOUS
 10
64.6558348689
 20
282.7627240817
 11
64.6613473844
 21
282.7259842531
  0
SPLINE
  5
348
100
AcDbEntity
  8
0
100
AcDbSpline
 62
7
  6
CONTINUOUS
 70
0
 71
3
 72
11
 73
7
 74
0
 42
0.0000001
 43
0.0000001
 44
0.0000000001
 40
0.0
 40
0.0
 40
0.0
 40
0.0
 40
0.2176564496
 40
0.4528653961
 40
0.7122682878
 40
1.0
 40
1.0
 40
1.0
 40
1.0
 10
-23.2677363896
 20
280.1774741376
 30
0.0
 10
-23.1522586093
 20
279.6040192326
 30
0.0
 10
-22.7631917783
 20
278.4375811879
 30
0.0
 10
-21.7814993247
 20
276.7810951596
 30
0.0
 10
-20.4039534561
 20
275.1811062621
 30
0.0
 10
-19.2925438415
 20
274.2112668907
 30
0.0
 10
-18.6828537089
 20
273.7355902368
 30
0.0
  0
SPLINE
  5
349
100
AcDbEntity
  8
0
100
AcDbSpline
 62
7
  6
CONTINUOUS
 70
0
 71
3
 72
12
 73
8
 74
0
 42
0.0000001
 43
0.0000001
 44
0.0000000001
 40
0.0
 40
0.0
 40
0.0
 40
0.0
 40
0.0645814276
 40
0.1453878991
 40
0.35912068
 40
0.6443638085
 40
1.0
 40
1.0
 40
1.0
 40
1.0
 10
-23.6014385136
 20
276.6989260097
 30
0.0
 10
-23.4782092248
 20
276.6815942925
 30
0.0
 10
-23.2052606678
 20
276.612048989
 30
0.0
 10
-22.5603574731
 20
276.3588890613
 30
0.0
 10
-21.5796189573
 20
275.816040655
 30
0.0
 10
-20.2103453417
 20
274.9005485872
 30
0.0
 10
-19.2238050602
 20
274.1565232799
 30
0.0
 10
-18.6835119219
 20
273.7349938324
 30
0.0
  0
SPLINE
  5
34A
100
AcDbEntity
  8
0
100
AcDbSpline
 62
7
  6
CONTINUOUS
 70
0
 71
3
 72
11
 73
7
 74
0
 42
0.0000001
 43
0.0000001
 44
0.0000000001
 40
0.0
 40
0.0
 40
0.0
 40
0.0
 40
0.3204894145
 40
0.5945523699
 40
0.8207772799
 40
1.0
 40
1.0
 40
1.0
 40
1.0
 10
-18.6835119219
 20
273.7349938324
 30
0.0
 10
-19.2184494749
 20
274.06932183
 30
0.0
 10
-20.2192913485
 20
274.6762438983
 30
0.0
 10
-21.6367562014
 20
275.4532190148
 30
0.0
 10
-22.8487038523
 20
276.0206653378
 30
0.0
 10
-23.6033283706
 20
276.2891740907
 30
0.0
 10
-23.9452525508
 20
276.3759523853
 30
0.0
  0
SPLINE
  5
34B
100
AcDbEntity
  8
0
100
AcDbSpline
 62
7
  6
CONTINUOUS
 70
0
 71
3
 72
9
 73
5
 74
0
 42
0.0000001
 43
0.0000001
 44
0.0000000001
 40
0.0
 40
0.0
 40
0.0
 40
0.0
 40
0.2585188065
 40
1.0
 40
1.0
 40
1.0
 40
1.0
 10
-23.9452525508
 20
276.3759523853
 30
0.0
 10
-23.9688420208
 20
276.3819392506
 30
0.0
 10
-24.0602483636
 20
276.4044673588
 30
0.0
 10
-24.1522960291
 20
276.4244250615
 30
0.0
 10
-24.2208632373
 20
276.4375075095
 30
0.0
  0
SPLINE
  5
34C
100
AcDbEntity
  8
0
100
AcDbSpline
 62
7
  6
CONTINUOUS
 70
0
 71
3
 72
9
 73
5
 74
0
 42
0.0000001
 43
0.0000001
 44
0.0000000001
 40
0.0
 40
0.0
 40
0.0
 40
0.0
 40
0.553855269
 40
1.0
 40
1.0
 40
1.0
 40
1.0
 10
-24.2208632373
 20
276.4375075095
 30
0.0
 10
-24.3807559482
 20
276.4680146298
 30
0.0
 10
-24.6729138895
 20
276.507116951
 30
0.0
 10
-24.969574526
 20
276.4939368397
 30
0.0
 10
-25.0982182413
 20
276.4685687568
 30
0.0
  0
SPLINE
  5
34D
100
AcDbEntity
  8
0
100
AcDbSpline
 62
7
  6
CONTINUOUS
 70
0
 71
3
 72
17
 73
13
 74
0
 42
0.0000001
 43
0.0000001
 44
0.0000000001
 40
0.0
 40
0.0
 40
0.0
 40
0.0
 40
0.2247060174
 40
0.4172583818
 40
0.5769412093
 40
0.703992561
 40
0.8006117064
 40
0.8394141364
 40
0.8733220782
 40
0.9041122954
 40
0.9340547228
 40
1.0
 40
1.0
 40
1.0
 40
1.0
 10
-18.896759967
 20
273.5080594714
 30
0.0
 10
-19.4500426511
 20
273.8330829958
 30
0.0
 10
-20.4912536599
 20
274.4137096029
 30
0.0
 10
-21.9721830855
 20
275.1376948734
 30
0.0
 10
-23.2425105022
 20
275.6518629828
 30
0.0
 10
-24.2959364401
 20
275.9577504634
 30
0.0
 10
-25.0513027722
 20
276.0305725887
 30
0.0
 10
-25.5318716965
 20
275.9580688508
 30
0.0
 10
-25.8119576873
 20
275.8561026812
 30
0.0
 10
-26.0372076409
 20
275.7004757194
 30
0.0
 10
-26.2660708463
 20
275.4139714499
 30
0.0
 10
-26.3340292307
 20
275.134898441
 30
0.0
 10
-26.3498778671
 20
274.9472483952
 30
0.0
  0
SPLINE
  5
34E
100
AcDbEntity
  8
0
100
AcDbSpline
 62
7
  6
CONTINUOUS
 70
0
 71
3
 72
9
 73
5
 74
0
 42
0.0000001
 43
0.0000001
 44
0.0000000001
 40
0.0
 40
0.0
 40
0.0
 40
0.0
 40
0.4848861394
 40
1.0
 40
1.0
 40
1.0
 40
1.0
 10
-18.6835341681
 20
273.7344437861
 30
0.0
 10
-18.7353057091
 20
273.7265933049
 30
0.0
 10
-18.8342958776
 20
273.6628088648
 30
0.0
 10
-18.8838356886
 20
273.5621633394
 30
0.0
 10
-18.8967659868
 20
273.5080592943
 30
0.0
  0
SPLINE
  5
34F
100
AcDbEntity
  8
0
100
AcDbSpline
 62
7
  6
CONTINUOUS
 70
0
 71
3
 72
9
 73
5
 74
0
 42
0.0000001
 43
0.0000001
 44
0.0000000001
 40
0.0
 40
0.0
 40
0.0
 40
0.0
 40
0.4376201067
 40
1.0
 40
1.0
 40
1.0
 40
1.0
 10
-23.3757948634
 20
282.3852539347
 30
0.0
 10
-23.4337454664
 20
282.0949439632
 30
0.0
 10
-23.458723276
 20
281.4116020313
 30
0.0
 10
-23.3704497249
 20
280.7396957904
 30
0.0
 10
-23.3031730064
 20
280.3652578948
 30
0.0
  0
SPLINE
  5
350
100
AcDbEntity
  8
0
100
AcDbSpline
 62
7
  6
CONTINUOUS
 70
0
 71
3
 72
9
 73
5
 74
0
 42
0.0000001
 43
0.0000001
 44
0.0000000001
 40
0.0
 40
0.0
 40
0.0
 40
0.0
 40
0.2737939861
 40
1.0
 40
1.0
 40
1.0
 40
1.0
 10
-18.1994581889
 20
270.1902846116
 30
0.0
 10
-18.5689759728
 20
270.1515737983
 30
0.0
 10
-19.9126344419
 20
269.9674583244
 30
0.0
 10
-21.2392799197
 20
269.5983403497
 30
0.0
 10
-22.1356102896
 20
269.1887867511
 30
0.0
  0
LINE
  5
351
100
AcDbEntity
  8
0
100
AcDbLine
 62
7
  6
CONTINUOUS
 10
-18.6826511842
 20
273.7353013145
 11
-18.5906519462
 21
273.6639506554
  0
SPLINE
  5
352
100
AcDbEntity
  8
0
100
AcDbSpline
 62
7
  6
CONTINUOUS
 70
0
 71
3
 72
16
 73
12
 74
0
 42
0.0000001
 43
0.0000001
 44
0.0000000001
 40
0.0
 40
0.0
 40
0.0
 40
0.0
 40
0.2316358041
 40
0.4696673525
 40
0.5918064345
 40
0.7169998885
 40
0.7812840911
 40
0.8474458286
 40
0.91710508
 40
0.9551415809
 40
1.0
 40
1.0
 40
1.0
 40
1.0
 10
-18.5909612557
 20
273.6643359209
 30
0.0
 10
-18.5209238594
 20
273.6102795359
 30
0.0
 10
-18.3795672747
 20
273.4998267461
 30
0.0
 10
-18.203993245
 20
273.357423638
 30
0.0
 10
-18.0631122586
 20
273.2368960013
 30
0.0
 10
-17.9749114021
 20
273.1569691356
 30
0.0
 10
-17.9049507635
 20
273.0887612161
 30
0.0
 10
-17.8525320401
 20
273.0333320039
 30
0.0
 10
-17.8096028618
 20
272.9818383985
 30
0.0
 10
-17.7788104975
 20
272.9335392256
 30
0.0
 10
-17.7655505243
 20
272.9014755869
 30
0.0
 10
-17.7684961761
 20
272.8845972397
 30
0.0
  0
SPLINE
  5
353
100
AcDbEntity
  8
0
100
AcDbSpline
 62
7
  6
CONTINUOUS
 70
0
 71
3
 72
10
 73
6
 74
0
 42
0.0000001
 43
0.0000001
 44
0.0000000001
 40
0.0
 40
0.0
 40
0.0
 40
0.0
 40
0.218675985
 40
0.4586831867
 40
1.0
 40
1.0
 40
1.0
 40
1.0
 10
-18.5909612557
 20
273.6643359209
 30
0.0
 10
-17.910377888
 20
273.139383366
 30
0.0
 10
-16.4157800048
 20
272.1238599483
 30
0.0
 10
-12.9672814216
 20
270.2300203122
 30
0.0
 10
-10.1029771161
 20
269.08531029
 30
0.0
 10
-8.0878468776
 20
268.4024931008
 30
0.0
  0
SPLINE
  5
354
100
AcDbEntity
  8
0
100
AcDbSpline
 62
7
  6
CONTINUOUS
 70
0
 71
3
 72
11
 73
7
 74
0
 42
0.0000001
 43
0.0000001
 44
0.0000000001
 40
0.0
 40
0.0
 40
0.0
 40
0.0
 40
0.2066777863
 40
0.4424166065
 40
0.7073186167
 40
1.0
 40
1.0
 40
1.0
 40
1.0
 10
-18.1994581889
 20
270.1902846116
 30
0.0
 10
-17.4894369795
 20
270.2312809464
 30
0.0
 10
-15.962288922
 20
270.2038082929
 30
0.0
 10
-13.5453323254
 20
269.8871964584
 30
0.0
 10
-10.8789313031
 20
269.2871546829
 30
0.0
 10
-9.0425220586
 20
268.7253244394
 30
0.0
 10
-8.0886554069
 20
268.4020673823
 30
0.0
  0
SPLINE
  5
355
100
AcDbEntity
  8
0
100
AcDbSpline
 62
7
  6
CONTINUOUS
 70
0
 71
3
 72
13
 73
9
 74
0
 42
0.0000001
 43
0.0000001
 44
0.0000000001
 40
0.0
 40
0.0
 40
0.0
 40
0.0
 40
0.3168872766
 40
0.4588809521
 40
0.5892483
 40
0.7082198716
 40
0.8156444706
 40
1.0
 40
1.0
 40
1.0
 40
1.0
 10
-8.0886554069
 20
268.4020673823
 30
0.0
 10
-9.5973879529
 20
268.8226063442
 30
0.0
 10
-11.8087249174
 20
269.3493681106
 30
0.0
 10
-14.6924549374
 20
269.7692397376
 30
0.0
 10
-16.6225735115
 20
269.917821209
 30
0.0
 10
-18.3888936024
 20
269.9078976445
 30
0.0
 10
-20.4094662268
 20
269.7077732036
 30
0.0
 10
-21.8248910269
 20
269.3305314886
 30
0.0
 10
-22.6537364452
 20
268.9519924826
 30
0.0
  0
SPLINE
  5
356
100
AcDbEntity
  8
0
100
AcDbSpline
 62
7
  6
CONTINUOUS
 70
0
 71
3
 72
13
 73
9
 74
0
 42
0.0000001
 43
0.0000001
 44
0.0000000001
 40
0.0
 40
0.0
 40
0.0
 40
0.0
 40
0.3108747624
 40
0.4516762354
 40
0.5820281008
 40
0.7017133432
 40
0.8109233225
 40
1.0
 40
1.0
 40
1.0
 40
1.0
 10
-8.238287505
 20
268.1472748604
 30
0.0
 10
-9.6954775151
 20
268.5227491689
 30
0.0
 10
-11.8404011867
 20
268.9721412296
 30
0.0
 10
-14.6375563049
 20
269.3188284832
 30
0.0
 10
-16.5270351383
 20
269.4362017226
 30
0.0
 10
-18.2685685492
 20
269.4122781156
 30
0.0
 10
-20.2806538519
 20
269.1958075615
 30
0.0
 10
-21.6979576583
 20
268.8428199604
 30
0.0
 10
-22.54440169
 20
268.4947282015
 30
0.0
  0
SPLINE
  5
357
100
AcDbEntity
  8
0
100
AcDbSpline
 62
7
  6
CONTINUOUS
 70
0
 71
3
 72
11
 73
7
 74
0
 42
0.0000001
 43
0.0000001
 44
0.0000000001
 40
0.0
 40
0.0
 40
0.0
 40
0.0
 40
0.2752597946
 40
0.5274070728
 40
0.7666627022
 40
1.0
 40
1.0
 40
1.0
 40
1.0
 10
-22.5967701463
 20
268.4729995742
 30
0.0
 10
-23.0310712424
 20
268.2911920073
 30
0.0
 10
-23.8385072337
 20
267.8761309682
 30
0.0
 10
-24.8709625241
 20
267.0519164811
 30
0.0
 10
-25.652064154
 20
266.0765855407
 30
0.0
 10
-26.0158363759
 20
265.3479601198
 30
0.0
 10
-26.1611993442
 20
264.9762598798
 30
0.0
  0
SPLINE
  5
358
100
AcDbEntity
  8
0
100
AcDbSpline
 62
7
  6
CONTINUOUS
 70
0
 71
3
 72
9
 73
5
 74
0
 42
0.0000001
 43
0.0000001
 44
0.0000000001
 40
0.0
 40
0.0
 40
0.0
 40
0.0
 40
0.445347775
 40
1.0
 40
1.0
 40
1.0
 40
1.0
 10
-8.0886706277
 20
268.4015240823
 30
0.0
 10
-8.1305877701
 20
268.3854894763
 30
0.0
 10
-8.1985022589
 20
268.2975598745
 30
0.0
 10
-8.2266698817
 20
268.2019466912
 30
0.0
 10
-8.2382915855
 20
268.1472738908
 30
0.0
  0
SPLINE
  5
359
100
AcDbEntity
  8
0
100
AcDbSpline
 62
7
  6
CONTINUOUS
 70
0
 71
3
 72
9
 73
5
 74
0
 42
0.0000001
 43
0.0000001
 44
0.0000000001
 40
0.0
 40
0.0
 40
0.0
 40
0.0
 40
0.4718305671
 40
1.0
 40
1.0
 40
1.0
 40
1.0
 10
-12.0066412908
 20
284.4407036254
 30
0.0
 10
-11.8977922218
 20
283.866342456
 30
0.0
 10
-11.4597945342
 20
282.6843306753
 30
0.0
 10
-10.7254993173
 20
281.6711441319
 30
0.0
 10
-10.2931953704
 20
281.179885454
 30
0.0
  0
SPLINE
  5
35A
100
AcDbEntity
  8
0
100
AcDbSpline
 62
7
  6
CONTINUOUS
 70
0
 71
3
 72
9
 73
5
 74
0
 42
0.0000001
 43
0.0000001
 44
0.0000000001
 40
0.0
 40
0.0
 40
0.0
 40
0.0
 40
0.4712185159
 40
1.0
 40
1.0
 40
1.0
 40
1.0
 10
-9.9676048601
 20
280.8266331073
 30
0.0
 10
-9.5099460364
 20
280.3518122729
 30
0.0
 10
-8.4495336061
 20
279.42914411
 30
0.0
 10
-7.2802967617
 20
278.6542199155
 30
0.0
 10
-6.6440057422
 20
278.2763517006
 30
0.0
  0
SPLINE
  5
35B
100
AcDbEntity
  8
0
100
AcDbSpline
 62
7
  6
CONTINUOUS
 70
0
 71
3
 72
13
 73
9
 74
0
 42
0.0000001
 43
0.0000001
 44
0.0000000001
 40
0.0
 40
0.0
 40
0.0
 40
0.0
 40
0.0965684165
 40
0.2040942771
 40
0.3215572646
 40
0.4475469046
 40
0.7180122689
 40
1.0
 40
1.0
 40
1.0
 40
1.0
 10
-6.6440057422
 20
278.2763517006
 30
0.0
 10
-5.7864844415
 20
277.7671035213
 30
0.0
 10
-3.901739342
 20
276.8112883667
 30
0.0
 10
-0.802041391
 20
275.6085845611
 30
0.0
 10
2.6766216051
 20
274.576821505
 30
0.0
 10
7.86189875
 20
273.4276243066
 30
0.0
 10
14.8311726129
 20
272.5591759691
 30
0.0
 10
20.5472513758
 20
272.4519472744
 30
0.0
 10
23.4579199939
 20
272.5493964547
 30
0.0
  0
SPLINE
  5
35C
100
AcDbEntity
  8
0
100
AcDbSpline
 62
7
  6
CONTINUOUS
 70
0
 71
3
 72
12
 73
8
 74
0
 42
0.0000001
 43
0.0000001
 44
0.0000000001
 40
0.0
 40
0.0
 40
0.0
 40
0.0
 40
0.2848798684
 40
0.553135982
 40
0.7941524001
 40
0.9018512908
 40
1.0
 40
1.0
 40
1.0
 40
1.0
 10
23.4579199939
 20
272.5493964547
 30
0.0
 10
25.8697150837
 20
272.6301433502
 30
0.0
 10
30.5491995339
 20
272.9902692025
 30
0.0
 10
37.187616941
 20
274.1365485851
 30
0.0
 10
42.2250752004
 20
275.5890487285
 30
0.0
 10
45.725294895
 20
277.0389965319
 30
0.0
 10
47.2751401688
 20
277.845197183
 30
0.0
 10
47.9902429067
 20
278.2692760027
 30
0.0
  0
SPLINE
  5
35D
100
AcDbEntity
  8
0
100
AcDbSpline
 62
7
  6
CONTINUOUS
 70
0
 71
3
 72
9
 73
5
 74
0
 42
0.0000001
 43
0.0000001
 44
0.0000000001
 40
0.0
 40
0.0
 40
0.0
 40
0.0
 40
0.5463886723
 40
1.0
 40
1.0
 40
1.0
 40
1.0
 10
47.9902429067
 20
278.2692760027
 30
0.0
 10
48.9625350802
 20
278.8458763924
 30
0.0
 10
50.6703889622
 20
280.0338389187
 30
0.0
 10
52.0721577597
 20
281.601920482
 30
0.0
 10
52.5591142961
 20
282.4041584417
 30
0.0
  0
SPLINE
  5
35E
100
AcDbEntity
  8
0
100
AcDbSpline
 62
7
  6
CONTINUOUS
 70
0
 71
3
 72
9
 73
5
 74
0
 42
0.0000001
 43
0.0000001
 44
0.0000000001
 40
0.0
 40
0.0
 40
0.0
 40
0.0
 40
0.5114502517
 40
1.0
 40
1.0
 40
1.0
 40
1.0
 10
52.7876380507
 20
282.8094110747
 30
0.0
 10
53.0751155251
 20
283.3610895307
 30
0.0
 10
53.4930045967
 20
284.5291689324
 30
0.0
 10
53.4754627406
 20
285.774938832
 30
0.0
 10
53.3648170877
 20
286.3587797077
 30
0.0
  0
SPLINE
  5
35F
100
AcDbEntity
  8
0
100
AcDbSpline
 62
7
  6
CONTINUOUS
 70
0
 71
3
 72
22
 73
18
 74
0
 42
0.0000001
 43
0.0000001
 44
0.0000000001
 40
0.0
 40
0.0
 40
0.0
 40
0.0
 40
0.0403831448
 40
0.0504517941
 40
0.0605541597
 40
0.0706871593
 40
0.0808814412
 40
0.1014955236
 40
0.1225484043
 40
0.1663554173
 40
0.2131719568
 40
0.2636190163
 40
0.3768434424
 40
0.5077985251
 40
0.6563388536
 40
0.8211273459
 40
1.0
 40
1.0
 40
1.0
 40
1.0
 10
61.282552008
 20
285.5907110795
 30
0.0
 10
61.3485526813
 20
285.2099376891
 30
0.0
 10
61.3936252428
 20
284.7249969586
 30
0.0
 10
61.3676974296
 20
284.146095129
 30
0.0
 10
61.3506595428
 20
283.8565280415
 30
0.0
 10
61.3150264122
 20
283.5672362644
 30
0.0
 10
61.2414463903
 20
283.1823478687
 30
0.0
 10
61.1305364074
 20
282.6979846817
 30
0.0
 10
60.8651519605
 20
281.9231005964
 30
0.0
 10
60.4036228772
 20
280.9544552367
 30
0.0
 10
59.6456183997
 20
279.8321434964
 30
0.0
 10
58.3158699585
 20
278.3134367211
 30
0.0
 10
56.118166825
 20
276.5176855093
 30
0.0
 10
52.8672524906
 20
274.6126229556
 30
0.0
 10
48.9622347609
 20
272.9102402581
 30
0.0
 10
44.4803761385
 20
271.4438991742
 30
0.0
 10
41.2802532906
 20
270.6707639445
 30
0.0
 10
39.6039532649
 20
270.324238514
 30
0.0
  0
SPLINE
  5
360
100
AcDbEntity
  8
0
100
AcDbSpline
 62
7
  6
CONTINUOUS
 70
0
 71
3
 72
19
 73
15
 74
0
 42
0.0000001
 43
0.0000001
 44
0.0000000001
 40
0.0
 40
0.0
 40
0.0
 40
0.0
 40
0.1521600165
 40
0.3090871912
 40
0.4634641746
 40
0.6081857699
 40
0.6749526957
 40
0.7370740651
 40
0.7940335117
 40
0.845489852
 40
0.8913398364
 40
0.9318112971
 40
0.9675966456
 40
1.0
 40
1.0
 40
1.0
 40
1.0
 10
36.1359108819
 20
269.6874423315
 30
0.0
 10
33.0834196651
 20
269.1944238133
 30
0.0
 10
26.8260784945
 20
268.5251723631
 30
0.0
 10
17.3965132035
 20
268.394743705
 30
0.0
 10
8.1446040056
 20
269.1148222479
 30
0.0
 10
0.8086813184
 20
270.4206751336
 30
0.0
 10
-4.5570202179
 20
271.8909756617
 30
0.0
 10
-8.1259419399
 20
273.1366332495
 30
0.0
 10
-11.3004870201
 20
274.5373427393
 30
0.0
 10
-14.0390207012
 20
276.0751033633
 30
0.0
 10
-16.3066118503
 20
277.7312543849
 30
0.0
 10
-18.0743940164
 20
279.4902282579
 30
0.0
 10
-19.3155019096
 20
281.3370134624
 30
0.0
 10
-19.7833970054
 20
282.6633575554
 30
0.0
 10
-19.9060035026
 20
283.3103120473
 30
0.0
  0
SPLINE
  5
361
100
AcDbEntity
  8
0
100
AcDbSpline
 62
7
  6
CONTINUOUS
 70
0
 71
3
 72
9
 73
5
 74
0
 42
0.0000001
 43
0.0000001
 44
0.0000000001
 40
0.0
 40
0.0
 40
0.0
 40
0.0
 40
0.2546658805
 40
1.0
 40
1.0
 40
1.0
 40
1.0
 10
-10.9723618632
 20
286.6134013251
 30
0.0
 10
-11.00516132
 20
286.5266804909
 30
0.0
 10
-11.1258598541
 20
286.1831669628
 30
0.0
 10
-11.2129273077
 20
285.8276690288
 30
0.0
 10
-11.2562586884
 20
285.5597970844
 30
0.0
  0
SPLINE
  5
362
100
AcDbEntity
  8
0
100
AcDbSpline
 62
7
  6
CONTINUOUS
 70
0
 71
3
 72
9
 73
5
 74
0
 42
0.0000001
 43
0.0000001
 44
0.0000000001
 40
0.0
 40
0.0
 40
0.0
 40
0.0
 40
0.5179002842
 40
1.0
 40
1.0
 40
1.0
 40
1.0
 10
17.9002559253
 20
298.2500862959
 30
0.0
 10
15.2431822307
 20
298.1611274738
 30
0.0
 10
10.1177747468
 20
297.7443652906
 30
0.0
 10
5.0593178026
 20
296.7938760595
 30
0.0
 10
2.6635171011
 20
296.1736316733
 30
0.0
  0
SPLINE
  5
363
100
AcDbEntity
  8
0
100
AcDbSpline
 62
7
  6
CONTINUOUS
 70
0
 71
3
 72
9
 73
5
 74
0
 42
0.0000001
 43
0.0000001
 44
0.0000000001
 40
0.0
 40
0.0
 40
0.0
 40
0.0
 40
0.2580021185
 40
1.0
 40
1.0
 40
1.0
 40
1.0
 10
2.6635171011
 20
296.1736316733
 30
0.0
 10
2.3355935537
 20
296.0887361562
 30
0.0
 10
1.0677633257
 20
295.7476353249
 30
0.0
 10
-0.1870340706
 20
295.3572163352
 30
0.0
 10
-1.1065087949
 20
295.0353599116
 30
0.0
  0
SPLINE
  5
364
100
AcDbEntity
  8
0
100
AcDbSpline
 62
7
  6
CONTINUOUS
 70
0
 71
3
 72
15
 73
11
 74
0
 42
0.0000001
 43
0.0000001
 44
0.0000000001
 40
0.0
 40
0.0
 40
0.0
 40
0.0
 40
0.1742323483
 40
0.3333169888
 40
0.4765697605
 40
0.6040384923
 40
0.7167931926
 40
0.8172983153
 40
0.9097772522
 40
1.0
 40
1.0
 40
1.0
 40
1.0
 10
-1.1065087949
 20
295.0353599116
 30
0.0
 10
-2.0059746111
 20
294.7205074822
 30
0.0
 10
-3.7070398414
 20
294.0588488489
 30
0.0
 10
-6.0515342075
 20
292.9114425441
 30
0.0
 10
-8.0509608477
 20
291.6654371166
 30
0.0
 10
-9.6810846881
 20
290.3342606375
 30
0.0
 10
-10.9214671694
 20
288.9295121713
 30
0.0
 10
-11.7516736034
 20
287.4599598921
 30
0.0
 10
-12.1441124093
 20
285.9409459419
 30
0.0
 10
-12.0985268816
 20
284.9255553411
 30
0.0
 10
-12.0066410488
 20
284.440703657
 30
0.0
  0
SPLINE
  5
365
100
AcDbEntity
  8
0
100
AcDbSpline
 62
7
  6
CONTINUOUS
 70
0
 71
3
 72
8
 73
4
 74
0
 42
0.0000001
 43
0.0000001
 44
0.0000000001
 40
0.0
 40
0.0
 40
0.0
 40
0.0
 40
1.0
 40
1.0
 40
1.0
 40
1.0
 10
-19.9059004934
 20
283.3103280725
 30
0.0
 10
-19.9122804054
 20
283.3439927874
 30
0.0
 10
-19.9186294033
 20
283.3776660362
 30
0.0
 10
-19.9244814373
 20
283.4114265162
 30
0.0
  0
SPLINE
  5
366
100
AcDbEntity
  8
0
100
AcDbSpline
 62
7
  6
CONTINUOUS
 70
0
 71
3
 72
14
 73
10
 74
0
 42
0.0000001
 43
0.0000001
 44
0.0000000001
 40
0.0
 40
0.0
 40
0.0
 40
0.0
 40
0.1049792582
 40
0.2103527573
 40
0.3194174346
 40
0.4350690851
 40
0.5596065795
 40
0.6946881889
 40
1.0
 40
1.0
 40
1.0
 40
1.0
 10
-19.9244814373
 20
283.4114265162
 30
0.0
 10
-19.9949544182
 20
283.8179862942
 30
0.0
 10
-20.058191399
 20
284.6486397872
 30
0.0
 10
-19.9038914692
 20
285.9023385246
 30
0.0
 10
-19.5022135332
 20
287.1436687844
 30
0.0
 10
-18.8592534532
 20
288.3631620539
 30
0.0
 10
-17.9817017874
 20
289.5546775692
 30
0.0
 10
-16.4449825304
 20
291.1636501126
 30
0.0
 10
-15.0475580015
 20
292.2082061625
 30
0.0
 10
-14.038293354
 20
292.857407684
 30
0.0
  0
SPLINE
  5
367
100
AcDbEntity
  8
0
100
AcDbSpline
 62
7
  6
CONTINUOUS
 70
0
 71
3
 72
20
 73
16
 74
0
 42
0.0000001
 43
0.0000001
 44
0.0000000001
 40
0.0
 40
0.0
 40
0.0
 40
0.0
 40
0.0513641004
 40
0.1087646545
 40
0.1715845173
 40
0.2389782827
 40
0.3832713902
 40
0.5324987021
 40
0.6768396384
 40
0.7442721287
 40
0.8071364431
 40
0.8645857075
 40
0.9160130341
 40
0.9610783436
 40
1.0
 40
1.0
 40
1.0
 40
1.0
 10
-13.1672108127
 20
293.3934938961
 30
0.0
 10
-12.0428826099
 20
294.0560505854
 30
0.0
 10
-9.5638156682
 20
295.2941682342
 30
0.0
 10
-5.4803332306
 20
296.8359588042
 30
0.0
 10
-0.890693046
 20
298.1418996409
 30
0.0
 10
5.9417597958
 20
299.5651191012
 30
0.0
 10
15.0808760478
 20
300.5660775254
 30
0.0
 10
26.2247651145
 20
300.5688915099
 30
0.0
 10
35.3665630415
 20
299.5726626445
 30
0.0
 10
42.2032030917
 20
298.1530521031
 30
0.0
 10
46.7969023063
 20
296.8496454717
 30
0.0
 10
50.88563257
 20
295.3092034646
 30
0.0
 10
54.3953788884
 20
293.5625632333
 30
0.0
 10
57.258878195
 20
291.6363790712
 30
0.0
 10
58.814050185
 20
290.1492714925
 30
0.0
 10
59.4375746655
 20
289.3817203977
 30
0.0
  0
SPLINE
  5
368
100
AcDbEntity
  8
0
100
AcDbSpline
 62
7
  6
CONTINUOUS
 70
0
 71
3
 72
8
 73
4
 74
0
 42
0.0000001
 43
0.0000001
 44
0.0000000001
 40
0.0
 40
0.0
 40
0.0
 40
0.0
 40
1.0
 40
1.0
 40
1.0
 40
1.0
 10
59.4375746655
 20
289.3817203977
 30
0.0
 10
59.5422817174
 20
289.2528272831
 30
0.0
 10
59.645224457
 20
289.122439657
 30
0.0
 10
59.7448728337
 20
288.9895968825
 30
0.0
  0
SPLINE
  5
369
100
AcDbEntity
  8
0
100
AcDbSpline
 62
7
  6
CONTINUOUS
 70
0
 71
3
 72
14
 73
10
 74
0
 42
0.0000001
 43
0.0000001
 44
0.0000000001
 40
0.0
 40
0.0
 40
0.0
 40
0.0
 40
0.2660893102
 40
0.3950277264
 40
0.5205157916
 40
0.6431943894
 40
0.7642193064
 40
0.8827043805
 40
1.0
 40
1.0
 40
1.0
 40
1.0
 10
59.8103916521
 20
288.901204697
 30
0.0
 10
59.9964856333
 20
288.6470101566
 30
0.0
 10
60.250654737
 20
288.2533466488
 30
0.0
 10
60.5558287105
 20
287.7178220999
 30
0.0
 10
60.7514044732
 20
287.3159796809
 30
0.0
 10
60.9162336509
 20
286.911064651
 30
0.0
 10
61.0657823831
 20
286.5087892694
 30
0.0
 10
61.1758728765
 20
286.1005714089
 30
0.0
 10
61.2383216963
 20
285.8283835365
 30
0.0
 10
61.2641792919
 20
285.6919414396
 30
0.0
  0
SPLINE
  5
36A
100
AcDbEntity
  8
0
100
AcDbSpline
 62
7
  6
CONTINUOUS
 70
0
 71
3
 72
18
 73
14
 74
0
 42
0.0000001
 43
0.0000001
 44
0.0000000001
 40
0.0
 40
0.0
 40
0.0
 40
0.0
 40
0.033728336
 40
0.0701778031
 40
0.1103996301
 40
0.1550789249
 40
0.2045602509
 40
0.2589381153
 40
0.3817990547
 40
0.5214804281
 40
0.6742478632
 40
0.8354638958
 40
1.0
 40
1.0
 40
1.0
 40
1.0
 10
53.3648170877
 20
286.3587797077
 30
0.0
 10
53.2830840723
 20
286.7900580639
 30
0.0
 10
52.9991378449
 20
287.6683545144
 30
0.0
 10
52.2690040077
 20
288.9158886688
 30
0.0
 10
51.2372203807
 20
290.1206929191
 30
0.0
 10
49.9164320172
 20
291.2744034804
 30
0.0
 10
48.3190622223
 20
292.3696121293
 30
0.0
 10
45.7330097226
 20
293.7978520266
 30
0.0
 10
41.8902199882
 20
295.3371828897
 30
0.0
 10
36.6646758923
 20
296.7515266607
 30
0.0
 10
30.8368289277
 20
297.7469334954
 30
0.0
 10
24.6262995661
 20
298.2846262219
 30
0.0
 10
20.3820360291
 20
298.3236114827
 30
0.0
 10
18.2416149497
 20
298.2608085529
 30
0.0
  0
SPLINE
  5
36B
100
AcDbEntity
  8
0
100
AcDbSpline
 62
7
  6
CONTINUOUS
 70
0
 71
3
 72
8
 73
4
 74
0
 42
0.0000001
 43
0.0000001
 44
0.0000000001
 40
0.0
 40
0.0
 40
0.0
 40
0.0
 40
1.0
 40
1.0
 40
1.0
 40
1.0
 10
-8.0878634636
 20
268.4023629638
 30
0.0
 10
-8.0368447228
 20
268.3855021198
 30
0.0
 10
-7.9860525265
 20
268.3679631966
 30
0.0
 10
-7.9351181078
 20
268.3508493144
 30
0.0
  0
SPLINE
  5
36C
100
AcDbEntity
  8
0
100
AcDbSpline
 62
7
  6
CONTINUOUS
 70
0
 71
3
 72
17
 73
13
 74
0
 42
0.0000001
 43
0.0000001
 44
0.0000000001
 40
0.0
 40
0.0
 40
0.0
 40
0.0
 40
0.2429919332
 40
0.3655345837
 40
0.4888691974
 40
0.6131173726
 40
0.738551578
 40
0.8018924601
 40
0.8658950486
 40
0.9310894991
 40
0.9647779428
 40
1.0
 40
1.0
 40
1.0
 40
1.0
 10
-7.9356814894
 20
268.3511791745
 30
0.0
 10
-7.8192156936
 20
268.3120454784
 30
0.0
 10
-7.6444005692
 20
268.2520132255
 30
0.0
 10
-7.4117306138
 20
268.168528792
 30
0.0
 10
-7.2364045003
 20
268.1030656269
 30
0.0
 10
-7.060803641
 20
268.0341455056
 30
0.0
 10
-6.9150633518
 20
267.9725017339
 30
0.0
 10
-6.7989621878
 20
267.918665028
 30
0.0
 10
-6.7125976739
 20
267.8746621386
 30
0.0
 10
-6.6403262164
 20
267.832005018
 30
0.0
 10
-6.5888686346
 20
267.792261191
 30
0.0
 10
-6.5614615657
 20
267.7608712828
 30
0.0
 10
-6.563633535
 20
267.7431947968
 30
0.0
  0
SPLINE
  5
36D
100
AcDbEntity
  8
0
100
AcDbSpline
 62
7
  6
CONTINUOUS
 70
0
 71
3
 72
9
 73
5
 74
0
 42
0.0000001
 43
0.0000001
 44
0.0000000001
 40
0.0
 40
0.0
 40
0.0
 40
0.0
 40
0.4779946964
 40
1.0
 40
1.0
 40
1.0
 40
1.0
 10
-7.9356814894
 20
268.3511791745
 30
0.0
 10
-5.6402991494
 20
267.5805420964
 30
0.0
 10
-0.7376675046
 20
266.2631116962
 30
0.0
 10
4.2624898947
 20
265.4114140532
 30
0.0
 10
6.884778995
 20
265.0714833307
 30
0.0
  0
SPLINE
  5
36E
100
AcDbEntity
  8
0
100
AcDbSpline
 62
7
  6
CONTINUOUS
 70
0
 71
3
 72
9
 73
5
 74
0
 42
0.0000001
 43
0.0000001
 44
0.0000000001
 40
0.0
 40
0.0
 40
0.0
 40
0.0
 40
0.4733981568
 40
1.0
 40
1.0
 40
1.0
 40
1.0
 10
-6.8785834552
 20
264.9904955072
 30
0.0
 10
-4.7309790933
 20
265.350915394
 30
0.0
 10
-0.1216317569
 20
265.6992161843
 30
0.0
 10
4.4821207499
 20
265.3824063857
 30
0.0
 10
6.8843907712
 20
265.0709543436
 30
0.0
  0
SPLINE
  5
36F
100
AcDbEntity
  8
0
100
AcDbSpline
 62
7
  6
CONTINUOUS
 70
0
 71
3
 72
12
 73
8
 74
0
 42
0.0000001
 43
0.0000001
 44
0.0000000001
 40
0.0
 40
0.0
 40
0.0
 40
0.0
 40
0.309754251
 40
0.4518855125
 40
0.5190932946
 40
0.5834140333
 40
1.0
 40
1.0
 40
1.0
 40
1.0
 10
6.8843907712
 20
265.0709543436
 30
0.0
 10
3.9721284534
 20
265.3315317054
 30
0.0
 10
-0.3147551491
 20
265.4420737244
 30
0.0
 10
-5.1929164161
 20
264.9307686686
 30
0.0
 10
-7.7381462661
 20
264.4717351989
 30
0.0
 10
-12.7656213197
 20
263.3141891126
 30
0.0
 10
-17.1982510739
 20
261.3059977845
 30
0.0
 10
-19.9464566678
 20
258.4934285979
 30
0.0
  0
SPLINE
  5
370
100
AcDbEntity
  8
0
100
AcDbSpline
 62
7
  6
CONTINUOUS
 70
0
 71
3
 72
11
 73
7
 74
0
 42
0.0000001
 43
0.0000001
 44
0.0000000001
 40
0.0
 40
0.0
 40
0.0
 40
0.0
 40
0.2144167968
 40
0.4506300331
 40
0.7120792914
 40
1.0
 40
1.0
 40
1.0
 40
1.0
 10
-19.947779375
 20
258.4984071644
 30
0.0
 10
-19.2138387295
 20
259.2595564799
 30
0.0
 10
-17.5131136965
 20
260.7113912399
 30
0.0
 10
-14.4865753591
 20
262.518824231
 30
0.0
 10
-10.893422502
 20
263.9993761554
 30
0.0
 10
-8.2682921988
 20
264.6995569392
 30
0.0
 10
-6.8785834552
 20
264.9904955072
 30
0.0
  0
SPLINE
  5
371
100
AcDbEntity
  8
0
100
AcDbSpline
 62
7
  6
CONTINUOUS
 70
0
 71
3
 72
15
 73
11
 74
0
 42
0.0000001
 43
0.0000001
 44
0.0000000001
 40
0.0
 40
0.0
 40
0.0
 40
0.0
 40
0.1563673141
 40
0.3061142182
 40
0.4472344852
 40
0.5783329561
 40
0.6987925812
 40
0.8086281635
 40
0.9086738846
 40
1.0
 40
1.0
 40
1.0
 40
1.0
 10
6.822593233
 20
264.7994764715
 30
0.0
 10
5.3560164487
 20
264.906164638
 30
0.0
 10
2.4757689083
 20
265.0046506984
 30
0.0
 10
-1.73017863
 20
264.8385265558
 30
0.0
 10
-5.6758259693
 20
264.3674146876
 30
0.0
 10
-9.2872643744
 20
263.5700056567
 30
0.0
 10
-12.5272804288
 20
262.5253455684
 30
0.0
 10
-15.3645113365
 20
261.2411741918
 30
0.0
 10
-17.7755678338
 20
259.7362628064
 30
0.0
 10
-19.1526246867
 20
258.5686719723
 30
0.0
 10
-19.7760411513
 20
257.9779806954
 30
0.0
  0
SPLINE
  5
372
100
AcDbEntity
  8
0
100
AcDbSpline
 62
7
  6
CONTINUOUS
 70
0
 71
3
 72
9
 73
5
 74
0
 42
0.0000001
 43
0.0000001
 44
0.0000000001
 40
0.0
 40
0.0
 40
0.0
 40
0.0
 40
0.403191831
 40
1.0
 40
1.0
 40
1.0
 40
1.0
 10
6.8843847092
 20
265.0704052521
 30
0.0
 10
6.8596995578
 20
265.042177616
 30
0.0
 10
6.8440609746
 20
264.9434284741
 30
0.0
 10
6.8312075522
 20
264.8543082728
 30
0.0
 10
6.8225917131
 20
264.7994750565
 30
0.0
  0
SPLINE
  5
373
100
AcDbEntity
  8
0
100
AcDbSpline
 62
7
  6
CONTINUOUS
 70
0
 71
3
 72
9
 73
5
 74
0
 42
0.0000001
 43
0.0000001
 44
0.0000000001
 40
0.0
 40
0.0
 40
0.0
 40
0.0
 40
0.5303156708
 40
1.0
 40
1.0
 40
1.0
 40
1.0
 10
8.6376917206
 20
261.8911784083
 30
0.0
 10
5.4915089536
 20
260.8452376927
 30
0.0
 10
-0.2963872712
 20
258.3940860087
 30
0.0
 10
-5.5658051389
 20
254.9490974828
 30
0.0
 10
-7.8361735376
 20
253.0868345466
 30
0.0
  0
SPLINE
  5
374
100
AcDbEntity
  8
0
100
AcDbSpline
 62
7
  6
CONTINUOUS
 70
0
 71
3
 72
8
 73
4
 74
0
 42
0.0000001
 43
0.0000001
 44
0.0000000001
 40
0.0
 40
0.0
 40
0.0
 40
0.0
 40
1.0
 40
1.0
 40
1.0
 40
1.0
 10
6.8847706409
 20
265.071344618
 30
0.0
 10
6.9484820049
 20
265.0635041171
 30
0.0
 10
7.0120981756
 20
265.0549082778
 30
0.0
 10
7.0757723731
 20
265.0467714527
 30
0.0
  0
SPLINE
  5
375
100
AcDbEntity
  8
0
100
AcDbSpline
 62
7
  6
CONTINUOUS
 70
0
 71
3
 72
17
 73
13
 74
0
 42
0.0000001
 43
0.0000001
 44
0.0000000001
 40
0.0
 40
0.0
 40
0.0
 40
0.0
 40
0.2482152298
 40
0.3727022216
 40
0.4974614745
 40
0.6225192273
 40
0.7479359891
 40
0.8108207892
 40
0.8738742645
 40
0.9371908506
 40
0.9690603779
 40
1.0
 40
1.0
 40
1.0
 40
1.0
 10
7.0759354939
 20
265.046887308
 30
0.0
 10
7.2210649227
 20
265.0283416817
 30
0.0
 10
7.4388116204
 20
264.9991317336
 30
0.0
 10
7.7289252048
 20
264.9564661973
 30
0.0
 10
7.9468148148
 20
264.921805422
 30
0.0
 10
8.1647412384
 20
264.8837331077
 30
0.0
 10
8.3458123229
 20
264.847678382
 30
0.0
 10
8.4903975999
 20
264.8141590378
 30
0.0
 10
8.5974828796
 20
264.7855655919
 30
0.0
 10
8.6883437255
 20
264.7554127762
 30
0.0
 10
8.7516859661
 20
264.7260480637
 30
0.0
 10
8.7896903155
 20
264.6985591724
 30
0.0
 10
8.7886753016
 20
264.6803501913
 30
0.0
  0
SPLINE
  5
376
100
AcDbEntity
  8
0
100
AcDbSpline
 62
7
  6
CONTINUOUS
 70
0
 71
3
 72
9
 73
5
 74
0
 42
0.0000001
 43
0.0000001
 44
0.0000000001
 40
0.0
 40
0.0
 40
0.0
 40
0.0
 40
0.4950733662
 40
1.0
 40
1.0
 40
1.0
 40
1.0
 10
7.0759354939
 20
265.046887308
 30
0.0
 10
9.8447430782
 20
264.6934612354
 30
0.0
 10
15.469172475
 20
264.2142597064
 30
0.0
 10
21.1130664666
 20
264.164955748
 30
0.0
 10
23.9586676072
 20
264.2484837159
 30
0.0
  0
SPLINE
  5
377
100
AcDbEntity
  8
0
100
AcDbSpline
 62
7
  6
CONTINUOUS
 70
0
 71
3
 72
15
 73
11
 74
0
 42
0.0000001
 43
0.0000001
 44
0.0000000001
 40
0.0
 40
0.0
 40
0.0
 40
0.0
 40
0.2730189462
 40
0.5385157
 40
0.6019953125
 40
0.6640770607
 40
0.7244814771
 40
0.7830799532
 40
0.8951043005
 40
1.0
 40
1.0
 40
1.0
 40
1.0
 10
23.9587598474
 20
264.2479376212
 30
0.0
 10
20.8561919651
 20
264.0395772587
 30
0.0
 10
14.7562436889
 20
263.2143838966
 30
0.0
 10
8.1321519251
 20
261.348318027
 30
0.0
 10
3.9726022891
 20
259.7538518693
 30
0.0
 10
2.0267543506
 20
258.9157919488
 30
0.0
 10
0.162526335
 20
258.032555689
 30
0.0
 10
-2.1741274701
 20
256.8214751622
 30
0.0
 10
-4.8713818816
 20
255.2111067554
 30
0.0
 10
-6.8874524154
 20
253.7770210831
 30
0.0
 10
-7.8271574518
 20
253.0392596025
 30
0.0
  0
SPLINE
  5
378
100
AcDbEntity
  8
0
100
AcDbSpline
 62
7
  6
CONTINUOUS
 70
0
 71
3
 72
15
 73
11
 74
0
 42
0.0000001
 43
0.0000001
 44
0.0000000001
 40
0.0
 40
0.0
 40
0.0
 40
0.0
 40
0.1354514451
 40
0.2714598936
 40
0.4058270085
 40
0.5366077406
 40
0.6622995892
 40
0.7817717528
 40
0.8944133797
 40
1.0
 40
1.0
 40
1.0
 40
1.0
 10
23.9929894632
 20
263.9743332204
 30
0.0
 10
22.4819536198
 20
263.8477769833
 30
0.0
 10
19.4627259658
 20
263.4763059998
 30
0.0
 10
14.997351213
 20
262.6248562077
 30
0.0
 10
10.6463370944
 20
261.4974482021
 30
0.0
 10
6.5006467475
 20
260.0878245644
 30
0.0
 10
2.6071396466
 20
258.4824264424
 30
0.0
 10
-0.9822937811
 20
256.696531019
 30
0.0
 10
-4.2303748312
 20
254.7539739324
 30
0.0
 10
-6.2227192627
 20
253.3370173132
 30
0.0
 10
-7.171356551
 20
252.6318830552
 30
0.0
  0
SPLINE
  5
379
100
AcDbEntity
  8
0
100
AcDbSpline
 62
7
  6
CONTINUOUS
 70
0
 71
3
 72
10
 73
6
 74
0
 42
0.0000001
 43
0.0000001
 44
0.0000000001
 40
0.0
 40
0.0
 40
0.0
 40
0.0
 40
0.5149063301
 40
0.7596734005
 40
1.0
 40
1.0
 40
1.0
 40
1.0
 10
-52.2159840256
 20
189.0104120106
 30
0.0
 10
-52.8555849635
 20
188.8389634724
 30
0.0
 10
-53.8574547899
 20
188.7384199284
 30
0.0
 10
-55.1234317809
 20
189.001999265
 30
0.0
 10
-55.699447272
 20
189.256355698
 30
0.0
 10
-55.96709952
 20
189.4108993166
 30
0.0
  0
SPLINE
  5
37A
100
AcDbEntity
  8
0
100
AcDbSpline
 62
7
  6
CONTINUOUS
 70
0
 71
3
 72
13
 73
9
 74
0
 42
0.0000001
 43
0.0000001
 44
0.0000000001
 40
0.0
 40
0.0
 40
0.0
 40
0.0
 40
0.1054199736
 40
0.2162072625
 40
0.3355571307
 40
0.4637457895
 40
0.7347562963
 40
1.0
 40
1.0
 40
1.0
 40
1.0
 10
-52.1921844812
 20
275.2994099305
 30
0.0
 10
-52.2960433968
 20
275.3594333666
 30
0.0
 10
-52.534291358
 20
275.4429131844
 30
0.0
 10
-52.922621632
 20
275.4369042699
 30
0.0
 10
-53.315109612
 20
275.3077467628
 30
0.0
 10
-53.8141753552
 20
274.983241934
 30
0.0
 10
-54.2900781299
 20
274.366054427
 30
0.0
 10
-54.447389061
 20
273.7525411924
 30
0.0
 10
-54.447389061
 20
273.4507233991
 30
0.0
  0
SPLINE
  5
37B
100
AcDbEntity
  8
0
100
AcDbSpline
 62
7
  6
CONTINUOUS
 70
0
 71
3
 72
10
 73
6
 74
0
 42
0.0000001
 43
0.0000001
 44
0.0000000001
 40
0.0
 40
0.0
 40
0.0
 40
0.0
 40
0.5252520963
 40
0.7668039053
 40
1.0
 40
1.0
 40
1.0
 40
1.0
 10
-54.447389061
 20
195.3072812575
 30
0.0
 10
-54.447389061
 20
195.0834759513
 30
0.0
 10
-54.3818567301
 20
194.7466411714
 30
0.0
 10
-54.1391674547
 20
194.3907212006
 30
0.0
 10
-53.9787052102
 20
194.2615274668
 30
0.0
 10
-53.8926761889
 20
194.211808505
 30
0.0
  0
SPLINE
  5
37C
100
AcDbEntity
  8
0
100
AcDbSpline
 62
7
  6
CONTINUOUS
 70
0
 71
3
 72
13
 73
9
 74
0
 42
0.0000001
 43
0.0000001
 44
0.0000000001
 40
0.0
 40
0.0
 40
0.0
 40
0.0
 40
0.1054199736
 40
0.2162072625
 40
0.3355571307
 40
0.4637457895
 40
0.7347562963
 40
1.0
 40
1.0
 40
1.0
 40
1.0
 10
-52.1921844812
 20
197.1559677888
 30
0.0
 10
-52.2960433968
 20
197.2159912249
 30
0.0
 10
-52.534291358
 20
197.2994710427
 30
0.0
 10
-52.922621632
 20
197.2934621282
 30
0.0
 10
-53.315109612
 20
197.1643046211
 30
0.0
 10
-53.8141753552
 20
196.8397997924
 30
0.0
 10
-54.2900781299
 20
196.2226122854
 30
0.0
 10
-54.447389061
 20
195.6090990508
 30
0.0
 10
-54.447389061
 20
195.3072812575
 30
0.0
  0
SPLINE
  5
37D
100
AcDbEntity
  8
0
100
AcDbSpline
 62
7
  6
CONTINUOUS
 70
0
 71
3
 72
10
 73
6
 74
0
 42
0.0000001
 43
0.0000001
 44
0.0000000001
 40
0.0
 40
0.0
 40
0.0
 40
0.0
 40
0.5252520963
 40
0.7668039053
 40
1.0
 40
1.0
 40
1.0
 40
1.0
 10
-54.447389061
 20
273.4507233991
 30
0.0
 10
-54.447389061
 20
273.2269180929
 30
0.0
 10
-54.3818567301
 20
272.8900833131
 30
0.0
 10
-54.1391674547
 20
272.5341633423
 30
0.0
 10
-53.9787052102
 20
272.4049696085
 30
0.0
 10
-53.8926761889
 20
272.3552506466
 30
0.0
  0
SPLINE
  5
37E
100
AcDbEntity
  8
0
100
AcDbSpline
 62
7
  6
CONTINUOUS
 70
0
 71
3
 72
11
 73
7
 74
0
 42
0.0000001
 43
0.0000001
 44
0.0000000001
 40
0.0
 40
0.0
 40
0.0
 40
0.0
 40
0.271768352
 40
0.5268704044
 40
0.7676317877
 40
1.0
 40
1.0
 40
1.0
 40
1.0
 10
-61.2294090434
 20
195.8698572255
 30
0.0
 10
-61.2294090434
 20
195.3571350483
 30
0.0
 10
-61.1296870712
 20
194.3589120381
 30
0.0
 10
-60.6523086381
 20
192.9761157114
 30
0.0
 10
-59.8698487936
 20
191.8256476948
 30
0.0
 10
-59.1618245625
 20
191.2560460076
 30
0.0
 10
-58.7821772264
 20
191.0368358973
 30
0.0
  0
SPLINE
  5
37F
100
AcDbEntity
  8
0
100
AcDbSpline
 62
7
  6
CONTINUOUS
 70
0
 71
3
 72
13
 73
9
 74
0
 42
0.0000001
 43
0.0000001
 44
0.0000000001
 40
0.0
 40
0.0
 40
0.0
 40
0.0
 40
0.234808417
 40
0.3606347824
 40
0.4898729049
 40
0.6205617968
 40
0.7505834308
 40
1.0
 40
1.0
 40
1.0
 40
1.0
 10
-55.0310617227
 20
282.5698099507
 30
0.0
 10
-55.8813246029
 20
282.341892324
 30
0.0
 10
-57.1205111125
 20
281.7085647771
 30
0.0
 10
-58.5094651598
 20
280.5018991897
 30
0.0
 10
-59.4468776423
 20
279.3924421074
 30
0.0
 10
-60.2159316092
 20
278.1423448872
 30
0.0
 10
-60.9690129563
 20
276.3803108656
 30
0.0
 10
-61.2294090434
 20
274.9483446081
 30
0.0
 10
-61.2294090434
 20
274.0132993671
 30
0.0
  0
SPLINE
  5
380
100
AcDbEntity
  8
0
100
AcDbSpline
 62
7
  6
CONTINUOUS
 70
0
 71
3
 72
10
 73
6
 74
0
 42
0.0000001
 43
0.0000001
 44
0.0000000001
 40
0.0
 40
0.0
 40
0.0
 40
0.0
 40
0.2363459806
 40
0.4815551421
 40
1.0
 40
1.0
 40
1.0
 40
1.0
 10
28.1909215845
 20
249.3332211621
 30
0.0
 10
28.8593901165
 20
248.3293393734
 30
0.0
 10
30.0469777247
 20
246.162335826
 30
0.0
 10
31.7697908327
 20
241.3433241162
 30
0.0
 10
32.246780372
 20
237.4103652772
 30
0.0
 10
32.246780372
 20
234.7647271249
 30
0.0
  0
SPLINE
  5
381
100
AcDbEntity
  8
0
100
AcDbSpline
 62
7
  6
CONTINUOUS
 70
0
 71
3
 72
11
 73
7
 74
0
 42
0.0000001
 43
0.0000001
 44
0.0000000001
 40
0.0
 40
0.0
 40
0.0
 40
0.0
 40
0.2461059922
 40
0.5015162386
 40
0.7561101524
 40
1.0
 40
1.0
 40
1.0
 40
1.0
 10
-1.8538496525
 20
251.3729258693
 30
0.0
 10
-4.3359526258
 20
249.7945361636
 30
0.0
 10
-8.9565610596
 20
245.8536450113
 30
0.0
 10
-14.2684097103
 20
238.4440913126
 30
0.0
 10
-17.7169664821
 20
230.032701802
 30
0.0
 10
-18.5796676577
 20
224.0553853451
 30
0.0
 10
-18.5796676577
 20
221.1404190654
 30
0.0
  0
SPLINE
  5
382
100
AcDbEntity
  8
0
100
AcDbSpline
 62
7
  6
CONTINUOUS
 70
0
 71
3
 72
10
 73
6
 74
0
 42
0.0000001
 43
0.0000001
 44
0.0000000001
 40
0.0
 40
0.0
 40
0.0
 40
0.0
 40
0.2403242638
 40
0.4850896596
 40
1.0
 40
1.0
 40
1.0
 40
1.0
 10
-49.697167534
 20
199.5257814632
 30
0.0
 10
-49.8756009286
 20
199.6288085983
 30
0.0
 10
-50.2596074883
 20
199.7983762885
 30
0.0
 10
-51.1035871424
 20
199.9741160733
 30
0.0
 10
-51.7715035247
 20
199.9070800314
 30
0.0
 10
-52.1979070273
 20
199.7927802346
 30
0.0
  0
SPLINE
  5
383
100
AcDbEntity
  8
0
100
AcDbSpline
 62
7
  6
CONTINUOUS
 70
0
 71
3
 72
11
 73
7
 74
0
 42
0.0000001
 43
0.0000001
 44
0.0000000001
 40
0.0
 40
0.0
 40
0.0
 40
0.0
 40
0.2575259466
 40
0.5088228815
 40
0.7555702112
 40
1.0
 40
1.0
 40
1.0
 40
1.0
 10
0.8418206138
 20
197.4495003122
 30
0.0
 10
-0.1421893353
 20
197.3946756904
 30
0.0
 10
-2.0963956197
 20
197.4136920614
 30
0.0
 10
-4.9650495639
 20
197.8471122552
 30
0.0
 10
-7.6920472973
 20
198.6806100296
 30
0.0
 10
-9.3942784203
 20
199.4977895048
 30
0.0
 10
-10.2042970518
 20
199.9656317765
 30
0.0
  0
SPLINE
  5
384
100
AcDbEntity
  8
0
100
AcDbSpline
 62
7
  6
CONTINUOUS
 70
0
 71
3
 72
13
 73
9
 74
0
 42
0.0000001
 43
0.0000001
 44
0.0000000001
 40
0.0
 40
0.0
 40
0.0
 40
0.0
 40
0.2457075376
 40
0.3736343433
 40
0.5027879268
 40
0.6315553219
 40
0.7583551687
 40
1.0
 40
1.0
 40
1.0
 40
1.0
 10
32.246780372
 20
234.7647271249
 30
0.0
 10
32.246780372
 20
231.2645948072
 30
0.0
 10
31.3917581017
 20
225.9129799006
 30
0.0
 10
28.8761042519
 20
219.194897442
 30
0.0
 10
26.2841425215
 20
214.3285507212
 30
0.0
 10
23.0878299556
 20
209.8552396214
 30
0.0
 10
18.2365821288
 20
204.6794492385
 30
0.0
 10
13.8619729867
 20
201.5984712811
 30
0.0
 10
10.7591763269
 20
200.1079018848
 30
0.0
  0
SPLINE
  5
385
100
AcDbEntity
  8
0
100
AcDbSpline
 62
7
  6
CONTINUOUS
 70
0
 71
3
 72
14
 73
10
 74
0
 42
0.0000001
 43
0.0000001
 44
0.0000000001
 40
0.0
 40
0.0
 40
0.0
 40
0.0
 40
0.2647836684
 40
0.4023089551
 40
0.5369530159
 40
0.6649530571
 40
0.7841200326
 40
0.8947373442
 40
1.0
 40
1.0
 40
1.0
 40
1.0
 10
10.7591763269
 20
199.5861494238
 30
0.0
 10
10.7591763269
 20
198.5210798371
 30
0.0
 10
10.3373634821
 20
196.8848166738
 30
0.0
 10
9.1901464417
 20
195.0452154771
 30
0.0
 10
8.0630422036
 20
193.8763609542
 30
0.0
 10
6.7628960882
 20
193.0319101709
 30
0.0
 10
5.3778461017
 20
192.576011145
 30
0.0
 10
4.0070793189
 20
192.5547728328
 30
0.0
 10
3.1662755819
 20
192.8496010529
 30
0.0
 10
2.7996077964
 20
193.061333818
 30
0.0
  0
SPLINE
  5
386
100
AcDbEntity
  8
0
100
AcDbSpline
 62
7
  6
CONTINUOUS
 70
0
 71
3
 72
11
 73
7
 74
0
 42
0.0000001
 43
0.0000001
 44
0.0000000001
 40
0.0
 40
0.0
 40
0.0
 40
0.0
 40
0.2717350397
 40
0.5268969419
 40
0.7676331593
 40
1.0
 40
1.0
 40
1.0
 40
1.0
 10
2.9079363874
 20
197.4815815095
 30
0.0
 10
2.9079363873
 20
197.2423430543
 30
0.0
 10
2.9545214503
 20
196.7764997607
 30
0.0
 10
3.1772100758
 20
196.1311623047
 30
0.0
 10
3.5424740965
 20
195.5943218814
 30
0.0
 10
3.8728451823
 20
195.3285251802
 30
0.0
 10
4.0499971452
 20
195.2262048492
 30
0.0
  0
SPLINE
  5
387
100
AcDbEntity
  8
0
100
AcDbSpline
 62
7
  6
CONTINUOUS
 70
0
 71
3
 72
13
 73
9
 74
0
 42
0.0000001
 43
0.0000001
 44
0.0000000001
 40
0.0
 40
0.0
 40
0.0
 40
0.0
 40
0.271432411
 40
0.526217456
 40
0.6482289435
 40
0.7672664564
 40
0.8841850915
 40
1.0
 40
1.0
 40
1.0
 40
1.0
 10
-18.5796676577
 20
221.1404190654
 30
0.0
 10
-18.5796676577
 20
219.1236995738
 30
0.0
 10
-18.188375242
 20
215.198594347
 30
0.0
 10
-16.5975104866
 20
210.5954624395
 30
0.0
 10
-14.716908982
 20
207.4154836222
 30
0.0
 10
-13.0511114354
 20
205.3300285623
 30
0.0
 10
-11.1328726798
 20
203.541379771
 30
0.0
 10
-9.6990554674
 20
202.5608587676
 30
0.0
 10
-8.9539113525
 20
202.1304966162
 30
0.0
  0
SPLINE
  5
388
100
AcDbEntity
  8
0
100
AcDbSpline
 62
7
  6
CONTINUOUS
 70
0
 71
3
 72
9
 73
5
 74
0
 42
0.0000001
 43
0.0000001
 44
0.0000000001
 40
0.0
 40
0.0
 40
0.0
 40
0.0
 40
0.4874761378
 40
1.0
 40
1.0
 40
1.0
 40
1.0
 10
36.1027280098
 20
250.212316548
 30
0.0
 10
36.8619656715
 20
248.2222495406
 30
0.0
 10
38.0005262896
 20
243.9719082849
 30
0.0
 10
38.3521545006
 20
239.5929416444
 30
0.0
 10
38.3521545006
 20
237.3535195771
 30
0.0
  0
SPLINE
  5
389
100
AcDbEntity
  8
0
100
AcDbSpline
 62
7
  6
CONTINUOUS
 70
0
 71
3
 72
15
 73
11
 74
0
 42
0.0000001
 43
0.0000001
 44
0.0000000001
 40
0.0
 40
0.0
 40
0.0
 40
0.0
 40
0.1226793102
 40
0.2497804871
 40
0.3795759387
 40
0.5100271139
 40
0.6390304753
 40
0.7646372387
 40
0.8852762652
 40
1.0
 40
1.0
 40
1.0
 40
1.0
 10
38.3521545006
 20
237.3535195771
 30
0.0
 10
38.3521545006
 20
234.8500995869
 30
0.0
 10
37.8928524775
 20
229.7447902582
 30
0.0
 10
35.9603235347
 20
222.2135022542
 30
0.0
 10
32.8457163784
 20
214.9159201541
 30
0.0
 10
28.6661170863
 20
208.1271636519
 30
0.0
 10
23.5779636595
 20
202.1000267618
 30
0.0
 10
17.7680466677
 20
197.060901904
 30
0.0
 10
11.4535851426
 20
193.2014316813
 30
0.0
 10
6.9357138692
 20
191.4692849222
 30
0.0
 10
4.6744673915
 20
190.8631454062
 30
0.0
  0
SPLINE
  5
38A
100
AcDbEntity
  8
0
100
AcDbSpline
 62
7
  6
CONTINUOUS
 70
0
 71
3
 72
10
 73
6
 74
0
 42
0.0000001
 43
0.0000001
 44
0.0000000001
 40
0.0
 40
0.0
 40
0.0
 40
0.0
 40
0.521038262
 40
0.7634547985
 40
1.0
 40
1.0
 40
1.0
 40
1.0
 10
-33.6028650638
 20
274.8558283022
 30
0.0
 10
-32.8304037215
 20
275.8883120193
 30
0.0
 10
-31.4890069702
 20
277.2754230128
 30
0.0
 10
-29.357112006
 20
278.5529582207
 30
0.0
 10
-28.238347648
 20
278.9693207978
 30
0.0
 10
-27.6729154593
 20
279.1209175798
 30
0.0
  0
SPLINE
  5
38B
100
AcDbEntity
  8
0
100
AcDbSpline
 62
7
  6
CONTINUOUS
 70
0
 71
3
 72
11
 73
7
 74
0
 42
0.0000001
 43
0.0000001
 44
0.0000000001
 40
0.0
 40
0.0
 40
0.0
 40
0.0
 40
0.2655984915
 40
0.5205170054
 40
0.7648800058
 40
1.0
 40
1.0
 40
1.0
 40
1.0
 10
-31.8178446865
 20
220.9164047083
 30
0.0
 10
-31.7782244821
 20
218.8991549473
 30
0.0
 10
-31.4181375296
 20
214.9438677817
 30
0.0
 10
-29.9863899158
 20
209.2863225293
 30
0.0
 10
-27.7074635
 20
204.1632494716
 30
0.0
 10
-25.6206965198
 20
201.1449895246
 30
0.0
 10
-24.4614742993
 20
199.7861736006
 30
0.0
  0
SPLINE
  5
38C
100
AcDbEntity
  8
0
100
AcDbSpline
 62
7
  6
CONTINUOUS
 70
0
 71
3
 72
12
 73
8
 74
0
 42
0.0000001
 43
0.0000001
 44
0.0000000001
 40
0.0
 40
0.0
 40
0.0
 40
0.0
 40
0.251400145
 40
0.3787755717
 40
0.506140155
 40
0.7574547814
 40
1.0
 40
1.0
 40
1.0
 40
1.0
 10
-17.2883577799
 20
256.6251776798
 30
0.0
 10
-19.6000470978
 20
254.2574339498
 30
0.0
 10
-22.7300929495
 20
250.3232007524
 30
0.0
 10
-26.098616731
 20
244.5676014437
 30
0.0
 10
-28.9062551412
 20
238.5169177732
 30
0.0
 10
-31.2771359116
 20
230.6367902155
 30
0.0
 10
-31.8805363626
 20
224.1083309043
 30
0.0
 10
-31.8178446865
 20
220.9164047083
 30
0.0
  0
SPLINE
  5
38D
100
AcDbEntity
  8
0
100
AcDbSpline
 62
7
  6
CONTINUOUS
 70
0
 71
3
 72
13
 73
9
 74
0
 42
0.0000001
 43
0.0000001
 44
0.0000000001
 40
0.0
 40
0.0
 40
0.0
 40
0.0
 40
0.1054228116
 40
0.2162092768
 40
0.3355568365
 40
0.4637520711
 40
0.7347891091
 40
1.0
 40
1.0
 40
1.0
 40
1.0
 10
4.0499971452
 20
195.2262048492
 30
0.0
 10
4.2638637214
 20
195.1026787053
 30
0.0
 10
4.7543330339
 20
194.9307293339
 30
0.0
 10
5.5538597116
 20
194.943079226
 30
0.0
 10
6.3619416819
 20
195.2089680493
 30
0.0
 10
7.3894904088
 20
195.8771371169
 30
0.0
 10
8.3692053495
 20
197.1479044105
 30
0.0
 10
8.6930605534
 20
198.4109988022
 30
0.0
 10
8.6930605534
 20
199.0323157602
 30
0.0
  0
SPLINE
  5
38E
100
AcDbEntity
  8
0
100
AcDbSpline
 62
7
  6
CONTINUOUS
 70
0
 71
3
 72
11
 73
7
 74
0
 42
0.0000001
 43
0.0000001
 44
0.0000000001
 40
0.0
 40
0.0
 40
0.0
 40
0.0
 40
0.271772124
 40
0.5268740629
 40
0.7676338636
 40
1.0
 40
1.0
 40
1.0
 40
1.0
 10
-48.0656754787
 20
196.3037744897
 30
0.0
 10
-48.0656754787
 20
196.6455936099
 30
0.0
 10
-48.1321486143
 20
197.3110816071
 30
0.0
 10
-48.4504243064
 20
198.2329396909
 30
0.0
 10
-48.9720580057
 20
198.9999133232
 30
0.0
 10
-49.4440711833
 20
199.3796440656
 30
0.0
 10
-49.697167534
 20
199.5257814632
 30
0.0
  0
SPLINE
  5
38F
100
AcDbEntity
  8
0
100
AcDbSpline
 62
7
  6
CONTINUOUS
 70
0
 71
3
 72
9
 73
5
 74
0
 42
0.0000001
 43
0.0000001
 44
0.0000000001
 40
0.0
 40
0.0
 40
0.0
 40
0.0
 40
0.477305613
 40
1.0
 40
1.0
 40
1.0
 40
1.0
 10
-49.8128694312
 20
199.4171487779
 30
0.0
 10
-49.5146105703
 20
199.0814072973
 30
0.0
 10
-49.0446638521
 20
198.2332096427
 30
0.0
 10
-48.9101987879
 20
197.283349727
 30
0.0
 10
-48.9101987879
 20
196.7915554688
 30
0.0
  0
SPLINE
  5
390
100
AcDbEntity
  8
0
100
AcDbSpline
 62
7
  6
CONTINUOUS
 70
0
 71
3
 72
12
 73
8
 74
0
 42
0.0000001
 43
0.0000001
 44
0.0000000001
 40
0.0
 40
0.0
 40
0.0
 40
0.0
 40
0.2349933756
 40
0.4894753556
 40
0.6202647794
 40
0.7503870015
 40
1.0
 40
1.0
 40
1.0
 40
1.0
 10
-52.1979070269
 20
268.742876242
 30
0.0
 10
-51.6310607413
 20
268.8948224966
 30
0.0
 10
-50.5137091409
 20
269.4656823908
 30
0.0
 10
-49.4184218261
 20
270.5945845922
 30
0.0
 10
-48.7413428042
 20
271.6943834232
 30
0.0
 10
-48.239274
 20
272.869277287
 30
0.0
 10
-48.0656754787
 20
273.8238484269
 30
0.0
 10
-48.0656754787
 20
274.4472166314
 30
0.0
  0
SPLINE
  5
391
100
AcDbEntity
  8
0
100
AcDbSpline
 62
7
  6
CONTINUOUS
 70
0
 71
3
 72
10
 73
6
 74
0
 42
0.0000001
 43
0.0000001
 44
0.0000000001
 40
0.0
 40
0.0
 40
0.0
 40
0.0
 40
0.5252520963
 40
0.7668039053
 40
1.0
 40
1.0
 40
1.0
 40
1.0
 10
-51.637471609
 20
196.0604950364
 30
0.0
 10
-51.637471609
 20
196.2843003425
 30
0.0
 10
-51.7030039399
 20
196.6211351224
 30
0.0
 10
-51.9456932153
 20
196.9770550932
 30
0.0
 10
-52.1061554598
 20
197.106248827
 30
0.0
 10
-52.1921844812
 20
197.1559677888
 30
0.0
  0
SPLINE
  5
392
100
AcDbEntity
  8
0
100
AcDbSpline
 62
7
  6
CONTINUOUS
 70
0
 71
3
 72
13
 73
9
 74
0
 42
0.0000001
 43
0.0000001
 44
0.0000000001
 40
0.0
 40
0.0
 40
0.0
 40
0.0
 40
0.1054199736
 40
0.2162072625
 40
0.3355571307
 40
0.4637457895
 40
0.7347562963
 40
1.0
 40
1.0
 40
1.0
 40
1.0
 10
-53.8926761889
 20
194.211808505
 30
0.0
 10
-53.7888172732
 20
194.1517850689
 30
0.0
 10
-53.550569312
 20
194.0683052511
 30
0.0
 10
-53.162239038
 20
194.0743141656
 30
0.0
 10
-52.7697510581
 20
194.2034716727
 30
0.0
 10
-52.2706853148
 20
194.5279765015
 30
0.0
 10
-51.7947825402
 20
195.1451640084
 30
0.0
 10
-51.637471609
 20
195.758677243
 30
0.0
 10
-51.637471609
 20
196.0604950364
 30
0.0
  0
SPLINE
  5
393
100
AcDbEntity
  8
0
100
AcDbSpline
 62
7
  6
CONTINUOUS
 70
0
 71
3
 72
11
 73
7
 74
0
 42
0.0000001
 43
0.0000001
 44
0.0000000001
 40
0.0
 40
0.0
 40
0.0
 40
0.0
 40
0.2428350294
 40
0.4962052843
 40
0.7515938606
 40
1.0
 40
1.0
 40
1.0
 40
1.0
 10
-20.6457834313
 20
220.5865854045
 30
0.0
 10
-20.6457834313
 20
223.540965482
 30
0.0
 10
-19.8288371526
 20
229.595835045
 30
0.0
 10
-16.5323129122
 20
238.2024861401
 30
0.0
 10
-11.4091161543
 20
245.9437957868
 30
0.0
 10
-6.924849518
 20
250.2201965625
 30
0.0
 10
-4.4933543943
 20
252.0149886044
 30
0.0
  0
SPLINE
  5
394
100
AcDbEntity
  8
0
100
AcDbSpline
 62
7
  6
CONTINUOUS
 70
0
 71
3
 72
9
 73
5
 74
0
 42
0.0000001
 43
0.0000001
 44
0.0000000001
 40
0.0
 40
0.0
 40
0.0
 40
0.0
 40
0.4957681637
 40
1.0
 40
1.0
 40
1.0
 40
1.0
 10
-27.6729154593
 20
279.1209175798
 30
0.0
 10
-27.2065187729
 20
279.245962171
 30
0.0
 10
-26.2447285053
 20
279.4252782003
 30
0.0
 10
-25.2672276347
 20
279.4561312774
 30
0.0
 10
-24.7765005209
 20
279.4366921272
 30
0.0
  0
SPLINE
  5
395
100
AcDbEntity
  8
0
100
AcDbSpline
 62
7
  6
CONTINUOUS
 70
0
 71
3
 72
14
 73
10
 74
0
 42
0.0000001
 43
0.0000001
 44
0.0000000001
 40
0.0
 40
0.0
 40
0.0
 40
0.0
 40
0.1173693746
 40
0.2397881738
 40
0.3661752132
 40
0.495033847
 40
0.6246428502
 40
0.7532128969
 40
1.0
 40
1.0
 40
1.0
 40
1.0
 10
8.6930605534
 20
201.5222075827
 30
0.0
 10
10.1909008944
 20
202.1228016435
 30
0.0
 10
13.1450255406
 20
203.628082397
 30
0.0
 10
17.2237674287
 20
206.6112382416
 30
0.0
 10
20.929194268
 20
210.275413019
 30
0.0
 10
24.1417666003
 20
214.5007569168
 30
0.0
 10
26.7603620842
 20
219.1551299771
 30
0.0
 10
29.30872834
 20
225.6262348102
 30
0.0
 10
30.1806645984
 20
230.81770422
 30
0.0
 10
30.1806645984
 20
234.210893464
 30
0.0
  0
SPLINE
  5
396
100
AcDbEntity
  8
0
100
AcDbSpline
 62
7
  6
CONTINUOUS
 70
0
 71
3
 72
11
 73
7
 74
0
 42
0.0000001
 43
0.0000001
 44
0.0000000001
 40
0.0
 40
0.0
 40
0.0
 40
0.0
 40
0.2667144452
 40
0.5218314328
 40
0.7657047409
 40
1.0
 40
1.0
 40
1.0
 40
1.0
 10
30.1806645984
 20
234.210893464
 30
0.0
 10
30.1806645984
 20
235.663115561
 30
0.0
 10
29.9754797353
 20
238.5100118809
 30
0.0
 10
29.0114537528
 20
242.5858796241
 30
0.0
 10
27.4197115903
 20
246.2708357723
 30
0.0
 10
25.9374408414
 20
248.4362532718
 30
0.0
 10
25.1106814569
 20
249.4077934226
 30
0.0
  0
SPLINE
  5
397
100
AcDbEntity
  8
0
100
AcDbSpline
 62
7
  6
CONTINUOUS
 70
0
 71
3
 72
9
 73
5
 74
0
 42
0.0000001
 43
0.0000001
 44
0.0000000001
 40
0.0
 40
0.0
 40
0.0
 40
0.0
 40
0.4897599303
 40
1.0
 40
1.0
 40
1.0
 40
1.0
 10
-33.6028650638
 20
273.7488236623
 30
0.0
 10
-33.6028650638
 20
271.1881744338
 30
0.0
 10
-34.5797789786
 20
265.9397086686
 30
0.0
 10
-37.0895550706
 20
261.252967061
 30
0.0
 10
-38.6886885067
 20
259.117659083
 30
0.0
  0
SPLINE
  5
398
100
AcDbEntity
  8
0
100
AcDbSpline
 62
7
  6
CONTINUOUS
 70
0
 71
3
 72
11
 73
7
 74
0
 42
0.0000001
 43
0.0000001
 44
0.0000000001
 40
0.0
 40
0.0
 40
0.0
 40
0.0
 40
0.2323607163
 40
0.4731244148
 40
0.7282306892
 40
1.0
 40
1.0
 40
1.0
 40
1.0
 10
2.7996077964
 20
193.061333818
 30
0.0
 10
2.4959059105
 20
193.2367068467
 30
0.0
 10
1.9294817092
 20
193.6923642354
 30
0.0
 10
1.3035146664
 20
194.6127401094
 30
0.0
 10
0.9215862093
 20
195.7189799744
 30
0.0
 10
0.8418206137
 20
196.5175687283
 30
0.0
 10
0.8418206138
 20
196.9277478503
 30
0.0
  0
SPLINE
  5
399
100
AcDbEntity
  8
0
100
AcDbSpline
 62
7
  6
CONTINUOUS
 70
0
 71
3
 72
10
 73
6
 74
0
 42
0.0000001
 43
0.0000001
 44
0.0000000001
 40
0.0
 40
0.0
 40
0.0
 40
0.0
 40
0.2559865608
 40
0.510976934
 40
1.0
 40
1.0
 40
1.0
 40
1.0
 10
-38.6886885067
 20
259.117659083
 30
0.0
 10
-39.9742749794
 20
257.401027446
 30
0.0
 10
-42.2795034477
 20
253.7671692596
 30
0.0
 10
-45.653532093
 20
246.0819072953
 30
0.0
 10
-46.8260060146
 20
239.8048354329
 30
0.0
 10
-46.8260060146
 20
235.7077957571
 30
0.0
  0
SPLINE
  5
39A
100
AcDbEntity
  8
0
100
AcDbSpline
 62
7
  6
CONTINUOUS
 70
0
 71
3
 72
13
 73
9
 74
0
 42
0.0000001
 43
0.0000001
 44
0.0000000001
 40
0.0
 40
0.0
 40
0.0
 40
0.0
 40
0.2714336671
 40
0.5262166998
 40
0.6482284782
 40
0.7672657124
 40
0.8841842367
 40
1.0
 40
1.0
 40
1.0
 40
1.0
 10
-46.8260060146
 20
235.7077957571
 30
0.0
 10
-46.8260060146
 20
233.5201580545
 30
0.0
 10
-46.4015432158
 20
229.2624269442
 30
0.0
 10
-44.6758878401
 20
224.2691919834
 30
0.0
 10
-42.6358832574
 20
220.8197569449
 30
0.0
 10
-40.8288997337
 20
218.5575899325
 30
0.0
 10
-38.7481555384
 20
216.617293583
 30
0.0
 10
-37.1928124405
 20
215.553687601
 30
0.0
 10
-36.3845196321
 20
215.0868421345
 30
0.0
  0
SPLINE
  5
39B
100
AcDbEntity
  8
0
100
AcDbSpline
 62
7
  6
CONTINUOUS
 70
0
 71
3
 72
12
 73
8
 74
0
 42
0.0000001
 43
0.0000001
 44
0.0000000001
 40
0.0
 40
0.0
 40
0.0
 40
0.0
 40
0.1156091348
 40
0.2328463818
 40
0.4745758552
 40
0.7298139032
 40
1.0
 40
1.0
 40
1.0
 40
1.0
 10
-12.0481892051
 20
201.1830448811
 30
0.0
 10
-12.7256851077
 20
201.6907225441
 30
0.0
 10
-14.0219301581
 20
202.8081736906
 30
0.0
 10
-16.3354994319
 20
205.4126005514
 30
0.0
 10
-18.638561117
 20
209.3352752278
 30
0.0
 10
-20.2962248597
 20
214.747064
 30
0.0
 10
-20.6457834313
 20
218.6080179931
 30
0.0
 10
-20.6457834313
 20
220.5865854045
 30
0.0
  0
SPLINE
  5
39C
100
AcDbEntity
  8
0
100
AcDbSpline
 62
7
  6
CONTINUOUS
 70
0
 71
3
 72
11
 73
7
 74
0
 42
0.0000001
 43
0.0000001
 44
0.0000000001
 40
0.0
 40
0.0
 40
0.0
 40
0.0
 40
0.2323682304
 40
0.4731296227
 40
0.7282316635
 40
1.0
 40
1.0
 40
1.0
 40
1.0
 10
-55.96709952
 20
189.4108993166
 30
0.0
 10
-56.3467468945
 20
189.6301094278
 30
0.0
 10
-57.0547711721
 20
190.1997111541
 30
0.0
 10
-57.8372309689
 20
191.3501792341
 30
0.0
 10
-58.3146094021
 20
192.7329755192
 30
0.0
 10
-58.4143313463
 20
193.731198481
 30
0.0
 10
-58.4143313463
 20
194.2439206284
 30
0.0
  0
SPLINE
  5
39D
100
AcDbEntity
  8
0
100
AcDbSpline
 62
7
  6
CONTINUOUS
 70
0
 71
3
 72
13
 73
9
 74
0
 42
0.0000001
 43
0.0000001
 44
0.0000000001
 40
0.0
 40
0.0
 40
0.0
 40
0.0
 40
0.1054199736
 40
0.2162072625
 40
0.3355571307
 40
0.4637457895
 40
0.7347562963
 40
1.0
 40
1.0
 40
1.0
 40
1.0
 10
-53.8926761889
 20
272.3552506466
 30
0.0
 10
-53.7888172732
 20
272.2952272106
 30
0.0
 10
-53.550569312
 20
272.2117473927
 30
0.0
 10
-53.162239038
 20
272.2177563073
 30
0.0
 10
-52.7697510581
 20
272.3469138144
 30
0.0
 10
-52.2706853148
 20
272.6714186431
 30
0.0
 10
-51.7947825402
 20
273.2886061501
 30
0.0
 10
-51.637471609
 20
273.9021193847
 30
0.0
 10
-51.637471609
 20
274.203937178
 30
0.0
  0
SPLINE
  5
39E
100
AcDbEntity
  8
0
100
AcDbSpline
 62
7
  6
CONTINUOUS
 70
0
 71
3
 72
11
 73
7
 74
0
 42
0.0000001
 43
0.0000001
 44
0.0000000001
 40
0.0
 40
0.0
 40
0.0
 40
0.0
 40
0.2428152408
 40
0.4886832966
 40
0.7403665505
 40
1.0
 40
1.0
 40
1.0
 40
1.0
 10
-8.9539113525
 20
202.1304966162
 30
0.0
 10
-8.0941983768
 20
201.6339645783
 30
0.0
 10
-6.2721788983
 20
200.785049198
 30
0.0
 10
-3.3350862478
 20
199.9958981781
 30
0.0
 10
-0.2400893938
 20
199.6989622613
 30
0.0
 10
1.8559348834
 20
199.8293083584
 30
0.0
 10
2.9079363874
 20
199.971473332
 30
0.0
  0
SPLINE
  5
39F
100
AcDbEntity
  8
0
100
AcDbSpline
 62
7
  6
CONTINUOUS
 70
0
 71
3
 72
13
 73
9
 74
0
 42
0.0000001
 43
0.0000001
 44
0.0000000001
 40
0.0
 40
0.0
 40
0.0
 40
0.0
 40
0.27090513
 40
0.5258696631
 40
0.6481023029
 40
0.7673390796
 40
0.8843569097
 40
1.0
 40
1.0
 40
1.0
 40
1.0
 10
-21.7718145101
 20
221.2369600433
 30
0.0
 10
-21.7718145101
 20
219.1361649137
 30
0.0
 10
-21.3797539562
 20
215.0436767154
 30
0.0
 10
-19.7920388103
 20
210.2215218855
 30
0.0
 10
-17.9107414824
 20
206.8515898712
 30
0.0
 10
-16.2411419976
 20
204.6177447939
 30
0.0
 10
-14.3141591196
 20
202.6733728652
 30
0.0
 10
-12.8680571528
 20
201.5820640064
 30
0.0
 10
-12.1147655261
 20
201.0954769023
 30
0.0
  0
SPLINE
  5
3A0
100
AcDbEntity
  8
0
100
AcDbSpline
 62
7
  6
CONTINUOUS
 70
0
 71
3
 72
11
 73
7
 74
0
 42
0.0000001
 43
0.0000001
 44
0.0000000001
 40
0.0
 40
0.0
 40
0.0
 40
0.0
 40
0.2497052839
 40
0.505047183
 40
0.7577197025
 40
1.0
 40
1.0
 40
1.0
 40
1.0
 10
-6.8139609019
 20
251.7444273526
 30
0.0
 10
-9.0838028049
 20
249.9182448231
 30
0.0
 10
-13.2485969931
 20
245.6688726823
 30
0.0
 10
-17.9895594527
 20
238.1332606176
 30
0.0
 10
-21.0240578119
 20
229.8542356734
 30
0.0
 10
-21.7718145101
 20
224.0636010986
 30
0.0
 10
-21.7718145101
 20
221.2369600433
 30
0.0
  0
SPLINE
  5
3A1
100
AcDbEntity
  8
0
100
AcDbSpline
 62
7
  6
CONTINUOUS
 70
0
 71
3
 72
11
 73
7
 74
0
 42
0.0000001
 43
0.0000001
 44
0.0000000001
 40
0.0
 40
0.0
 40
0.0
 40
0.0
 40
0.241241956
 40
0.4924001815
 40
0.747533467
 40
1.0
 40
1.0
 40
1.0
 40
1.0
 10
-29.0032188587
 20
219.2985412083
 30
0.0
 10
-29.0032188587
 20
222.5008872612
 30
0.0
 10
-28.2500403152
 20
229.05257697
 30
0.0
 10
-25.1516242916
 20
238.5417540868
 30
0.0
 10
-20.2518170092
 20
247.4072332791
 30
0.0
 10
-15.9108625917
 20
252.6256583508
 30
0.0
 10
-13.5199469182
 20
254.9740707124
 30
0.0
  0
SPLINE
  5
3A2
100
AcDbEntity
  8
0
100
AcDbSpline
 62
7
  6
CONTINUOUS
 70
0
 71
3
 72
11
 73
7
 74
0
 42
0.0000001
 43
0.0000001
 44
0.0000000001
 40
0.0
 40
0.0
 40
0.0
 40
0.0
 40
0.2343782637
 40
0.4782977078
 40
0.7333924434
 40
1.0
 40
1.0
 40
1.0
 40
1.0
 10
-22.0960076619
 20
198.4199282611
 30
0.0
 10
-23.2230329532
 20
199.7603218948
 30
0.0
 10
-25.2427082134
 20
202.7422489621
 30
0.0
 10
-27.4106738262
 20
207.8063795686
 30
0.0
 10
-28.7236977725
 20
213.4008393473
 30
0.0
 10
-29.0032188587
 20
217.3064888015
 30
0.0
 10
-29.0032188587
 20
219.2985412083
 30
0.0
  0
SPLINE
  5
3A3
100
AcDbEntity
  8
0
100
AcDbSpline
 62
7
  6
CONTINUOUS
 70
0
 71
3
 72
12
 73
8
 74
0
 42
0.0000001
 43
0.0000001
 44
0.0000000001
 40
0.0
 40
0.0
 40
0.0
 40
0.0
 40
0.2496129985
 40
0.3797352206
 40
0.5105246444
 40
0.7650066244
 40
1.0
 40
1.0
 40
1.0
 40
1.0
 10
-48.9101987879
 20
274.9349976105
 30
0.0
 10
-48.9101987879
 20
274.3116294061
 30
0.0
 10
-49.0837973091
 20
273.3570582663
 30
0.0
 10
-49.5858661132
 20
272.1821644026
 30
0.0
 10
-50.262945135
 20
271.0823655717
 30
0.0
 10
-51.3582324496
 20
269.9534633703
 30
0.0
 10
-52.4755840497
 20
269.3826034759
 30
0.0
 10
-53.0424303353
 20
269.2306572213
 30
0.0
  0
SPLINE
  5
3A4
100
AcDbEntity
  8
0
100
AcDbSpline
 62
7
  6
CONTINUOUS
 70
0
 71
3
 72
13
 73
9
 74
0
 42
0.0000001
 43
0.0000001
 44
0.0000000001
 40
0.0
 40
0.0
 40
0.0
 40
0.0
 40
0.2494166047
 40
0.3794382448
 40
0.5101271402
 40
0.6393652584
 40
0.765191617
 40
1.0
 40
1.0
 40
1.0
 40
1.0
 10
-58.4143313463
 20
272.3873627701
 30
0.0
 10
-58.4143313463
 20
273.3224081443
 30
0.0
 10
-58.1539352083
 20
274.7543745667
 30
0.0
 10
-57.4008536828
 20
276.5164086962
 30
0.0
 10
-56.6317996605
 20
277.7665059036
 30
0.0
 10
-55.6943871541
 20
278.8759629309
 30
0.0
 10
-54.3054331521
 20
280.0826283133
 30
0.0
 10
-53.0662467829
 20
280.7159557599
 30
0.0
 10
-52.2159840256
 20
280.9438733537
 30
0.0
  0
SPLINE
  5
3A5
100
AcDbEntity
  8
0
100
AcDbSpline
 62
7
  6
CONTINUOUS
 70
0
 71
3
 72
10
 73
6
 74
0
 42
0.0000001
 43
0.0000001
 44
0.0000000001
 40
0.0
 40
0.0
 40
0.0
 40
0.0
 40
0.5252520963
 40
0.7668039053
 40
1.0
 40
1.0
 40
1.0
 40
1.0
 10
-51.637471609
 20
274.203937178
 30
0.0
 10
-51.637471609
 20
274.4277424842
 30
0.0
 10
-51.7030039399
 20
274.7645772641
 30
0.0
 10
-51.9456932153
 20
275.1204972349
 30
0.0
 10
-52.1061554598
 20
275.2496909687
 30
0.0
 10
-52.1921844812
 20
275.2994099305
 30
0.0
  0
ENDSEC
  0
SECTION
  2
OBJECTS
  0
DICTIONARY
  5
C
100
AcDbDictionary
280
0
281
1
  3
ACAD_GROUP
350
D
  3
ACAD_MLINESTYLE
350
17
  3
ACAD_LAYOUT
350
1A
  3
ACAD_PLOTSETTINGS
350
19
  3
ACAD_PLOTSTYLENAME
350
E
  0
DICTIONARY
  5
D
102
{ACAD_REACTORS
330
C
102
}
100
AcDbDictionary
280
0
281
1
  0
ACDBDICTIONARYWDFLT
  5
E
102
{ACAD_REACTORS
330
C
102
}
100
AcDbDictionary
281
1
  3
Normal
350
F
100
AcDbDictionaryWithDefault
340
F
  0
DICTIONARY
  5
17
102
{ACAD_REACTORS
330
C
102
}
100
AcDbDictionary
280
0
281
1
  3
Standard
350
18
  0
DICTIONARY
  5
19
102
{ACAD_REACTORS
330
C
102
}
100
AcDbDictionary
281
1
  0
DICTIONARY
  5
1A
102
{ACAD_REACTORS
330
C
102
}
100
AcDbDictionary
281
1
  3
Model
350
3A6
  3
Layout1
350
3A7
  0
ACDBPLACEHOLDER
  5
F
102
{ACAD_REACTORS
330
E
102
}
  0
MLINESTYLE
  5
18
102
{ACAD_REACTORS
330
17
102
}
100
AcDbMlineStyle
  2
STANDARD
 70
0
  3

 62
256
 51
90.0
 52
90.0
 71
2
 49
0.5
 62
256
  6
BYLAYER
 49
-0.5
 62
256
  6
BYLAYER
  0
LAYOUT
  5
3A6
102
{ACAD_REACTORS
330
1A
102
}
100
AcDbPlotSettings
  1

  2
none_device
  4
ANSI_C_(22.00_x_17.00_Inches)
  6

 40
0.0
 41
0.0
 42
0.0
 43
0.0
 44
558.8
 45
431.8
 46
0.0
 47
0.0
 48
0.0
 49
0.0
140
0.0
141
0.0
142
1.0
143
1.0
 70
1024
 72
1
 73
0
 74
0
  7

 75
0
147
1.0
148
0.0
149
0.0
100
AcDbLayout
  1
Model
 70
0
 71
0
 10
0.0
 20
0.0
 11
558.8
 21
431.8
 12
0.0
 22
0.0
 32
0.0
 14
0.0
 24
0.0
 34
0.0
 15
0.0
 25
0.0
 35
0.0
146
0.0
 13
0.0
 23
0.0
 33
0.0
 16
1.0
 26
0.0
 36
0.0
 17
0.0
 27
1.0
 37
0.0
 76
0
330
216
345
0
346
0
  0
LAYOUT
  5
3A7
102
{ACAD_REACTORS
330
1A
102
}
100
AcDbPlotSettings
  1

  2
none_device
  4
ANSI_C_(22.00_x_17.00_Inches)
  6

 40
0.0
 41
0.0
 42
0.0
 43
0.0
 44
558.8
 45
431.8
 46
0.0
 47
0.0
 48
0.0
 49
0.0
140
0.0
141
0.0
142
1.0
143
1.0
 70
0
 72
1
 73
0
 74
0
  7

 75
0
147
1.0
148
0.0
149
0.0
100
AcDbLayout
  1
Layout1
 70
0
 71
1
 10
0.0
 20
0.0
 11
558.8
 21
431.8
 12
0.0
 22
0.0
 32
0.0
 14
0.0
 24
0.0
 34
0.0
 15
0.0
 25
0.0
 35
0.0
146
0.0
 13
0.0
 23
0.0
 33
0.0
 16
1.0
 26
0.0
 36
0.0
 17
0.0
 27
1.0
 37
0.0
 76
0
330
217
345
0
346
0
  0
ENDSEC
  0
EOF
