999
DXF file: Y:\3D PRATIKA-KAEDRA_OLGA\TRAVAIL_PHASE_5\CAD3D\PKF32G735_3D-Simplified\PKF32G735_2D-isometric.dxf
999
Pro/ENGINEER 2018260 by Parametric Technology Corporation
  0
SECTION
  2
HEADER
  9
$ACADVER
  1
AC1027
  9
$DWGCODEPAGE
  3
ANSI_1252
  9
$EXTMAX
 10
558.8
 20
431.8
 30
0.0
  9
$EXTMIN
 10
0.0
 20
0.0
 30
0.0
  9
$LIMMIN
 10
0.0
 20
0.0
  9
$LIMMAX
 10
558.8
 20
431.8
  9
$VIEWCTR
 10
279.4
 20
215.9
  9
$VIEWSIZE
 40
431.8
  9
$CLAYER
  8
0
  9
$LTSCALE
 40
30.734
  9
$CELTYPE
  6
BYLAYER
  9
$DIMSCALE
 40
1.0
  9
$DIMASZ
 40
0.1875
  9
$DIMEXO
 40
0.0625
  9
$DIMDLI
 40
21.2344
  9
$DIMEXE
 40
0.125
  9
$DIMCEN
 40
5.0292
  9
$DIMLFAC
 40
1.0
  9
$DIMBLK
  1
_CLOSED
  9
$DIMALT
 70
0
  9
$DIMALTF
 40
0.0393700787
  9
$DIMTXT
 40
0.15625
  9
$DIMTOL
 70
0
  9
$DIMLIM
 70
0
  9
$DIMTFAC
 40
1.0
  9
$DIMGAP
 40
0.625
  9
$DIMDSEP
 70
46
  9
$AUNITS
 70
0
  9
$PDMODE
 70
3
  9
$PDSIZE
 40
0.3125
  9
$HANDSEED
  5
3AA
  9
$TILEMODE
 70
1
  9
$MEASUREMENT
 70
1
  9
$INSUNITS
 70
4
  0
ENDSEC
  0
SECTION
  2
CLASSES
  0
CLASS
  1
ACDBDICTIONARYWDFLT
  2
AcDbDictionaryWithDefault
  3
AutoCAD 2000
 90
0
 91
1
280
0
281
0
  0
CLASS
  1
ACDBPLACEHOLDER
  2
AcDbPlaceHolder
  3
AutoCAD 2000
 90
0
 91
1
280
0
281
0
  0
CLASS
  1
LAYOUT
  2
AcDbLayout
  3
AutoCAD 2000
 90
0
 91
0
280
0
281
0
  0
ENDSEC
  0
SECTION
  2
TABLES
  0
TABLE
  2
VPORT
  5
8
100
AcDbSymbolTable
 70
2
  0
VPORT
  5
1F4
100
AcDbSymbolTableRecord
100
AcDbViewportTableRecord
  2
*ACTIVE
 70
0
 10
0.0
 20
0.0
 11
1.0
 21
1.0
 12
279.4
 22
215.9
 13
0.0
 23
0.0
 14
1.0
 24
1.0
 15
0.0
 25
0.0
 16
0.0
 26
0.0
 36
1.0
 17
0.0
 27
0.0
 37
0.0
 40
431.8
 41
1.2941176471
 42
50.0
 43
0.0
 44
0.0
 50
0.0
 51
0.0
 71
0
 72
100
 73
1
 74
1
 75
0
 76
0
 77
0
 78
0
  0
ENDTAB
  0
TABLE
  2
LTYPE
  5
5
100
AcDbSymbolTable
 70
6
  0
LTYPE
  5
14
100
AcDbSymbolTableRecord
100
AcDbLinetypeTableRecord
  2
BYBLOCK
 70
0
  3

 72
65
 73
0
 40
0.0
  0
LTYPE
  5
15
100
AcDbSymbolTableRecord
100
AcDbLinetypeTableRecord
  2
BYLAYER
 70
0
  3

 72
65
 73
0
 40
0.0
  0
LTYPE
  5
16
100
AcDbSymbolTableRecord
100
AcDbLinetypeTableRecord
  2
CONTINUOUS
 70
64
  3
Solid line
 72
65
 73
0
 40
0.0
  0
LTYPE
  5
1F5
100
AcDbSymbolTableRecord
100
AcDbLinetypeTableRecord
  2
CENTER
 70
64
  3
____ _ ____ _ ____ _ ____ _ ____ _ ____ _ ____
 72
65
 73
4
 40
0.6
 49
0.375
 74
0
 49
-0.075
 74
0
 49
0.075
 74
0
 49
-0.075
 74
0
  0
LTYPE
  5
1F6
100
AcDbSymbolTableRecord
100
AcDbLinetypeTableRecord
  2
HIDDEN
 70
64
  3
- - - - - - - - - - - - - - - - - - - -
 72
65
 73
2
 40
0.2
 49
0.1
 74
0
 49
-0.1
 74
0
  0
LTYPE
  5
1F7
100
AcDbSymbolTableRecord
100
AcDbLinetypeTableRecord
  2
PHANTOM
 70
64
  3
_____ _ _ _____ _ _ _____ _ _ _____
 72
65
 73
6
 40
0.8
 49
0.45
 74
0
 49
-0.05
 74
0
 49
0.1
 74
0
 49
-0.05
 74
0
 49
0.1
 74
0
 49
-0.05
 74
0
  0
LTYPE
  5
1F8
100
AcDbSymbolTableRecord
100
AcDbLinetypeTableRecord
  2
DOT
 70
64
  3
. . . . . . . . . . . . . . . . . . . .
 72
65
 73
2
 40
0.2
 49
0.1
 74
0
 49
-0.1
 74
0
  0
LTYPE
  5
1F9
100
AcDbSymbolTableRecord
100
AcDbLinetypeTableRecord
  2
DASHED
 70
64
  3
- - - - - - - - - - - - - - - - - - - -
 72
65
 73
2
 40
0.2
 49
0.1
 74
0
 49
-0.1
 74
0
  0
ENDTAB
  0
TABLE
  2
LAYER
  5
2
100
AcDbSymbolTable
 70
36
  0
LAYER
  5
10
100
AcDbSymbolTableRecord
100
AcDbLayerTableRecord
  2
0
 70
0
 62
7
  6
CONTINUOUS
370
-3
390
F
  0
LAYER
  5
1FA
100
AcDbSymbolTableRecord
100
AcDbLayerTableRecord
  2
DEFAULT_1
 70
0
 62
7
  6
CENTER
370
-3
390
F
  0
LAYER
  5
1FB
100
AcDbSymbolTableRecord
100
AcDbLayerTableRecord
  2
DEFAULT_2
 70
0
 62
8
  6
HIDDEN
370
-3
390
F
  0
LAYER
  5
1FC
100
AcDbSymbolTableRecord
100
AcDbLayerTableRecord
  2
DEFAULT_3
 70
0
 62
7
  6
PHANTOM
370
-3
390
F
  0
LAYER
  5
1FD
100
AcDbSymbolTableRecord
100
AcDbLayerTableRecord
  2
01_ALL_DTM_PLN
 70
0
 62
7
  6
CONTINUOUS
370
-3
390
F
  0
LAYER
  5
1FE
100
AcDbSymbolTableRecord
100
AcDbLayerTableRecord
  2
01__ASM_ALL_DTM_PLN
 70
0
 62
7
  6
CONTINUOUS
370
-3
390
F
  0
LAYER
  5
1FF
100
AcDbSymbolTableRecord
100
AcDbLayerTableRecord
  2
01__ASM_DEF_DTM_PLN
 70
0
 62
7
  6
CONTINUOUS
370
-3
390
F
  0
LAYER
  5
200
100
AcDbSymbolTableRecord
100
AcDbLayerTableRecord
  2
01___PRT_ALL_DTM_PLN
 70
0
 62
7
  6
CONTINUOUS
370
-3
390
F
  0
LAYER
  5
201
100
AcDbSymbolTableRecord
100
AcDbLayerTableRecord
  2
01___PRT_DEF_DTM_PLN
 70
0
 62
7
  6
CONTINUOUS
370
-3
390
F
  0
LAYER
  5
202
100
AcDbSymbolTableRecord
100
AcDbLayerTableRecord
  2
02_ALL_AXES
 70
0
 62
7
  6
CONTINUOUS
370
-3
390
F
  0
LAYER
  5
203
100
AcDbSymbolTableRecord
100
AcDbLayerTableRecord
  2
02__ASM_ALL_AXES
 70
0
 62
7
  6
CONTINUOUS
370
-3
390
F
  0
LAYER
  5
204
100
AcDbSymbolTableRecord
100
AcDbLayerTableRecord
  2
02___PRT_ALL_AXES
 70
0
 62
7
  6
CONTINUOUS
370
-3
390
F
  0
LAYER
  5
205
100
AcDbSymbolTableRecord
100
AcDbLayerTableRecord
  2
03_ALL_CURVES
 70
0
 62
7
  6
CONTINUOUS
370
-3
390
F
  0
LAYER
  5
206
100
AcDbSymbolTableRecord
100
AcDbLayerTableRecord
  2
03__ASM_ALL_CURVES
 70
0
 62
7
  6
CONTINUOUS
370
-3
390
F
  0
LAYER
  5
207
100
AcDbSymbolTableRecord
100
AcDbLayerTableRecord
  2
03___PRT_ALL_CURVES
 70
0
 62
7
  6
CONTINUOUS
370
-3
390
F
  0
LAYER
  5
208
100
AcDbSymbolTableRecord
100
AcDbLayerTableRecord
  2
04_ALL_DTM_PNT
 70
0
 62
7
  6
CONTINUOUS
370
-3
390
F
  0
LAYER
  5
209
100
AcDbSymbolTableRecord
100
AcDbLayerTableRecord
  2
04__ASM_ALL_DTM_PNT
 70
0
 62
7
  6
CONTINUOUS
370
-3
390
F
  0
LAYER
  5
20A
100
AcDbSymbolTableRecord
100
AcDbLayerTableRecord
  2
04___PRT_ALL_DTM_PNT
 70
0
 62
7
  6
CONTINUOUS
370
-3
390
F
  0
LAYER
  5
20B
100
AcDbSymbolTableRecord
100
AcDbLayerTableRecord
  2
05_ALL_DTM_CSYS
 70
0
 62
7
  6
CONTINUOUS
370
-3
390
F
  0
LAYER
  5
20C
100
AcDbSymbolTableRecord
100
AcDbLayerTableRecord
  2
05__ASM_ALL_DTM_CSYS
 70
0
 62
7
  6
CONTINUOUS
370
-3
390
F
  0
LAYER
  5
20D
100
AcDbSymbolTableRecord
100
AcDbLayerTableRecord
  2
05__ASM_DEF_DTM_CSYS
 70
0
 62
7
  6
CONTINUOUS
370
-3
390
F
  0
LAYER
  5
20E
100
AcDbSymbolTableRecord
100
AcDbLayerTableRecord
  2
05___PRT_ALL_DTM_CSYS
 70
0
 62
7
  6
CONTINUOUS
370
-3
390
F
  0
LAYER
  5
20F
100
AcDbSymbolTableRecord
100
AcDbLayerTableRecord
  2
05___PRT_DEF_DTM_CSYS
 70
0
 62
7
  6
CONTINUOUS
370
-3
390
F
  0
LAYER
  5
210
100
AcDbSymbolTableRecord
100
AcDbLayerTableRecord
  2
06_ALL_SURFS
 70
0
 62
7
  6
CONTINUOUS
370
-3
390
F
  0
LAYER
  5
211
100
AcDbSymbolTableRecord
100
AcDbLayerTableRecord
  2
06__ASM_ALL_SURFS
 70
0
 62
7
  6
CONTINUOUS
370
-3
390
F
  0
LAYER
  5
212
100
AcDbSymbolTableRecord
100
AcDbLayerTableRecord
  2
06___PRT_ALL_SURFS
 70
0
 62
7
  6
CONTINUOUS
370
-3
390
F
  0
LAYER
  5
213
100
AcDbSymbolTableRecord
100
AcDbLayerTableRecord
  2
07__ASM_ALL_SKELETONS
 70
0
 62
7
  6
CONTINUOUS
370
-3
390
F
  0
ENDTAB
  0
TABLE
  2
STYLE
  5
3
100
AcDbSymbolTable
 70
1
  0
STYLE
  5
11
100
AcDbSymbolTableRecord
100
AcDbTextStyleTableRecord
  2
STANDARD
 70
0
 40
0.0
 41
0.8
 50
0.0
 71
0
 42
0.2
  3
txt
  4

  0
STYLE
  5
214
100
AcDbSymbolTableRecord
100
AcDbTextStyleTableRecord
  2
TEXTSTYLE_1
 70
0
 40
0.0
 41
0.8
 50
0.0
 71
0
 42
0.2
  3
gdt
  4

  0
ENDTAB
  0
TABLE
  2
VIEW
  5
6
100
AcDbSymbolTable
 70
0
  0
ENDTAB
  0
TABLE
  2
UCS
  5
7
100
AcDbSymbolTable
 70
0
  0
ENDTAB
  0
TABLE
  2
APPID
  5
9
100
AcDbSymbolTable
 70
1
  0
APPID
  5
215
100
AcDbSymbolTableRecord
100
AcDbRegAppTableRecord
  2
ACAD
 70
0
  0
ENDTAB
  0
TABLE
  2
BLOCK_RECORD
  5
1
100
AcDbSymbolTable
 70
0
  0
BLOCK_RECORD
  5
216
100
AcDbSymbolTableRecord
100
AcDbBlockTableRecord
  2
*Model_Space
  0
BLOCK_RECORD
  5
217
100
AcDbSymbolTableRecord
100
AcDbBlockTableRecord
  2
*Paper_Space
  0
BLOCK_RECORD
  5
218
100
AcDbSymbolTableRecord
100
AcDbBlockTableRecord
  2
_CLOSED
  0
ENDTAB
  0
TABLE
  2
DIMSTYLE
  5
A
100
AcDbSymbolTable
 70
1
100
AcDbDimStyleTable
 71
0
  0
DIMSTYLE
105
219
100
AcDbSymbolTableRecord
100
AcDbDimStyleTableRecord
  2
STANDARD
 70
0
  3

  4

 40
1.0
 41
0.1875
 42
0.0625
 43
0.38
 44
0.125
 45
0.0
 46
0.0
 47
0.01
 48
0.01
140
0.15625
141
0.09
142
0.0
143
25.4
144
1.0
145
0.0
146
1.0
147
0.625
 71
0.0
 72
0.0
 73
1
 74
1
 75
0
 76
0
 77
0
 78
8
 79
2
170
0
171
1
172
0
173
0
174
0
175
0
176
0
177
0
178
0
270
2
179
2
271
2
272
2
273
2
274
2
275
0
280
0
281
0
282
0
283
1
284
8
285
0
286
0
287
3
288
0
340
11
278
46
341
218
342
218
343
218
344
218
  0
ENDTAB
  0
ENDSEC
  0
SECTION
  2
BLOCKS
  0
BLOCK
  5
20
100
AcDbEntity
  8
0
100
AcDbBlockBegin
  2
*Model_Space
 70
0
 10
0.0
 20
0.0
 30
0.0
  3
*Model_Space
  1

  0
ENDBLK
  5
21
100
AcDbEntity
  8
0
100
AcDbBlockEnd
  0
BLOCK
  5
1C
100
AcDbEntity
  8
0
100
AcDbBlockBegin
  2
*Paper_Space
 70
0
 10
0.0
 20
0.0
 30
0.0
  3
*Paper_Space
  1

  0
ENDBLK
  5
1D
100
AcDbEntity
  8
0
100
AcDbBlockEnd
  0
BLOCK
  5
21A
100
AcDbEntity
  8
0
100
AcDbBlockBegin
  2
_CLOSED
 70
64
 10
0.0
 20
0.0
  3
_CLOSED
  1

  0
LINE
  5
21B
100
AcDbEntity
  8
0
  6
BYBLOCK
 62
0
100
AcDbLine
 10
0.0
 20
0.0
 11
-1.0
 21
0.1666666667
  0
LINE
  5
21C
100
AcDbEntity
  8
0
  6
BYBLOCK
 62
0
100
AcDbLine
 10
-1.0
 20
0.1666666667
 11
-1.0
 21
-0.1666666667
  0
LINE
  5
21D
100
AcDbEntity
  8
0
  6
BYBLOCK
 62
0
100
AcDbLine
 10
-1.0
 20
-0.1666666667
 11
0.0
 21
0.0
  0
LINE
  5
21E
100
AcDbEntity
  8
0
  6
BYBLOCK
 62
0
100
AcDbLine
 10
-1.0
 20
0.0
 11
0.0
 21
0.0
  0
ENDBLK
  5
21F
100
AcDbEntity
  8
0
  6
BYBLOCK
 62
0
100
AcDbBlockEnd
  0
ENDSEC
  0
SECTION
  2
ENTITIES
  0
LWPOLYLINE
  5
220
100
AcDbEntity
  8
0
100
AcDbPolyline
 62
7
  6
CONTINUOUS
 90
4
 70
0
 10
-27.150280323
 20
287.9676943708
 10
-27.1914727646
 20
287.9524911498
 10
-28.2082887475
 20
286.8992567013
 10
-28.814940344
 20
285.2938040644
  0
LWPOLYLINE
  5
221
100
AcDbEntity
  8
0
100
AcDbPolyline
 62
7
  6
CONTINUOUS
 90
5
 70
0
 10
-30.1724387664
 20
273.6459439951
 10
-30.535915691
 20
273.5314811801
 10
-31.8846454916
 20
272.6020415676
 10
-32.6438033714
 20
271.0114761817
 10
-32.7748304226
 20
269.8349516381
  0
LINE
  5
222
100
AcDbEntity
  8
0
100
AcDbLine
 62
7
  6
CONTINUOUS
 10
-26.0938673634
 20
264.6366268426
 11
-26.0662748957
 21
264.6548394795
  0
LINE
  5
223
100
AcDbEntity
  8
0
100
AcDbLine
 62
7
  6
CONTINUOUS
 10
-25.9654236579
 20
265.3373196026
 11
-26.3885684131
 21
265.0831716719
  0
LINE
  5
224
100
AcDbEntity
  8
0
100
AcDbLine
 62
7
  6
CONTINUOUS
 10
-26.138169224
 20
264.6657523793
 11
-26.1081728091
 21
264.6824118969
  0
LINE
  5
225
100
AcDbEntity
  8
0
100
AcDbLine
 62
7
  6
CONTINUOUS
 10
-64.2716959353
 20
193.915981394
 11
-64.2716959353
 21
272.0594235356
  0
LINE
  5
226
100
AcDbEntity
  8
0
100
AcDbLine
 62
7
  6
CONTINUOUS
 10
-26.3885990988
 20
265.0831506465
 11
-27.9856375022
 21
263.9116671704
  0
LINE
  5
227
100
AcDbEntity
  8
0
100
AcDbLine
 62
7
  6
CONTINUOUS
 10
-61.8244745124
 20
189.0829420159
 11
-59.0093968153
 21
187.4570054189
  0
LINE
  5
228
100
AcDbEntity
  8
0
100
AcDbLine
 62
7
  6
CONTINUOUS
 10
-64.2716959353
 20
193.915981394
 11
-61.4566182382
 21
192.2900447969
  0
LINE
  5
229
100
AcDbEntity
  8
0
100
AcDbLine
 62
7
  6
CONTINUOUS
 10
-51.1079623707
 20
187.4548890575
 11
-51.9524856798
 21
187.9426700366
  0
LINE
  5
22A
100
AcDbEntity
  8
0
100
AcDbLine
 62
7
  6
CONTINUOUS
 10
-60.6120949291
 20
196.398936885
 11
-61.4566182382
 21
196.8867178641
  0
LINE
  5
22B
100
AcDbEntity
  8
0
100
AcDbLine
 62
7
  6
CONTINUOUS
 10
-61.4566182382
 20
270.4334869386
 11
-61.4566182382
 21
265.8368138714
  0
LINE
  5
22C
100
AcDbEntity
  8
0
100
AcDbLine
 62
7
  6
CONTINUOUS
 10
-61.4566182382
 20
196.8867178641
 11
-61.4566182382
 21
192.2900447969
  0
LINE
  5
22D
100
AcDbEntity
  8
0
100
AcDbLine
 62
7
  6
CONTINUOUS
 10
-60.6120949291
 20
265.3490328923
 11
-60.6120949291
 21
196.398936885
  0
LINE
  5
22E
100
AcDbEntity
  8
0
100
AcDbLine
 62
7
  6
CONTINUOUS
 10
-28.7204946072
 20
285.2612282694
 11
-28.7263605161
 21
285.2458088215
  0
LINE
  5
22F
100
AcDbEntity
  8
0
100
AcDbLine
 62
7
  6
CONTINUOUS
 10
-27.9856375022
 20
263.9116671704
 11
-29.8013926266
 21
261.7564690282
  0
LINE
  5
230
100
AcDbEntity
  8
0
100
AcDbLine
 62
7
  6
CONTINUOUS
 10
-19.7756826168
 20
255.2099457051
 11
-19.8287285746
 21
255.1613908046
  0
LINE
  5
231
100
AcDbEntity
  8
0
100
AcDbLine
 62
7
  6
CONTINUOUS
 10
-19.77033678
 20
255.2077546933
 11
-19.8287285746
 21
255.1613908046
  0
LINE
  5
232
100
AcDbEntity
  8
0
100
AcDbLine
 62
7
  6
CONTINUOUS
 10
-51.1079623707
 20
187.4548890575
 11
-17.2024836467
 21
196.5434385223
  0
LINE
  5
233
100
AcDbEntity
  8
0
100
AcDbLine
 62
7
  6
CONTINUOUS
 10
-27.4994473088
 20
193.971282604
 11
-17.3403304263
 21
196.6944895836
  0
LINE
  5
234
100
AcDbEntity
  8
0
100
AcDbLine
 62
7
  6
CONTINUOUS
 10
-55.2582709175
 20
187.0565361791
 11
-51.9524856798
 21
187.9426700366
  0
LINE
  5
235
100
AcDbEntity
  8
0
100
AcDbLine
 62
7
  6
CONTINUOUS
 10
-51.1079623707
 20
194.3498986582
 11
-51.9524856798
 21
194.8376796373
  0
LINE
  5
236
100
AcDbEntity
  8
0
100
AcDbLine
 62
7
  6
CONTINUOUS
 10
-51.9524856798
 20
187.9426700366
 11
-51.9524856798
 21
194.8376796373
  0
LINE
  5
237
100
AcDbEntity
  8
0
100
AcDbLine
 62
7
  6
CONTINUOUS
 10
-51.9524856798
 20
272.981121779
 11
-51.9524856798
 21
279.8761313797
  0
LINE
  5
238
100
AcDbEntity
  8
0
100
AcDbLine
 62
7
  6
CONTINUOUS
 10
-51.1079623707
 20
279.3883504006
 11
-51.1079623707
 21
272.4933407999
  0
LINE
  5
239
100
AcDbEntity
  8
0
100
AcDbLine
 62
7
  6
CONTINUOUS
 10
-51.1079623707
 20
187.4548890575
 11
-51.1079623707
 21
194.3498986582
  0
LINE
  5
23A
100
AcDbEntity
  8
0
100
AcDbLine
 62
7
  6
CONTINUOUS
 10
-28.6139482387
 20
285.2204405804
 11
-28.6195491851
 21
285.2049565985
  0
LINE
  5
23B
100
AcDbEntity
  8
0
100
AcDbLine
 62
7
  6
CONTINUOUS
 10
-60.6120949291
 20
196.398936885
 11
-55.2401939188
 21
197.8389044032
  0
LINE
  5
23C
100
AcDbEntity
  8
0
100
AcDbLine
 62
7
  6
CONTINUOUS
 10
-29.8713802795
 20
195.3413330934
 11
-27.4994473088
 21
193.971282604
  0
LINE
  5
23D
100
AcDbEntity
  8
0
100
AcDbLine
 62
7
  6
CONTINUOUS
 10
-32.7747677425
 20
269.8397591657
 11
-32.7712583495
 21
269.8670261722
  0
LINE
  5
23E
100
AcDbEntity
  8
0
100
AcDbLine
 62
7
  6
CONTINUOUS
 10
-28.8595852013
 20
285.053798663
 11
-28.8616036366
 21
285.0416023469
  0
LINE
  5
23F
100
AcDbEntity
  8
0
100
AcDbLine
 62
7
  6
CONTINUOUS
 10
-28.8183878895
 20
285.2768815671
 11
-28.8515416732
 21
285.1009833519
  0
LINE
  5
240
100
AcDbEntity
  8
0
100
AcDbLine
 62
7
  6
CONTINUOUS
 10
-28.8150591295
 20
285.293187456
 11
-28.8183878895
 21
285.2768815671
  0
LINE
  5
241
100
AcDbEntity
  8
0
100
AcDbLine
 62
7
  6
CONTINUOUS
 10
-29.2377363441
 20
283.4960537291
 11
-29.237767448
 21
283.4959036591
  0
LINE
  5
242
100
AcDbEntity
  8
0
100
AcDbLine
 62
7
  6
CONTINUOUS
 10
-19.7927726032
 20
255.2360109077
 11
-19.828728667
 21
255.1613902165
  0
LINE
  5
243
100
AcDbEntity
  8
0
100
AcDbLine
 62
7
  6
CONTINUOUS
 10
1.6321804996
 20
185.6915984277
 11
-1.9158627577
 21
187.7401357303
  0
LINE
  5
244
100
AcDbEntity
  8
0
100
AcDbLine
 62
7
  6
CONTINUOUS
 10
-41.0523027243
 20
210.3186510896
 11
-36.1780895793
 21
207.5033960995
  0
LINE
  5
245
100
AcDbEntity
  8
0
100
AcDbLine
 62
7
  6
CONTINUOUS
 10
-17.4248032307
 20
196.6718461852
 11
-14.8720801409
 21
195.197440737
  0
LINE
  5
246
100
AcDbEntity
  8
0
100
AcDbLine
 62
7
  6
CONTINUOUS
 10
-9.1583791637
 20
193.0393063459
 11
-0.2426891398
 21
187.8897693677
  0
LINE
  5
247
100
AcDbEntity
  8
0
100
AcDbLine
 62
7
  6
CONTINUOUS
 10
-3.4391637929
 20
192.4716495516
 11
-2.2004662781
 21
191.7562008718
  0
LINE
  5
248
100
AcDbEntity
  8
0
100
AcDbLine
 62
7
  6
CONTINUOUS
 10
-32.7747677425
 20
269.8397591657
 11
-32.7870689265
 21
268.4238729416
  0
LINE
  5
249
100
AcDbEntity
  8
0
100
AcDbLine
 62
7
  6
CONTINUOUS
 10
-32.7750274795
 20
269.8237038786
 11
-32.7742447411
 21
269.8704917211
  0
LINE
  5
24A
100
AcDbEntity
  8
0
100
AcDbLine
 62
7
  6
CONTINUOUS
 10
14.75272676
 20
248.5033843134
 11
14.7235259467
 21
248.4772737683
  0
LINE
  5
24B
100
AcDbEntity
  8
0
100
AcDbLine
 62
7
  6
CONTINUOUS
 10
-22.1412233891
 20
207.9525639433
 11
-0.1343505046
 21
195.2418028705
  0
LINE
  5
24C
100
AcDbEntity
  8
0
100
AcDbLine
 62
7
  6
CONTINUOUS
 10
-10.3707039241
 20
202.9909326957
 11
-22.8938067736
 21
210.2240443262
  0
LINE
  5
24D
100
AcDbEntity
  8
0
100
AcDbLine
 62
7
  6
CONTINUOUS
 10
-9.052448597
 20
202.3530768943
 11
5.6507736614
 21
193.860768782
  0
LINE
  5
24E
100
AcDbEntity
  8
0
100
AcDbLine
 62
7
  6
CONTINUOUS
 10
5.6507736614
 20
196.7925371211
 11
-1.5928723632
 21
200.9763325381
  0
LINE
  5
24F
100
AcDbEntity
  8
0
100
AcDbLine
 62
7
  6
CONTINUOUS
 10
14.7516339447
 20
248.5036537619
 11
14.7235259467
 21
248.4772737683
  0
LINE
  5
250
100
AcDbEntity
  8
0
100
AcDbLine
 62
7
  6
CONTINUOUS
 10
-16.8001834028
 20
284.4138102979
 11
-16.8001834028
 21
285.1558468506
  0
LINE
  5
251
100
AcDbEntity
  8
0
100
AcDbLine
 62
7
  6
CONTINUOUS
 10
68.6130067135
 20
266.925798735
 11
68.4531611535
 21
266.8829519142
  0
LINE
  5
252
100
AcDbEntity
  8
0
100
AcDbLine
 62
7
  6
CONTINUOUS
 10
-2.2004662779
 20
192.458932406
 11
-2.2004662781
 21
191.7562008718
  0
LINE
  5
253
100
AcDbEntity
  8
0
100
AcDbLine
 62
7
  6
CONTINUOUS
 10
-0.1343505046
 20
195.2418028705
 11
-0.1343505046
 21
192.310034531
  0
LINE
  5
254
100
AcDbEntity
  8
0
100
AcDbLine
 62
7
  6
CONTINUOUS
 10
-1.9158627577
 20
187.7401357303
 11
-1.8957471332
 21
188.8445449645
  0
LINE
  5
255
100
AcDbEntity
  8
0
100
AcDbLine
 62
7
  6
CONTINUOUS
 10
34.2192656038
 20
249.4589937914
 11
34.2671933824
 21
249.5153804972
  0
LINE
  5
256
100
AcDbEntity
  8
0
100
AcDbLine
 62
7
  6
CONTINUOUS
 10
34.2192656038
 20
249.4589937914
 11
34.2677993218
 21
249.5150787904
  0
LINE
  5
257
100
AcDbEntity
  8
0
100
AcDbLine
 62
7
  6
CONTINUOUS
 10
63.2975344931
 20
259.4200749804
 11
63.4865028642
 21
259.4355600159
  0
LINE
  5
258
100
AcDbEntity
  8
0
100
AcDbLine
 62
7
  6
CONTINUOUS
 10
-60.6120949291
 20
265.3490328923
 11
-61.4566182382
 21
265.8368138714
  0
LINE
  5
259
100
AcDbEntity
  8
0
100
AcDbLine
 62
7
  6
CONTINUOUS
 10
-55.2401939186
 20
266.7890004106
 11
-56.0847172272
 21
267.2767813898
  0
LINE
  5
25A
100
AcDbEntity
  8
0
100
AcDbLine
 62
7
  6
CONTINUOUS
 10
-61.4566182382
 20
270.4334869386
 11
-64.2716959353
 21
272.0594235356
  0
LINE
  5
25B
100
AcDbEntity
  8
0
100
AcDbLine
 62
7
  6
CONTINUOUS
 10
1.6321804996
 20
187.4162350606
 11
1.6321804996
 21
185.6915984277
  0
LINE
  5
25C
100
AcDbEntity
  8
0
100
AcDbLine
 62
7
  6
CONTINUOUS
 10
5.6507736614
 20
193.8607687817
 11
5.6507736614
 21
196.7925371211
  0
LINE
  5
25D
100
AcDbEntity
  8
0
100
AcDbLine
 62
7
  6
CONTINUOUS
 10
7.716889435
 20
194.4146024427
 11
7.716889435
 21
195.1173339786
  0
LINE
  5
25E
100
AcDbEntity
  8
0
100
AcDbLine
 62
7
  6
CONTINUOUS
 10
51.2761890949
 20
253.3015944796
 11
51.4658333802
 21
253.2874464979
  0
LINE
  5
25F
100
AcDbEntity
  8
0
100
AcDbLine
 62
7
  6
CONTINUOUS
 10
-41.3941344743
 20
261.5303700645
 11
-25.7715974884
 21
252.5070828386
  0
LINE
  5
260
100
AcDbEntity
  8
0
100
AcDbLine
 62
7
  6
CONTINUOUS
 10
-51.9524856798
 20
272.981121779
 11
-51.1079623707
 21
272.4933407999
  0
LINE
  5
261
100
AcDbEntity
  8
0
100
AcDbLine
 62
7
  6
CONTINUOUS
 10
-58.0733486146
 20
280.6159341192
 11
-55.2582709175
 21
278.9899975222
  0
LINE
  5
262
100
AcDbEntity
  8
0
100
AcDbLine
 62
7
  6
CONTINUOUS
 10
-4.2429789429
 20
250.5058921857
 11
-4.203624514
 21
250.4315374847
  0
LINE
  5
263
100
AcDbEntity
  8
0
100
AcDbLine
 62
7
  6
CONTINUOUS
 10
-60.6120949291
 20
265.3490328923
 11
-55.2401939188
 21
266.7890004105
  0
LINE
  5
264
100
AcDbEntity
  8
0
100
AcDbLine
 62
7
  6
CONTINUOUS
 10
-29.2558915593
 20
273.8916759685
 11
-30.1882763507
 21
273.6417451131
  0
LINE
  5
265
100
AcDbEntity
  8
0
100
AcDbLine
 62
7
  6
CONTINUOUS
 10
-61.4566182382
 20
265.8368138714
 11
-56.0847172272
 21
267.2767813898
  0
LINE
  5
266
100
AcDbEntity
  8
0
100
AcDbLine
 62
7
  6
CONTINUOUS
 10
34.2192658226
 20
249.4589936082
 11
34.3807145319
 21
249.4173664777
  0
LINE
  5
267
100
AcDbEntity
  8
0
100
AcDbLine
 62
7
  6
CONTINUOUS
 10
-51.1079623707
 20
279.3883504006
 11
-51.9524856798
 21
279.8761313797
  0
LINE
  5
268
100
AcDbEntity
  8
0
100
AcDbLine
 62
7
  6
CONTINUOUS
 10
-36.6451519557
 20
273.6565121396
 11
-32.5188642431
 21
271.273244989
  0
LINE
  5
269
100
AcDbEntity
  8
0
100
AcDbLine
 62
7
  6
CONTINUOUS
 10
14.8322004971
 20
248.4145046003
 11
14.7235266219
 21
248.4772735152
  0
LINE
  5
26A
100
AcDbEntity
  8
0
100
AcDbLine
 62
7
  6
CONTINUOUS
 10
51.3168500264
 20
253.372673024
 11
51.2761893659
 21
253.3015946656
  0
LINE
  5
26B
100
AcDbEntity
  8
0
100
AcDbLine
 62
7
  6
CONTINUOUS
 10
51.3178803275
 20
253.3730336634
 11
51.2761893659
 21
253.3015946656
  0
LINE
  5
26C
100
AcDbEntity
  8
0
100
AcDbLine
 62
7
  6
CONTINUOUS
 10
-36.6451519557
 20
273.6565121396
 11
-36.0546573512
 21
273.8147974558
  0
LINE
  5
26D
100
AcDbEntity
  8
0
100
AcDbLine
 62
7
  6
CONTINUOUS
 10
-28.5329426628
 20
274.032694493
 11
-29.2573453368
 21
273.8912862742
  0
LINE
  5
26E
100
AcDbEntity
  8
0
100
AcDbLine
 62
7
  6
CONTINUOUS
 10
-7.661955439
 20
270.8476549542
 11
-7.7407635148
 21
270.8685505107
  0
LINE
  5
26F
100
AcDbEntity
  8
0
100
AcDbLine
 62
7
  6
CONTINUOUS
 10
-7.6638281405
 20
270.8466347222
 11
-7.7407635148
 21
270.8685505107
  0
LINE
  5
270
100
AcDbEntity
  8
0
100
AcDbLine
 62
7
  6
CONTINUOUS
 10
-51.1079623707
 20
279.3883504006
 11
-28.7853766557
 21
285.3720418891
  0
LINE
  5
271
100
AcDbEntity
  8
0
100
AcDbLine
 62
7
  6
CONTINUOUS
 10
-51.9524856798
 20
279.8761313797
 11
-55.2582709175
 21
278.9899975222
  0
LINE
  5
272
100
AcDbEntity
  8
0
100
AcDbLine
 62
7
  6
CONTINUOUS
 10
-58.0733486146
 20
280.6159341192
 11
-26.3323922028
 21
289.1242715109
  0
LWPOLYLINE
  5
273
100
AcDbEntity
  8
0
100
AcDbPolyline
 62
7
  6
CONTINUOUS
 90
6
 70
0
 10
-30.7087532918
 20
281.3264221807
 10
-30.7290594269
 20
281.3243769111
 10
-30.8955465117
 20
281.2770159869
 10
-31.051162762
 20
281.1674432821
 10
-31.1541429306
 20
281.021030619
 10
-31.201036238
 20
280.8682263008
  0
LINE
  5
274
100
AcDbEntity
  8
0
100
AcDbLine
 62
7
  6
CONTINUOUS
 10
-29.6378283636
 20
281.4141822289
 11
-30.7099463691
 21
281.3263244443
  0
LINE
  5
275
100
AcDbEntity
  8
0
100
AcDbLine
 62
7
  6
CONTINUOUS
 10
63.2975352127
 20
259.420075244
 11
63.3158606011
 21
259.4817971959
  0
LINE
  5
276
100
AcDbEntity
  8
0
100
AcDbLine
 62
7
  6
CONTINUOUS
 10
53.3498165972
 20
285.1687465413
 11
53.3498001331
 21
285.1821329706
  0
LINE
  5
277
100
AcDbEntity
  8
0
100
AcDbLine
 62
7
  6
CONTINUOUS
 10
53.1998165972
 20
284.2949932767
 11
53.1998165972
 21
285.1821329706
  0
LINE
  5
278
100
AcDbEntity
  8
0
100
AcDbLine
 62
7
  6
CONTINUOUS
 10
63.2975352127
 20
259.420075244
 11
63.3137199976
 21
259.481262911
  0
LWPOLYLINE
  5
279
100
AcDbEntity
  8
0
100
AcDbPolyline
 62
7
  6
CONTINUOUS
 90
3
 70
0
 10
69.1642803417
 20
267.909529176
 10
68.8766256976
 20
274.1127143693
 10
67.8031714196
 20
279.4768761186
  0
LINE
  5
27A
100
AcDbEntity
  8
0
100
AcDbLine
 62
7
  6
CONTINUOUS
 10
69.1603109287
 20
270.1449134037
 11
69.1867021342
 21
268.0772789575
  0
LINE
  5
27B
100
AcDbEntity
  8
0
100
AcDbLine
 62
7
  6
CONTINUOUS
 10
68.4531252955
 20
266.9256605358
 11
68.4531622118
 21
266.8829522952
  0
LINE
  5
27C
100
AcDbEntity
  8
0
100
AcDbLine
 62
7
  6
CONTINUOUS
 10
68.4533148962
 20
266.9257019756
 11
68.4531622118
 21
266.8829522952
  0
LINE
  5
27D
100
AcDbEntity
  8
0
100
AcDbLine
 62
7
  6
CONTINUOUS
 10
65.6373695339
 20
283.4960537501
 11
65.7319807378
 21
283.0322327179
  0
LWPOLYLINE
  5
27E
100
AcDbEntity
  8
0
100
AcDbPolyline
 62
7
  6
CONTINUOUS
 90
3
 70
0
 10
67.2616316211
 20
280.2904591042
 10
67.1605667068
 20
280.8058589569
 10
66.2505301398
 20
283.6578893967
  0
LINE
  5
27F
100
AcDbEntity
  8
0
100
AcDbLine
 62
7
  6
CONTINUOUS
 10
67.2617476976
 20
280.2896695048
 11
67.2615448176
 21
280.2907904047
  0
LINE
  5
280
100
AcDbEntity
  8
0
100
AcDbLine
 62
7
  6
CONTINUOUS
 10
65.0044593451
 20
285.7197038895
 11
65.0045617096
 21
285.7195763092
  0
LINE
  5
281
100
AcDbEntity
  8
0
100
AcDbLine
 62
7
  6
CONTINUOUS
 10
65.9917977097
 20
284.0860104084
 11
64.4846148746
 21
286.4517094749
  0
LINE
  5
282
100
AcDbEntity
  8
0
100
AcDbLine
 62
7
  6
CONTINUOUS
 10
66.2505301398
 20
283.6578893967
 11
65.0045617096
 21
285.7195763092
  0
LINE
  5
283
100
AcDbEntity
  8
0
100
AcDbLine
 62
7
  6
CONTINUOUS
 10
67.8031714196
 20
279.4768761186
 11
66.5782144519
 21
282.6309354624
  0
ARC
  5
284
100
AcDbEntity
  8
0
100
AcDbCircle
 62
7
  6
CONTINUOUS
 10
-358.7500309462
 20
248.6249148208
 40
388.9007096975
100
AcDbArc
 50
1.7170992848
 51
2.214744634
  0
ARC
  5
285
100
AcDbEntity
  8
0
100
AcDbCircle
 62
7
  6
CONTINUOUS
 10
-91.217705626
 20
251.9076968873
 40
138.6625058921
100
AcDbArc
 50
4.775295916
 51
6.1624486918
  0
ARC
  5
286
100
AcDbEntity
  8
0
100
AcDbCircle
 62
7
  6
CONTINUOUS
 10
-29.5250333058
 20
257.7018146194
 40
89.8029601569
100
AcDbArc
 50
7.189279031
 51
9.3036129817
  0
ARC
  5
287
100
AcDbEntity
  8
0
100
AcDbCircle
 62
7
  6
CONTINUOUS
 10
-6.3888850192
 20
266.9853870385
 40
74.8426268328
100
AcDbArc
 50
0.2302927977
 51
10.239518534
  0
ARC
  5
288
100
AcDbEntity
  8
0
100
AcDbCircle
 62
7
  6
CONTINUOUS
 10
-5.1487840922
 20
265.16072357
 40
71.8394213617
100
AcDbArc
 50
8.6058105577
 51
11.195630103
  0
ARC
  5
289
100
AcDbEntity
  8
0
100
AcDbCircle
 62
7
  6
CONTINUOUS
 10
11.6449615998
 20
231.0765121685
 40
70.6377753017
100
AcDbArc
 50
104.8323467271
 51
105.026158489
  0
ARC
  5
28A
100
AcDbEntity
  8
0
100
AcDbCircle
 62
7
  6
CONTINUOUS
 10
11.248338341
 20
232.4514376935
 40
69.2070741325
100
AcDbArc
 50
105.00417963
 51
105.5985307723
  0
ARC
  5
28B
100
AcDbEntity
  8
0
100
AcDbCircle
 62
7
  6
CONTINUOUS
 10
12.9148852607
 20
241.7533644751
 40
57.7043185749
100
AcDbArc
 50
104.5646913948
 51
105.0047780701
  0
ARC
  5
28C
100
AcDbEntity
  8
0
100
AcDbCircle
 62
7
  6
CONTINUOUS
 10
20.1358723146
 20
216.3678982938
 40
54.5921558728
100
AcDbArc
 50
135.6351959087
 51
135.8701061789
  0
ARC
  5
28D
100
AcDbEntity
  8
0
100
AcDbCircle
 62
7
  6
CONTINUOUS
 10
15.0685510432
 20
269.4517119712
 40
53.6040014467
100
AcDbArc
 50
357.2991244577
 51
357.6888851372
  0
ARC
  5
28E
100
AcDbEntity
  8
0
100
AcDbCircle
 62
7
  6
CONTINUOUS
 10
18.9209454743
 20
268.9914062048
 40
50.2544694432
100
AcDbArc
 50
358.1453230708
 51
358.7718938065
  0
ARC
  5
28F
100
AcDbEntity
  8
0
100
AcDbCircle
 62
7
  6
CONTINUOUS
 10
19.6796573416
 20
268.9744274181
 40
49.4955679609
100
AcDbArc
 50
358.7727197787
 51
359.0732280335
  0
ARC
  5
290
100
AcDbEntity
  8
0
100
AcDbCircle
 62
7
  6
CONTINUOUS
 10
18.9787438466
 20
267.0815267266
 40
49.4748164413
100
AcDbArc
 50
359.8195422242
 51
0.2370347913
  0
ARC
  5
291
100
AcDbEntity
  8
0
100
AcDbCircle
 62
7
  6
CONTINUOUS
 10
21.4952200561
 20
268.9512365146
 40
47.6798680497
100
AcDbArc
 50
359.0658040996
 51
1.4402175042
  0
ARC
  5
292
100
AcDbEntity
  8
0
100
AcDbCircle
 62
7
  6
CONTINUOUS
 10
35.1659404242
 20
271.7405484587
 40
25.4359457426
100
AcDbArc
 50
59.9913809665
 51
60.5198192139
  0
ARC
  5
293
100
AcDbEntity
  8
0
100
AcDbCircle
 62
7
  6
CONTINUOUS
 10
-4.6377923296
 20
212.907879176
 40
20.4548145952
100
AcDbArc
 50
231.8964002774
 51
239.9777763013
  0
ARC
  5
294
100
AcDbEntity
  8
0
100
AcDbCircle
 62
7
  6
CONTINUOUS
 10
-10.3064334
 20
278.6063711725
 40
17.8834956987
100
AcDbArc
 50
130.136470344
 51
132.5700292948
  0
ARC
  5
295
100
AcDbEntity
  8
0
100
AcDbCircle
 62
7
  6
CONTINUOUS
 10
-10.9542135541
 20
279.3155542765
 40
16.9229999342
100
AcDbArc
 50
132.5791621316
 51
133.2057426552
  0
ARC
  5
296
100
AcDbEntity
  8
0
100
AcDbCircle
 62
7
  6
CONTINUOUS
 10
-19.7423531239
 20
253.1779185282
 40
13.1482709105
100
AcDbArc
 50
116.8671653571
 51
118.9572176794
  0
ARC
  5
297
100
AcDbEntity
  8
0
100
AcDbCircle
 62
7
  6
CONTINUOUS
 10
-17.6303077969
 20
281.0332647991
 40
11.8687789215
100
AcDbArc
 50
159.2110609163
 51
160.0657371534
  0
ARC
  5
298
100
AcDbEntity
  8
0
100
AcDbCircle
 62
7
  6
CONTINUOUS
 10
-18.0509344573
 20
281.1748763725
 40
11.4250776797
100
AcDbArc
 50
160.0141719472
 51
168.2790170757
  0
ARC
  5
299
100
AcDbEntity
  8
0
100
AcDbCircle
 62
7
  6
CONTINUOUS
 10
-20.4182712503
 20
255.0565420118
 40
11.2684242391
100
AcDbArc
 50
144.6586714587
 51
145.7540133928
  0
ARC
  5
29A
100
AcDbEntity
  8
0
100
AcDbCircle
 62
7
  6
CONTINUOUS
 10
-16.8491621904
 20
284.1439817448
 40
9.2694670896
100
AcDbArc
 50
150.7425423736
 51
153.7662840214
  0
ARC
  5
29B
100
AcDbEntity
  8
0
100
AcDbCircle
 62
7
  6
CONTINUOUS
 10
-22.5283004626
 20
283.9997100006
 40
6.418432001
100
AcDbArc
 50
170.1203051121
 51
170.5475878094
  0
ARC
  5
29C
100
AcDbEntity
  8
0
100
AcDbCircle
 62
7
  6
CONTINUOUS
 10
-22.5903874648
 20
284.0096621046
 40
6.3555529214
100
AcDbArc
 50
170.6556130996
 51
172.9498650141
  0
ARC
  5
29D
100
AcDbEntity
  8
0
100
AcDbCircle
 62
7
  6
CONTINUOUS
 10
-11.3046393892
 20
284.2837048799
 40
5.64693129
100
AcDbArc
 50
169.3807251893
 51
171.2868436148
  0
ARC
  5
29E
100
AcDbEntity
  8
0
100
AcDbCircle
 62
7
  6
CONTINUOUS
 10
-11.3122592469
 20
285.1469884533
 40
5.6392198047
100
AcDbArc
 50
168.8970894277
 51
172.3317209016
  0
ARC
  5
29F
100
AcDbEntity
  8
0
100
AcDbCircle
 62
7
  6
CONTINUOUS
 10
-11.3979211527
 20
284.2977170353
 40
5.5526034159
100
AcDbArc
 50
171.2839481203
 51
174.8308455833
  0
ARC
  5
2A0
100
AcDbEntity
  8
0
100
AcDbCircle
 62
7
  6
CONTINUOUS
 10
-11.4618425801
 20
285.1667220158
 40
5.4883409784
100
AcDbArc
 50
172.3275143945
 51
179.9788648758
  0
ARC
  5
2A1
100
AcDbEntity
  8
0
100
AcDbCircle
 62
7
  6
CONTINUOUS
 10
-11.3449866628
 20
285.8963121603
 40
5.4551825927
100
AcDbArc
 50
180.0117760948
 51
187.1737994639
  0
ARC
  5
2A2
100
AcDbEntity
  8
0
100
AcDbCircle
 62
7
  6
CONTINUOUS
 10
-55.1004599954
 20
195.4703778635
 40
3.0021691145
100
AcDbArc
 50
41.5917396084
 51
50.7512790888
  0
ARC
  5
2A3
100
AcDbEntity
  8
0
100
AcDbCircle
 62
7
  6
CONTINUOUS
 10
18.1949987013
 20
383.2392242753
 40
119.9931360607
100
AcDbArc
 50
265.8776327271
 51
274.6435654665
  0
ARC
  5
2A4
100
AcDbEntity
  8
0
100
AcDbCircle
 62
7
  6
CONTINUOUS
 10
11.1814810969
 20
371.9264683156
 40
108.645283494
100
AcDbArc
 50
269.0146773514
 51
270.0633276193
  0
ARC
  5
2A5
100
AcDbEntity
  8
0
100
AcDbCircle
 62
7
  6
CONTINUOUS
 10
14.753127052
 20
356.3590566122
 40
93.9279266738
100
AcDbArc
 50
278.0961585864
 51
279.2554577273
  0
ARC
  5
2A6
100
AcDbEntity
  8
0
100
AcDbCircle
 62
7
  6
CONTINUOUS
 10
7.3406424027
 20
348.9733038514
 40
84.3371224654
100
AcDbArc
 50
259.5166064944
 51
260.7562442971
  0
ARC
  5
2A7
100
AcDbEntity
  8
0
100
AcDbCircle
 62
7
  6
CONTINUOUS
 10
24.7302212702
 20
342.1698906335
 40
78.3411110549
100
AcDbArc
 50
283.7866326361
 51
284.8042479346
  0
ARC
  5
2A8
100
AcDbEntity
  8
0
100
AcDbCircle
 62
7
  6
CONTINUOUS
 10
24.7700085282
 20
338.8356853764
 40
70.6736892943
100
AcDbArc
 50
284.8117061808
 51
285.0055183971
  0
ARC
  5
2A9
100
AcDbEntity
  8
0
100
AcDbCircle
 62
7
  6
CONTINUOUS
 10
23.5867273376
 20
329.4811469215
 40
57.3077330827
100
AcDbArc
 50
284.8098604401
 51
285.0055021466
  0
ARC
  5
2AA
100
AcDbEntity
  8
0
100
AcDbCircle
 62
7
  6
CONTINUOUS
 10
27.2156746039
 20
316.9226335677
 40
53.7628236479
100
AcDbArc
 50
289.4982919854
 51
291.1839008372
  0
ARC
  5
2AB
100
AcDbEntity
  8
0
100
AcDbCircle
 62
7
  6
CONTINUOUS
 10
24.6513519151
 20
325.5880312127
 40
53.2717259353
100
AcDbArc
 50
284.9836142736
 51
288.2253330205
  0
ARC
  5
2AC
100
AcDbEntity
  8
0
100
AcDbCircle
 62
7
  6
CONTINUOUS
 10
-4.4595148033
 20
309.5967713765
 40
41.9498593648
100
AcDbArc
 50
246.2890328321
 51
248.2571185911
  0
ARC
  5
2AD
100
AcDbEntity
  8
0
100
AcDbCircle
 62
7
  6
CONTINUOUS
 10
3.1722141686
 20
302.7394481153
 40
28.6969020647
100
AcDbArc
 50
242.8961521345
 51
243.2064107249
  0
ARC
  5
2AE
100
AcDbEntity
  8
0
100
AcDbCircle
 62
7
  6
CONTINUOUS
 10
2.2462262352
 20
301.6861063384
 40
27.5089234457
100
AcDbArc
 50
240.538061666
 51
243.4278834441
  0
ARC
  5
2AF
100
AcDbEntity
  8
0
100
AcDbCircle
 62
7
  6
CONTINUOUS
 10
41.2066138244
 20
298.7035028371
 40
27.1450677092
100
AcDbArc
 50
301.7293662766
 51
302.2705817362
  0
ARC
  5
2B0
100
AcDbEntity
  8
0
100
AcDbCircle
 62
7
  6
CONTINUOUS
 10
0.9807575305
 20
299.4343132222
 40
24.9259121663
100
AcDbArc
 50
239.2844049149
 51
240.5249313773
  0
ARC
  5
2B1
100
AcDbEntity
  8
0
100
AcDbCircle
 62
7
  6
CONTINUOUS
 10
36.3974170569
 20
297.7957561709
 40
23.0173884193
100
AcDbArc
 50
300.7652384476
 51
302.9423022686
  0
ARC
  5
2B2
100
AcDbEntity
  8
0
100
AcDbCircle
 62
7
  6
CONTINUOUS
 10
444.6484655113
 20
248.0142133273
 40
433.6157504775
100
AcDbArc
 50
177.9822748397
 51
178.428664326
  0
ARC
  5
2B3
100
AcDbEntity
  8
0
100
AcDbCircle
 62
7
  6
CONTINUOUS
 10
136.8614686889
 20
250.7241255446
 40
143.8532623672
100
AcDbArc
 50
174.0118210495
 51
175.3494868651
  0
ARC
  5
2B4
100
AcDbEntity
  8
0
100
AcDbCircle
 62
7
  6
CONTINUOUS
 10
70.2854653129
 20
256.042690873
 40
91.4560322211
100
AcDbArc
 50
170.8211863604
 51
172.8988913783
  0
ARC
  5
2B5
100
AcDbEntity
  8
0
100
AcDbCircle
 62
7
  6
CONTINUOUS
 10
44.2514074456
 20
269.4813290865
 40
76.306719492
100
AcDbArc
 50
171.4188919874
 51
177.7731701641
  0
ARC
  5
2B6
100
AcDbEntity
  8
0
100
AcDbCircle
 62
7
  6
CONTINUOUS
 10
44.1818812431
 20
268.278335873
 40
74.9801252562
100
AcDbArc
 50
168.2901427976
 51
170.0138992072
  0
ARC
  5
2B7
100
AcDbEntity
  8
0
100
AcDbCircle
 62
7
  6
CONTINUOUS
 10
43.1565998647
 20
263.2301911975
 40
72.4988545359
100
AcDbArc
 50
168.8617768784
 51
171.4308640988
  0
ARC
  5
2B8
100
AcDbEntity
  8
0
100
AcDbCircle
 62
7
  6
CONTINUOUS
 10
63.3954517159
 20
210.6068666578
 40
58.8384624067
100
AcDbArc
 50
108.2204843739
 51
109.873257941
  0
ARC
  5
2B9
100
AcDbEntity
  8
0
100
AcDbCircle
 62
7
  6
CONTINUOUS
 10
58.6731817029
 20
215.5825508268
 40
52.7188899421
100
AcDbArc
 50
105.3161833686
 51
106.875636399
  0
ARC
  5
2BA
100
AcDbEntity
  8
0
100
AcDbCircle
 62
7
  6
CONTINUOUS
 10
60.5403810468
 20
222.1503795737
 40
46.6979739334
100
AcDbArc
 50
109.2291258953
 51
111.3892664556
  0
ARC
  5
2BB
100
AcDbEntity
  8
0
100
AcDbCircle
 62
7
  6
CONTINUOUS
 10
44.1260292159
 20
275.4340470394
 40
21.9732349208
100
AcDbArc
 50
51.594773077
 51
54.1739387133
  0
ARC
  5
2BC
100
AcDbEntity
  8
0
100
AcDbCircle
 62
7
  6
CONTINUOUS
 10
45.9645597563
 20
286.7753725753
 40
19.6038916717
100
AcDbArc
 50
308.7501572641
 51
312.0570443586
  0
ARC
  5
2BD
100
AcDbEntity
  8
0
100
AcDbCircle
 62
7
  6
CONTINUOUS
 10
53.359199741
 20
280.7524253084
 40
12.5961828475
100
AcDbArc
 50
23.1272503232
 51
27.0006624702
  0
ARC
  5
2BE
100
AcDbEntity
  8
0
100
AcDbCircle
 62
7
  6
CONTINUOUS
 10
55.5598394328
 20
279.3743755994
 40
11.3086394762
100
AcDbArc
 50
19.8821631247
 51
22.194025804
  0
ARC
  5
2BF
100
AcDbEntity
  8
0
100
AcDbCircle
 62
7
  6
CONTINUOUS
 10
56.2359533313
 20
279.6492652501
 40
10.5787809247
100
AcDbArc
 50
22.1987652404
 51
24.1654573053
  0
ARC
  5
2C0
100
AcDbEntity
  8
0
100
AcDbCircle
 62
7
  6
CONTINUOUS
 10
58.143310828
 20
281.940899705
 40
7.6537092156
100
AcDbArc
 50
8.18753282
 51
11.7220993836
  0
ARC
  5
2C1
100
AcDbEntity
  8
0
100
AcDbCircle
 62
7
  6
CONTINUOUS
 10
58.0697186061
 20
279.6727422329
 40
7.2756887407
100
AcDbArc
 50
349.1231433351
 51
355.5563923228
  0
ARC
  5
2C2
100
AcDbEntity
  8
0
100
AcDbCircle
 62
7
  6
CONTINUOUS
 10
62.4086319107
 20
268.0775753484
 40
6.7780141997
100
AcDbArc
 50
353.9647809467
 51
358.5733351696
  0
ARC
  5
2C3
100
AcDbEntity
  8
0
100
AcDbCircle
 62
7
  6
CONTINUOUS
 10
62.4363725719
 20
268.0763342494
 40
6.75025126
100
AcDbArc
 50
358.5780039081
 51
0.0080187129
  0
ARC
  5
2C4
100
AcDbEntity
  8
0
100
AcDbCircle
 62
7
  6
CONTINUOUS
 10
47.5126182664
 20
284.2453912453
 40
5.8423089179
100
AcDbArc
 50
9.6751663345
 51
16.0402892962
  0
ARC
  5
2C5
100
AcDbEntity
  8
0
100
AcDbCircle
 62
7
  6
CONTINUOUS
 10
47.7248599443
 20
284.2865409113
 40
5.6261725083
100
AcDbArc
 50
8.8385647094
 51
9.6253209247
  0
ARC
  5
2C6
100
AcDbEntity
  8
0
100
AcDbCircle
 62
7
  6
CONTINUOUS
 10
47.7392233431
 20
285.1510203121
 40
5.6116262365
100
AcDbArc
 50
7.7497232725
 51
9.9497804407
  0
ARC
  5
2C7
100
AcDbEntity
  8
0
100
AcDbCircle
 62
7
  6
CONTINUOUS
 10
47.8138194742
 20
284.2995795269
 40
5.5362660161
100
AcDbArc
 50
4.289843832
 51
8.8466881143
  0
ARC
  5
2C8
100
AcDbEntity
  8
0
100
AcDbCircle
 62
7
  6
CONTINUOUS
 10
47.8365264934
 20
285.1640171337
 40
5.5134592338
100
AcDbArc
 50
3.9081539071
 51
7.7522468515
  0
ARC
  5
2C9
100
AcDbEntity
  8
0
100
AcDbCircle
 62
7
  6
CONTINUOUS
 10
47.7369327756
 20
285.8970154499
 40
5.4628698638
100
AcDbArc
 50
352.8584549554
 51
359.9808642232
  0
ARC
  5
2CA
100
AcDbEntity
  8
0
100
AcDbCircle
 62
7
  6
CONTINUOUS
 10
47.8998110514
 20
285.1688853011
 40
5.4499900645
100
AcDbArc
 50
0.1392729101
 51
3.9024396248
  0
SPLINE
  5
2CB
100
AcDbEntity
  8
0
100
AcDbSpline
 62
7
  6
CONTINUOUS
 70
0
 71
3
 72
12
 73
8
 74
0
 42
0.0000001
 43
0.0000001
 44
0.0000000001
 40
0.0
 40
0.0
 40
0.0
 40
0.0
 40
0.0995978145
 40
0.2023190706
 40
0.4270809321
 40
0.6906732205
 40
1.0
 40
1.0
 40
1.0
 40
1.0
 10
-16.8001691403
 20
285.8951909478
 30
0.0
 10
-16.8001481419
 20
286.2494834394
 30
0.0
 10
-16.7284962599
 20
286.9710433937
 30
0.0
 10
-16.2911157488
 20
288.4342898255
 30
0.0
 10
-15.1547612131
 20
290.2474729426
 30
0.0
 10
-13.0694822758
 20
292.20001945
 30
0.0
 10
-11.3464123921
 20
293.3066895086
 30
0.0
 10
-10.3850846016
 20
293.8420514244
 30
0.0
  0
SPLINE
  5
2CC
100
AcDbEntity
  8
0
100
AcDbSpline
 62
7
  6
CONTINUOUS
 70
0
 71
3
 72
9
 73
5
 74
0
 42
0.0000001
 43
0.0000001
 44
0.0000000001
 40
0.0
 40
0.0
 40
0.0
 40
0.0
 40
0.4677022758
 40
1.0
 40
1.0
 40
1.0
 40
1.0
 10
-10.3850846016
 20
293.8420514244
 30
0.0
 10
-9.0859835615
 20
294.5655187251
 30
0.0
 10
-6.1767788945
 20
295.8774611466
 30
0.0
 10
-3.140353483
 20
296.8385766122
 30
0.0
 10
-1.5057272827
 20
297.2767471273
 30
0.0
  0
SPLINE
  5
2CD
100
AcDbEntity
  8
0
100
AcDbSpline
 62
7
  6
CONTINUOUS
 70
0
 71
3
 72
19
 73
15
 74
0
 42
0.0000001
 43
0.0000001
 44
0.0000000001
 40
0.0
 40
0.0
 40
0.0
 40
0.0
 40
0.1437927501
 40
0.2990289408
 40
0.4562714565
 40
0.6058605483
 40
0.6750130013
 40
0.7390970209
 40
0.7973619681
 40
0.8493061298
 40
0.8947794449
 40
0.9341460629
 40
0.9685228895
 40
1.0
 40
1.0
 40
1.0
 40
1.0
 10
-1.5057272827
 20
297.2767471273
 30
0.0
 10
1.2719532554
 20
298.0213196247
 30
0.0
 10
7.1675463733
 20
299.1356493375
 30
0.0
 10
16.2835626878
 20
299.8094353474
 30
0.0
 10
25.5365914348
 20
299.5267999187
 30
0.0
 10
33.0036589627
 20
298.488920422
 30
0.0
 10
38.5066013473
 20
297.1631870431
 30
0.0
 10
42.1573299863
 20
295.991938813
 30
0.0
 10
45.3758150504
 20
294.6396157351
 30
0.0
 10
48.106929872
 20
293.129046284
 30
0.0
 10
50.305829016
 20
291.4832523132
 30
0.0
 10
51.9362138205
 20
289.7194080185
 30
0.0
 10
52.9596143152
 20
287.8501510036
 30
0.0
 10
53.1998396453
 20
286.5247086227
 30
0.0
 10
53.1998023347
 20
285.895190948
 30
0.0
  0
SPLINE
  5
2CE
100
AcDbEntity
  8
0
100
AcDbSpline
 62
7
  6
CONTINUOUS
 70
0
 71
3
 72
19
 73
15
 74
0
 42
0.0000001
 43
0.0000001
 44
0.0000000001
 40
0.0
 40
0.0
 40
0.0
 40
0.0
 40
0.1392623917
 40
0.2894822208
 40
0.4425426512
 40
0.5900444972
 40
0.6592465972
 40
0.724214548
 40
0.7842088722
 40
0.8386595275
 40
0.8872272293
 40
0.9298960904
 40
0.9671164127
 40
1.0
 40
1.0
 40
1.0
 40
1.0
 10
37.9053604771
 20
274.5136347685
 30
0.0
 10
35.2906832625
 20
273.8127562057
 30
0.0
 10
29.7496913238
 20
272.7413197837
 30
0.0
 10
21.1636644909
 20
272.0267455607
 30
0.0
 10
12.3885511134
 20
272.1673410719
 30
0.0
 10
5.2343793802
 20
273.0047651456
 30
0.0
 10
-0.1293095833
 20
274.119219409
 30
0.0
 10
-3.7696937324
 20
275.1268497049
 30
0.0
 10
-7.0554055245
 20
276.3069880487
 30
0.0
 10
-9.9350825777
 20
277.6411701828
 30
0.0
 10
-12.3649308679
 20
279.1091280886
 30
0.0
 10
-14.309348142
 20
280.69281126
 30
0.0
 10
-15.7383399194
 20
282.3744848116
 30
0.0
 10
-16.3521076805
 20
283.6141429538
 30
0.0
 10
-16.5416754121
 20
284.2245774022
 30
0.0
  0
SPLINE
  5
2CF
100
AcDbEntity
  8
0
100
AcDbSpline
 62
7
  6
CONTINUOUS
 70
0
 71
3
 72
9
 73
5
 74
0
 42
0.0000001
 43
0.0000001
 44
0.0000000001
 40
0.0
 40
0.0
 40
0.0
 40
0.0
 40
0.2533381997
 40
1.0
 40
1.0
 40
1.0
 40
1.0
 10
-16.5416754121
 20
284.2245774022
 30
0.0
 10
-16.5670820796
 20
284.3063904035
 30
0.0
 10
-16.6605574384
 20
284.6313956084
 30
0.0
 10
-16.7259709265
 20
284.96455721
 30
0.0
 10
-16.7574655989
 20
285.2150714638
 30
0.0
  0
SPLINE
  5
2D0
100
AcDbEntity
  8
0
100
AcDbSpline
 62
7
  6
CONTINUOUS
 70
0
 71
3
 72
9
 73
5
 74
0
 42
0.0000001
 43
0.0000001
 44
0.0000000001
 40
0.0
 40
0.0
 40
0.0
 40
0.0
 40
0.247003001
 40
1.0
 40
1.0
 40
1.0
 40
1.0
 10
53.1574219892
 20
285.2178661044
 30
0.0
 10
53.1461386492
 20
285.1276976013
 30
0.0
 10
53.0914871793
 20
284.763807059
 30
0.0
 10
53.0009862143
 20
284.4054540225
 30
0.0
 10
52.9150726337
 20
284.14208732
 30
0.0
  0
SPLINE
  5
2D1
100
AcDbEntity
  8
0
100
AcDbSpline
 62
7
  6
CONTINUOUS
 70
0
 71
3
 72
14
 73
10
 74
0
 42
0.0000001
 43
0.0000001
 44
0.0000000001
 40
0.0
 40
0.0
 40
0.0
 40
0.0
 40
0.0855180905
 40
0.1799841277
 40
0.2856657836
 40
0.4037704892
 40
0.5346928282
 40
0.678211881
 40
1.0
 40
1.0
 40
1.0
 40
1.0
 10
52.9150726337
 20
284.14208732
 30
0.0
 10
52.7520625598
 20
283.6423825541
 30
0.0
 10
52.271930294
 20
282.6329236992
 30
0.0
 10
51.2001030448
 20
281.23057988
 30
0.0
 10
49.7671766802
 20
279.8884233784
 30
0.0
 10
47.9896812919
 20
278.6175606172
 30
0.0
 10
45.8859553807
 20
277.4284920409
 30
0.0
 10
42.5469268707
 20
275.9103388852
 30
0.0
 10
39.815727091
 20
275.0257190133
 30
0.0
 10
37.9053604771
 20
274.5136347685
 30
0.0
  0
SPLINE
  5
2D2
100
AcDbEntity
  8
0
100
AcDbSpline
 62
7
  6
CONTINUOUS
 70
0
 71
3
 72
11
 73
7
 74
0
 42
0.0000001
 43
0.0000001
 44
0.0000000001
 40
0.0
 40
0.0
 40
0.0
 40
0.0
 40
0.2634102731
 40
0.5159328529
 40
0.7602044305
 40
1.0
 40
1.0
 40
1.0
 40
1.0
 10
2.7582115784
 20
201.5892930402
 30
0.0
 10
1.6105006905
 20
201.2816428441
 30
0.0
 10
-0.6931965907
 20
200.8631261299
 30
0.0
 10
-4.1430925715
 20
200.8800705429
 30
0.0
 10
-7.418756722
 20
201.5593695708
 30
0.0
 10
-9.4340095986
 20
202.4499253918
 30
0.0
 10
-10.3706847821
 20
202.9909657169
 30
0.0
  0
SPLINE
  5
2D3
100
AcDbEntity
  8
0
100
AcDbSpline
 62
7
  6
CONTINUOUS
 70
0
 71
3
 72
11
 73
7
 74
0
 42
0.0000001
 43
0.0000001
 44
0.0000000001
 40
0.0
 40
0.0
 40
0.0
 40
0.0
 40
0.271774827
 40
0.5268698584
 40
0.7676346552
 40
1.0
 40
1.0
 40
1.0
 40
1.0
 10
-14.9114609183
 20
216.6813640544
 30
0.0
 10
-14.9114609183
 20
216.2047410856
 30
0.0
 10
-14.818793315
 20
215.2768141865
 30
0.0
 10
-14.3749650635
 20
213.9914317952
 30
0.0
 10
-13.6476533923
 20
212.9219682761
 30
0.0
 10
-12.9894551401
 20
212.3925395958
 30
0.0
 10
-12.6365666814
 20
212.1887425436
 30
0.0
  0
SPLINE
  5
2D4
100
AcDbEntity
  8
0
100
AcDbSpline
 62
7
  6
CONTINUOUS
 70
0
 71
3
 72
11
 73
7
 74
0
 42
0.0000001
 43
0.0000001
 44
0.0000000001
 40
0.0
 40
0.0
 40
0.0
 40
0.0
 40
0.271774827
 40
0.5268698584
 40
0.7676346552
 40
1.0
 40
1.0
 40
1.0
 40
1.0
 10
-10.3630643572
 20
233.4724739645
 30
0.0
 10
-10.3630643572
 20
232.9958509957
 30
0.0
 10
-10.2703967538
 20
232.0679240966
 30
0.0
 10
-9.8265685023
 20
230.7825417053
 30
0.0
 10
-9.0992568312
 20
229.7130781862
 30
0.0
 10
-8.4410585789
 20
229.1836495059
 30
0.0
 10
-8.0881701203
 20
228.9798524537
 30
0.0
  0
SPLINE
  5
2D5
100
AcDbEntity
  8
0
100
AcDbSpline
 62
7
  6
CONTINUOUS
 70
0
 71
3
 72
11
 73
7
 74
0
 42
0.0000001
 43
0.0000001
 44
0.0000000001
 40
0.0
 40
0.0
 40
0.0
 40
0.0
 40
0.271774827
 40
0.5268698584
 40
0.7676346552
 40
1.0
 40
1.0
 40
1.0
 40
1.0
 10
4.3558561034
 20
237.4179612931
 30
0.0
 10
4.3558561034
 20
236.9413383242
 30
0.0
 10
4.4485237067
 20
236.0134114252
 30
0.0
 10
4.8923519582
 20
234.7280290339
 30
0.0
 10
5.6196636293
 20
233.6585655148
 30
0.0
 10
6.2778618816
 20
233.1291368344
 30
0.0
 10
6.6307503403
 20
232.9253397822
 30
0.0
  0
SPLINE
  5
2D6
100
AcDbEntity
  8
0
100
AcDbSpline
 62
7
  6
CONTINUOUS
 70
0
 71
3
 72
11
 73
7
 74
0
 42
0.0000001
 43
0.0000001
 44
0.0000000001
 40
0.0
 40
0.0
 40
0.0
 40
0.0
 40
0.271774827
 40
0.5268698584
 40
0.7676346552
 40
1.0
 40
1.0
 40
1.0
 40
1.0
 10
8.9051715777
 20
223.0660638079
 30
0.0
 10
8.9051715777
 20
222.5894408391
 30
0.0
 10
8.997839181
 20
221.66151394
 30
0.0
 10
9.4416674325
 20
220.3761315487
 30
0.0
 10
10.1689791037
 20
219.3066680296
 30
0.0
 10
10.8271773559
 20
218.7772393493
 30
0.0
 10
11.1800658146
 20
218.5734422971
 30
0.0
  0
SPLINE
  5
2D7
100
AcDbEntity
  8
0
100
AcDbSpline
 62
7
  6
CONTINUOUS
 70
0
 71
3
 72
10
 73
6
 74
0
 42
0.0000001
 43
0.0000001
 44
0.0000000001
 40
0.0
 40
0.0
 40
0.0
 40
0.0
 40
0.2403281524
 40
0.485096085
 40
1.0
 40
1.0
 40
1.0
 40
1.0
 10
3.957874537
 20
216.4708437423
 30
0.0
 10
3.7919282773
 20
216.5666604194
 30
0.0
 10
3.4347948947
 20
216.7243572802
 30
0.0
 10
2.6498904436
 20
216.8877872603
 30
0.0
 10
2.0287316235
 20
216.8254393339
 30
0.0
 10
1.6321804996
 20
216.719141631
 30
0.0
  0
SPLINE
  5
2D8
100
AcDbEntity
  8
0
100
AcDbSpline
 62
7
  6
CONTINUOUS
 70
0
 71
3
 72
9
 73
5
 74
0
 42
0.0000001
 43
0.0000001
 44
0.0000000001
 40
0.0
 40
0.0
 40
0.0
 40
0.0
 40
0.4872206454
 40
1.0
 40
1.0
 40
1.0
 40
1.0
 10
13.6774479829
 20
229.3971464875
 30
0.0
 10
13.4505535139
 20
229.5282322559
 30
0.0
 10
12.9292043184
 20
229.709260141
 30
0.0
 10
12.3804740085
 20
229.6957394324
 30
0.0
 10
12.1087309014
 20
229.6486941803
 30
0.0
  0
SPLINE
  5
2D9
100
AcDbEntity
  8
0
100
AcDbSpline
 62
7
  6
CONTINUOUS
 70
0
 71
3
 72
15
 73
11
 74
0
 42
0.0000001
 43
0.0000001
 44
0.0000000001
 40
0.0
 40
0.0
 40
0.0
 40
0.0
 40
0.0524624495
 40
0.1056459492
 40
0.2162146554
 40
0.3353288405
 40
0.4632709937
 40
0.5978579402
 40
0.7353253112
 40
1.0
 40
1.0
 40
1.0
 40
1.0
 10
18.1539087514
 20
230.6476578988
 30
0.0
 10
17.9414788832
 20
230.7703385359
 30
0.0
 10
17.4898554758
 20
230.9785322903
 30
0.0
 10
16.5060542738
 20
231.2308261229
 30
0.0
 10
15.1571184503
 20
231.2122865032
 30
0.0
 10
13.5490600774
 20
230.6816816929
 30
0.0
 10
12.0379725209
 20
229.7007239922
 30
0.0
 10
10.7283761523
 20
228.3425373288
 30
0.0
 10
9.3952895733
 20
226.2049793967
 30
0.0
 10
8.9051715777
 20
224.3036602978
 30
0.0
 10
8.9051715777
 20
223.0660638079
 30
0.0
  0
SPLINE
  5
2DA
100
AcDbEntity
  8
0
100
AcDbSpline
 62
7
  6
CONTINUOUS
 70
0
 71
3
 72
9
 73
5
 74
0
 42
0.0000001
 43
0.0000001
 44
0.0000000001
 40
0.0
 40
0.0
 40
0.0
 40
0.0
 40
0.4872206454
 40
1.0
 40
1.0
 40
1.0
 40
1.0
 10
9.1281325086
 20
243.7490439727
 30
0.0
 10
8.9012380395
 20
243.880129741
 30
0.0
 10
8.3798888441
 20
244.0611576261
 30
0.0
 10
7.8311585342
 20
244.0476369175
 30
0.0
 10
7.5594154271
 20
244.0005916655
 30
0.0
  0
SPLINE
  5
2DB
100
AcDbEntity
  8
0
100
AcDbSpline
 62
7
  6
CONTINUOUS
 70
0
 71
3
 72
15
 73
11
 74
0
 42
0.0000001
 43
0.0000001
 44
0.0000000001
 40
0.0
 40
0.0
 40
0.0
 40
0.0
 40
0.0524624495
 40
0.1056459492
 40
0.2162146554
 40
0.3353288405
 40
0.4632709937
 40
0.5978579402
 40
0.7353253112
 40
1.0
 40
1.0
 40
1.0
 40
1.0
 10
13.6045932771
 20
244.9995553839
 30
0.0
 10
13.3921634089
 20
245.1222360211
 30
0.0
 10
12.9405400015
 20
245.3304297754
 30
0.0
 10
11.9567387995
 20
245.582723608
 30
0.0
 10
10.607802976
 20
245.5641839884
 30
0.0
 10
8.9997446031
 20
245.033579178
 30
0.0
 10
7.4886570466
 20
244.0526214773
 30
0.0
 10
6.179060678
 20
242.694434814
 30
0.0
 10
4.845974099
 20
240.5568768818
 30
0.0
 10
4.3558561034
 20
238.655557783
 30
0.0
 10
4.3558561034
 20
237.4179612931
 30
0.0
  0
SPLINE
  5
2DC
100
AcDbEntity
  8
0
100
AcDbSpline
 62
7
  6
CONTINUOUS
 70
0
 71
3
 72
9
 73
5
 74
0
 42
0.0000001
 43
0.0000001
 44
0.0000000001
 40
0.0
 40
0.0
 40
0.0
 40
0.0
 40
0.4872206454
 40
1.0
 40
1.0
 40
1.0
 40
1.0
 10
-5.5907879519
 20
239.8035566441
 30
0.0
 10
-5.817682421
 20
239.9346424125
 30
0.0
 10
-6.3390316165
 20
240.1156702976
 30
0.0
 10
-6.8877619263
 20
240.102149589
 30
0.0
 10
-7.1595050335
 20
240.0551043369
 30
0.0
  0
SPLINE
  5
2DD
100
AcDbEntity
  8
0
100
AcDbSpline
 62
7
  6
CONTINUOUS
 70
0
 71
3
 72
15
 73
11
 74
0
 42
0.0000001
 43
0.0000001
 44
0.0000000001
 40
0.0
 40
0.0
 40
0.0
 40
0.0
 40
0.0524624495
 40
0.1056459492
 40
0.2162146554
 40
0.3353288405
 40
0.4632709937
 40
0.5978579402
 40
0.7353253112
 40
1.0
 40
1.0
 40
1.0
 40
1.0
 10
-1.1143271834
 20
241.0540680554
 30
0.0
 10
-1.3267570517
 20
241.1767486925
 30
0.0
 10
-1.778380459
 20
241.3849424469
 30
0.0
 10
-2.7621816611
 20
241.6372362795
 30
0.0
 10
-4.1111174845
 20
241.6186966598
 30
0.0
 10
-5.7191758574
 20
241.0880918495
 30
0.0
 10
-7.2302634139
 20
240.1071341488
 30
0.0
 10
-8.5398597825
 20
238.7489474854
 30
0.0
 10
-9.8729463615
 20
236.6113895533
 30
0.0
 10
-10.3630643572
 20
234.7100704544
 30
0.0
 10
-10.3630643572
 20
233.4724739645
 30
0.0
  0
SPLINE
  5
2DE
100
AcDbEntity
  8
0
100
AcDbSpline
 62
7
  6
CONTINUOUS
 70
0
 71
3
 72
9
 73
5
 74
0
 42
0.0000001
 43
0.0000001
 44
0.0000000001
 40
0.0
 40
0.0
 40
0.0
 40
0.0
 40
0.4872206454
 40
1.0
 40
1.0
 40
1.0
 40
1.0
 10
-10.1391845131
 20
223.012446734
 30
0.0
 10
-10.3660789821
 20
223.1435325024
 30
0.0
 10
-10.8874281776
 20
223.3245603875
 30
0.0
 10
-11.4361584875
 20
223.3110396789
 30
0.0
 10
-11.7079015946
 20
223.2639944268
 30
0.0
  0
SPLINE
  5
2DF
100
AcDbEntity
  8
0
100
AcDbSpline
 62
7
  6
CONTINUOUS
 70
0
 71
3
 72
15
 73
11
 74
0
 42
0.0000001
 43
0.0000001
 44
0.0000000001
 40
0.0
 40
0.0
 40
0.0
 40
0.0
 40
0.0524624495
 40
0.1056459492
 40
0.2162146554
 40
0.3353288405
 40
0.4632709937
 40
0.5978579402
 40
0.7353253112
 40
1.0
 40
1.0
 40
1.0
 40
1.0
 10
-5.6627237446
 20
224.2629581453
 30
0.0
 10
-5.8751536128
 20
224.3856387824
 30
0.0
 10
-6.3267770201
 20
224.5938325368
 30
0.0
 10
-7.3105782222
 20
224.8461263694
 30
0.0
 10
-8.6595140457
 20
224.8275867497
 30
0.0
 10
-10.2675724186
 20
224.2969819394
 30
0.0
 10
-11.7786599751
 20
223.3160242387
 30
0.0
 10
-13.0882563437
 20
221.9578375753
 30
0.0
 10
-14.4213429227
 20
219.8202796432
 30
0.0
 10
-14.9114609183
 20
217.9189605443
 30
0.0
 10
-14.9114609183
 20
216.6813640544
 30
0.0
  0
SPLINE
  5
2E0
100
AcDbEntity
  8
0
100
AcDbSpline
 62
7
  6
CONTINUOUS
 70
0
 71
3
 72
9
 73
5
 74
0
 42
0.0000001
 43
0.0000001
 44
0.0000000001
 40
0.0
 40
0.0
 40
0.0
 40
0.0
 40
0.5134609316
 40
1.0
 40
1.0
 40
1.0
 40
1.0
 10
-14.8103096758
 20
217.9754593107
 30
0.0
 10
-14.7171125094
 20
217.7057808437
 30
0.0
 10
-14.4539237415
 20
217.2027592821
 30
0.0
 10
-14.0243673133
 20
216.826379303
 30
0.0
 10
-13.7902613071
 20
216.6911271489
 30
0.0
  0
SPLINE
  5
2E1
100
AcDbEntity
  8
0
100
AcDbSpline
 62
7
  6
CONTINUOUS
 70
0
 71
3
 72
9
 73
5
 74
0
 42
0.0000001
 43
0.0000001
 44
0.0000000001
 40
0.0
 40
0.0
 40
0.0
 40
0.0
 40
0.5134609316
 40
1.0
 40
1.0
 40
1.0
 40
1.0
 10
-10.2619131147
 20
234.7665692208
 30
0.0
 10
-10.1687159483
 20
234.4968907538
 30
0.0
 10
-9.9055271804
 20
233.9938691922
 30
0.0
 10
-9.4759707521
 20
233.6174892131
 30
0.0
 10
-9.241864746
 20
233.482237059
 30
0.0
  0
SPLINE
  5
2E2
100
AcDbEntity
  8
0
100
AcDbSpline
 62
7
  6
CONTINUOUS
 70
0
 71
3
 72
9
 73
5
 74
0
 42
0.0000001
 43
0.0000001
 44
0.0000000001
 40
0.0
 40
0.0
 40
0.0
 40
0.0
 40
0.5134609316
 40
1.0
 40
1.0
 40
1.0
 40
1.0
 10
4.4570073458
 20
238.7120565494
 30
0.0
 10
4.5502045123
 20
238.4423780824
 30
0.0
 10
4.8133932801
 20
237.9393565208
 30
0.0
 10
5.2429497084
 20
237.5629765417
 30
0.0
 10
5.4770557145
 20
237.4277243876
 30
0.0
  0
SPLINE
  5
2E3
100
AcDbEntity
  8
0
100
AcDbSpline
 62
7
  6
CONTINUOUS
 70
0
 71
3
 72
9
 73
5
 74
0
 42
0.0000001
 43
0.0000001
 44
0.0000000001
 40
0.0
 40
0.0
 40
0.0
 40
0.0
 40
0.5134609316
 40
1.0
 40
1.0
 40
1.0
 40
1.0
 10
9.0063228202
 20
224.3601590642
 30
0.0
 10
9.0995199866
 20
224.0904805972
 30
0.0
 10
9.3627087544
 20
223.5874590356
 30
0.0
 10
9.7922651827
 20
223.2110790565
 30
0.0
 10
10.0263711889
 20
223.0758269024
 30
0.0
  0
SPLINE
  5
2E4
100
AcDbEntity
  8
0
100
AcDbSpline
 62
7
  6
CONTINUOUS
 70
0
 71
3
 72
11
 73
7
 74
0
 42
0.0000001
 43
0.0000001
 44
0.0000000001
 40
0.0
 40
0.0
 40
0.0
 40
0.0
 40
0.2717668072
 40
0.5268680782
 40
0.7676307416
 40
1.0
 40
1.0
 40
1.0
 40
1.0
 10
-2.2107948393
 20
211.4141050768
 30
0.0
 10
-2.2107948398
 20
211.0962187432
 30
0.0
 10
-2.1489801034
 20
210.4773204179
 30
0.0
 10
-1.8529924959
 20
209.6199910555
 30
0.0
 10
-1.3678759168
 20
208.9066931188
 30
0.0
 10
-0.9288971278
 20
208.5535371163
 30
0.0
 10
-0.6935135378
 20
208.4176276147
 30
0.0
  0
SPLINE
  5
2E5
100
AcDbEntity
  8
0
100
AcDbSpline
 62
7
  6
CONTINUOUS
 70
0
 71
3
 72
12
 73
8
 74
0
 42
0.0000001
 43
0.0000001
 44
0.0000000001
 40
0.0
 40
0.0
 40
0.0
 40
0.0
 40
0.2349899833
 40
0.4894752595
 40
0.6202667695
 40
0.7503904793
 40
1.0
 40
1.0
 40
1.0
 40
1.0
 10
1.6321804996
 20
216.719141631
 30
0.0
 10
1.1050205229
 20
216.577833509
 30
0.0
 10
0.065878897
 20
216.0469439324
 30
0.0
 10
-0.9527475315
 20
214.9970623443
 30
0.0
 10
-1.5824386971
 20
213.974233847
 30
0.0
 10
-2.0493560548
 20
212.8815776127
 30
0.0
 10
-2.2107948383
 20
211.9938300249
 30
0.0
 10
-2.2107948393
 20
211.4141050768
 30
0.0
  0
SPLINE
  5
2E6
100
AcDbEntity
  8
0
100
AcDbSpline
 62
7
  6
CONTINUOUS
 70
0
 71
3
 72
20
 73
16
 74
0
 42
0.0000001
 43
0.0000001
 44
0.0000000001
 40
0.0
 40
0.0
 40
0.0
 40
0.0
 40
0.0524831487
 40
0.1059704166
 40
0.1611975178
 40
0.2186783164
 40
0.3408374718
 40
0.4056327801
 40
0.4723142835
 40
0.6088282656
 40
0.7454354704
 40
0.8122267159
 40
0.8771656707
 40
0.9398347413
 40
1.0
 40
1.0
 40
1.0
 40
1.0
 10
16.2661333018
 20
248.2262437178
 30
0.0
 10
17.1415933252
 20
247.685991379
 30
0.0
 10
18.801976627
 20
246.4101036396
 30
0.0
 10
20.8872421499
 20
244.0110097164
 30
0.0
 10
22.5332272197
 20
241.1780285779
 30
0.0
 10
24.1232100419
 20
236.8372845753
 30
0.0
 10
24.639017899
 20
231.9890334944
 30
0.0
 10
24.1706109315
 20
227.0310625437
 30
0.0
 10
23.0130489048
 20
221.8934053219
 30
0.0
 10
20.3667831474
 20
215.7099568992
 30
0.0
 10
16.3736981939
 20
210.2940515693
 30
0.0
 10
12.5289338461
 20
206.6876661788
 30
0.0
 10
9.4318829385
 20
204.4480932513
 30
0.0
 10
6.175025544
 20
202.7093160432
 30
0.0
 10
3.8973149131
 20
201.8946359343
 30
0.0
 10
2.7582115784
 20
201.5892930402
 30
0.0
  0
SPLINE
  5
2E7
100
AcDbEntity
  8
0
100
AcDbSpline
 62
7
  6
CONTINUOUS
 70
0
 71
3
 72
11
 73
7
 74
0
 42
0.0000001
 43
0.0000001
 44
0.0000000001
 40
0.0
 40
0.0
 40
0.0
 40
0.0
 40
0.271774827
 40
0.5268698584
 40
0.7676346552
 40
1.0
 40
1.0
 40
1.0
 40
1.0
 10
15.879487514
 20
240.5069338731
 30
0.0
 10
15.879487514
 20
240.9835568419
 30
0.0
 10
15.7868199107
 20
241.911483741
 30
0.0
 10
15.3429916592
 20
243.1968661323
 30
0.0
 10
14.615679988
 20
244.2663296514
 30
0.0
 10
13.9574817358
 20
244.7957583317
 30
0.0
 10
13.6045932771
 20
244.9995553839
 30
0.0
  0
SPLINE
  5
2E8
100
AcDbEntity
  8
0
100
AcDbSpline
 62
7
  6
CONTINUOUS
 70
0
 71
3
 72
9
 73
5
 74
0
 42
0.0000001
 43
0.0000001
 44
0.0000000001
 40
0.0
 40
0.0
 40
0.0
 40
0.0
 40
0.4792511153
 40
1.0
 40
1.0
 40
1.0
 40
1.0
 10
-7.2364634446
 20
224.7820108213
 30
0.0
 10
-6.8921078299
 20
224.324150971
 30
0.0
 10
-6.3583505109
 20
223.2229058384
 30
0.0
 10
-6.2029072048
 20
222.0187818608
 30
0.0
 10
-6.2029072048
 20
221.3962732315
 30
0.0
  0
SPLINE
  5
2E9
100
AcDbEntity
  8
0
100
AcDbSpline
 62
7
  6
CONTINUOUS
 70
0
 71
3
 72
14
 73
10
 74
0
 42
0.0000001
 43
0.0000001
 44
0.0000000001
 40
0.0
 40
0.0
 40
0.0
 40
0.0
 40
0.1052603002
 40
0.2158757457
 40
0.3350391856
 40
0.4630355292
 40
0.5976775257
 40
0.7352094838
 40
1.0
 40
1.0
 40
1.0
 40
1.0
 10
10.0263711889
 20
223.0758269024
 30
0.0
 10
10.2493944408
 20
222.9469776869
 30
0.0
 10
10.7609016966
 20
222.767668174
 30
0.0
 10
11.59475349
 20
222.7805546113
 30
0.0
 10
12.4373033863
 20
223.057909908
 30
0.0
 10
13.2281983231
 20
223.5716045492
 30
0.0
 10
13.913889351
 20
224.2826238234
 30
0.0
 10
14.6118221866
 20
225.4017232472
 30
0.0
 10
14.8684386153
 20
226.397150337
 30
0.0
 10
14.8684386153
 20
227.04508384
 30
0.0
  0
SPLINE
  5
2EA
100
AcDbEntity
  8
0
100
AcDbSpline
 62
7
  6
CONTINUOUS
 70
0
 71
3
 72
11
 73
7
 74
0
 42
0.0000001
 43
0.0000001
 44
0.0000000001
 40
0.0
 40
0.0
 40
0.0
 40
0.0
 40
0.271774827
 40
0.5268698584
 40
0.7676346552
 40
1.0
 40
1.0
 40
1.0
 40
1.0
 10
20.4288029883
 20
226.1550363879
 30
0.0
 10
20.4288029883
 20
226.6316593568
 30
0.0
 10
20.336135385
 20
227.5595862558
 30
0.0
 10
19.8923071335
 20
228.8449686471
 30
0.0
 10
19.1649954623
 20
229.9144321662
 30
0.0
 10
18.5067972101
 20
230.4438608466
 30
0.0
 10
18.1539087514
 20
230.6476578988
 30
0.0
  0
SPLINE
  5
2EB
100
AcDbEntity
  8
0
100
AcDbSpline
 62
7
  6
CONTINUOUS
 70
0
 71
3
 72
15
 73
11
 74
0
 42
0.0000001
 43
0.0000001
 44
0.0000000001
 40
0.0
 40
0.0
 40
0.0
 40
0.0
 40
0.0524624495
 40
0.1056459492
 40
0.2162146554
 40
0.3353288405
 40
0.4632709937
 40
0.5978579402
 40
0.7353253112
 40
1.0
 40
1.0
 40
1.0
 40
1.0
 10
11.1800658146
 20
218.5734422971
 30
0.0
 10
11.3924956828
 20
218.45076166
 30
0.0
 10
11.8441190902
 20
218.2425679056
 30
0.0
 10
12.8279202922
 20
217.990274073
 30
0.0
 10
14.1768561157
 20
218.0088136926
 30
0.0
 10
15.7849144886
 20
218.539418503
 30
0.0
 10
17.2960020451
 20
219.5203762037
 30
0.0
 10
18.6055984137
 20
220.878562867
 30
0.0
 10
19.9386849927
 20
223.0161207992
 30
0.0
 10
20.4288029883
 20
224.917439898
 30
0.0
 10
20.4288029883
 20
226.1550363879
 30
0.0
  0
SPLINE
  5
2EC
100
AcDbEntity
  8
0
100
AcDbSpline
 62
7
  6
CONTINUOUS
 70
0
 71
3
 72
11
 73
7
 74
0
 42
0.0000001
 43
0.0000001
 44
0.0000000001
 40
0.0
 40
0.0
 40
0.0
 40
0.0
 40
0.271774827
 40
0.5268698584
 40
0.7676346552
 40
1.0
 40
1.0
 40
1.0
 40
1.0
 10
1.1605670535
 20
236.5614465445
 30
0.0
 10
1.1605670535
 20
237.0380695134
 30
0.0
 10
1.0678994501
 20
237.9659964124
 30
0.0
 10
0.6240711987
 20
239.2513788037
 30
0.0
 10
-0.1032404725
 20
240.3208423228
 30
0.0
 10
-0.7614387247
 20
240.8502710032
 30
0.0
 10
-1.1143271834
 20
241.0540680554
 30
0.0
  0
SPLINE
  5
2ED
100
AcDbEntity
  8
0
100
AcDbSpline
 62
7
  6
CONTINUOUS
 70
0
 71
3
 72
9
 73
5
 74
0
 42
0.0000001
 43
0.0000001
 44
0.0000000001
 40
0.0
 40
0.0
 40
0.0
 40
0.0
 40
0.4792511153
 40
1.0
 40
1.0
 40
1.0
 40
1.0
 10
16.5801690514
 20
231.1667105748
 30
0.0
 10
16.9245246661
 20
230.7088507245
 30
0.0
 10
17.4582819851
 20
229.6076055919
 30
0.0
 10
17.6137252912
 20
228.4034816144
 30
0.0
 10
17.6137252912
 20
227.780972985
 30
0.0
  0
SPLINE
  5
2EE
100
AcDbEntity
  8
0
100
AcDbSpline
 62
7
  6
CONTINUOUS
 70
0
 71
3
 72
14
 73
10
 74
0
 42
0.0000001
 43
0.0000001
 44
0.0000000001
 40
0.0
 40
0.0
 40
0.0
 40
0.0
 40
0.1052603002
 40
0.2158757457
 40
0.3350391856
 40
0.4630355292
 40
0.5976775257
 40
0.7352094838
 40
1.0
 40
1.0
 40
1.0
 40
1.0
 10
5.4770557145
 20
237.4277243876
 30
0.0
 10
5.7000789665
 20
237.2988751721
 30
0.0
 10
6.2115862223
 20
237.1195656591
 30
0.0
 10
7.0454380157
 20
237.1324520964
 30
0.0
 10
7.887987912
 20
237.4098073932
 30
0.0
 10
8.6788828487
 20
237.9235020344
 30
0.0
 10
9.3645738766
 20
238.6345213085
 30
0.0
 10
10.0625067122
 20
239.7536207324
 30
0.0
 10
10.319123141
 20
240.7490478222
 30
0.0
 10
10.319123141
 20
241.3969813251
 30
0.0
  0
SPLINE
  5
2EF
100
AcDbEntity
  8
0
100
AcDbSpline
 62
7
  6
CONTINUOUS
 70
0
 71
3
 72
14
 73
10
 74
0
 42
0.0000001
 43
0.0000001
 44
0.0000000001
 40
0.0
 40
0.0
 40
0.0
 40
0.0
 40
0.2686164723
 40
0.3932530389
 40
0.5129262831
 40
0.6303784462
 40
0.7488454196
 40
0.8713344666
 40
1.0
 40
1.0
 40
1.0
 40
1.0
 10
-2.7376563793
 20
210.3206635016
 30
0.0
 10
-2.7376563805
 20
209.5652056683
 30
0.0
 10
-2.5490990855
 20
208.4363810283
 30
0.0
 10
-1.8537464273
 20
207.1601354427
 30
0.0
 10
-1.16082421
 20
206.4001986381
 30
0.0
 10
-0.3112007445
 20
205.8515082234
 30
0.0
 10
0.6585317331
 20
205.5380145591
 30
0.0
 10
1.705440782
 20
205.470839709
 30
0.0
 10
2.4086915653
 20
205.5865951046
 30
0.0
 10
2.7582115784
 20
205.6802858604
 30
0.0
  0
SPLINE
  5
2F0
100
AcDbEntity
  8
0
100
AcDbSpline
 62
7
  6
CONTINUOUS
 70
0
 71
3
 72
15
 73
11
 74
0
 42
0.0000001
 43
0.0000001
 44
0.0000000001
 40
0.0
 40
0.0
 40
0.0
 40
0.0
 40
0.0524624495
 40
0.1056459492
 40
0.2162146554
 40
0.3353288405
 40
0.4632709937
 40
0.5978579402
 40
0.7353253112
 40
1.0
 40
1.0
 40
1.0
 40
1.0
 10
6.6307503403
 20
232.9253397822
 30
0.0
 10
6.8431802085
 20
232.8026591451
 30
0.0
 10
7.2948036158
 20
232.5944653907
 30
0.0
 10
8.2786048179
 20
232.3421715581
 30
0.0
 10
9.6275406414
 20
232.3607111778
 30
0.0
 10
11.2355990143
 20
232.8913159881
 30
0.0
 10
12.7466865708
 20
233.8722736888
 30
0.0
 10
14.0562829394
 20
235.2304603522
 30
0.0
 10
15.3893695184
 20
237.3680182843
 30
0.0
 10
15.879487514
 20
239.2693373832
 30
0.0
 10
15.879487514
 20
240.5069338731
 30
0.0
  0
SPLINE
  5
2F1
100
AcDbEntity
  8
0
100
AcDbSpline
 62
7
  6
CONTINUOUS
 70
0
 71
3
 72
14
 73
10
 74
0
 42
0.0000001
 43
0.0000001
 44
0.0000000001
 40
0.0
 40
0.0
 40
0.0
 40
0.0
 40
0.2346073929
 40
0.3603379301
 40
0.4894684284
 40
0.6200482101
 40
0.7499714674
 40
0.8772023527
 40
1.0
 40
1.0
 40
1.0
 40
1.0
 10
2.7582115784
 20
205.6802858604
 30
0.0
 10
3.5120893154
 20
205.8823669211
 30
0.0
 10
4.6108170893
 20
206.4439626028
 30
0.0
 10
5.8424226146
 20
207.5137382986
 30
0.0
 10
6.6735944944
 20
208.4976867527
 30
0.0
 10
7.3554254184
 20
209.6054401436
 30
0.0
 10
7.8637760856
 20
210.7963654758
 30
0.0
 10
8.1791192249
 20
212.0253949308
 30
0.0
 10
8.2540795358
 20
212.8585350863
 30
0.0
 10
8.2540795361
 20
213.2670585778
 30
0.0
  0
SPLINE
  5
2F2
100
AcDbEntity
  8
0
100
AcDbSpline
 62
7
  6
CONTINUOUS
 70
0
 71
3
 72
14
 73
10
 74
0
 42
0.0000001
 43
0.0000001
 44
0.0000000001
 40
0.0
 40
0.0
 40
0.0
 40
0.0
 40
0.257132217
 40
0.3911512539
 40
0.5242842538
 40
0.6535041431
 40
0.7764183323
 40
0.891792128
 40
1.0
 40
1.0
 40
1.0
 40
1.0
 10
-6.2029072048
 20
221.3962732315
 30
0.0
 10
-6.2029072048
 20
220.3355782552
 30
0.0
 10
-6.563438969
 20
218.7077022515
 30
0.0
 10
-7.573012697
 20
216.7882849074
 30
0.0
 10
-8.5857908228
 20
215.4917159387
 30
0.0
 10
-9.7869793332
 20
214.4364512497
 30
0.0
 10
-11.1140822766
 20
213.6793927796
 30
0.0
 10
-12.4959993898
 20
213.2653834995
 30
0.0
 10
-13.4322154292
 20
213.2383866025
 30
0.0
 10
-13.8752449782
 20
213.2928755602
 30
0.0
  0
SPLINE
  5
2F3
100
AcDbEntity
  8
0
100
AcDbSpline
 62
7
  6
CONTINUOUS
 70
0
 71
3
 72
11
 73
7
 74
0
 42
0.0000001
 43
0.0000001
 44
0.0000000001
 40
0.0
 40
0.0
 40
0.0
 40
0.0
 40
0.2717577763
 40
0.5268821179
 40
0.7676367252
 40
1.0
 40
1.0
 40
1.0
 40
1.0
 10
-8.9481938807
 20
220.6603840865
 30
0.0
 10
-8.9481938807
 20
220.9098986163
 30
0.0
 10
-8.9967357975
 20
221.3957081181
 30
0.0
 10
-9.2290387742
 20
222.0686775854
 30
0.0
 10
-9.6098648961
 20
222.6285788731
 30
0.0
 10
-9.9544538971
 20
222.9057206651
 30
0.0
 10
-10.1391845131
 20
223.012446734
 30
0.0
  0
SPLINE
  5
2F4
100
AcDbEntity
  8
0
100
AcDbSpline
 62
7
  6
CONTINUOUS
 70
0
 71
3
 72
9
 73
5
 74
0
 42
0.0000001
 43
0.0000001
 44
0.0000000001
 40
0.0
 40
0.0
 40
0.0
 40
0.0
 40
0.4792511153
 40
1.0
 40
1.0
 40
1.0
 40
1.0
 10
12.0308535771
 20
245.5186080599
 30
0.0
 10
12.3752091918
 20
245.0607482096
 30
0.0
 10
12.9089665108
 20
243.9595030771
 30
0.0
 10
13.0644098169
 20
242.7553790995
 30
0.0
 10
13.0644098169
 20
242.1328704701
 30
0.0
  0
SPLINE
  5
2F5
100
AcDbEntity
  8
0
100
AcDbSpline
 62
7
  6
CONTINUOUS
 70
0
 71
3
 72
14
 73
10
 74
0
 42
0.0000001
 43
0.0000001
 44
0.0000000001
 40
0.0
 40
0.0
 40
0.0
 40
0.0
 40
0.1052603002
 40
0.2158757457
 40
0.3350391856
 40
0.4630355292
 40
0.5976775257
 40
0.7352094838
 40
1.0
 40
1.0
 40
1.0
 40
1.0
 10
-9.241864746
 20
233.482237059
 30
0.0
 10
-9.0188414941
 20
233.3533878435
 30
0.0
 10
-8.5073342382
 20
233.1740783306
 30
0.0
 10
-7.6734824449
 20
233.1869647679
 30
0.0
 10
-6.8309325486
 20
233.4643200646
 30
0.0
 10
-6.0400376118
 20
233.9780147058
 30
0.0
 10
-5.3543465839
 20
234.68903398
 30
0.0
 10
-4.6564137483
 20
235.8081334038
 30
0.0
 10
-4.3997973196
 20
236.8035604936
 30
0.0
 10
-4.3997973196
 20
237.4514939966
 30
0.0
  0
SPLINE
  5
2F6
100
AcDbEntity
  8
0
100
AcDbSpline
 62
7
  6
CONTINUOUS
 70
0
 71
3
 72
14
 73
10
 74
0
 42
0.0000001
 43
0.0000001
 44
0.0000000001
 40
0.0
 40
0.0
 40
0.0
 40
0.0
 40
0.2686164723
 40
0.3932530389
 40
0.5129262831
 40
0.6303784462
 40
0.7488454196
 40
0.8713344666
 40
1.0
 40
1.0
 40
1.0
 40
1.0
 10
8.2540795361
 20
213.2670585778
 30
0.0
 10
8.2540795368
 20
214.0225164111
 30
0.0
 10
8.0655222424
 20
215.1513410511
 30
0.0
 10
7.3701695841
 20
216.4275866367
 30
0.0
 10
6.6772473669
 20
217.1875234413
 30
0.0
 10
5.8276239014
 20
217.736213856
 30
0.0
 10
4.8578914237
 20
218.0497075203
 30
0.0
 10
3.8109823748
 20
218.1168823704
 30
0.0
 10
3.1077315916
 20
218.0011269749
 30
0.0
 10
2.7582115784
 20
217.907436219
 30
0.0
  0
SPLINE
  5
2F7
100
AcDbEntity
  8
0
100
AcDbSpline
 62
7
  6
CONTINUOUS
 70
0
 71
3
 72
14
 73
10
 74
0
 42
0.0000001
 43
0.0000001
 44
0.0000000001
 40
0.0
 40
0.0
 40
0.0
 40
0.0
 40
0.257132217
 40
0.3911512539
 40
0.5242842538
 40
0.6535041431
 40
0.7764183323
 40
0.891792128
 40
1.0
 40
1.0
 40
1.0
 40
1.0
 10
-1.6545106436
 20
238.1873831416
 30
0.0
 10
-1.6545106436
 20
237.1266881653
 30
0.0
 10
-2.0150424078
 20
235.4988121616
 30
0.0
 10
-3.0246161359
 20
233.5793948175
 30
0.0
 10
-4.0373942617
 20
232.2828258488
 30
0.0
 10
-5.2385827721
 20
231.2275611598
 30
0.0
 10
-6.5656857154
 20
230.4705026897
 30
0.0
 10
-7.9476028286
 20
230.0564934096
 30
0.0
 10
-8.8838188681
 20
230.0294965126
 30
0.0
 10
-9.326848417
 20
230.0839854703
 30
0.0
  0
SPLINE
  5
2F8
100
AcDbEntity
  8
0
100
AcDbSpline
 62
7
  6
CONTINUOUS
 70
0
 71
3
 72
11
 73
7
 74
0
 42
0.0000001
 43
0.0000001
 44
0.0000000001
 40
0.0
 40
0.0
 40
0.0
 40
0.0
 40
0.2717577763
 40
0.5268821179
 40
0.7676367252
 40
1.0
 40
1.0
 40
1.0
 40
1.0
 10
-4.3997973196
 20
237.4514939966
 30
0.0
 10
-4.3997973196
 20
237.7010085264
 30
0.0
 10
-4.4483392363
 20
238.1868180282
 30
0.0
 10
-4.680642213
 20
238.8597874955
 30
0.0
 10
-5.061468335
 20
239.4196887832
 30
0.0
 10
-5.4060573359
 20
239.6968305752
 30
0.0
 10
-5.5907879519
 20
239.8035566441
 30
0.0
  0
SPLINE
  5
2F9
100
AcDbEntity
  8
0
100
AcDbSpline
 62
7
  6
CONTINUOUS
 70
0
 71
3
 72
14
 73
10
 74
0
 42
0.0000001
 43
0.0000001
 44
0.0000000001
 40
0.0
 40
0.0
 40
0.0
 40
0.0
 40
0.2346073929
 40
0.3603379301
 40
0.4894684284
 40
0.6200482101
 40
0.7499714674
 40
0.8772023527
 40
1.0
 40
1.0
 40
1.0
 40
1.0
 10
2.7582115784
 20
217.907436219
 30
0.0
 10
2.0043338414
 20
217.7053551584
 30
0.0
 10
0.9056060675
 20
217.1437594766
 30
0.0
 10
-0.3259994577
 20
216.0739837808
 30
0.0
 10
-1.1571713375
 20
215.0900353267
 30
0.0
 10
-1.8390022616
 20
213.9822819359
 30
0.0
 10
-2.3473529287
 20
212.7913566036
 30
0.0
 10
-2.6626960682
 20
211.5623271486
 30
0.0
 10
-2.7376563786
 20
210.7291869931
 30
0.0
 10
-2.7376563793
 20
210.3206635016
 30
0.0
  0
SPLINE
  5
2FA
100
AcDbEntity
  8
0
100
AcDbSpline
 62
7
  6
CONTINUOUS
 70
0
 71
3
 72
14
 73
10
 74
0
 42
0.0000001
 43
0.0000001
 44
0.0000000001
 40
0.0
 40
0.0
 40
0.0
 40
0.0
 40
0.257132217
 40
0.3911512539
 40
0.5242842538
 40
0.6535041431
 40
0.7764183323
 40
0.891792128
 40
1.0
 40
1.0
 40
1.0
 40
1.0
 10
13.0644098169
 20
242.1328704701
 30
0.0
 10
13.0644098169
 20
241.0721754939
 30
0.0
 10
12.7038780527
 20
239.4442994902
 30
0.0
 10
11.6943043246
 20
237.524882146
 30
0.0
 10
10.6815261989
 20
236.2283131773
 30
0.0
 10
9.4803376884
 20
235.1730484884
 30
0.0
 10
8.1532347451
 20
234.4159900182
 30
0.0
 10
6.7713176319
 20
234.0019807382
 30
0.0
 10
5.8351015924
 20
233.9749838412
 30
0.0
 10
5.3920720435
 20
234.0294727989
 30
0.0
  0
SPLINE
  5
2FB
100
AcDbEntity
  8
0
100
AcDbSpline
 62
7
  6
CONTINUOUS
 70
0
 71
3
 72
11
 73
7
 74
0
 42
0.0000001
 43
0.0000001
 44
0.0000000001
 40
0.0
 40
0.0
 40
0.0
 40
0.0
 40
0.2717577763
 40
0.5268821179
 40
0.7676367252
 40
1.0
 40
1.0
 40
1.0
 40
1.0
 10
10.319123141
 20
241.3969813251
 30
0.0
 10
10.319123141
 20
241.646495855
 30
0.0
 10
10.2705812242
 20
242.1323053567
 30
0.0
 10
10.0382782475
 20
242.805274824
 30
0.0
 10
9.6574521255
 20
243.3651761118
 30
0.0
 10
9.3128631246
 20
243.6423179038
 30
0.0
 10
9.1281325086
 20
243.7490439727
 30
0.0
  0
SPLINE
  5
2FC
100
AcDbEntity
  8
0
100
AcDbSpline
 62
7
  6
CONTINUOUS
 70
0
 71
3
 72
14
 73
10
 74
0
 42
0.0000001
 43
0.0000001
 44
0.0000000001
 40
0.0
 40
0.0
 40
0.0
 40
0.0
 40
0.257132217
 40
0.3911512539
 40
0.5242842538
 40
0.6535041431
 40
0.7764183323
 40
0.891792128
 40
1.0
 40
1.0
 40
1.0
 40
1.0
 10
17.6137252912
 20
227.780972985
 30
0.0
 10
17.6137252912
 20
226.7202780087
 30
0.0
 10
17.253193527
 20
225.0924020051
 30
0.0
 10
16.2436197989
 20
223.1729846609
 30
0.0
 10
15.2308416732
 20
221.8764156922
 30
0.0
 10
14.0296531628
 20
220.8211510032
 30
0.0
 10
12.7025502194
 20
220.0640925331
 30
0.0
 10
11.3206331062
 20
219.650083253
 30
0.0
 10
10.3844170667
 20
219.623086356
 30
0.0
 10
9.9413875178
 20
219.6775753137
 30
0.0
  0
SPLINE
  5
2FD
100
AcDbEntity
  8
0
100
AcDbSpline
 62
7
  6
CONTINUOUS
 70
0
 71
3
 72
11
 73
7
 74
0
 42
0.0000001
 43
0.0000001
 44
0.0000000001
 40
0.0
 40
0.0
 40
0.0
 40
0.0
 40
0.2717577763
 40
0.5268821179
 40
0.7676367252
 40
1.0
 40
1.0
 40
1.0
 40
1.0
 10
14.8684386153
 20
227.04508384
 30
0.0
 10
14.8684386153
 20
227.2945983698
 30
0.0
 10
14.8198966985
 20
227.7804078716
 30
0.0
 10
14.5875937218
 20
228.4533773389
 30
0.0
 10
14.2067675999
 20
229.0132786266
 30
0.0
 10
13.8621785989
 20
229.2904204186
 30
0.0
 10
13.6774479829
 20
229.3971464875
 30
0.0
  0
SPLINE
  5
2FE
100
AcDbEntity
  8
0
100
AcDbSpline
 62
7
  6
CONTINUOUS
 70
0
 71
3
 72
15
 73
11
 74
0
 42
0.0000001
 43
0.0000001
 44
0.0000000001
 40
0.0
 40
0.0
 40
0.0
 40
0.0
 40
0.0524624495
 40
0.1056459492
 40
0.2162146554
 40
0.3353288405
 40
0.4632709937
 40
0.5978579402
 40
0.7353253112
 40
1.0
 40
1.0
 40
1.0
 40
1.0
 10
-8.0881701203
 20
228.9798524537
 30
0.0
 10
-7.875740252
 20
228.8571718165
 30
0.0
 10
-7.4241168447
 20
228.6489780622
 30
0.0
 10
-6.4403156426
 20
228.3966842296
 30
0.0
 10
-5.0913798191
 20
228.4152238492
 30
0.0
 10
-3.4833214463
 20
228.9458286596
 30
0.0
 10
-1.9722338897
 20
229.9267863603
 30
0.0
 10
-0.6626375212
 20
231.2849730236
 30
0.0
 10
0.6704490578
 20
233.4225309558
 30
0.0
 10
1.1605670535
 20
235.3238500546
 30
0.0
 10
1.1605670535
 20
236.5614465445
 30
0.0
  0
SPLINE
  5
2FF
100
AcDbEntity
  8
0
100
AcDbSpline
 62
7
  6
CONTINUOUS
 70
0
 71
3
 72
12
 73
8
 74
0
 42
0.0000001
 43
0.0000001
 44
0.0000000001
 40
0.0
 40
0.0
 40
0.0
 40
0.0
 40
0.2349899833
 40
0.4894752595
 40
0.6202667696
 40
0.7503904793
 40
1.0
 40
1.0
 40
1.0
 40
1.0
 10
1.6321804996
 20
208.1693297261
 30
0.0
 10
2.1593404769
 20
208.3106378482
 30
0.0
 10
3.198482104
 20
208.8415274257
 30
0.0
 10
4.2171085331
 20
209.8914090156
 30
0.0
 10
4.8467996988
 20
210.9142375146
 30
0.0
 10
5.3137170557
 20
212.0068937504
 30
0.0
 10
5.4751558387
 20
212.8946413393
 30
0.0
 10
5.4751558384
 20
213.4743662879
 30
0.0
  0
SPLINE
  5
300
100
AcDbEntity
  8
0
100
AcDbSpline
 62
7
  6
CONTINUOUS
 70
0
 71
3
 72
11
 73
7
 74
0
 42
0.0000001
 43
0.0000001
 44
0.0000000001
 40
0.0
 40
0.0
 40
0.0
 40
0.0
 40
0.2717668071
 40
0.5268680781
 40
0.7676307415
 40
1.0
 40
1.0
 40
1.0
 40
1.0
 10
5.4751558384
 20
213.4743662879
 30
0.0
 10
5.4751558382
 20
213.7922526208
 30
0.0
 10
5.4133411014
 20
214.4111509446
 30
0.0
 10
5.1173534934
 20
215.2684803047
 30
0.0
 10
4.6322369147
 20
215.9817782394
 30
0.0
 10
4.1932581265
 20
216.334934241
 30
0.0
 10
3.957874537
 20
216.4708437423
 30
0.0
  0
SPLINE
  5
301
100
AcDbEntity
  8
0
100
AcDbSpline
 62
7
  6
CONTINUOUS
 70
0
 71
3
 72
9
 73
5
 74
0
 42
0.0000001
 43
0.0000001
 44
0.0000000001
 40
0.0
 40
0.0
 40
0.0
 40
0.0
 40
0.4792511153
 40
1.0
 40
1.0
 40
1.0
 40
1.0
 10
-2.6880668835
 20
241.5731207314
 30
0.0
 10
-2.3437112688
 20
241.1152608811
 30
0.0
 10
-1.8099539497
 20
240.0140157485
 30
0.0
 10
-1.6545106436
 20
238.8098917709
 30
0.0
 10
-1.6545106436
 20
238.1873831416
 30
0.0
  0
SPLINE
  5
302
100
AcDbEntity
  8
0
100
AcDbSpline
 62
7
  6
CONTINUOUS
 70
0
 71
3
 72
20
 73
16
 74
0
 42
0.0000001
 43
0.0000001
 44
0.0000000001
 40
0.0
 40
0.0
 40
0.0
 40
0.0
 40
0.0524128299
 40
0.1056810684
 40
0.1605451002
 40
0.2175453112
 40
0.2769807825
 40
0.3389066449
 40
0.4691143187
 40
0.5368206956
 40
0.6054152992
 40
0.7424225222
 40
0.8097608811
 40
0.8754654314
 40
1.0
 40
1.0
 40
1.0
 40
1.0
 10
-10.3706847821
 20
202.9909657169
 30
0.0
 10
-11.2448128699
 20
203.4958777216
 30
0.0
 10
-12.9094313538
 20
204.6947582426
 30
0.0
 10
-15.0269911066
 20
206.9731450887
 30
0.0
 10
-16.728142426
 20
209.6814702927
 30
0.0
 10
-17.9750962621
 20
212.7525925968
 30
0.0
 10
-18.7432795592
 20
216.11529271
 30
0.0
 10
-19.1159931775
 20
220.9601130363
 30
0.0
 10
-18.4572823863
 20
225.9874819566
 30
0.0
 10
-16.8956649035
 20
230.885727994
 30
0.0
 10
-14.7201793443
 20
235.6898709006
 30
0.0
 10
-11.7357525226
 20
240.0845394057
 30
0.0
 10
-8.0943451708
 20
243.8144094613
 30
0.0
 10
-4.2163073692
 20
246.9195993532
 30
0.0
 10
-0.9179013401
 20
248.6540484606
 30
0.0
 10
1.3527607189
 20
249.4267651678
 30
0.0
  0
SPLINE
  5
303
100
AcDbEntity
  8
0
100
AcDbSpline
 62
7
  6
CONTINUOUS
 70
0
 71
3
 72
14
 73
10
 74
0
 42
0.0000001
 43
0.0000001
 44
0.0000000001
 40
0.0
 40
0.0
 40
0.0
 40
0.0
 40
0.1052603002
 40
0.2158757457
 40
0.3350391856
 40
0.4630355292
 40
0.5976775257
 40
0.7352094838
 40
1.0
 40
1.0
 40
1.0
 40
1.0
 10
-13.7902613071
 20
216.6911271489
 30
0.0
 10
-13.5672380552
 20
216.5622779334
 30
0.0
 10
-13.0557307994
 20
216.3829684205
 30
0.0
 10
-12.221879006
 20
216.3958548578
 30
0.0
 10
-11.3793291097
 20
216.6732101545
 30
0.0
 10
-10.5884341729
 20
217.1869047957
 30
0.0
 10
-9.902743145
 20
217.8979240699
 30
0.0
 10
-9.2048103094
 20
219.0170234937
 30
0.0
 10
-8.9481938807
 20
220.0124505835
 30
0.0
 10
-8.9481938807
 20
220.6603840865
 30
0.0
  0
SPLINE
  5
304
100
AcDbEntity
  8
0
100
AcDbSpline
 62
7
  6
CONTINUOUS
 70
0
 71
3
 72
11
 73
7
 74
0
 42
0.0000001
 43
0.0000001
 44
0.0000000001
 40
0.0
 40
0.0
 40
0.0
 40
0.0
 40
0.271774827
 40
0.5268698584
 40
0.7676346552
 40
1.0
 40
1.0
 40
1.0
 40
1.0
 10
-3.3878295077
 20
219.7703366344
 30
0.0
 10
-3.3878295077
 20
220.2469596033
 30
0.0
 10
-3.480497111
 20
221.1748865023
 30
0.0
 10
-3.9243253625
 20
222.4602688936
 30
0.0
 10
-4.6516370336
 20
223.5297324127
 30
0.0
 10
-5.3098352859
 20
224.0591610931
 30
0.0
 10
-5.6627237446
 20
224.2629581453
 30
0.0
  0
SPLINE
  5
305
100
AcDbEntity
  8
0
100
AcDbSpline
 62
7
  6
CONTINUOUS
 70
0
 71
3
 72
10
 73
6
 74
0
 42
0.0000001
 43
0.0000001
 44
0.0000000001
 40
0.0
 40
0.0
 40
0.0
 40
0.0
 40
0.2403281524
 40
0.485096085
 40
1.0
 40
1.0
 40
1.0
 40
1.0
 10
-0.6935135378
 20
208.4176276147
 30
0.0
 10
-0.5275672781
 20
208.3218109377
 30
0.0
 10
-0.1704338955
 20
208.1641140769
 30
0.0
 10
0.6144705555
 20
208.0006840968
 30
0.0
 10
1.2356293757
 20
208.0630320231
 30
0.0
 10
1.6321804996
 20
208.1693297261
 30
0.0
  0
SPLINE
  5
306
100
AcDbEntity
  8
0
100
AcDbSpline
 62
7
  6
CONTINUOUS
 70
0
 71
3
 72
15
 73
11
 74
0
 42
0.0000001
 43
0.0000001
 44
0.0000000001
 40
0.0
 40
0.0
 40
0.0
 40
0.0
 40
0.0524624495
 40
0.1056459492
 40
0.2162146554
 40
0.3353288405
 40
0.4632709937
 40
0.5978579402
 40
0.7353253112
 40
1.0
 40
1.0
 40
1.0
 40
1.0
 10
-12.6365666814
 20
212.1887425436
 30
0.0
 10
-12.4241368132
 20
212.0660619064
 30
0.0
 10
-11.9725134058
 20
211.8578681521
 30
0.0
 10
-10.9887122038
 20
211.6055743195
 30
0.0
 10
-9.6397763803
 20
211.6241139391
 30
0.0
 10
-8.0317180074
 20
212.1547187495
 30
0.0
 10
-6.5206304509
 20
213.1356764502
 30
0.0
 10
-5.2110340823
 20
214.4938631135
 30
0.0
 10
-3.8779475033
 20
216.6314210457
 30
0.0
 10
-3.3878295077
 20
218.5327401445
 30
0.0
 10
-3.3878295077
 20
219.7703366344
 30
0.0
  0
SPLINE
  5
307
100
AcDbEntity
  8
0
100
AcDbSpline
 62
7
  6
CONTINUOUS
 70
0
 71
3
 72
11
 73
7
 74
0
 42
0.0000001
 43
0.0000001
 44
0.0000000001
 40
0.0
 40
0.0
 40
0.0
 40
0.0
 40
0.2119796435
 40
0.4491143501
 40
0.7120047706
 40
1.0
 40
1.0
 40
1.0
 40
1.0
 10
-29.7330848373
 20
261.3978191432
 30
0.0
 10
-29.1659382321
 20
260.7885857603
 30
0.0
 10
-27.8514139075
 20
259.6014785285
 30
0.0
 10
-25.5465859899
 20
258.0092304485
 30
0.0
 10
-22.8266817618
 20
256.5241796671
 30
0.0
 10
-20.8435633253
 20
255.6539105626
 30
0.0
 10
-19.7927726032
 20
255.2360109077
 30
0.0
  0
SPLINE
  5
308
100
AcDbEntity
  8
0
100
AcDbSpline
 62
7
  6
CONTINUOUS
 70
0
 71
3
 72
11
 73
7
 74
0
 42
0.0000001
 43
0.0000001
 44
0.0000000001
 40
0.0
 40
0.0
 40
0.0
 40
0.0
 40
0.1871522423
 40
0.403204178
 40
0.6745135833
 40
1.0
 40
1.0
 40
1.0
 40
1.0
 10
-19.828728667
 20
255.1613902165
 30
0.0
 10
-19.846910966
 20
255.1236548021
 30
0.0
 10
-19.8489264581
 20
255.0229455036
 30
0.0
 10
-19.7528825794
 20
254.8992990714
 30
0.0
 10
-19.6067865704
 20
254.7902916573
 30
0.0
 10
-19.4863983892
 20
254.7305234227
 30
0.0
 10
-19.419417848
 20
254.7018784225
 30
0.0
  0
SPLINE
  5
309
100
AcDbEntity
  8
0
100
AcDbSpline
 62
7
  6
CONTINUOUS
 70
0
 71
3
 72
9
 73
5
 74
0
 42
0.0000001
 43
0.0000001
 44
0.0000000001
 40
0.0
 40
0.0
 40
0.0
 40
0.0
 40
0.4704068117
 40
1.0
 40
1.0
 40
1.0
 40
1.0
 10
-19.419417848
 20
254.7018784225
 30
0.0
 10
-17.1453712412
 20
253.7294046525
 30
0.0
 10
-12.1418685583
 20
252.0551135537
 30
0.0
 10
-6.9900733639
 20
250.9603981008
 30
0.0
 10
-4.2429789429
 20
250.5058921857
 30
0.0
  0
SPLINE
  5
30A
100
AcDbEntity
  8
0
100
AcDbSpline
 62
7
  6
CONTINUOUS
 70
0
 71
3
 72
10
 73
6
 74
0
 42
0.0000001
 43
0.0000001
 44
0.0000000001
 40
0.0
 40
0.0
 40
0.0
 40
0.0
 40
0.1787795349
 40
0.4139992537
 40
1.0
 40
1.0
 40
1.0
 40
1.0
 10
-4.203624514
 20
250.4315374847
 30
0.0
 10
-4.1780085559
 20
250.3831414992
 30
0.0
 10
-4.0767887592
 20
250.2971645266
 30
0.0
 10
-3.8027985142
 20
250.1627602332
 30
0.0
 10
-3.5551290064
 20
250.1008620387
 30
0.0
 10
-3.3785634335
 20
250.0686367941
 30
0.0
  0
SPLINE
  5
30B
100
AcDbEntity
  8
0
100
AcDbSpline
 62
7
  6
CONTINUOUS
 70
0
 71
3
 72
9
 73
5
 74
0
 42
0.0000001
 43
0.0000001
 44
0.0000000001
 40
0.0
 40
0.0
 40
0.0
 40
0.0
 40
0.48993363
 40
1.0
 40
1.0
 40
1.0
 40
1.0
 10
-3.3785634335
 20
250.0686367941
 30
0.0
 10
-0.4562646393
 20
249.5353184034
 30
0.0
 10
5.5656000869
 20
248.7483102687
 30
0.0
 10
11.6308992305
 20
248.4837695362
 30
0.0
 10
14.7235266219
 20
248.4772735152
 30
0.0
  0
SPLINE
  5
30C
100
AcDbEntity
  8
0
100
AcDbSpline
 62
7
  6
CONTINUOUS
 70
0
 71
3
 72
10
 73
6
 74
0
 42
0.0000001
 43
0.0000001
 44
0.0000000001
 40
0.0
 40
0.0
 40
0.0
 40
0.0
 40
0.2084444829
 40
0.4551475524
 40
1.0
 40
1.0
 40
1.0
 40
1.0
 10
14.8322004971
 20
248.4145046003
 30
0.0
 10
14.9009764754
 20
248.3747809322
 30
0.0
 10
15.0652950594
 20
248.313781709
 30
0.0
 10
15.4372084548
 20
248.2307728479
 30
0.0
 10
15.7398265091
 20
248.2068635899
 30
0.0
 10
15.9474037326
 20
248.2034632959
 30
0.0
  0
SPLINE
  5
30D
100
AcDbEntity
  8
0
100
AcDbSpline
 62
7
  6
CONTINUOUS
 70
0
 71
3
 72
9
 73
5
 74
0
 42
0.0000001
 43
0.0000001
 44
0.0000000001
 40
0.0
 40
0.0
 40
0.0
 40
0.0
 40
0.5078922484
 40
1.0
 40
1.0
 40
1.0
 40
1.0
 10
15.9474037326
 20
248.2034632959
 30
0.0
 10
19.0505867971
 20
248.152660852
 30
0.0
 10
25.1672528262
 20
248.3078117992
 30
0.0
 10
31.2501346941
 20
248.9823651674
 30
0.0
 10
34.2192658226
 20
249.4589936082
 30
0.0
  0
SPLINE
  5
30E
100
AcDbEntity
  8
0
100
AcDbSpline
 62
7
  6
CONTINUOUS
 70
0
 71
3
 72
9
 73
5
 74
0
 42
0.0000001
 43
0.0000001
 44
0.0000000001
 40
0.0
 40
0.0
 40
0.0
 40
0.0
 40
0.4930532367
 40
1.0
 40
1.0
 40
1.0
 40
1.0
 10
34.3807145319
 20
249.4173664777
 30
0.0
 10
34.5781832144
 20
249.3664529579
 30
0.0
 10
34.9953433907
 20
249.3340019728
 30
0.0
 10
35.408751451
 20
249.3604051786
 30
0.0
 10
35.6162803388
 20
249.390313685
 30
0.0
  0
SPLINE
  5
30F
100
AcDbEntity
  8
0
100
AcDbSpline
 62
7
  6
CONTINUOUS
 70
0
 71
3
 72
9
 73
5
 74
0
 42
0.0000001
 43
0.0000001
 44
0.0000000001
 40
0.0
 40
0.0
 40
0.0
 40
0.0
 40
0.5270962688
 40
1.0
 40
1.0
 40
1.0
 40
1.0
 10
35.6162803388
 20
249.390313685
 30
0.0
 10
38.4276247735
 20
249.7955082544
 30
0.0
 10
43.7306303889
 20
250.8015293528
 30
0.0
 10
48.9014303699
 20
252.3771057109
 30
0.0
 10
51.2761890949
 20
253.3015944796
 30
0.0
  0
SPLINE
  5
310
100
AcDbEntity
  8
0
100
AcDbSpline
 62
7
  6
CONTINUOUS
 70
0
 71
3
 72
9
 73
5
 74
0
 42
0.0000001
 43
0.0000001
 44
0.0000000001
 40
0.0
 40
0.0
 40
0.0
 40
0.0
 40
0.5309881881
 40
1.0
 40
1.0
 40
1.0
 40
1.0
 10
51.4658333802
 20
253.2874464979
 30
0.0
 10
51.6749191965
 20
253.2718487402
 30
0.0
 10
52.0725790027
 20
253.2953799551
 30
0.0
 10
52.4595234634
 20
253.3854597328
 30
0.0
 10
52.633658221
 20
253.4485007486
 30
0.0
  0
SPLINE
  5
311
100
AcDbEntity
  8
0
100
AcDbSpline
 62
7
  6
CONTINUOUS
 70
0
 71
3
 72
11
 73
7
 74
0
 42
0.0000001
 43
0.0000001
 44
0.0000000001
 40
0.0
 40
0.0
 40
0.0
 40
0.0
 40
0.2860536707
 40
0.5485775288
 40
0.7865484037
 40
1.0
 40
1.0
 40
1.0
 40
1.0
 10
52.633658221
 20
253.4485007486
 30
0.0
 10
53.7360776112
 20
253.8476232598
 30
0.0
 10
55.8260899087
 20
254.6829604147
 30
0.0
 10
58.7184029377
 20
256.1161913944
 30
0.0
 10
61.2078764618
 20
257.6634196074
 30
0.0
 10
62.658733856
 20
258.8223005935
 30
0.0
 10
63.2975344931
 20
259.4200749804
 30
0.0
  0
SPLINE
  5
312
100
AcDbEntity
  8
0
100
AcDbSpline
 62
7
  6
CONTINUOUS
 70
0
 71
3
 72
9
 73
5
 74
0
 42
0.0000001
 43
0.0000001
 44
0.0000000001
 40
0.0
 40
0.0
 40
0.0
 40
0.0
 40
0.5730795835
 40
1.0
 40
1.0
 40
1.0
 40
1.0
 10
63.4865028642
 20
259.4355600159
 30
0.0
 10
63.6745909819
 20
259.4509734762
 30
0.0
 10
63.9998374293
 20
259.5194927636
 30
0.0
 10
64.3015866463
 20
259.6692570838
 30
0.0
 10
64.4087958592
 20
259.7602022936
 30
0.0
  0
SPLINE
  5
313
100
AcDbEntity
  8
0
100
AcDbSpline
 62
7
  6
CONTINUOUS
 70
0
 71
3
 72
11
 73
7
 74
0
 42
0.0000001
 43
0.0000001
 44
0.0000000001
 40
0.0
 40
0.0
 40
0.0
 40
0.0
 40
0.2885886458
 40
0.5463263482
 40
0.7800079589
 40
1.0
 40
1.0
 40
1.0
 40
1.0
 10
64.4087958592
 20
259.7602022936
 30
0.0
 10
65.0273220489
 20
260.2849300856
 30
0.0
 10
66.1367825592
 20
261.3564381171
 30
0.0
 10
67.436512189
 20
263.138735728
 30
0.0
 10
68.2469456137
 20
264.9864715505
 30
0.0
 10
68.4447732345
 20
266.2646902821
 30
0.0
 10
68.4531611535
 20
266.8829519142
 30
0.0
  0
SPLINE
  5
314
100
AcDbEntity
  8
0
100
AcDbSpline
 62
7
  6
CONTINUOUS
 70
0
 71
3
 72
9
 73
5
 74
0
 42
0.0000001
 43
0.0000001
 44
0.0000000001
 40
0.0
 40
0.0
 40
0.0
 40
0.0
 40
0.3457044202
 40
1.0
 40
1.0
 40
1.0
 40
1.0
 10
68.6130067135
 20
266.925798735
 30
0.0
 10
68.6923376543
 20
266.9470638307
 30
0.0
 10
68.910397987
 20
267.0223002766
 30
0.0
 10
69.13274496
 20
267.2103511013
 30
0.0
 10
69.1490786619
 20
267.3649365311
 30
0.0
  0
SPLINE
  5
315
100
AcDbEntity
  8
0
100
AcDbSpline
 62
7
  6
CONTINUOUS
 70
0
 71
3
 72
13
 73
9
 74
0
 42
0.0000001
 43
0.0000001
 44
0.0000000001
 40
0.0
 40
0.0
 40
0.0
 40
0.0
 40
0.3226573572
 40
0.4670854678
 40
0.5990873456
 40
0.718187516
 40
0.824316375
 40
1.0
 40
1.0
 40
1.0
 40
1.0
 10
38.202683303
 20
274.1869112489
 30
0.0
 10
40.027339803
 20
274.6760204278
 30
0.0
 10
42.6398178863
 20
275.5144049888
 30
0.0
 10
45.8512629271
 20
276.9320477743
 30
0.0
 10
47.8900800131
 20
278.0352887265
 30
0.0
 10
49.6302618914
 20
279.2058070718
 30
0.0
 10
51.4116519029
 20
280.7326144288
 30
0.0
 10
52.4506502877
 20
282.0746119892
 30
0.0
 10
52.8702426913
 20
283.0137187773
 30
0.0
  0
SPLINE
  5
316
100
AcDbEntity
  8
0
100
AcDbSpline
 62
7
  6
CONTINUOUS
 70
0
 71
3
 72
9
 73
5
 74
0
 42
0.0000001
 43
0.0000001
 44
0.0000000001
 40
0.0
 40
0.0
 40
0.0
 40
0.0
 40
0.257623024
 40
1.0
 40
1.0
 40
1.0
 40
1.0
 10
52.8702426913
 20
283.0137187773
 30
0.0
 10
52.9113700816
 20
283.1057676589
 30
0.0
 10
53.0623514326
 20
283.4668396767
 30
0.0
 10
53.177102626
 20
283.84333456
 30
0.0
 10
53.23802927
 20
284.1273981336
 30
0.0
  0
SPLINE
  5
317
100
AcDbEntity
  8
0
100
AcDbSpline
 62
7
  6
CONTINUOUS
 70
0
 71
3
 72
9
 73
5
 74
0
 42
0.0000001
 43
0.0000001
 44
0.0000000001
 40
0.0
 40
0.0
 40
0.0
 40
0.0
 40
0.2531054509
 40
1.0
 40
1.0
 40
1.0
 40
1.0
 10
53.23802927
 20
284.1273981336
 30
0.0
 10
53.2567968981
 20
284.2149000726
 30
0.0
 10
53.3219957342
 20
284.5624631894
 30
0.0
 10
53.3506047683
 20
284.9169653521
 30
0.0
 10
53.3501896016
 20
285.1810488944
 30
0.0
  0
SPLINE
  5
318
100
AcDbEntity
  8
0
100
AcDbSpline
 62
7
  6
CONTINUOUS
 70
0
 71
3
 72
9
 73
5
 74
0
 42
0.0000001
 43
0.0000001
 44
0.0000000001
 40
0.0
 40
0.0
 40
0.0
 40
0.0
 40
0.4891799103
 40
1.0
 40
1.0
 40
1.0
 40
1.0
 10
-16.950365056
 20
285.1568811902
 30
0.0
 10
-16.9498833603
 20
284.8338507203
 30
0.0
 10
-16.8820693506
 20
284.1719573926
 30
0.0
 10
-16.6859935652
 20
283.5369224121
 30
0.0
 10
-16.5597180823
 20
283.2241286579
 30
0.0
  0
SPLINE
  5
319
100
AcDbEntity
  8
0
100
AcDbSpline
 62
7
  6
CONTINUOUS
 70
0
 71
3
 72
10
 73
6
 74
0
 42
0.0000001
 43
0.0000001
 44
0.0000000001
 40
0.0
 40
0.0
 40
0.0
 40
0.0
 40
0.4249355457
 40
0.6930923602
 40
1.0
 40
1.0
 40
1.0
 40
1.0
 10
-16.5597180823
 20
283.2241286579
 30
0.0
 10
-16.075832451
 20
282.0255079939
 30
0.0
 10
-14.6744334459
 20
280.3304684544
 30
0.0
 10
-12.2566209853
 20
278.4950527183
 30
0.0
 10
-10.7332824143
 20
277.619326121
 30
0.0
 10
-9.9022290307
 20
277.1939764395
 30
0.0
  0
SPLINE
  5
31A
100
AcDbEntity
  8
0
100
AcDbSpline
 62
7
  6
CONTINUOUS
 70
0
 71
3
 72
15
 73
11
 74
0
 42
0.0000001
 43
0.0000001
 44
0.0000000001
 40
0.0
 40
0.0
 40
0.0
 40
0.0
 40
0.1007966446
 40
0.2155717869
 40
0.3413224869
 40
0.4744451455
 40
0.6109687854
 40
0.7467639953
 40
0.8777253114
 40
1.0
 40
1.0
 40
1.0
 40
1.0
 10
-9.7637084229
 20
277.1235527607
 30
0.0
 10
-8.2973574325
 20
276.3830379146
 30
0.0
 10
-5.0299229746
 20
275.057494231
 30
0.0
 10
0.3366613974
 20
273.5630040927
 30
0.0
 10
6.3367563693
 20
272.4780561971
 30
0.0
 10
12.755859896
 20
271.8453654333
 30
0.0
 10
19.3675931995
 20
271.6888783655
 30
0.0
 10
25.9381421881
 20
272.0147151383
 30
0.0
 10
32.2343514653
 20
272.8102098222
 30
0.0
 10
36.2778737893
 20
273.6709555057
 30
0.0
 10
38.202683303
 20
274.1869112489
 30
0.0
  0
SPLINE
  5
31B
100
AcDbEntity
  8
0
100
AcDbSpline
 62
7
  6
CONTINUOUS
 70
0
 71
3
 72
10
 73
6
 74
0
 42
0.0000001
 43
0.0000001
 44
0.0000000001
 40
0.0
 40
0.0
 40
0.0
 40
0.0
 40
0.2464088107
 40
0.4790976847
 40
1.0
 40
1.0
 40
1.0
 40
1.0
 10
-29.8013925604
 20
261.7564690876
 30
0.0
 10
-29.8183516544
 20
261.7291324696
 30
0.0
 10
-29.8423588557
 20
261.6692079944
 30
0.0
 10
-29.8374780354
 20
261.5355736993
 30
0.0
 10
-29.7794206335
 20
261.4475972503
 30
0.0
 10
-29.7330848373
 20
261.3978191432
 30
0.0
  0
SPLINE
  5
31C
100
AcDbEntity
  8
0
100
AcDbSpline
 62
7
  6
CONTINUOUS
 70
0
 71
3
 72
11
 73
7
 74
0
 42
0.0000001
 43
0.0000001
 44
0.0000000001
 40
0.0
 40
0.0
 40
0.0
 40
0.0
 40
0.2252504569
 40
0.4613207481
 40
0.7174260109
 40
1.0
 40
1.0
 40
1.0
 40
1.0
 10
-32.7869915601
 20
268.4238729328
 30
0.0
 10
-32.7868787336
 20
267.8714105923
 30
0.0
 10
-32.6447632827
 20
266.7356254423
 30
0.0
 10
-32.0179961673
 20
265.0767166006
 30
0.0
 10
-30.9936135234
 20
263.4634518814
 30
0.0
 10
-30.1044517397
 20
262.4783817817
 30
0.0
 10
-29.6076818963
 20
261.9951134821
 30
0.0
  0
SPLINE
  5
31D
100
AcDbEntity
  8
0
100
AcDbSpline
 62
7
  6
CONTINUOUS
 70
0
 71
3
 72
14
 73
10
 74
0
 42
0.0000001
 43
0.0000001
 44
0.0000000001
 40
0.0
 40
0.0
 40
0.0
 40
0.0
 40
0.2980082205
 40
0.4337906546
 40
0.5606439442
 40
0.6791669977
 40
0.7906309852
 40
0.8970176922
 40
1.0
 40
1.0
 40
1.0
 40
1.0
 10
-7.4200958233
 20
299.3505396358
 30
0.0
 10
-9.9529117074
 20
298.6716044514
 30
0.0
 10
-13.5972039095
 20
297.4891151606
 30
0.0
 10
-18.0942742802
 20
295.4504236009
 30
0.0
 10
-21.02240939
 20
293.8046782609
 30
0.0
 10
-23.5921241575
 20
291.9887809572
 30
0.0
 10
-25.7794693774
 20
289.9797387231
 30
0.0
 10
-27.5415511188
 20
287.757485313
 30
0.0
 10
-28.397711361
 20
286.1079514975
 30
0.0
 10
-28.7204946072
 20
285.2612282694
 30
0.0
  0
SPLINE
  5
31E
100
AcDbEntity
  8
0
100
AcDbSpline
 62
7
  6
CONTINUOUS
 70
0
 71
3
 72
9
 73
5
 74
0
 42
0.0000001
 43
0.0000001
 44
0.0000000001
 40
0.0
 40
0.0
 40
0.0
 40
0.0
 40
0.2514623064
 40
1.0
 40
1.0
 40
1.0
 40
1.0
 10
65.6374229849
 20
283.4957959473
 30
0.0
 10
65.5980773486
 20
283.6856440294
 30
0.0
 10
65.4222378596
 20
284.4365202942
 30
0.0
 10
65.169592885
 20
285.1690531112
 30
0.0
 10
64.9430877677
 20
285.6998853146
 30
0.0
  0
SPLINE
  5
31F
100
AcDbEntity
  8
0
100
AcDbSpline
 62
7
  6
CONTINUOUS
 70
0
 71
3
 72
19
 73
15
 74
0
 42
0.0000001
 43
0.0000001
 44
0.0000000001
 40
0.0
 40
0.0
 40
0.0
 40
0.0
 40
0.0423217593
 40
0.0868538682
 40
0.1345764849
 40
0.1862781955
 40
0.2422567079
 40
0.3024558171
 40
0.3665517864
 40
0.4340156596
 40
0.5761805009
 40
0.7225398996
 40
0.8660287492
 40
1.0
 40
1.0
 40
1.0
 40
1.0
 10
64.5824147178
 20
286.4711024206
 30
0.0
 10
64.0907567263
 20
287.4367699203
 30
0.0
 10
62.8298003399
 20
289.2953041691
 30
0.0
 10
60.3606713272
 20
291.7214408924
 30
0.0
 10
57.3532490838
 20
293.8728156519
 30
0.0
 10
53.8557998585
 20
295.785829949
 30
0.0
 10
49.895793863
 20
297.4722360264
 30
0.0
 10
45.512475987
 20
298.9320692755
 30
0.0
 10
40.7543875695
 20
300.1577076516
 30
0.0
 10
33.8694501381
 20
301.48703212
 30
0.0
 10
24.7883972141
 20
302.4597854584
 30
0.0
 10
13.7106511726
 20
302.5609990512
 30
0.0
 10
2.8843188466
 20
301.6089375929
 30
0.0
 10
-4.1068107006
 20
300.2386838786
 30
0.0
 10
-7.4200958233
 20
299.3505396358
 30
0.0
  0
SPLINE
  5
320
100
AcDbEntity
  8
0
100
AcDbSpline
 62
7
  6
CONTINUOUS
 70
0
 71
3
 72
9
 73
5
 74
0
 42
0.0000001
 43
0.0000001
 44
0.0000000001
 40
0.0
 40
0.0
 40
0.0
 40
0.0
 40
0.2480218629
 40
1.0
 40
1.0
 40
1.0
 40
1.0
 10
11.195785956
 20
259.9046091919
 30
0.0
 10
12.5259895433
 20
260.3966447776
 30
0.0
 10
17.9531100942
 20
262.2016129199
 30
0.0
 10
23.6241330955
 20
263.2879034216
 30
0.0
 10
27.9099089355
 20
263.6387291806
 30
0.0
  0
SPLINE
  5
321
100
AcDbEntity
  8
0
100
AcDbSpline
 62
7
  6
CONTINUOUS
 70
0
 71
3
 72
11
 73
7
 74
0
 42
0.0000001
 43
0.0000001
 44
0.0000000001
 40
0.0
 40
0.0
 40
0.0
 40
0.0
 40
0.2600281959
 40
0.5216885828
 40
0.7711076474
 40
1.0
 40
1.0
 40
1.0
 40
1.0
 10
27.9099089355
 20
263.6387291806
 30
0.0
 10
24.8877841356
 20
263.2664516985
 30
0.0
 10
18.8690659775
 20
262.0955009761
 30
0.0
 10
10.2954140594
 20
259.1762502993
 30
0.0
 10
2.5193501412
 20
255.2977029934
 30
0.0
 10
-2.1237488111
 20
252.1222365354
 30
0.0
 10
-4.2036243402
 20
250.4315380916
 30
0.0
  0
SPLINE
  5
322
100
AcDbEntity
  8
0
100
AcDbSpline
 62
7
  6
CONTINUOUS
 70
0
 71
3
 72
9
 73
5
 74
0
 42
0.0000001
 43
0.0000001
 44
0.0000000001
 40
0.0
 40
0.0
 40
0.0
 40
0.0
 40
0.4801436496
 40
1.0
 40
1.0
 40
1.0
 40
1.0
 10
-4.242979972
 20
250.5058925723
 30
0.0
 10
-2.0382598383
 20
252.3916531314
 30
0.0
 10
2.8984280521
 20
255.9250294998
 30
0.0
 10
8.3032542013
 20
258.6798459945
 30
0.0
 10
11.195785956
 20
259.9046091919
 30
0.0
  0
SPLINE
  5
323
100
AcDbEntity
  8
0
100
AcDbSpline
 62
7
  6
CONTINUOUS
 70
0
 71
3
 72
9
 73
5
 74
0
 42
0.0000001
 43
0.0000001
 44
0.0000000001
 40
0.0
 40
0.0
 40
0.0
 40
0.0
 40
0.1546891014
 40
1.0
 40
1.0
 40
1.0
 40
1.0
 10
27.9099171776
 20
263.6380709245
 30
0.0
 10
27.9134227877
 20
263.6240619566
 30
0.0
 10
27.939412115
 20
263.5343774082
 30
0.0
 10
27.957950818
 20
263.4426314756
 30
0.0
 10
27.9814530805
 20
263.3672988643
 30
0.0
  0
SPLINE
  5
324
100
AcDbEntity
  8
0
100
AcDbSpline
 62
7
  6
CONTINUOUS
 70
0
 71
3
 72
9
 73
5
 74
0
 42
0.0000001
 43
0.0000001
 44
0.0000000001
 40
0.0
 40
0.0
 40
0.0
 40
0.0
 40
0.5035999989
 40
1.0
 40
1.0
 40
1.0
 40
1.0
 10
29.9760935334
 20
260.2781385781
 30
0.0
 10
27.2365993234
 20
258.5585051817
 30
0.0
 10
21.9727021537
 20
254.8578889202
 30
0.0
 10
17.076822606
 20
250.6850416305
 30
0.0
 10
14.7516339447
 20
248.5036537619
 30
0.0
  0
SPLINE
  5
325
100
AcDbEntity
  8
0
100
AcDbSpline
 62
7
  6
CONTINUOUS
 70
0
 71
3
 72
16
 73
12
 74
0
 42
0.0000001
 43
0.0000001
 44
0.0000000001
 40
0.0
 40
0.0
 40
0.0
 40
0.0
 40
0.112354591
 40
0.1706297548
 40
0.2302489848
 40
0.3531669639
 40
0.4802048689
 40
0.610130811
 40
0.741329791
 40
0.8719547875
 40
1.0
 40
1.0
 40
1.0
 40
1.0
 10
-3.3785510954
 20
250.0686347869
 30
0.0
 10
-2.3622106455
 20
250.8630622958
 30
0.0
 10
-0.794824318
 20
252.0405215439
 30
0.0
 10
1.4002434822
 20
253.5148128327
 30
0.0
 10
3.753951258
 20
254.9665406514
 30
0.0
 10
6.8708818529
 20
256.6801741511
 30
0.0
 10
10.8187136682
 20
258.5410602244
 30
0.0
 10
14.9678238716
 20
260.1764321116
 30
0.0
 10
19.2537311411
 20
261.552163324
 30
0.0
 10
23.6003562429
 20
262.6324041062
 30
0.0
 10
26.5248906665
 20
263.1679740909
 30
0.0
 10
27.9814509673
 20
263.3673000579
 30
0.0
  0
SPLINE
  5
326
100
AcDbEntity
  8
0
100
AcDbSpline
 62
7
  6
CONTINUOUS
 70
0
 71
3
 72
8
 73
4
 74
0
 42
0.0000001
 43
0.0000001
 44
0.0000000001
 40
0.0
 40
0.0
 40
0.0
 40
0.0
 40
1.0
 40
1.0
 40
1.0
 40
1.0
 10
27.9092684021
 20
263.6397510665
 30
0.0
 10
27.9854913932
 20
263.6465388275
 30
0.0
 10
28.061799764
 20
263.6523317223
 30
0.0
 10
28.1380560539
 20
263.6587345589
 30
0.0
  0
SPLINE
  5
327
100
AcDbEntity
  8
0
100
AcDbSpline
 62
7
  6
CONTINUOUS
 70
0
 71
3
 72
17
 73
13
 74
0
 42
0.0000001
 43
0.0000001
 44
0.0000000001
 40
0.0
 40
0.0
 40
0.0
 40
0.0
 40
0.0292812384
 40
0.0600232118
 40
0.1219324552
 40
0.1841218742
 40
0.2464657895
 40
0.3714565653
 40
0.4967502551
 40
0.622280776
 40
0.7480130147
 40
1.0
 40
1.0
 40
1.0
 40
1.0
 10
29.8601831521
 20
263.6539633438
 30
0.0
 10
29.8595150855
 20
263.6709412881
 30
0.0
 10
29.8195953202
 20
263.6920980506
 30
0.0
 10
29.7552006161
 20
263.7071735738
 30
0.0
 10
29.6635489512
 20
263.7187012051
 30
0.0
 10
29.556254655
 20
263.7245800403
 30
0.0
 10
29.4112339845
 20
263.7278737469
 30
0.0
 10
29.2299179264
 20
263.725793351
 30
0.0
 10
29.0119311712
 20
263.7180939941
 30
0.0
 10
28.7937216959
 20
263.7067724429
 30
0.0
 10
28.5022848559
 20
263.6881779494
 30
0.0
 10
28.283757594
 20
263.6711394698
 30
0.0
 10
28.1380493234
 20
263.6589051184
 30
0.0
  0
SPLINE
  5
328
100
AcDbEntity
  8
0
100
AcDbSpline
 62
7
  6
CONTINUOUS
 70
0
 71
3
 72
9
 73
5
 74
0
 42
0.0000001
 43
0.0000001
 44
0.0000000001
 40
0.0
 40
0.0
 40
0.0
 40
0.0
 40
0.5144805744
 40
1.0
 40
1.0
 40
1.0
 40
1.0
 10
28.1380493234
 20
263.6589051184
 30
0.0
 10
30.7808559955
 20
263.8809352135
 30
0.0
 10
35.9045973553
 20
264.4903827345
 30
0.0
 10
40.9687553363
 20
265.4892499834
 30
0.0
 10
43.3994471059
 20
266.0857944767
 30
0.0
  0
SPLINE
  5
329
100
AcDbEntity
  8
0
100
AcDbSpline
 62
7
  6
CONTINUOUS
 70
0
 71
3
 72
9
 73
5
 74
0
 42
0.0000001
 43
0.0000001
 44
0.0000000001
 40
0.0
 40
0.0
 40
0.0
 40
0.0
 40
0.515058682
 40
1.0
 40
1.0
 40
1.0
 40
1.0
 10
29.9760935334
 20
260.2781385781
 30
0.0
 10
32.174389339
 20
261.4808909174
 30
0.0
 10
36.5443614697
 20
263.6355806868
 30
0.0
 10
41.1113815987
 20
265.3465169235
 30
0.0
 10
43.3691354036
 20
266.0312130846
 30
0.0
  0
SPLINE
  5
32A
100
AcDbEntity
  8
0
100
AcDbSpline
 62
7
  6
CONTINUOUS
 70
0
 71
3
 72
8
 73
4
 74
0
 42
0.0000001
 43
0.0000001
 44
0.0000000001
 40
0.0
 40
0.0
 40
0.0
 40
0.0
 40
1.0
 40
1.0
 40
1.0
 40
1.0
 10
44.7477251278
 20
266.4290159537
 30
0.0
 10
44.8310088128
 20
266.451800634
 30
0.0
 10
44.9147634004
 20
266.4728310069
 30
0.0
 10
44.9981629997
 20
266.4951876764
 30
0.0
  0
SPLINE
  5
32B
100
AcDbEntity
  8
0
100
AcDbSpline
 62
7
  6
CONTINUOUS
 70
0
 71
3
 72
11
 73
7
 74
0
 42
0.0000001
 43
0.0000001
 44
0.0000000001
 40
0.0
 40
0.0
 40
0.0
 40
0.0
 40
0.2342637696
 40
0.4884663913
 40
0.747586387
 40
1.0
 40
1.0
 40
1.0
 40
1.0
 10
43.3938668007
 20
265.9413157765
 30
0.0
 10
40.920152594
 20
265.0479477404
 30
0.0
 10
35.879240014
 20
262.8539379924
 30
0.0
 10
28.5492681778
 20
258.7418378694
 30
0.0
 10
21.4408357275
 20
253.8904029604
 30
0.0
 10
16.9589902684
 20
250.2873421041
 30
0.0
 10
14.8322007187
 20
248.4145052382
 30
0.0
  0
SPLINE
  5
32C
100
AcDbEntity
  8
0
100
AcDbSpline
 62
7
  6
CONTINUOUS
 70
0
 71
3
 72
9
 73
5
 74
0
 42
0.0000001
 43
0.0000001
 44
0.0000000001
 40
0.0
 40
0.0
 40
0.0
 40
0.0
 40
0.4418544984
 40
1.0
 40
1.0
 40
1.0
 40
1.0
 10
44.9981545224
 20
266.4945169838
 30
0.0
 10
45.0379742736
 20
266.474183671
 30
0.0
 10
45.1034425531
 20
266.3887712479
 30
0.0
 10
45.1422800574
 20
266.2964664482
 30
0.0
 10
45.1605632476
 20
266.2430294842
 30
0.0
  0
SPLINE
  5
32D
100
AcDbEntity
  8
0
100
AcDbSpline
 62
7
  6
CONTINUOUS
 70
0
 71
3
 72
16
 73
12
 74
0
 42
0.0000001
 43
0.0000001
 44
0.0000000001
 40
0.0
 40
0.0
 40
0.0
 40
0.0
 40
0.1254367736
 40
0.1891692258
 40
0.2534416554
 40
0.383003482
 40
0.5127691929
 40
0.6411785321
 40
0.7664403494
 40
0.8866350193
 40
1.0
 40
1.0
 40
1.0
 40
1.0
 10
15.9474169237
 20
248.2034632868
 30
0.0
 10
16.986424516
 20
249.096019459
 30
0.0
 10
18.560451817
 20
250.4341749533
 30
0.0
 10
20.7177855273
 20
252.1680665107
 30
0.0
 10
22.9502691147
 20
253.8791218167
 30
0.0
 10
25.8173321507
 20
255.9461267372
 30
0.0
 10
29.338732664
 20
258.2988086826
 30
0.0
 10
32.9144601461
 20
260.479599786
 30
0.0
 10
36.4900970432
 20
262.4530837392
 30
0.0
 10
40.0117113787
 20
264.1741379346
 30
0.0
 10
42.3566668055
 20
265.1810169901
 30
0.0
 10
43.5095198416
 20
265.6319910445
 30
0.0
  0
SPLINE
  5
32E
100
AcDbEntity
  8
0
100
AcDbSpline
 62
7
  6
CONTINUOUS
 70
0
 71
3
 72
8
 73
4
 74
0
 42
0.0000001
 43
0.0000001
 44
0.0000000001
 40
0.0
 40
0.0
 40
0.0
 40
0.0
 40
1.0
 40
1.0
 40
1.0
 40
1.0
 10
44.9967401886
 20
266.4949087843
 30
0.0
 10
45.0630068962
 20
266.5132454862
 30
0.0
 10
45.1291491628
 20
266.532035661
 30
0.0
 10
45.1955149612
 20
266.5500104204
 30
0.0
  0
SPLINE
  5
32F
100
AcDbEntity
  8
0
100
AcDbSpline
 62
7
  6
CONTINUOUS
 70
0
 71
3
 72
9
 73
5
 74
0
 42
0.0000001
 43
0.0000001
 44
0.0000000001
 40
0.0
 40
0.0
 40
0.0
 40
0.0
 40
0.5360233016
 40
1.0
 40
1.0
 40
1.0
 40
1.0
 10
45.195513888
 20
266.5500200616
 30
0.0
 10
47.5837924998
 20
267.1972059464
 30
0.0
 10
51.9849678475
 20
268.6208116793
 30
0.0
 10
56.1764567959
 20
270.6084932728
 30
0.0
 10
58.0125454432
 20
271.711312919
 30
0.0
  0
SPLINE
  5
330
100
AcDbEntity
  8
0
100
AcDbSpline
 62
7
  6
CONTINUOUS
 70
0
 71
3
 72
16
 73
12
 74
0
 42
0.0000001
 43
0.0000001
 44
0.0000000001
 40
0.0
 40
0.0
 40
0.0
 40
0.0
 40
0.0577028079
 40
0.1183889019
 40
0.1797448445
 40
0.2415365931
 40
0.3660425149
 40
0.4914919168
 40
0.6176977978
 40
0.7445580181
 40
1.0
 40
1.0
 40
1.0
 40
1.0
 10
46.6435602861
 20
266.7928064658
 30
0.0
 10
46.6404746725
 20
266.8212417348
 30
0.0
 10
46.5554456468
 20
266.8318485262
 30
0.0
 10
46.4772887048
 20
266.828661051
 30
0.0
 10
46.3835861463
 20
266.8194167565
 30
0.0
 10
46.2630862165
 20
266.8017363883
 30
0.0
 10
46.110597258
 20
266.7736329436
 30
0.0
 10
45.9284163228
 20
266.7346281747
 30
0.0
 10
45.745651443
 20
266.6919847692
 30
0.0
 10
45.5009912008
 20
266.6314075601
 30
0.0
 10
45.3177283854
 20
266.5831210901
 30
0.0
 10
45.195513888
 20
266.5500200616
 30
0.0
  0
SPLINE
  5
331
100
AcDbEntity
  8
0
100
AcDbSpline
 62
7
  6
CONTINUOUS
 70
0
 71
3
 72
9
 73
5
 74
0
 42
0.0000001
 43
0.0000001
 44
0.0000000001
 40
0.0
 40
0.0
 40
0.0
 40
0.0
 40
0.5446133386
 40
1.0
 40
1.0
 40
1.0
 40
1.0
 10
46.9635236216
 20
263.4510935874
 30
0.0
 10
48.8655179865
 20
265.083923534
 30
0.0
 10
52.4348357876
 20
267.9935041987
 30
0.0
 10
56.2181311324
 20
270.6316967002
 30
0.0
 10
58.01517808
 20
271.7105947753
 30
0.0
  0
SPLINE
  5
332
100
AcDbEntity
  8
0
100
AcDbSpline
 62
7
  6
CONTINUOUS
 70
0
 71
3
 72
13
 73
9
 74
0
 42
0.0000001
 43
0.0000001
 44
0.0000000001
 40
0.0
 40
0.0
 40
0.0
 40
0.0
 40
0.1964762408
 40
0.3143984649
 40
0.4420008578
 40
0.5766702911
 40
0.715924698
 40
1.0
 40
1.0
 40
1.0
 40
1.0
 10
58.01517808
 20
271.7105947753
 30
0.0
 10
56.312992068
 20
270.4297573285
 30
0.0
 10
53.6665271583
 20
268.2766426961
 30
0.0
 10
50.0725184717
 20
265.106369624
 30
0.0
 10
47.0454890074
 20
262.3076744137
 30
0.0
 10
43.9089708771
 20
259.2881429384
 30
0.0
 10
39.6343569879
 20
255.006556173
 30
0.0
 10
36.4625778384
 20
251.6872625312
 30
0.0
 10
34.3807147676
 20
249.4173671514
 30
0.0
  0
SPLINE
  5
333
100
AcDbEntity
  8
0
100
AcDbSpline
 62
7
  6
CONTINUOUS
 70
0
 71
3
 72
9
 73
5
 74
0
 42
0.0000001
 43
0.0000001
 44
0.0000000001
 40
0.0
 40
0.0
 40
0.0
 40
0.0
 40
0.5132044708
 40
1.0
 40
1.0
 40
1.0
 40
1.0
 10
34.2671933824
 20
249.5153804972
 30
0.0
 10
36.3564792182
 20
251.9727668993
 30
0.0
 10
40.5073577031
 20
256.6937245026
 30
0.0
 10
44.817769075
 20
261.2701746513
 30
0.0
 10
46.9635236216
 20
263.4510935874
 30
0.0
  0
SPLINE
  5
334
100
AcDbEntity
  8
0
100
AcDbSpline
 62
7
  6
CONTINUOUS
 70
0
 71
3
 72
9
 73
5
 74
0
 42
0.0000001
 43
0.0000001
 44
0.0000000001
 40
0.0
 40
0.0
 40
0.0
 40
0.0
 40
0.2309069576
 40
1.0
 40
1.0
 40
1.0
 40
1.0
 10
58.0152044365
 20
271.7099397456
 30
0.0
 10
58.039175978
 20
271.7040572617
 30
0.0
 10
58.1380170114
 20
271.6602022587
 30
0.0
 10
58.2099879273
 20
271.5649053783
 30
0.0
 10
58.2351377819
 20
271.4866346507
 30
0.0
  0
SPLINE
  5
335
100
AcDbEntity
  8
0
100
AcDbSpline
 62
7
  6
CONTINUOUS
 70
0
 71
3
 72
9
 73
5
 74
0
 42
0.0000001
 43
0.0000001
 44
0.0000000001
 40
0.0
 40
0.0
 40
0.0
 40
0.0
 40
0.4723406197
 40
1.0
 40
1.0
 40
1.0
 40
1.0
 10
59.5719404392
 20
268.9404367222
 30
0.0
 10
58.4182446696
 20
266.4165812745
 30
0.0
 10
55.7619277726
 20
261.1714719297
 30
0.0
 10
52.8800419651
 20
256.0507060904
 30
0.0
 10
51.3178803275
 20
253.3730336634
 30
0.0
  0
SPLINE
  5
336
100
AcDbEntity
  8
0
100
AcDbSpline
 62
7
  6
CONTINUOUS
 70
0
 71
3
 72
16
 73
12
 74
0
 42
0.0000001
 43
0.0000001
 44
0.0000000001
 40
0.0
 40
0.0
 40
0.0
 40
0.0
 40
0.14286874
 40
0.2140952916
 40
0.2848870161
 40
0.4242206263
 40
0.5587542254
 40
0.6860871166
 40
0.8036619367
 40
0.9090388744
 40
1.0
 40
1.0
 40
1.0
 40
1.0
 10
35.6162923748
 20
249.3903156504
 30
0.0
 10
36.6424290339
 20
250.4940492939
 30
0.0
 10
38.1706041394
 20
252.1568987928
 30
0.0
 10
40.2283018247
 20
254.3470883898
 30
0.0
 10
42.2833623059
 20
256.4883407135
 30
0.0
 10
44.8272637723
 20
259.085828556
 30
0.0
 10
47.8254340938
 20
262.0728856705
 30
0.0
 10
50.7084838076
 20
264.849500921
 30
0.0
 10
53.4181749041
 20
267.3621350061
 30
0.0
 10
55.9009966091
 20
269.5531210706
 30
0.0
 10
57.4824990552
 20
270.8915011538
 30
0.0
 10
58.2351316459
 20
271.4866345126
 30
0.0
  0
SPLINE
  5
337
100
AcDbEntity
  8
0
100
AcDbSpline
 62
7
  6
CONTINUOUS
 70
0
 71
3
 72
8
 73
4
 74
0
 42
0.0000001
 43
0.0000001
 44
0.0000000001
 40
0.0
 40
0.0
 40
0.0
 40
0.0
 40
1.0
 40
1.0
 40
1.0
 40
1.0
 10
58.0126190875
 20
271.7108676599
 30
0.0
 10
58.0553461078
 20
271.7371040334
 30
0.0
 10
58.0982977008
 20
271.7629729376
 30
0.0
 10
58.1411595459
 20
271.7889884676
 30
0.0
  0
SPLINE
  5
338
100
AcDbEntity
  8
0
100
AcDbSpline
 62
7
  6
CONTINUOUS
 70
0
 71
3
 72
10
 73
6
 74
0
 42
0.0000001
 43
0.0000001
 44
0.0000000001
 40
0.0
 40
0.0
 40
0.0
 40
0.0
 40
0.2895542191
 40
0.5515756915
 40
1.0
 40
1.0
 40
1.0
 40
1.0
 10
58.1412014894
 20
271.7890352422
 30
0.0
 10
58.9383614809
 20
272.2730482687
 30
0.0
 10
60.4186031333
 20
273.2649618777
 30
0.0
 10
62.8758265772
 20
275.3455485131
 30
0.0
 10
64.3350254349
 20
277.1843053074
 30
0.0
 10
64.9619321957
 20
278.4854354938
 30
0.0
  0
SPLINE
  5
339
100
AcDbEntity
  8
0
100
AcDbSpline
 62
7
  6
CONTINUOUS
 70
0
 71
3
 72
13
 73
9
 74
0
 42
0.0000001
 43
0.0000001
 44
0.0000000001
 40
0.0
 40
0.0
 40
0.0
 40
0.0
 40
0.1085088026
 40
0.2283168141
 40
0.3519868639
 40
0.4781981473
 40
0.7361814284
 40
1.0
 40
1.0
 40
1.0
 40
1.0
 10
59.0966346089
 20
272.2199061905
 30
0.0
 10
59.0903789779
 20
272.2580100325
 30
0.0
 10
58.9591320052
 20
272.2316237634
 30
0.0
 10
58.8650778328
 20
272.18879053
 30
0.0
 10
58.7401035754
 20
272.1306814307
 30
0.0
 10
58.5822437796
 20
272.0470266542
 30
0.0
 10
58.3806078929
 20
271.9328593756
 30
0.0
 10
58.2214573754
 20
271.8377477372
 30
0.0
 10
58.1412014894
 20
271.7890352422
 30
0.0
  0
SPLINE
  5
33A
100
AcDbEntity
  8
0
100
AcDbSpline
 62
7
  6
CONTINUOUS
 70
0
 71
3
 72
10
 73
6
 74
0
 42
0.0000001
 43
0.0000001
 44
0.0000000001
 40
0.0
 40
0.0
 40
0.0
 40
0.0
 40
0.5748944592
 40
0.8084476151
 40
1.0
 40
1.0
 40
1.0
 40
1.0
 10
59.5719404392
 20
268.9404367222
 30
0.0
 10
60.6664061206
 20
270.7342458801
 30
0.0
 10
62.1799824024
 20
273.2732134659
 30
0.0
 10
63.9462471456
 20
276.4734956455
 30
0.0
 10
64.6595128756
 20
277.8545052414
 30
0.0
 10
64.9634310921
 20
278.4852601059
 30
0.0
  0
SPLINE
  5
33B
100
AcDbEntity
  8
0
100
AcDbSpline
 62
7
  6
CONTINUOUS
 70
0
 71
3
 72
15
 73
11
 74
0
 42
0.0000001
 43
0.0000001
 44
0.0000000001
 40
0.0
 40
0.0
 40
0.0
 40
0.0
 40
0.0348827893
 40
0.0747007631
 40
0.1683242188
 40
0.279072303
 40
0.4045212558
 40
0.5419568132
 40
0.6886241115
 40
1.0
 40
1.0
 40
1.0
 40
1.0
 10
64.9634310921
 20
278.4852601059
 30
0.0
 10
64.8927005189
 20
278.1594832878
 30
0.0
 10
64.7028906693
 20
277.4702072213
 30
0.0
 10
64.1774449938
 20
275.9493184387
 30
0.0
 10
63.274654317
 20
273.7950484648
 30
0.0
 10
61.907596699
 20
270.9541357563
 30
0.0
 10
60.2407777702
 20
267.7955434298
 30
0.0
 10
58.3179961673
 20
264.3860318089
 30
0.0
 10
55.4218602161
 20
259.4867673237
 30
0.0
 10
53.0772949138
 20
255.7890989549
 30
0.0
 10
51.4658335947
 20
253.287447206
 30
0.0
  0
SPLINE
  5
33C
100
AcDbEntity
  8
0
100
AcDbSpline
 62
7
  6
CONTINUOUS
 70
0
 71
3
 72
9
 73
5
 74
0
 42
0.0000001
 43
0.0000001
 44
0.0000000001
 40
0.0
 40
0.0
 40
0.0
 40
0.0
 40
0.5205795543
 40
1.0
 40
1.0
 40
1.0
 40
1.0
 10
64.9634781457
 20
278.4844536427
 30
0.0
 10
65.0203660667
 20
278.4835723722
 30
0.0
 10
65.1310398325
 20
278.4459908288
 30
0.0
 10
65.2019988091
 20
278.3506617888
 30
0.0
 10
65.2146997998
 20
278.2998280438
 30
0.0
  0
SPLINE
  5
33D
100
AcDbEntity
  8
0
100
AcDbSpline
 62
7
  6
CONTINUOUS
 70
0
 71
3
 72
15
 73
11
 74
0
 42
0.0000001
 43
0.0000001
 44
0.0000000001
 40
0.0
 40
0.0
 40
0.0
 40
0.0
 40
0.1576580899
 40
0.3107163284
 40
0.4568768796
 40
0.5938508802
 40
0.7189999565
 40
0.8297414468
 40
0.9239190463
 40
1.0
 40
1.0
 40
1.0
 40
1.0
 10
52.6336672695
 20
253.4485043642
 30
0.0
 10
53.4300233131
 20
254.6833479486
 30
0.0
 10
54.9557834813
 20
257.1450891184
 30
0.0
 10
57.1440147802
 20
260.7979464419
 30
0.0
 10
59.1633793884
 20
264.3267310511
 30
0.0
 10
60.9571870176
 20
267.6832337789
 30
0.0
 10
62.4953485464
 20
270.8001669884
 30
0.0
 10
63.7383399536
 20
273.6155142388
 30
0.0
 10
64.6569009369
 20
276.0698444333
 30
0.0
 10
65.0779559116
 20
277.6040675257
 30
0.0
 10
65.2146929245
 20
278.2998268997
 30
0.0
  0
LINE
  5
33E
100
AcDbEntity
  8
0
100
AcDbLine
 62
7
  6
CONTINUOUS
 10
64.9619662776
 20
278.4852650287
 11
65.0064469881
 21
278.5788884675
  0
SPLINE
  5
33F
100
AcDbEntity
  8
0
100
AcDbSpline
 62
7
  6
CONTINUOUS
 70
0
 71
3
 72
9
 73
5
 74
0
 42
0.0000001
 43
0.0000001
 44
0.0000000001
 40
0.0
 40
0.0
 40
0.0
 40
0.0
 40
0.5097974986
 40
1.0
 40
1.0
 40
1.0
 40
1.0
 10
65.0062686007
 20
278.5787554933
 30
0.0
 10
65.3348764819
 20
279.2802203625
 30
0.0
 10
65.8119828845
 20
280.7468726626
 30
0.0
 10
65.8249764656
 20
282.2936222503
 30
0.0
 10
65.7190076422
 20
283.030891694
 30
0.0
  0
SPLINE
  5
340
100
AcDbEntity
  8
0
100
AcDbSpline
 62
7
  6
CONTINUOUS
 70
0
 71
3
 72
9
 73
5
 74
0
 42
0.0000001
 43
0.0000001
 44
0.0000000001
 40
0.0
 40
0.0
 40
0.0
 40
0.0
 40
0.4134259805
 40
1.0
 40
1.0
 40
1.0
 40
1.0
 10
65.3235469739
 20
279.1090367331
 30
0.0
 10
65.3068995587
 20
279.1930964799
 30
0.0
 10
65.0989032501
 20
278.7827602166
 30
0.0
 10
65.0578759197
 20
278.6888405364
 30
0.0
 10
65.0062686007
 20
278.5787554933
 30
0.0
  0
SPLINE
  5
341
100
AcDbEntity
  8
0
100
AcDbSpline
 62
7
  6
CONTINUOUS
 70
0
 71
3
 72
9
 73
5
 74
0
 42
0.0000001
 43
0.0000001
 44
0.0000000001
 40
0.0
 40
0.0
 40
0.0
 40
0.0
 40
0.5391498018
 40
1.0
 40
1.0
 40
1.0
 40
1.0
 10
65.881831641
 20
275.910459712
 30
0.0
 10
66.0157794083
 20
277.1871251562
 30
0.0
 10
66.1512356542
 20
279.5691767535
 30
0.0
 10
65.9477458738
 20
281.9564225845
 30
0.0
 10
65.7317698635
 20
283.032204812
 30
0.0
  0
SPLINE
  5
342
100
AcDbEntity
  8
0
100
AcDbSpline
 62
7
  6
CONTINUOUS
 70
0
 71
3
 72
9
 73
5
 74
0
 42
0.0000001
 43
0.0000001
 44
0.0000000001
 40
0.0
 40
0.0
 40
0.0
 40
0.0
 40
0.2428060625
 40
1.0
 40
1.0
 40
1.0
 40
1.0
 10
64.8976816858
 20
285.6638793324
 30
0.0
 10
64.9941950219
 20
285.5383902784
 30
0.0
 10
65.3743212818
 20
285.0082273471
 30
0.0
 10
65.6855025958
 20
284.4303291826
 30
0.0
 10
65.8876848605
 20
283.9799331364
 30
0.0
  0
SPLINE
  5
343
100
AcDbEntity
  8
0
100
AcDbSpline
 62
7
  6
CONTINUOUS
 70
0
 71
3
 72
9
 73
5
 74
0
 42
0.0000001
 43
0.0000001
 44
0.0000000001
 40
0.0
 40
0.0
 40
0.0
 40
0.0
 40
0.237023816
 40
1.0
 40
1.0
 40
1.0
 40
1.0
 10
66.1944166618
 20
283.2202947306
 30
0.0
 10
66.2757103663
 20
282.9956782977
 30
0.0
 10
66.5897326843
 20
282.0375642696
 30
0.0
 10
66.7936349704
 20
281.0452988788
 30
0.0
 10
66.9021490073
 20
280.2840595436
 30
0.0
  0
SPLINE
  5
344
100
AcDbEntity
  8
0
100
AcDbSpline
 62
7
  6
CONTINUOUS
 70
0
 71
3
 72
13
 73
9
 74
0
 42
0.0000001
 43
0.0000001
 44
0.0000000001
 40
0.0
 40
0.0
 40
0.0
 40
0.0
 40
0.2095705462
 40
0.3263349395
 40
0.4501812412
 40
0.5802917458
 40
0.7158393521
 40
1.0
 40
1.0
 40
1.0
 40
1.0
 10
66.9021490073
 20
280.2840595436
 30
0.0
 10
67.1121256156
 20
278.8110477733
 30
0.0
 10
67.1731541879
 20
276.4779671383
 30
0.0
 10
66.9158189778
 20
273.2921662276
 30
0.0
 10
66.5411794245
 20
270.6849621779
 30
0.0
 10
66.0032489301
 20
267.9712790049
 30
0.0
 10
65.0543139241
 20
264.1835169865
 30
0.0
 10
64.1519696762
 20
261.3401235713
 30
0.0
 10
63.486503024
 20
259.4355607532
 30
0.0
  0
SPLINE
  5
345
100
AcDbEntity
  8
0
100
AcDbSpline
 62
7
  6
CONTINUOUS
 70
0
 71
3
 72
11
 73
7
 74
0
 42
0.0000001
 43
0.0000001
 44
0.0000000001
 40
0.0
 40
0.0
 40
0.0
 40
0.0
 40
0.2718870509
 40
0.5314377603
 40
0.7752455539
 40
1.0
 40
1.0
 40
1.0
 40
1.0
 10
63.3158606011
 20
259.4817971959
 30
0.0
 10
63.7458817278
 20
260.932183391
 30
0.0
 10
64.5110083105
 20
263.7904044567
 30
0.0
 10
65.360412031
 20
268.0230412925
 30
0.0
 10
65.8523279389
 20
272.048546225
 30
0.0
 10
65.925636337
 20
274.6606834949
 30
0.0
 10
65.881831641
 20
275.910459712
 30
0.0
  0
SPLINE
  5
346
100
AcDbEntity
  8
0
100
AcDbSpline
 62
7
  6
CONTINUOUS
 70
0
 71
3
 72
9
 73
5
 74
0
 42
0.0000001
 43
0.0000001
 44
0.0000000001
 40
0.0
 40
0.0
 40
0.0
 40
0.0
 40
0.5207062068
 40
1.0
 40
1.0
 40
1.0
 40
1.0
 10
64.7965357215
 20
285.7915238615
 30
0.0
 10
64.8356404275
 20
285.7969991043
 30
0.0
 10
64.9143417145
 20
285.7922036292
 30
0.0
 10
64.9818112831
 20
285.7480731912
 30
0.0
 10
65.004463816
 20
285.7196500003
 30
0.0
  0
SPLINE
  5
347
100
AcDbEntity
  8
0
100
AcDbSpline
 62
7
  6
CONTINUOUS
 70
0
 71
3
 72
17
 73
13
 74
0
 42
0.0000001
 43
0.0000001
 44
0.0000000001
 40
0.0
 40
0.0
 40
0.0
 40
0.0
 40
0.0943219977
 40
0.1364350616
 40
0.1767769161
 40
0.2172007737
 40
0.2594094688
 40
0.3548080455
 40
0.4729672344
 40
0.6190833843
 40
0.7949573509
 40
1.0
 40
1.0
 40
1.0
 40
1.0
 10
-32.7742447411
 20
269.8704917211
 30
0.0
 10
-32.7646702179
 20
270.3038103387
 30
0.0
 10
-32.6866369251
 20
270.937705245
 30
0.0
 10
-32.3776374285
 20
271.6937346997
 30
0.0
 10
-32.060828881
 20
272.1662352507
 30
0.0
 10
-31.6509660801
 20
272.5613131942
 30
0.0
 10
-30.953003364
 20
272.9985527512
 30
0.0
 10
-29.7946269636
 20
273.308875535
 30
0.0
 10
-28.1310372392
 20
273.2992852727
 30
0.0
 10
-26.1339737186
 20
272.9365395935
 30
0.0
 10
-23.8165350047
 20
272.2219330812
 30
0.0
 10
-22.1884930507
 20
271.5730289504
 30
0.0
 10
-21.3285145488
 20
271.1880825143
 30
0.0
  0
SPLINE
  5
348
100
AcDbEntity
  8
0
100
AcDbSpline
 62
7
  6
CONTINUOUS
 70
0
 71
3
 72
11
 73
7
 74
0
 42
0.0000001
 43
0.0000001
 44
0.0000000001
 40
0.0
 40
0.0
 40
0.0
 40
0.0
 40
0.2835683905
 40
0.5485431667
 40
0.7891289786
 40
1.0
 40
1.0
 40
1.0
 40
1.0
 10
64.4088005427
 20
259.7602069839
 30
0.0
 10
65.0478460721
 20
261.6307606531
 30
0.0
 10
66.1338993341
 20
265.3018017988
 30
0.0
 10
67.2610444344
 20
270.6949707804
 30
0.0
 10
67.716723447
 20
275.6800237143
 30
0.0
 10
67.5233382292
 20
278.8435112814
 30
0.0
 10
67.2616635256
 20
280.2899746822
 30
0.0
  0
SPLINE
  5
349
100
AcDbEntity
  8
0
100
AcDbSpline
 62
7
  6
CONTINUOUS
 70
0
 71
3
 72
9
 73
5
 74
0
 42
0.0000001
 43
0.0000001
 44
0.0000000001
 40
0.0
 40
0.0
 40
0.0
 40
0.0
 40
0.2608790633
 40
1.0
 40
1.0
 40
1.0
 40
1.0
 10
68.6289505186
 20
267.2900970327
 30
0.0
 10
68.6721692967
 20
268.3611538943
 30
0.0
 10
68.7146635259
 20
272.4676392338
 30
0.0
 10
68.2197767494
 20
276.6036193788
 30
0.0
 10
67.4114347706
 20
279.5310478357
 30
0.0
  0
SPLINE
  5
34A
100
AcDbEntity
  8
0
100
AcDbSpline
 62
7
  6
CONTINUOUS
 70
0
 71
3
 72
18
 73
14
 74
0
 42
0.0000001
 43
0.0000001
 44
0.0000000001
 40
0.0
 40
0.0
 40
0.0
 40
0.0
 40
0.002926056
 40
0.0132706318
 40
0.0315400455
 40
0.0578245256
 40
0.0921748631
 40
0.1346343109
 40
0.2440068578
 40
0.3856950167
 40
0.5590308835
 40
0.7636776716
 40
1.0
 40
1.0
 40
1.0
 40
1.0
 10
-31.2009315044
 20
280.8683035132
 30
0.0
 10
-31.2003555048
 20
280.8720532241
 30
0.0
 10
-31.1742983612
 20
280.8580815342
 30
0.0
 10
-31.1563624328
 20
280.8353170898
 30
0.0
 10
-31.0986448932
 20
280.7819106086
 30
0.0
 10
-31.0320153004
 20
280.7087235835
 30
0.0
 10
-30.9405293116
 20
280.6094682033
 30
0.0
 10
-30.7802815534
 20
280.4297930734
 30
0.0
 10
-30.5293637049
 20
280.143106632
 30
0.0
 10
-30.1694291978
 20
279.7271685092
 30
0.0
 10
-29.7279886224
 20
279.2180715821
 30
0.0
 10
-29.2060024854
 20
278.616539038
 30
0.0
 10
-28.8347126286
 20
278.1817571979
 30
0.0
 10
-28.6370318474
 20
277.947660328
 30
0.0
  0
SPLINE
  5
34B
100
AcDbEntity
  8
0
100
AcDbSpline
 62
7
  6
CONTINUOUS
 70
0
 71
3
 72
12
 73
8
 74
0
 42
0.0000001
 43
0.0000001
 44
0.0000000001
 40
0.0
 40
0.0
 40
0.0
 40
0.0
 40
0.0489963668
 40
0.1181007389
 40
0.3219351858
 40
0.6160842966
 40
1.0
 40
1.0
 40
1.0
 40
1.0
 10
-29.6623297526
 20
281.2805677843
 30
0.0
 10
-29.6719896586
 20
281.2259598816
 30
0.0
 10
-29.6666087467
 20
281.0902530617
 30
0.0
 10
-29.5911391432
 20
280.733746486
 30
0.0
 10
-29.3642828988
 20
280.1301751148
 30
0.0
 10
-28.9501143205
 20
279.2226896595
 30
0.0
 10
-28.600134743
 20
278.5390763626
 30
0.0
 10
-28.3968571824
 20
278.1550277749
 30
0.0
  0
SPLINE
  5
34C
100
AcDbEntity
  8
0
100
AcDbSpline
 62
7
  6
CONTINUOUS
 70
0
 71
3
 72
9
 73
5
 74
0
 42
0.0000001
 43
0.0000001
 44
0.0000000001
 40
0.0
 40
0.0
 40
0.0
 40
0.0
 40
0.2759384674
 40
1.0
 40
1.0
 40
1.0
 40
1.0
 10
-28.5638049387
 20
285.4620879555
 30
0.0
 10
-28.5198287545
 20
285.6646434169
 30
0.0
 10
-28.3219012377
 20
286.3884979448
 30
0.0
 10
-27.952971188
 20
287.0750338797
 30
0.0
 10
-27.5869578904
 20
287.4773362969
 30
0.0
  0
SPLINE
  5
34D
100
AcDbEntity
  8
0
100
AcDbSpline
 62
7
  6
CONTINUOUS
 70
0
 71
3
 72
9
 73
5
 74
0
 42
0.0000001
 43
0.0000001
 44
0.0000000001
 40
0.0
 40
0.0
 40
0.0
 40
0.0
 40
0.5017154794
 40
1.0
 40
1.0
 40
1.0
 40
1.0
 10
-28.563852132
 20
285.461285636
 30
0.0
 10
-28.6177290415
 20
285.4708423655
 30
0.0
 10
-28.7384002795
 20
285.4509824975
 30
0.0
 10
-28.8039839724
 20
285.3470318919
 30
0.0
 10
-28.8149402927
 20
285.2938040596
 30
0.0
  0
SPLINE
  5
34E
100
AcDbEntity
  8
0
100
AcDbSpline
 62
7
  6
CONTINUOUS
 70
0
 71
3
 72
19
 73
15
 74
0
 42
0.0000001
 43
0.0000001
 44
0.0000000001
 40
0.0
 40
0.0
 40
0.0
 40
0.0
 40
0.2374521513
 40
0.4428875601
 40
0.6162933489
 40
0.7574208894
 40
0.8660057156
 40
0.9081016353
 40
0.9421032636
 40
0.9680488487
 40
0.9860161462
 40
0.9920710351
 40
0.9962473012
 40
1.0
 40
1.0
 40
1.0
 40
1.0
 10
-28.3968571824
 20
278.1550277749
 30
0.0
 10
-28.5925284849
 20
278.3974899718
 30
0.0
 10
-28.9530153585
 20
278.8533532456
 30
0.0
 10
-29.4436940361
 20
279.4961559904
 30
0.0
 10
-29.8525357302
 20
280.0423699813
 30
0.0
 10
-30.180258836
 20
280.4905353094
 30
0.0
 10
-30.4017290936
 20
280.8028859729
 30
0.0
 10
-30.5376430793
 20
281.0035692755
 30
0.0
 10
-30.6108558928
 20
281.1155864635
 30
0.0
 10
-30.6637548321
 20
281.2033680393
 30
0.0
 10
-30.6960360747
 20
281.2598949619
 30
0.0
 10
-30.7098350393
 20
281.2952236614
 30
0.0
 10
-30.7166035776
 20
281.3106087165
 30
0.0
 10
-30.7137952012
 20
281.3259704605
 30
0.0
 10
-30.708888288
 20
281.3263808089
 30
0.0
  0
SPLINE
  5
34F
100
AcDbEntity
  8
0
100
AcDbSpline
 62
7
  6
CONTINUOUS
 70
0
 71
3
 72
9
 73
5
 74
0
 42
0.0000001
 43
0.0000001
 44
0.0000000001
 40
0.0
 40
0.0
 40
0.0
 40
0.0
 40
0.501598698
 40
1.0
 40
1.0
 40
1.0
 40
1.0
 10
-28.3969025586
 20
278.1542176888
 30
0.0
 10
-28.4537247968
 20
278.1553022113
 30
0.0
 10
-28.5719366028
 20
278.1154986348
 30
0.0
 10
-28.631745916
 20
278.0038826121
 30
0.0
 10
-28.6370384135
 20
277.9476608574
 30
0.0
  0
SPLINE
  5
350
100
AcDbEntity
  8
0
100
AcDbSpline
 62
7
  6
CONTINUOUS
 70
0
 71
3
 72
10
 73
6
 74
0
 42
0.0000001
 43
0.0000001
 44
0.0000000001
 40
0.0
 40
0.0
 40
0.0
 40
0.0
 40
0.2452453382
 40
0.4895366374
 40
1.0
 40
1.0
 40
1.0
 40
1.0
 10
-29.2377061713
 20
283.4959023251
 30
0.0
 10
-29.329057173
 20
283.0553665237
 30
0.0
 10
-29.4343552244
 20
282.1574315859
 30
0.0
 10
-29.3115328705
 20
280.3188349866
 30
0.0
 10
-28.833457764
 20
278.98288019
 30
0.0
 10
-28.3953623309
 20
278.1552201875
 30
0.0
  0
SPLINE
  5
351
100
AcDbEntity
  8
0
100
AcDbSpline
 62
7
  6
CONTINUOUS
 70
0
 71
3
 72
9
 73
5
 74
0
 42
0.0000001
 43
0.0000001
 44
0.0000000001
 40
0.0
 40
0.0
 40
0.0
 40
0.0
 40
0.2594240281
 40
1.0
 40
1.0
 40
1.0
 40
1.0
 10
-2.0247396036
 20
297.4902104548
 30
0.0
 10
-2.4301688604
 20
297.3815329197
 30
0.0
 10
-3.9882251386
 20
296.9453300789
 30
0.0
 10
-5.5270792733
 20
296.4387593884
 30
0.0
 10
-6.6483224323
 20
296.0161689716
 30
0.0
  0
SPLINE
  5
352
100
AcDbEntity
  8
0
100
AcDbSpline
 62
7
  6
CONTINUOUS
 70
0
 71
3
 72
9
 73
5
 74
0
 42
0.0000001
 43
0.0000001
 44
0.0000000001
 40
0.0
 40
0.0
 40
0.0
 40
0.0
 40
0.2624470505
 40
1.0
 40
1.0
 40
1.0
 40
1.0
 10
-6.6483224323
 20
296.0161689716
 30
0.0
 10
-7.0031816064
 20
295.882424489
 30
0.0
 10
-8.3481931881
 20
295.3544847094
 30
0.0
 10
-9.6644425738
 20
294.7508498562
 30
0.0
 10
-10.60680249
 20
294.2531019785
 30
0.0
  0
SPLINE
  5
353
100
AcDbEntity
  8
0
100
AcDbSpline
 62
7
  6
CONTINUOUS
 70
0
 71
3
 72
13
 73
9
 74
0
 42
0.0000001
 43
0.0000001
 44
0.0000000001
 40
0.0
 40
0.0
 40
0.0
 40
0.0
 40
0.315310669
 40
0.4532687211
 40
0.5788967727
 40
0.7991418577
 40
0.9002412645
 40
1.0
 40
1.0
 40
1.0
 40
1.0
 10
-10.60680249
 20
294.2531019785
 30
0.0
 10
-11.7580948044
 20
293.644997478
 30
0.0
 10
-13.3630683049
 20
292.6564822749
 30
0.0
 10
-15.1733177102
 20
291.0860347711
 30
0.0
 10
-16.5077939459
 20
289.5968264524
 30
0.0
 10
-17.4314304804
 20
287.942152545
 30
0.0
 10
-17.7537302968
 20
286.2202969146
 30
0.0
 10
-17.7207128799
 20
285.3833359961
 30
0.0
 10
-17.6595741501
 20
284.97596103
 30
0.0
  0
SPLINE
  5
354
100
AcDbEntity
  8
0
100
AcDbSpline
 62
7
  6
CONTINUOUS
 70
0
 71
3
 72
9
 73
5
 74
0
 42
0.0000001
 43
0.0000001
 44
0.0000000001
 40
0.0
 40
0.0
 40
0.0
 40
0.0
 40
0.2419046362
 40
1.0
 40
1.0
 40
1.0
 40
1.0
 10
-17.6595741501
 20
284.97596103
 30
0.0
 10
-17.6325553333
 20
284.7959312903
 30
0.0
 10
-17.485502413
 20
284.0570894765
 30
0.0
 10
-17.1978968063
 20
283.3492318722
 30
0.0
 10
-16.925071911
 20
282.8481886493
 30
0.0
  0
SPLINE
  5
355
100
AcDbEntity
  8
0
100
AcDbSpline
 62
7
  6
CONTINUOUS
 70
0
 71
3
 72
10
 73
6
 74
0
 42
0.0000001
 43
0.0000001
 44
0.0000000001
 40
0.0
 40
0.0
 40
0.0
 40
0.0
 40
0.4502370893
 40
0.7119886079
 40
1.0
 40
1.0
 40
1.0
 40
1.0
 10
-16.925071911
 20
282.8481886493
 30
0.0
 10
-16.4116376747
 20
281.9052661046
 30
0.0
 10
-15.2893490655
 20
280.5815149648
 30
0.0
 10
-13.4418190698
 20
279.0747188306
 30
0.0
 10
-12.3412346065
 20
278.356043281
 30
0.0
 10
-11.7508235723
 20
278.0051755834
 30
0.0
  0
SPLINE
  5
356
100
AcDbEntity
  8
0
100
AcDbSpline
 62
7
  6
CONTINUOUS
 70
0
 71
3
 72
15
 73
11
 74
0
 42
0.0000001
 43
0.0000001
 44
0.0000000001
 40
0.0
 40
0.0
 40
0.0
 40
0.0
 40
0.1016149455
 40
0.2165971956
 40
0.342197759
 40
0.4749842998
 40
0.6111261895
 40
0.7466170967
 40
0.8774789996
 40
1.0
 40
1.0
 40
1.0
 40
1.0
 10
-10.0591723444
 20
277.0828944557
 30
0.0
 10
-8.5688162842
 20
276.3356770923
 30
0.0
 10
-5.2622622243
 20
274.9995353781
 30
0.0
 10
0.1549029303
 20
273.4938850822
 30
0.0
 10
6.190544769
 20
272.4018373102
 30
0.0
 10
12.6381654623
 20
271.762856008
 30
0.0
 10
19.2773039753
 20
271.5996640628
 30
0.0
 10
25.8794346795
 20
271.9183184221
 30
0.0
 10
32.2167445472
 20
272.7070705862
 30
0.0
 10
36.2918764709
 20
273.5633767588
 30
0.0
 10
38.2352797266
 20
274.0772103827
 30
0.0
  0
SPLINE
  5
357
100
AcDbEntity
  8
0
100
AcDbSpline
 62
7
  6
CONTINUOUS
 70
0
 71
3
 72
13
 73
9
 74
0
 42
0.0000001
 43
0.0000001
 44
0.0000000001
 40
0.0
 40
0.0
 40
0.0
 40
0.0
 40
0.1204570345
 40
0.2420617239
 40
0.4898889073
 40
0.6154186788
 40
0.7425990611
 40
1.0
 40
1.0
 40
1.0
 40
1.0
 10
42.8372626677
 20
270.5103995276
 30
0.0
 10
42.5575177602
 20
270.4364257333
 30
0.0
 10
41.9941237132
 20
270.2925184767
 30
0.0
 10
40.8526207761
 20
270.0062496727
 30
0.0
 10
39.6914082516
 20
269.7500804498
 30
0.0
 10
38.5159656365
 20
269.4968632167
 30
0.0
 10
37.3126816921
 20
269.2648853343
 30
0.0
 10
36.4037808861
 20
269.0992592952
 30
0.0
 10
35.7944438944
 20
268.9942155272
 30
0.0
  0
SPLINE
  5
358
100
AcDbEntity
  8
0
100
AcDbSpline
 62
7
  6
CONTINUOUS
 70
0
 71
3
 72
14
 73
10
 74
0
 42
0.0000001
 43
0.0000001
 44
0.0000000001
 40
0.0
 40
0.0
 40
0.0
 40
0.0
 40
0.0305371136
 40
0.0613768135
 40
0.1239367161
 40
0.2517606223
 40
0.511923119
 40
0.7660045798
 40
1.0
 40
1.0
 40
1.0
 40
1.0
 10
35.7944438944
 20
268.9942155272
 30
0.0
 10
35.3549996866
 20
268.9184596219
 30
0.0
 10
34.469865689
 20
268.7773009553
 30
0.0
 10
32.6801205197
 20
268.5083190345
 30
0.0
 10
29.4746037505
 20
268.103526903
 30
0.0
 10
22.9168423711
 20
267.5413953672
 30
0.0
 10
13.5231396446
 20
267.4642781838
 30
0.0
 10
2.626420752
 20
268.4718720554
 30
0.0
 10
-4.377021727
 20
269.9124765512
 30
0.0
 10
-7.6638281405
 20
270.8466347222
 30
0.0
  0
SPLINE
  5
359
100
AcDbEntity
  8
0
100
AcDbSpline
 62
7
  6
CONTINUOUS
 70
0
 71
3
 72
14
 73
10
 74
0
 42
0.0000001
 43
0.0000001
 44
0.0000000001
 40
0.0
 40
0.0
 40
0.0
 40
0.0
 40
0.3260503615
 40
0.4701280456
 40
0.6006285489
 40
0.7175543644
 40
0.8216716526
 40
0.9147831311
 40
1.0
 40
1.0
 40
1.0
 40
1.0
 10
-7.7407635148
 20
270.8685505107
 30
0.0
 10
-10.1570223172
 20
271.5584067032
 30
0.0
 10
-13.5974575528
 20
272.7449857297
 30
0.0
 10
-17.7588449221
 20
274.7839003775
 30
0.0
 10
-20.332522056
 20
276.369834162
 30
0.0
 10
-22.4606211804
 20
278.0590770633
 30
0.0
 10
-24.1195215847
 20
279.838413371
 30
0.0
 10
-25.2863549345
 20
281.6939901113
 30
0.0
 10
-25.7301824429
 20
283.0134683442
 30
0.0
 10
-25.8510166901
 20
283.6590069957
 30
0.0
  0
SPLINE
  5
35A
100
AcDbEntity
  8
0
100
AcDbSpline
 62
7
  6
CONTINUOUS
 70
0
 71
3
 72
9
 73
5
 74
0
 42
0.0000001
 43
0.0000001
 44
0.0000000001
 40
0.0
 40
0.0
 40
0.0
 40
0.0
 40
0.4898329315
 40
1.0
 40
1.0
 40
1.0
 40
1.0
 10
-25.8510166901
 20
283.6590069957
 30
0.0
 10
-25.9921085046
 20
284.4127686298
 30
0.0
 10
-26.0232750802
 20
286.0128229899
 30
0.0
 10
-25.5166895534
 20
287.5248717648
 30
0.0
 10
-25.1638594135
 20
288.2413992501
 30
0.0
  0
SPLINE
  5
35B
100
AcDbEntity
  8
0
100
AcDbSpline
 62
7
  6
CONTINUOUS
 70
0
 71
3
 72
9
 73
5
 74
0
 42
0.0000001
 43
0.0000001
 44
0.0000000001
 40
0.0
 40
0.0
 40
0.0
 40
0.0
 40
0.2332660516
 40
1.0
 40
1.0
 40
1.0
 40
1.0
 10
-24.9361456163
 20
288.6742929034
 30
0.0
 10
-24.7906817649
 20
288.9341364789
 30
0.0
 10
-24.1150908874
 20
290.0190104854
 30
0.0
 10
-23.2534860323
 20
290.9805940797
 30
0.0
 10
-22.5400405738
 20
291.6507291452
 30
0.0
  0
SPLINE
  5
35C
100
AcDbEntity
  8
0
100
AcDbSpline
 62
7
  6
CONTINUOUS
 70
0
 71
3
 72
11
 73
7
 74
0
 42
0.0000001
 43
0.0000001
 44
0.0000000001
 40
0.0
 40
0.0
 40
0.0
 40
0.0
 40
0.2095958087
 40
0.4469228629
 40
0.7111141011
 40
1.0
 40
1.0
 40
1.0
 40
1.0
 10
-21.8343205871
 20
292.2785047077
 30
0.0
 10
-20.9741725467
 20
293.0045394212
 30
0.0
 10
-19.0037159994
 20
294.3927891562
 30
0.0
 10
-15.624690729
 20
296.1868702831
 30
0.0
 10
-11.6906484416
 20
297.7964814821
 30
0.0
 10
-8.8553737412
 20
298.6923700759
 30
0.0
 10
-7.3611063208
 20
299.1095780769
 30
0.0
  0
SPLINE
  5
35D
100
AcDbEntity
  8
0
100
AcDbSpline
 62
7
  6
CONTINUOUS
 70
0
 71
3
 72
9
 73
5
 74
0
 42
0.0000001
 43
0.0000001
 44
0.0000000001
 40
0.0
 40
0.0
 40
0.0
 40
0.0
 40
0.2452263933
 40
1.0
 40
1.0
 40
1.0
 40
1.0
 10
-28.6370383283
 20
277.9476613621
 30
0.0
 10
-28.5853124904
 20
277.8874047621
 30
0.0
 10
-28.3719628244
 20
277.6437689411
 30
0.0
 10
-28.1492196416
 20
277.4083936842
 30
0.0
 10
-27.9766731029
 20
277.23527527
 30
0.0
  0
SPLINE
  5
35E
100
AcDbEntity
  8
0
100
AcDbSpline
 62
7
  6
CONTINUOUS
 70
0
 71
3
 72
15
 73
11
 74
0
 42
0.0000001
 43
0.0000001
 44
0.0000000001
 40
0.0
 40
0.0
 40
0.0
 40
0.0
 40
0.0982719463
 40
0.2111079525
 40
0.3357856073
 40
0.4687419498
 40
0.6059146495
 40
0.7430036201
 40
0.8757090584
 40
1.0
 40
1.0
 40
1.0
 40
1.0
 10
47.6835407539
 20
293.8832000119
 30
0.0
 10
46.2475494285
 20
294.6950321565
 30
0.0
 10
42.9999538224
 20
296.1525073564
 30
0.0
 10
37.6017281638
 20
297.8063643082
 30
0.0
 10
31.4957827419
 20
299.0323061511
 30
0.0
 10
24.9041950044
 20
299.7828515679
 30
0.0
 10
18.0665769621
 20
300.0296678723
 30
0.0
 10
11.2337344081
 20
299.7630295473
 30
0.0
 10
4.6569887775
 20
298.9934271777
 30
0.0
 10
0.4230975894
 20
298.1280062795
 30
0.0
 10
-1.5961904364
 20
297.6033158117
 30
0.0
  0
SPLINE
  5
35F
100
AcDbEntity
  8
0
100
AcDbSpline
 62
7
  6
CONTINUOUS
 70
0
 71
3
 72
17
 73
13
 74
0
 42
0.0000001
 43
0.0000001
 44
0.0000000001
 40
0.0
 40
0.0
 40
0.0
 40
0.0
 40
0.1268439361
 40
0.2627954055
 40
0.4030454358
 40
0.5425030951
 40
0.676129127
 40
0.7992693955
 40
0.8556792888
 40
0.9081026309
 40
0.9562593676
 40
1.0
 40
1.0
 40
1.0
 40
1.0
 10
-6.4377115647
 20
299.3605676338
 30
0.0
 10
-3.7711665857
 20
300.0656902315
 30
0.0
 10
1.8391235643
 20
301.2108225881
 30
0.0
 10
10.5595921338
 20
302.1779221089
 30
0.0
 10
19.604653894
 20
302.4293472317
 30
0.0
 10
28.5901905274
 20
301.9538441456
 30
0.0
 10
37.1351770108
 20
300.7723540969
 30
0.0
 10
43.7763593164
 20
299.2012059246
 30
0.0
 10
48.5631606551
 20
297.6006921555
 30
0.0
 10
51.7228067899
 20
296.299989603
 30
0.0
 10
54.524369067
 20
294.8781919935
 30
0.0
 10
56.2164965812
 20
293.806791692
 30
0.0
 10
56.9875465893
 20
293.2498945841
 30
0.0
  0
SPLINE
  5
360
100
AcDbEntity
  8
0
100
AcDbSpline
 62
7
  6
CONTINUOUS
 70
0
 71
3
 72
12
 73
8
 74
0
 42
0.0000001
 43
0.0000001
 44
0.0000000001
 40
0.0
 40
0.0
 40
0.0
 40
0.0
 40
0.2946951333
 40
0.5507936793
 40
0.7796855843
 40
0.8897143165
 40
1.0
 40
1.0
 40
1.0
 40
1.0
 10
57.7762262105
 20
292.653082288
 30
0.0
 10
58.5876828544
 20
292.008885202
 30
0.0
 10
60.0200135279
 20
290.6869532367
 30
0.0
 10
61.6108078521
 20
288.422403966
 30
0.0
 10
62.2934656131
 20
286.4043148421
 30
0.0
 10
62.4020703293
 20
284.8219072499
 30
0.0
 10
62.3226827063
 20
284.0470162775
 30
0.0
 10
62.2518041758
 20
283.6658124579
 30
0.0
  0
SPLINE
  5
361
100
AcDbEntity
  8
0
100
AcDbSpline
 62
7
  6
CONTINUOUS
 70
0
 71
3
 72
11
 73
7
 74
0
 42
0.0000001
 43
0.0000001
 44
0.0000000001
 40
0.0
 40
0.0
 40
0.0
 40
0.0
 40
0.2086313147
 40
0.4397374069
 40
0.7020485785
 40
1.0
 40
1.0
 40
1.0
 40
1.0
 10
62.2518041758
 20
283.6658124579
 30
0.0
 10
62.1177856347
 20
282.9450246623
 30
0.0
 10
61.5939389442
 20
281.4653886383
 30
0.0
 10
60.193092512
 20
279.4106595937
 30
0.0
 10
58.1923242597
 20
277.4593120804
 30
0.0
 10
56.5851237776
 20
276.3104348611
 30
0.0
 10
55.6998617686
 20
275.7513686234
 30
0.0
  0
SPLINE
  5
362
100
AcDbEntity
  8
0
100
AcDbSpline
 62
7
  6
CONTINUOUS
 70
0
 71
3
 72
15
 73
11
 74
0
 42
0.0000001
 43
0.0000001
 44
0.0000000001
 40
0.0
 40
0.0
 40
0.0
 40
0.0
 40
0.4619043349
 40
0.5252099533
 40
0.5898202792
 40
0.7220093775
 40
0.7900274231
 40
0.8588283903
 40
0.928999738
 40
1.0
 40
1.0
 40
1.0
 40
1.0
 10
55.4824127347
 20
275.6154915237
 30
0.0
 10
53.7226635907
 20
274.5272786732
 30
0.0
 10
51.5870858305
 20
273.5031862455
 30
0.0
 10
49.1328657834
 20
272.5261829027
 30
0.0
 10
48.0406484676
 20
272.1203010648
 30
0.0
 10
46.9234855169
 20
271.7206617957
 30
0.0
 10
45.7743386757
 20
271.357895635
 30
0.0
 10
44.8898647428
 20
271.0795449641
 30
0.0
 10
43.9846797624
 20
270.8237864833
 30
0.0
 10
43.3754714676
 20
270.6542500289
 30
0.0
 10
43.068280161
 20
270.571905715
 30
0.0
  0
SPLINE
  5
363
100
AcDbEntity
  8
0
100
AcDbSpline
 62
7
  6
CONTINUOUS
 70
0
 71
3
 72
9
 73
5
 74
0
 42
0.0000001
 43
0.0000001
 44
0.0000000001
 40
0.0
 40
0.0
 40
0.0
 40
0.0
 40
0.5285793386
 40
1.0
 40
1.0
 40
1.0
 40
1.0
 10
41.3123459252
 20
274.9887420604
 30
0.0
 10
42.5684428578
 20
275.4041187972
 30
0.0
 10
44.9142662311
 20
276.2875881896
 30
0.0
 10
47.1575362697
 20
277.4138549408
 30
0.0
 10
48.1713092526
 20
278.017595685
 30
0.0
  0
SPLINE
  5
364
100
AcDbEntity
  8
0
100
AcDbSpline
 62
7
  6
CONTINUOUS
 70
0
 71
3
 72
9
 73
5
 74
0
 42
0.0000001
 43
0.0000001
 44
0.0000000001
 40
0.0
 40
0.0
 40
0.0
 40
0.0
 40
0.5444229941
 40
1.0
 40
1.0
 40
1.0
 40
1.0
 10
48.9141394899
 20
278.4791356285
 30
0.0
 10
49.8686876712
 20
279.0984075955
 30
0.0
 10
51.5419394256
 20
280.3719428052
 30
0.0
 10
52.8785467614
 20
282.0246088521
 30
0.0
 10
53.3321073478
 20
282.8617846733
 30
0.0
  0
SPLINE
  5
365
100
AcDbEntity
  8
0
100
AcDbSpline
 62
7
  6
CONTINUOUS
 70
0
 71
3
 72
15
 73
11
 74
0
 42
0.0000001
 43
0.0000001
 44
0.0000000001
 40
0.0
 40
0.0
 40
0.0
 40
0.0
 40
0.1116411843
 40
0.217277366
 40
0.3224539671
 40
0.4328046634
 40
0.5530486125
 40
0.6865067972
 40
0.8352172098
 40
1.0
 40
1.0
 40
1.0
 40
1.0
 10
53.3321073478
 20
282.8617846733
 30
0.0
 10
53.573818822
 20
283.30793235
 30
0.0
 10
53.9596472668
 20
284.2276969413
 30
0.0
 10
54.1838476096
 20
285.6918700266
 30
0.0
 10
54.0207922001
 20
287.1590777473
 30
0.0
 10
53.477757597
 20
288.6000806315
 30
0.0
 10
52.5724928247
 20
289.9974396614
 30
0.0
 10
51.3214266503
 20
291.3417725411
 30
0.0
 10
49.7392766478
 20
292.6241281044
 30
0.0
 10
48.5357713714
 20
293.3922231385
 30
0.0
 10
47.8872268612
 20
293.7668102207
 30
0.0
  0
LINE
  5
366
100
AcDbEntity
  8
0
100
AcDbLine
 62
7
  6
CONTINUOUS
 10
-28.3953973633
 20
278.1550440924
 11
-28.3457290711
 21
278.0623796326
  0
SPLINE
  5
367
100
AcDbEntity
  8
0
100
AcDbSpline
 62
7
  6
CONTINUOUS
 70
0
 71
3
 72
10
 73
6
 74
0
 42
0.0000001
 43
0.0000001
 44
0.0000000001
 40
0.0
 40
0.0
 40
0.0
 40
0.0
 40
0.4485168289
 40
0.7107098831
 40
1.0
 40
1.0
 40
1.0
 40
1.0
 10
-28.3456773501
 20
278.0625207478
 30
0.0
 10
-27.6397577963
 20
276.7618696844
 30
0.0
 10
-26.0749478844
 20
274.9417192738
 30
0.0
 10
-23.4972501646
 20
272.8839791807
 30
0.0
 10
-21.9575791956
 20
271.9048276066
 30
0.0
 10
-21.1309700016
 20
271.4275456266
 30
0.0
  0
SPLINE
  5
368
100
AcDbEntity
  8
0
100
AcDbSpline
 62
7
  6
CONTINUOUS
 70
0
 71
3
 72
14
 73
10
 74
0
 42
0.0000001
 43
0.0000001
 44
0.0000000001
 40
0.0
 40
0.0
 40
0.0
 40
0.0
 40
0.0976414331
 40
0.1729118243
 40
0.3073275397
 40
0.4323029611
 40
0.5519719861
 40
0.7809365801
 40
1.0
 40
1.0
 40
1.0
 40
1.0
 10
-27.9766780453
 20
277.2352681026
 30
0.0
 10
-27.97095573
 20
277.2643642415
 30
0.0
 10
-27.9853477956
 20
277.3179685707
 30
0.0
 10
-28.0144181583
 20
277.4055637867
 30
0.0
 10
-28.0550359469
 20
277.4993516593
 30
0.0
 10
-28.1042819855
 20
277.6032491633
 30
0.0
 10
-28.1689334536
 20
277.7317953227
 30
0.0
 10
-28.2493241353
 20
277.8842998962
 30
0.0
 10
-28.3139508733
 20
278.0040438028
 30
0.0
 10
-28.3456773501
 20
278.0625207478
 30
0.0
  0
SPLINE
  5
369
100
AcDbEntity
  8
0
100
AcDbSpline
 62
7
  6
CONTINUOUS
 70
0
 71
3
 72
11
 73
7
 74
0
 42
0.0000001
 43
0.0000001
 44
0.0000000001
 40
0.0
 40
0.0
 40
0.0
 40
0.0
 40
0.1735286041
 40
0.3959061491
 40
0.6714970465
 40
1.0
 40
1.0
 40
1.0
 40
1.0
 10
-28.5329426628
 20
274.032694493
 30
0.0
 10
-28.075602341
 20
274.0726081295
 30
0.0
 10
-27.0182530571
 20
273.9794541667
 30
0.0
 10
-25.3070196981
 20
273.4858691717
 30
0.0
 10
-23.2933430321
 20
272.6222559153
 30
0.0
 10
-21.8860822126
 20
271.8615330368
 30
0.0
 10
-21.1335672795
 20
271.4267847792
 30
0.0
  0
SPLINE
  5
36A
100
AcDbEntity
  8
0
100
AcDbSpline
 62
7
  6
CONTINUOUS
 70
0
 71
3
 72
11
 73
7
 74
0
 42
0.0000001
 43
0.0000001
 44
0.0000000001
 40
0.0
 40
0.0
 40
0.0
 40
0.0
 40
0.3177583143
 40
0.5900789938
 40
0.8167062366
 40
1.0
 40
1.0
 40
1.0
 40
1.0
 10
-21.1335672795
 20
271.4267847792
 30
0.0
 10
-21.9548509414
 20
271.8134640494
 30
0.0
 10
-23.4974712553
 20
272.4958566851
 30
0.0
 10
-25.6996114424
 20
273.2772384422
 30
0.0
 10
-27.6002697688
 20
273.7266384427
 30
0.0
 10
-28.7780942605
 20
273.8123723935
 30
0.0
 10
-29.3007223403
 20
273.7800509959
 30
0.0
  0
SPLINE
  5
36B
100
AcDbEntity
  8
0
100
AcDbSpline
 62
7
  6
CONTINUOUS
 70
0
 71
3
 72
9
 73
5
 74
0
 42
0.0000001
 43
0.0000001
 44
0.0000000001
 40
0.0
 40
0.0
 40
0.0
 40
0.0
 40
0.2579966185
 40
1.0
 40
1.0
 40
1.0
 40
1.0
 10
-29.3007223403
 20
273.7800509959
 30
0.0
 10
-29.3441834375
 20
273.7773631889
 30
0.0
 10
-29.5125073636
 20
273.7649829311
 30
0.0
 10
-29.6802772028
 20
273.744537032
 30
0.0
 10
-29.8038368613
 20
273.7241284423
 30
0.0
  0
SPLINE
  5
36C
100
AcDbEntity
  8
0
100
AcDbSpline
 62
7
  6
CONTINUOUS
 70
0
 71
3
 72
9
 73
5
 74
0
 42
0.0000001
 43
0.0000001
 44
0.0000000001
 40
0.0
 40
0.0
 40
0.0
 40
0.0
 40
0.2560785932
 40
1.0
 40
1.0
 40
1.0
 40
1.0
 10
-29.8038368613
 20
273.7241284423
 30
0.0
 10
-29.8355465782
 20
273.7188908865
 30
0.0
 10
-29.9591454135
 20
273.6970868959
 30
0.0
 10
-30.0817882682
 20
273.669762756
 30
0.0
 10
-30.1720883411
 20
273.6460310372
 30
0.0
  0
SPLINE
  5
36D
100
AcDbEntity
  8
0
100
AcDbSpline
 62
7
  6
CONTINUOUS
 70
0
 71
3
 72
9
 73
5
 74
0
 42
0.0000001
 43
0.0000001
 44
0.0000000001
 40
0.0
 40
0.0
 40
0.0
 40
0.0
 40
0.4840732244
 40
1.0
 40
1.0
 40
1.0
 40
1.0
 10
-21.1335904573
 20
271.4261375052
 30
0.0
 10
-21.186312233
 20
271.420155048
 30
0.0
 10
-21.2914171658
 20
271.3583987316
 30
0.0
 10
-21.3295363641
 20
271.2446246123
 30
0.0
 10
-21.3285198062
 20
271.1880821149
 30
0.0
  0
SPLINE
  5
36E
100
AcDbEntity
  8
0
100
AcDbSpline
 62
7
  6
CONTINUOUS
 70
0
 71
3
 72
8
 73
4
 74
0
 42
0.0000001
 43
0.0000001
 44
0.0000000001
 40
0.0
 40
0.0
 40
0.0
 40
0.0
 40
1.0
 40
1.0
 40
1.0
 40
1.0
 10
-21.1310064558
 20
271.4273222969
 30
0.0
 10
-21.0866259696
 20
271.4022678651
 30
0.0
 10
-21.0426782788
 20
271.3764540522
 30
0.0
 10
-20.9984316689
 20
271.351163943
 30
0.0
  0
SPLINE
  5
36F
100
AcDbEntity
  8
0
100
AcDbSpline
 62
7
  6
CONTINUOUS
 70
0
 71
3
 72
9
 73
5
 74
0
 42
0.0000001
 43
0.0000001
 44
0.0000000001
 40
0.0
 40
0.0
 40
0.0
 40
0.0
 40
0.4651658536
 40
1.0
 40
1.0
 40
1.0
 40
1.0
 10
-20.9983974171
 20
271.3513746134
 30
0.0
 10
-19.1023995997
 20
270.2681417751
 30
0.0
 10
-14.8068326103
 20
268.322687142
 30
0.0
 10
-10.3127337359
 20
266.9350193406
 30
0.0
 10
-7.8815398515
 20
266.3083379004
 30
0.0
  0
SPLINE
  5
370
100
AcDbEntity
  8
0
100
AcDbSpline
 62
7
  6
CONTINUOUS
 70
0
 71
3
 72
16
 73
12
 74
0
 42
0.0000001
 43
0.0000001
 44
0.0000000001
 40
0.0
 40
0.0
 40
0.0
 40
0.0
 40
0.0410404789
 40
0.0773103828
 40
0.1450979434
 40
0.2103023643
 40
0.2741488272
 40
0.399347678
 40
0.5223069296
 40
0.7635574219
 40
1.0
 40
1.0
 40
1.0
 40
1.0
 10
-19.9995048032
 20
270.6314020147
 30
0.0
 10
-19.9967924534
 20
270.6482311431
 30
0.0
 10
-20.0139086448
 20
270.6800772341
 30
0.0
 10
-20.0513630391
 20
270.7254916574
 30
0.0
 10
-20.1034436288
 20
270.7739943355
 30
0.0
 10
-20.1667131638
 20
270.8254542859
 30
0.0
 10
-20.2513056554
 20
270.8888207456
 30
0.0
 10
-20.3579493727
 20
270.9624561896
 30
0.0
 10
-20.5285032699
 20
271.0731074623
 30
0.0
 10
-20.7416063403
 20
271.2029004044
 30
0.0
 10
-20.9131349248
 20
271.3026409867
 30
0.0
 10
-20.9983974171
 20
271.3513746134
 30
0.0
  0
SPLINE
  5
371
100
AcDbEntity
  8
0
100
AcDbSpline
 62
7
  6
CONTINUOUS
 70
0
 71
3
 72
10
 73
6
 74
0
 42
0.0000001
 43
0.0000001
 44
0.0000000001
 40
0.0
 40
0.0
 40
0.0
 40
0.0
 40
0.2153529319
 40
0.4542138181
 40
1.0
 40
1.0
 40
1.0
 40
1.0
 10
-20.4690616616
 20
267.3485316599
 30
0.0
 10
-19.5682378923
 20
267.4893380027
 30
0.0
 10
-17.6453389303
 20
267.6482663254
 30
0.0
 10
-13.40761859
 20
267.5047286239
 30
0.0
 10
-10.120777506
 20
266.8843925421
 30
0.0
 10
-7.8832570879
 20
266.3072666366
 30
0.0
  0
SPLINE
  5
372
100
AcDbEntity
  8
0
100
AcDbSpline
 62
7
  6
CONTINUOUS
 70
0
 71
3
 72
12
 73
8
 74
0
 42
0.0000001
 43
0.0000001
 44
0.0000000001
 40
0.0
 40
0.0
 40
0.0
 40
0.0
 40
0.3068410324
 40
0.5762216706
 40
0.6960386372
 40
0.8060709694
 40
1.0
 40
1.0
 40
1.0
 40
1.0
 10
-7.8832570879
 20
266.3072666366
 30
0.0
 10
-9.7760595502
 20
266.6968437413
 30
0.0
 10
-13.3685155056
 20
267.2654884575
 30
0.0
 10
-17.7701855961
 20
267.3731402359
 30
0.0
 10
-20.9000815664
 20
267.019921427
 30
0.0
 10
-23.5098479644
 20
266.4536482357
 30
0.0
 10
-25.3132029378
 20
265.7288672671
 30
0.0
 10
-26.3603265086
 20
265.1001746974
 30
0.0
  0
SPLINE
  5
373
100
AcDbEntity
  8
0
100
AcDbSpline
 62
7
  6
CONTINUOUS
 70
0
 71
3
 72
9
 73
5
 74
0
 42
0.0000001
 43
0.0000001
 44
0.0000000001
 40
0.0
 40
0.0
 40
0.0
 40
0.0
 40
0.2307353536
 40
1.0
 40
1.0
 40
1.0
 40
1.0
 10
-25.9655544329
 20
265.3372422232
 30
0.0
 10
-25.5784884556
 20
265.5696568622
 30
0.0
 10
-23.8485201813
 20
266.4897718513
 30
0.0
 10
-21.9464039487
 20
267.0601292805
 30
0.0
 10
-20.4690616616
 20
267.3485316599
 30
0.0
  0
SPLINE
  5
374
100
AcDbEntity
  8
0
100
AcDbSpline
 62
7
  6
CONTINUOUS
 70
0
 71
3
 72
9
 73
5
 74
0
 42
0.0000001
 43
0.0000001
 44
0.0000000001
 40
0.0
 40
0.0
 40
0.0
 40
0.0
 40
0.4812984856
 40
1.0
 40
1.0
 40
1.0
 40
1.0
 10
-29.6101565589
 20
261.574718851
 30
0.0
 10
-29.1758515585
 20
262.1871395293
 30
0.0
 10
-28.1409075031
 20
263.3745057687
 30
0.0
 10
-26.8449961554
 20
264.2719376269
 30
0.0
 10
-26.138169224
 20
264.6657523793
 30
0.0
  0
SPLINE
  5
375
100
AcDbEntity
  8
0
100
AcDbSpline
 62
7
  6
CONTINUOUS
 70
0
 71
3
 72
12
 73
8
 74
0
 42
0.0000001
 43
0.0000001
 44
0.0000000001
 40
0.0
 40
0.0
 40
0.0
 40
0.0
 40
0.1993368947
 40
0.4320416908
 40
0.6999135102
 40
0.8463374032
 40
1.0
 40
1.0
 40
1.0
 40
1.0
 10
-25.6843666569
 20
264.9069211758
 30
0.0
 10
-24.6178856162
 20
265.4474937219
 30
0.0
 10
-22.1490287842
 20
266.3161269724
 30
0.0
 10
-17.9725474613
 20
266.9031759227
 30
0.0
 10
-14.0791934262
 20
266.8425386768
 30
0.0
 10
-10.6891221084
 20
266.4984636338
 30
0.0
 10
-8.9098929086
 20
266.2166910765
 30
0.0
 10
-8.0045467282
 20
266.0438550754
 30
0.0
  0
SPLINE
  5
376
100
AcDbEntity
  8
0
100
AcDbSpline
 62
7
  6
CONTINUOUS
 70
0
 71
3
 72
9
 73
5
 74
0
 42
0.0000001
 43
0.0000001
 44
0.0000000001
 40
0.0
 40
0.0
 40
0.0
 40
0.0
 40
0.289109925
 40
1.0
 40
1.0
 40
1.0
 40
1.0
 10
-8.0045498802
 20
266.0438540079
 30
0.0
 10
-8.007597699
 20
266.0725031595
 30
0.0
 10
-8.0053811213
 20
266.1702323279
 30
0.0
 10
-7.9499645408
 20
266.2827103171
 30
0.0
 10
-7.8832735668
 20
266.3066059178
 30
0.0
  0
SPLINE
  5
377
100
AcDbEntity
  8
0
100
AcDbSpline
 62
7
  6
CONTINUOUS
 70
0
 71
3
 72
8
 73
4
 74
0
 42
0.0000001
 43
0.0000001
 44
0.0000000001
 40
0.0
 40
0.0
 40
0.0
 40
0.0
 40
1.0
 40
1.0
 40
1.0
 40
1.0
 10
-7.8815645289
 20
266.3081050679
 30
0.0
 10
-7.8155729594
 20
266.2916472902
 30
0.0
 10
-7.749826888
 20
266.2742199626
 30
0.0
 10
-7.683925098
 20
266.2574062845
 30
0.0
  0
SPLINE
  5
378
100
AcDbEntity
  8
0
100
AcDbSpline
 62
7
  6
CONTINUOUS
 70
0
 71
3
 72
9
 73
5
 74
0
 42
0.0000001
 43
0.0000001
 44
0.0000000001
 40
0.0
 40
0.0
 40
0.0
 40
0.0
 40
0.4839640981
 40
1.0
 40
1.0
 40
1.0
 40
1.0
 10
-7.6836513964
 20
266.2575467776
 30
0.0
 10
-4.9879828333
 20
265.5701840588
 30
0.0
 10
0.6579648831
 20
264.4408804318
 30
0.0
 10
6.3764155859
 20
263.7945176987
 30
0.0
 10
9.334475034
 20
263.5738559615
 30
0.0
  0
SPLINE
  5
379
100
AcDbEntity
  8
0
100
AcDbSpline
 62
7
  6
CONTINUOUS
 70
0
 71
3
 72
17
 73
13
 74
0
 42
0.0000001
 43
0.0000001
 44
0.0000000001
 40
0.0
 40
0.0
 40
0.0
 40
0.0
 40
0.0334501502
 40
0.0663852222
 40
0.1307949633
 40
0.1943897677
 40
0.25753199
 40
0.382937591
 40
0.5075112258
 40
0.631432749
 40
0.7547913187
 40
1.0
 40
1.0
 40
1.0
 40
1.0
 10
-6.2068455809
 20
265.7313729945
 30
0.0
 10
-6.2049807628
 20
265.7489429943
 30
0.0
 10
-6.2351384338
 20
265.7791823244
 30
0.0
 10
-6.290147797
 20
265.8153941368
 30
0.0
 10
-6.3679090496
 20
265.8539743496
 30
0.0
 10
-6.4605874468
 20
265.8927597249
 30
0.0
 10
-6.5853511282
 20
265.9398980921
 30
0.0
 10
-6.7419704515
 20
265.9929180752
 30
0.0
 10
-6.9306163637
 20
266.0515030352
 30
0.0
 10
-7.1191802448
 20
266.1064905527
 30
0.0
 10
-7.3698217811
 20
266.1761580471
 30
0.0
 10
-7.5581499572
 20
266.225527745
 30
0.0
 10
-7.6836513964
 20
266.2575467776
 30
0.0
  0
SPLINE
  5
37A
100
AcDbEntity
  8
0
100
AcDbSpline
 62
7
  6
CONTINUOUS
 70
0
 71
3
 72
9
 73
5
 74
0
 42
0.0000001
 43
0.0000001
 44
0.0000000001
 40
0.0
 40
0.0
 40
0.0
 40
0.0
 40
0.4797537392
 40
1.0
 40
1.0
 40
1.0
 40
1.0
 10
-6.5182047064
 20
262.3874025052
 30
0.0
 10
-4.0434856555
 20
263.0028732155
 30
0.0
 10
1.2398183345
 20
263.8063662306
 30
0.0
 10
6.5765148238
 20
263.7790220849
 30
0.0
 10
9.3341921784
 20
263.5732820153
 30
0.0
  0
SPLINE
  5
37B
100
AcDbEntity
  8
0
100
AcDbSpline
 62
7
  6
CONTINUOUS
 70
0
 71
3
 72
12
 73
8
 74
0
 42
0.0000001
 43
0.0000001
 44
0.0000000001
 40
0.0
 40
0.0
 40
0.0
 40
0.0
 40
0.1473975952
 40
0.2908856845
 40
0.5589088462
 40
0.7954130051
 40
1.0
 40
1.0
 40
1.0
 40
1.0
 10
9.3341921784
 20
263.5732820153
 30
0.0
 10
7.813307143
 20
263.6244194411
 30
0.0
 10
4.8069777945
 20
263.6324572451
 30
0.0
 10
-0.9515396567
 20
263.2103966393
 30
0.0
 10
-7.5563458892
 20
261.9351426573
 30
0.0
 10
-14.4059263319
 20
259.2265601333
 30
0.0
 10
-18.2153464159
 20
256.6335408896
 30
0.0
 10
-19.7756826168
 20
255.2099457051
 30
0.0
  0
SPLINE
  5
37C
100
AcDbEntity
  8
0
100
AcDbSpline
 62
7
  6
CONTINUOUS
 70
0
 71
3
 72
9
 73
5
 74
0
 42
0.0000001
 43
0.0000001
 44
0.0000000001
 40
0.0
 40
0.0
 40
0.0
 40
0.0
 40
0.2248403661
 40
1.0
 40
1.0
 40
1.0
 40
1.0
 10
-19.7927734867
 20
255.2360115249
 30
0.0
 10
-18.9650565539
 20
256.0142346824
 30
0.0
 10
-15.0335298902
 20
259.2101071979
 30
0.0
 10
-10.2790508211
 20
261.2929710803
 30
0.0
 10
-6.5182047064
 20
262.3874025052
 30
0.0
  0
SPLINE
  5
37D
100
AcDbEntity
  8
0
100
AcDbSpline
 62
7
  6
CONTINUOUS
 70
0
 71
3
 72
10
 73
6
 74
0
 42
0.0000001
 43
0.0000001
 44
0.0000000001
 40
0.0
 40
0.0
 40
0.0
 40
0.0
 40
0.1595904372
 40
0.3996389369
 40
1.0
 40
1.0
 40
1.0
 40
1.0
 10
9.3341878004
 20
263.5724602825
 30
0.0
 10
9.3249874641
 20
263.5607232873
 30
0.0
 10
9.3134530543
 20
263.5238696146
 30
0.0
 10
9.2958816711
 20
263.4328857231
 30
0.0
 10
9.3000081454
 20
263.3517809688
 30
0.0
 10
9.3131867323
 20
263.2972490669
 30
0.0
  0
SPLINE
  5
37E
100
AcDbEntity
  8
0
100
AcDbSpline
 62
7
  6
CONTINUOUS
 70
0
 71
3
 72
16
 73
12
 74
0
 42
0.0000001
 43
0.0000001
 44
0.0000000001
 40
0.0
 40
0.0
 40
0.0
 40
0.0
 40
0.0993181061
 40
0.1517432043
 40
0.2060788877
 40
0.320753553
 40
0.4435274282
 40
0.574015686
 40
0.7112802575
 40
0.8538983481
 40
1.0
 40
1.0
 40
1.0
 40
1.0
 10
-19.4194082413
 20
254.7018746977
 30
0.0
 10
-18.6518564089
 20
255.365134745
 30
0.0
 10
-17.4340757722
 20
256.329491503
 30
0.0
 10
-15.6747567243
 20
257.4871962703
 30
0.0
 10
-13.7112700082
 20
258.6121148094
 30
0.0
 10
-11.0093608903
 20
259.8824534131
 30
0.0
 10
-7.4679995024
 20
261.1554522452
 30
0.0
 10
-3.602487511
 20
262.160027302
 30
0.0
 10
0.5330706982
 20
262.8713918852
 30
0.0
 10
4.8695892521
 20
263.2663158439
 30
0.0
 10
7.8212994049
 20
263.3306314408
 30
0.0
 10
9.3131872909
 20
263.2972503947
 30
0.0
  0
SPLINE
  5
37F
100
AcDbEntity
  8
0
100
AcDbSpline
 62
7
  6
CONTINUOUS
 70
0
 71
3
 72
8
 73
4
 74
0
 42
0.0000001
 43
0.0000001
 44
0.0000000001
 40
0.0
 40
0.0
 40
0.0
 40
0.0
 40
1.0
 40
1.0
 40
1.0
 40
1.0
 10
9.3344696063
 20
263.5737036247
 30
0.0
 10
9.4127074505
 20
263.5684787889
 30
0.0
 10
9.4908660021
 20
263.5621269035
 30
0.0
 10
9.5690722777
 20
263.5564490825
 30
0.0
  0
SPLINE
  5
380
100
AcDbEntity
  8
0
100
AcDbSpline
 62
7
  6
CONTINUOUS
 70
0
 71
3
 72
17
 73
13
 74
0
 42
0.0000001
 43
0.0000001
 44
0.0000000001
 40
0.0
 40
0.0
 40
0.0
 40
0.0
 40
0.0302474784
 40
0.0617622969
 40
0.1246764141
 40
0.1874989392
 40
0.2502500288
 40
0.3755863625
 40
0.5007514489
 40
0.6257673557
 40
0.750644896
 40
1.0
 40
1.0
 40
1.0
 40
1.0
 10
11.3015694856
 20
263.2812426606
 30
0.0
 10
11.3021869812
 20
263.2990944133
 30
0.0
 10
11.263560562
 20
263.3250148142
 30
0.0
 10
11.1995554229
 20
263.3508363395
 30
0.0
 10
11.107670746
 20
263.3764175406
 30
0.0
 10
10.9994880481
 20
263.3992978875
 30
0.0
 10
10.8533514916
 20
263.425336126
 30
0.0
 10
10.6703482948
 20
263.4517949073
 30
0.0
 10
10.450142446
 20
263.4783950103
 30
0.0
 10
10.2298545135
 20
263.5013978818
 30
0.0
 10
9.9362766221
 20
263.5285988584
 30
0.0
 10
9.7159417434
 20
263.5458722613
 30
0.0
 10
9.5690734452
 20
263.5565349875
 30
0.0
  0
SPLINE
  5
381
100
AcDbEntity
  8
0
100
AcDbSpline
 62
7
  6
CONTINUOUS
 70
0
 71
3
 72
10
 73
6
 74
0
 42
0.0000001
 43
0.0000001
 44
0.0000000001
 40
0.0
 40
0.0
 40
0.0
 40
0.0
 40
0.5252430948
 40
0.7667940878
 40
1.0
 40
1.0
 40
1.0
 40
1.0
 10
-57.489675953
 20
271.4968475676
 30
0.0
 10
-57.489675953
 20
271.2730461369
 30
0.0
 10
-57.4241477022
 20
270.9362164714
 30
0.0
 10
-57.1814607907
 20
270.5802925927
 30
0.0
 10
-57.0209914876
 20
270.4511030147
 30
0.0
 10
-56.9349611552
 20
270.4013779972
 30
0.0
  0
SPLINE
  5
382
100
AcDbEntity
  8
0
100
AcDbSpline
 62
7
  6
CONTINUOUS
 70
0
 71
3
 72
13
 73
9
 74
0
 42
0.0000001
 43
0.0000001
 44
0.0000000001
 40
0.0
 40
0.0
 40
0.0
 40
0.0
 40
0.234810382
 40
0.3606361165
 40
0.4898729104
 40
0.6205604861
 40
0.7505813797
 40
1.0
 40
1.0
 40
1.0
 40
1.0
 10
-58.0733486146
 20
280.6159341192
 30
0.0
 10
-58.923618043
 20
280.3880147372
 30
0.0
 10
-60.1628078667
 20
279.7546801168
 30
0.0
 10
-61.5517505687
 20
278.5480047613
 30
0.0
 10
-62.4891602897
 20
277.4385627828
 30
0.0
 10
-63.2582007105
 20
276.1884732966
 30
0.0
 10
-64.0112948529
 20
274.4264471214
 30
0.0
 10
-64.2716959353
 20
272.9944758422
 30
0.0
 10
-64.2716959353
 20
272.0594235356
 30
0.0
  0
SPLINE
  5
383
100
AcDbEntity
  8
0
100
AcDbSpline
 62
7
  6
CONTINUOUS
 70
0
 71
3
 72
11
 73
7
 74
0
 42
0.0000001
 43
0.0000001
 44
0.0000000001
 40
0.0
 40
0.0
 40
0.0
 40
0.0
 40
0.271772124
 40
0.5268740629
 40
0.7676338636
 40
1.0
 40
1.0
 40
1.0
 40
1.0
 10
-64.2716959353
 20
193.915981394
 30
0.0
 10
-64.2716959353
 20
193.4032527137
 30
0.0
 10
-64.1719862319
 20
192.4050207178
 30
0.0
 10
-63.6945726939
 20
191.0222335922
 30
0.0
 10
-62.9121221449
 20
189.8717731437
 30
0.0
 10
-62.2041023785
 20
189.3021770301
 30
0.0
 10
-61.8244578524
 20
189.0829709338
 30
0.0
  0
SPLINE
  5
384
100
AcDbEntity
  8
0
100
AcDbSpline
 62
7
  6
CONTINUOUS
 70
0
 71
3
 72
16
 73
12
 74
0
 42
0.0000001
 43
0.0000001
 44
0.0000000001
 40
0.0
 40
0.0
 40
0.0
 40
0.0
 40
0.0541881861
 40
0.1101377264
 40
0.227542277
 40
0.3521964437
 40
0.482359139
 40
0.6153123993
 40
0.7478814012
 40
0.8769527122
 40
1.0
 40
1.0
 40
1.0
 40
1.0
 10
27.9887693157
 20
248.685690203
 30
0.0
 10
28.5806080922
 20
247.7037604064
 30
0.0
 10
29.6402047226
 20
245.6181568347
 30
0.0
 10
31.2307248268
 20
241.0620350421
 30
0.0
 10
32.1521808469
 20
234.7586633925
 30
0.0
 10
31.564977759
 20
226.8514783869
 30
0.0
 10
29.3584197241
 20
218.8976927298
 30
0.0
 10
25.6600928573
 20
211.3360679871
 30
0.0
 10
20.6742268905
 20
204.5805714332
 30
0.0
 10
14.6781649103
 20
199.0074444922
 30
0.0
 10
10.081871489
 20
196.2057063678
 30
0.0
 10
7.716889435
 20
195.1173339786
 30
0.0
  0
SPLINE
  5
385
100
AcDbEntity
  8
0
100
AcDbSpline
 62
7
  6
CONTINUOUS
 70
0
 71
3
 72
10
 73
6
 74
0
 42
0.0000001
 43
0.0000001
 44
0.0000000001
 40
0.0
 40
0.0
 40
0.0
 40
0.0
 40
0.5149103404
 40
0.7596757362
 40
1.0
 40
1.0
 40
1.0
 40
1.0
 10
-55.2582709175
 20
187.0565361791
 30
0.0
 10
-55.8978761711
 20
186.8850864841
 30
0.0
 10
-56.8997507439
 20
186.7845324217
 30
0.0
 10
-58.1657202244
 20
187.0481420989
 30
0.0
 10
-58.7417300635
 20
187.3024936342
 30
0.0
 10
-59.0093801553
 20
187.4570343367
 30
0.0
  0
SPLINE
  5
386
100
AcDbEntity
  8
0
100
AcDbSpline
 62
7
  6
CONTINUOUS
 70
0
 71
3
 72
10
 73
6
 74
0
 42
0.0000001
 43
0.0000001
 44
0.0000000001
 40
0.0
 40
0.0
 40
0.0
 40
0.0
 40
0.5252430948
 40
0.7667940878
 40
1.0
 40
1.0
 40
1.0
 40
1.0
 10
-57.489675953
 20
193.353405426
 30
0.0
 10
-57.489675953
 20
193.1296039952
 30
0.0
 10
-57.4241477022
 20
192.7927743297
 30
0.0
 10
-57.1814607907
 20
192.436850451
 30
0.0
 10
-57.0209914876
 20
192.3076608731
 30
0.0
 10
-56.9349611552
 20
192.2579358555
 30
0.0
  0
SPLINE
  5
387
100
AcDbEntity
  8
0
100
AcDbSpline
 62
7
  6
CONTINUOUS
 70
0
 71
3
 72
13
 73
9
 74
0
 42
0.0000001
 43
0.0000001
 44
0.0000000001
 40
0.0
 40
0.0
 40
0.0
 40
0.0
 40
0.1054260364
 40
0.2162111602
 40
0.3355564676
 40
0.4637456454
 40
0.7347621352
 40
1.0
 40
1.0
 40
1.0
 40
1.0
 10
-55.2344732987
 20
273.345530917
 30
0.0
 10
-55.3383353841
 20
273.4055625811
 30
0.0
 10
-55.5765936153
 20
273.4890328942
 30
0.0
 10
-55.9649203155
 20
273.4830254217
 30
0.0
 10
-56.3574020091
 20
273.3538691286
 30
0.0
 10
-56.8564674119
 20
273.0293611175
 30
0.0
 10
-57.3323732799
 20
272.412173189
 30
0.0
 10
-57.489675953
 20
271.7986586234
 30
0.0
 10
-57.489675953
 20
271.4968475676
 30
0.0
  0
SPLINE
  5
388
100
AcDbEntity
  8
0
100
AcDbSpline
 62
7
  6
CONTINUOUS
 70
0
 71
3
 72
11
 73
7
 74
0
 42
0.0000001
 43
0.0000001
 44
0.0000000001
 40
0.0
 40
0.0
 40
0.0
 40
0.0
 40
0.2580479907
 40
0.5094306555
 40
0.7559634489
 40
1.0
 40
1.0
 40
1.0
 40
1.0
 10
-2.2004662779
 20
192.458932406
 30
0.0
 10
-3.328357644
 20
192.373316731
 30
0.0
 10
-5.5699304287
 20
192.3540740526
 30
0.0
 10
-8.8647300351
 20
192.8055968152
 30
0.0
 10
-11.9949891513
 20
193.7329814684
 30
0.0
 10
-13.9457754691
 20
194.6624115301
 30
0.0
 10
-14.8720698567
 20
195.1974584125
 30
0.0
  0
SPLINE
  5
389
100
AcDbEntity
  8
0
100
AcDbSpline
 62
7
  6
CONTINUOUS
 70
0
 71
3
 72
14
 73
10
 74
0
 42
0.0000001
 43
0.0000001
 44
0.0000000001
 40
0.0
 40
0.0
 40
0.0
 40
0.0
 40
0.2647837441
 40
0.4023089711
 40
0.5369529473
 40
0.6649529929
 40
0.7841200305
 40
0.8947373724
 40
1.0
 40
1.0
 40
1.0
 40
1.0
 10
7.716889435
 20
194.4146024427
 30
0.0
 10
7.716889435
 20
193.3495325545
 30
0.0
 10
7.2950763947
 20
191.7132693398
 30
0.0
 10
6.1478594594
 20
189.8736684356
 30
0.0
 10
5.0207556759
 20
188.7048142805
 30
0.0
 10
3.7206096955
 20
187.8603634421
 30
0.0
 10
2.3355593662
 20
187.4044641588
 30
0.0
 10
0.9647923151
 20
187.3832258791
 30
0.0
 10
0.1239885736
 20
187.6780541006
 30
0.0
 10
-0.2426790957
 20
187.8897868386
 30
0.0
  0
SPLINE
  5
38A
100
AcDbEntity
  8
0
100
AcDbSpline
 62
7
  6
CONTINUOUS
 70
0
 71
3
 72
11
 73
7
 74
0
 42
0.0000001
 43
0.0000001
 44
0.0000000001
 40
0.0
 40
0.0
 40
0.0
 40
0.0
 40
0.2717350397
 40
0.5268969419
 40
0.7676331593
 40
1.0
 40
1.0
 40
1.0
 40
1.0
 10
-0.1343505046
 20
192.310034531
 30
0.0
 10
-0.1343505046
 20
192.0707960758
 30
0.0
 10
-0.0877654417
 20
191.6049527822
 30
0.0
 10
0.1349231839
 20
190.9596153262
 30
0.0
 10
0.5001872045
 20
190.4227749028
 30
0.0
 10
0.8305582904
 20
190.1569782017
 30
0.0
 10
1.0077102533
 20
190.0546578707
 30
0.0
  0
SPLINE
  5
38B
100
AcDbEntity
  8
0
100
AcDbSpline
 62
7
  6
CONTINUOUS
 70
0
 71
3
 72
19
 73
15
 74
0
 42
0.0000001
 43
0.0000001
 44
0.0000000001
 40
0.0
 40
0.0
 40
0.0
 40
0.0
 40
0.1323229161
 40
0.2689301802
 40
0.337720676
 40
0.4060961839
 40
0.5394922136
 40
0.6660451781
 40
0.72626684
 40
0.784308959
 40
0.8403165127
 40
0.8946013271
 40
0.9476319788
 40
1.0
 40
1.0
 40
1.0
 40
1.0
 10
-6.8011401942
 20
251.0813147985
 30
0.0
 10
-9.0777108212
 20
249.5065678534
 30
0.0
 10
-13.3411474692
 20
245.7569809016
 30
0.0
 10
-17.602302534
 20
240.0600600892
 30
0.0
 10
-20.3137798834
 20
235.0054843367
 30
0.0
 10
-22.4745659065
 20
229.7652258726
 30
0.0
 10
-24.1101290585
 20
223.0396750716
 30
0.0
 10
-24.2208545443
 20
216.2733966986
 30
0.0
 10
-23.320065613
 20
211.2180928072
 30
0.0
 10
-22.1936191518
 20
207.7376566888
 30
0.0
 10
-20.6232671787
 20
204.5705417969
 30
0.0
 10
-18.6341554401
 20
201.7737798844
 30
0.0
 10
-16.261287638
 20
199.4005644186
 30
0.0
 10
-14.4453031656
 20
198.1267212511
 30
0.0
 10
-13.4966470509
 20
197.5788073324
 30
0.0
  0
SPLINE
  5
38C
100
AcDbEntity
  8
0
100
AcDbSpline
 62
7
  6
CONTINUOUS
 70
0
 71
3
 72
13
 73
9
 74
0
 42
0.0000001
 43
0.0000001
 44
0.0000000001
 40
0.0
 40
0.0
 40
0.0
 40
0.0
 40
0.1054260364
 40
0.2162111602
 40
0.3355564676
 40
0.4637456454
 40
0.7347621352
 40
1.0
 40
1.0
 40
1.0
 40
1.0
 10
-55.2344732987
 20
195.2020887753
 30
0.0
 10
-55.3383353841
 20
195.2621204394
 30
0.0
 10
-55.5765936153
 20
195.3455907525
 30
0.0
 10
-55.9649203155
 20
195.33958328
 30
0.0
 10
-56.3574020091
 20
195.2104269869
 30
0.0
 10
-56.8564674119
 20
194.8859189759
 30
0.0
 10
-57.3323732799
 20
194.2687310474
 30
0.0
 10
-57.489675953
 20
193.6552164817
 30
0.0
 10
-57.489675953
 20
193.353405426
 30
0.0
  0
SPLINE
  5
38D
100
AcDbEntity
  8
0
100
AcDbSpline
 62
7
  6
CONTINUOUS
 70
0
 71
3
 72
10
 73
6
 74
0
 42
0.0000001
 43
0.0000001
 44
0.0000000001
 40
0.0
 40
0.0
 40
0.0
 40
0.0
 40
0.2403242638
 40
0.4850896596
 40
1.0
 40
1.0
 40
1.0
 40
1.0
 10
-52.739454426
 20
197.5719056317
 30
0.0
 10
-52.9178878206
 20
197.6749327668
 30
0.0
 10
-53.3018943802
 20
197.844500457
 30
0.0
 10
-54.1458740344
 20
198.0202402418
 30
0.0
 10
-54.8137904166
 20
197.9532041998
 30
0.0
 10
-55.2401939192
 20
197.8389044031
 30
0.0
  0
SPLINE
  5
38E
100
AcDbEntity
  8
0
100
AcDbSpline
 62
7
  6
CONTINUOUS
 70
0
 71
3
 72
10
 73
6
 74
0
 42
0.0000001
 43
0.0000001
 44
0.0000000001
 40
0.0
 40
0.0
 40
0.0
 40
0.0
 40
0.5217589642
 40
0.7649336134
 40
1.0
 40
1.0
 40
1.0
 40
1.0
 10
-36.3413974
 20
273.4810691495
 30
0.0
 10
-35.7054372839
 20
274.3948688253
 30
0.0
 10
-34.6258228768
 20
275.6484137671
 30
0.0
 10
-32.926202976
 20
276.9476515367
 30
0.0
 10
-32.0294917934
 20
277.44465842
 30
0.0
 10
-31.5731239478
 20
277.6527691681
 30
0.0
  0
SPLINE
  5
38F
100
AcDbEntity
  8
0
100
AcDbSpline
 62
7
  6
CONTINUOUS
 70
0
 71
3
 72
11
 73
7
 74
0
 42
0.0000001
 43
0.0000001
 44
0.0000000001
 40
0.0
 40
0.0
 40
0.0
 40
0.0
 40
0.2656232547
 40
0.5205447595
 40
0.7648985691
 40
1.0
 40
1.0
 40
1.0
 40
1.0
 10
-37.7527303555
 20
218.18748342
 30
0.0
 10
-37.7137153706
 20
216.0085496568
 30
0.0
 10
-37.3333561309
 20
211.7359191829
 30
0.0
 10
-35.802640655
 20
205.6217960834
 30
0.0
 10
-33.358773691
 20
200.0815286564
 30
0.0
 10
-31.1173876206
 20
196.8137644254
 30
0.0
 10
-29.8714577445
 20
195.3412849648
 30
0.0
  0
SPLINE
  5
390
100
AcDbEntity
  8
0
100
AcDbSpline
 62
7
  6
CONTINUOUS
 70
0
 71
3
 72
12
 73
8
 74
0
 42
0.0000001
 43
0.0000001
 44
0.0000000001
 40
0.0
 40
0.0
 40
0.0
 40
0.0
 40
0.2518092116
 40
0.3792312373
 40
0.506564721
 40
0.7576842037
 40
1.0
 40
1.0
 40
1.0
 40
1.0
 10
-22.3738588761
 20
256.45310685
 30
0.0
 10
-24.8198308265
 20
253.8899880309
 30
0.0
 10
-28.1301639324
 20
249.650643429
 30
0.0
 10
-31.6929498636
 20
243.4696325446
 30
0.0
 10
-34.6603167499
 20
236.989493188
 30
0.0
 10
-37.1686724983
 20
228.5669507505
 30
0.0
 10
-37.8137669871
 20
221.5962961552
 30
0.0
 10
-37.7527303555
 20
218.18748342
 30
0.0
  0
SPLINE
  5
391
100
AcDbEntity
  8
0
100
AcDbSpline
 62
7
  6
CONTINUOUS
 70
0
 71
3
 72
9
 73
5
 74
0
 42
0.0000001
 43
0.0000001
 44
0.0000000001
 40
0.0
 40
0.0
 40
0.0
 40
0.0
 40
0.4881468501
 40
1.0
 40
1.0
 40
1.0
 40
1.0
 10
35.999903653
 20
249.4890589462
 30
0.0
 10
36.743363653
 20
247.4142771615
 30
0.0
 10
37.8570665663
 20
243.0097556172
 30
0.0
 10
38.2024296917
 20
238.4860066804
 30
0.0
 10
38.2024296917
 20
236.1750108709
 30
0.0
  0
SPLINE
  5
392
100
AcDbEntity
  8
0
100
AcDbSpline
 62
7
  6
CONTINUOUS
 70
0
 71
3
 72
15
 73
11
 74
0
 42
0.0000001
 43
0.0000001
 44
0.0000000001
 40
0.0
 40
0.0
 40
0.0
 40
0.0
 40
0.1226793102
 40
0.2497804871
 40
0.3795759387
 40
0.5100271139
 40
0.6390304753
 40
0.7646372387
 40
0.8852762652
 40
1.0
 40
1.0
 40
1.0
 40
1.0
 10
38.2024296917
 20
236.1750108709
 30
0.0
 10
38.2024296917
 20
233.4565732129
 30
0.0
 10
37.703678415
 20
227.9127710583
 30
0.0
 10
35.6051653913
 20
219.734623962
 30
0.0
 10
32.2230459639
 20
211.8102556693
 30
0.0
 10
27.6844626834
 20
204.4384157865
 30
0.0
 10
22.159289944
 20
197.8936106972
 30
0.0
 10
15.8503616768
 20
192.4216775695
 30
0.0
 10
8.993553763
 20
188.2307191068
 30
0.0
 10
4.0876444662
 20
186.3497990064
 30
0.0
 10
1.6321804996
 20
185.6915984277
 30
0.0
  0
SPLINE
  5
393
100
AcDbEntity
  8
0
100
AcDbSpline
 62
7
  6
CONTINUOUS
 70
0
 71
3
 72
12
 73
8
 74
0
 42
0.0000001
 43
0.0000001
 44
0.0000000001
 40
0.0
 40
0.0
 40
0.0
 40
0.0
 40
0.2349933756
 40
0.4894753556
 40
0.6202647794
 40
0.7503870015
 40
1.0
 40
1.0
 40
1.0
 40
1.0
 10
-55.2401939188
 20
266.7890004105
 30
0.0
 10
-54.6733476332
 20
266.9409466651
 30
0.0
 10
-53.5559960328
 20
267.5118065593
 30
0.0
 10
-52.4607087181
 20
268.6407087607
 30
0.0
 10
-51.7836296962
 20
269.7405075917
 30
0.0
 10
-51.281560892
 20
270.9154014555
 30
0.0
 10
-51.1079623707
 20
271.8699725954
 30
0.0
 10
-51.1079623707
 20
272.4933407999
 30
0.0
  0
SPLINE
  5
394
100
AcDbEntity
  8
0
100
AcDbSpline
 62
7
  6
CONTINUOUS
 70
0
 71
3
 72
13
 73
9
 74
0
 42
0.0000001
 43
0.0000001
 44
0.0000000001
 40
0.0
 40
0.0
 40
0.0
 40
0.0
 40
0.1054260364
 40
0.2162111602
 40
0.3355564676
 40
0.4637456454
 40
0.7347621352
 40
1.0
 40
1.0
 40
1.0
 40
1.0
 10
-56.9349611552
 20
270.4013779972
 30
0.0
 10
-56.8310990698
 20
270.341346333
 30
0.0
 10
-56.5928408386
 20
270.25787602
 30
0.0
 10
-56.2045141384
 20
270.2638834925
 30
0.0
 10
-55.8120324448
 20
270.3930397856
 30
0.0
 10
-55.312967042
 20
270.7175477966
 30
0.0
 10
-54.837061174
 20
271.3347357251
 30
0.0
 10
-54.6797585009
 20
271.9482502907
 30
0.0
 10
-54.6797585009
 20
272.2500613465
 30
0.0
  0
SPLINE
  5
395
100
AcDbEntity
  8
0
100
AcDbSpline
 62
7
  6
CONTINUOUS
 70
0
 71
3
 72
9
 73
5
 74
0
 42
0.0000001
 43
0.0000001
 44
0.0000000001
 40
0.0
 40
0.0
 40
0.0
 40
0.0
 40
0.2429892131
 40
1.0
 40
1.0
 40
1.0
 40
1.0
 10
-21.6572715232
 20
209.5191430636
 30
0.0
 10
-21.6615328279
 20
209.3838044811
 30
0.0
 10
-21.7097439466
 20
208.8280051607
 30
0.0
 10
-21.8748741188
 20
208.2841264915
 30
0.0
 10
-22.0515346108
 20
207.9010554501
 30
0.0
  0
SPLINE
  5
396
100
AcDbEntity
  8
0
100
AcDbSpline
 62
7
  6
CONTINUOUS
 70
0
 71
3
 72
11
 73
7
 74
0
 42
0.0000001
 43
0.0000001
 44
0.0000000001
 40
0.0
 40
0.0
 40
0.0
 40
0.0
 40
0.2425463816
 40
0.4882672656
 40
0.7400278575
 40
1.0
 40
1.0
 40
1.0
 40
1.0
 10
-13.4966470509
 20
197.5788073324
 30
0.0
 10
-12.5298251034
 20
197.0204014002
 30
0.0
 10
-10.4779861896
 20
196.0690417101
 30
0.0
 10
-7.1674721675
 20
195.1985950877
 30
0.0
 10
-3.6784939799
 20
194.8938802259
 30
0.0
 10
-1.3182412393
 20
195.0671099233
 30
0.0
 10
-0.1343505046
 20
195.2418028705
 30
0.0
  0
SPLINE
  5
397
100
AcDbEntity
  8
0
100
AcDbSpline
 62
7
  6
CONTINUOUS
 70
0
 71
3
 72
10
 73
6
 74
0
 42
0.0000001
 43
0.0000001
 44
0.0000000001
 40
0.0
 40
0.0
 40
0.0
 40
0.0
 40
0.4898584147
 40
0.7452770754
 40
1.0
 40
1.0
 40
1.0
 40
1.0
 10
-36.6451519557
 20
273.6565121396
 30
0.0
 10
-36.6451519557
 20
271.4925267237
 30
0.0
 10
-37.343083807
 20
268.1727727806
 30
0.0
 10
-39.3134505814
 20
264.2079198725
 30
0.0
 10
-40.6521008605
 20
262.3762954737
 30
0.0
 10
-41.3941344799
 20
261.5303700582
 30
0.0
  0
SPLINE
  5
398
100
AcDbEntity
  8
0
100
AcDbSpline
 62
7
  6
CONTINUOUS
 70
0
 71
3
 72
16
 73
12
 74
0
 42
0.0000001
 43
0.0000001
 44
0.0000000001
 40
0.0
 40
0.0
 40
0.0
 40
0.0
 40
0.2761416294
 40
0.4122917212
 40
0.5432046127
 40
0.667097934
 40
0.7834496058
 40
0.839193842
 40
0.8935976908
 40
0.9470473111
 40
1.0
 40
1.0
 40
1.0
 40
1.0
 10
-41.3941344799
 20
261.5303700582
 30
0.0
 10
-44.9015416832
 20
257.5318923419
 30
0.0
 10
-49.1233688443
 20
250.5556333569
 30
0.0
 10
-52.0607829982
 20
240.4738100845
 30
0.0
 10
-52.806128759
 20
232.9292959004
 30
0.0
 10
-52.0452604962
 20
225.7674309594
 30
0.0
 10
-50.1345615545
 20
220.3268321276
 30
0.0
 10
-47.8930234121
 20
216.5701327215
 30
0.0
 10
-45.912404583
 20
214.1051583789
 30
0.0
 10
-43.6354779159
 20
211.9897092787
 30
0.0
 10
-41.9354713994
 20
210.8288188022
 30
0.0
 10
-41.0522869096
 20
210.3186784769
 30
0.0
  0
SPLINE
  5
399
100
AcDbEntity
  8
0
100
AcDbSpline
 62
7
  6
CONTINUOUS
 70
0
 71
3
 72
18
 73
14
 74
0
 42
0.0000001
 43
0.0000001
 44
0.0000000001
 40
0.0
 40
0.0
 40
0.0
 40
0.0
 40
0.0524398661
 40
0.1058753254
 40
0.1607296933
 40
0.2173156923
 40
0.3360929814
 40
0.4625299518
 40
0.5950494569
 40
0.6628503702
 40
0.7311022812
 40
0.8671320079
 40
1.0
 40
1.0
 40
1.0
 40
1.0
 10
-17.2601580312
 20
196.8120621971
 30
0.0
 10
-18.1197883513
 20
197.4860723606
 30
0.0
 10
-19.7493010782
 20
198.9881101305
 30
0.0
 10
-21.8405386313
 20
201.6181596137
 30
0.0
 10
-23.5669151692
 20
204.6012520557
 30
0.0
 10
-25.3773991156
 20
209.0559732969
 30
0.0
 10
-26.5689201383
 20
215.299309751
 30
0.0
 10
-26.2714217663
 20
223.217857368
 30
0.0
 10
-24.6505664498
 20
229.8764489963
 30
0.0
 10
-22.5800450844
 20
235.0807535568
 30
0.0
 10
-20.0041527291
 20
240.1374354623
 30
0.0
 10
-15.968771017
 20
245.9348819194
 30
0.0
 10
-11.941575101
 20
249.8866483593
 30
0.0
 10
-9.7786144274
 20
251.61349063
 30
0.0
  0
SPLINE
  5
39A
100
AcDbEntity
  8
0
100
AcDbSpline
 62
7
  6
CONTINUOUS
 70
0
 71
3
 72
17
 73
13
 74
0
 42
0.0000001
 43
0.0000001
 44
0.0000000001
 40
0.0
 40
0.0
 40
0.0
 40
0.0
 40
0.1222811391
 40
0.2514653002
 40
0.3847889767
 40
0.5186859695
 40
0.6494842616
 40
0.774097407
 40
0.8335665197
 40
0.8909607936
 40
0.9463620426
 40
1.0
 40
1.0
 40
1.0
 40
1.0
 10
5.6507736614
 20
196.7925371211
 30
0.0
 10
8.0176639056
 20
197.7121985483
 30
0.0
 10
12.6516858017
 20
200.2422515979
 30
0.0
 10
18.7009832939
 20
205.5452460847
 30
0.0
 10
23.718730099
 20
212.1386073801
 30
0.0
 10
27.3862918188
 20
219.6042360475
 30
0.0
 10
29.4733042351
 20
227.4701542874
 30
0.0
 10
29.7804925288
 20
234.0642051299
 30
0.0
 10
29.0973632786
 20
239.0436711072
 30
0.0
 10
28.1551624838
 20
242.5061565379
 30
0.0
 10
26.789878273
 20
245.6934216717
 30
0.0
 10
25.5930550973
 20
247.6281148417
 30
0.0
 10
24.9330815559
 20
248.5253763648
 30
0.0
  0
SPLINE
  5
39B
100
AcDbEntity
  8
0
100
AcDbSpline
 62
7
  6
CONTINUOUS
 70
0
 71
3
 72
13
 73
9
 74
0
 42
0.0000001
 43
0.0000001
 44
0.0000000001
 40
0.0
 40
0.0
 40
0.0
 40
0.0
 40
0.1054260364
 40
0.2162111602
 40
0.3355564676
 40
0.4637456454
 40
0.7347621352
 40
1.0
 40
1.0
 40
1.0
 40
1.0
 10
-56.9349611552
 20
192.2579358555
 30
0.0
 10
-56.8310990698
 20
192.1979041914
 30
0.0
 10
-56.5928408386
 20
192.1144338783
 30
0.0
 10
-56.2045141384
 20
192.1204413508
 30
0.0
 10
-55.8120324448
 20
192.2495976439
 30
0.0
 10
-55.312967042
 20
192.5741056549
 30
0.0
 10
-54.837061174
 20
193.1912935835
 30
0.0
 10
-54.6797585009
 20
193.8048081491
 30
0.0
 10
-54.6797585009
 20
194.1066192049
 30
0.0
  0
SPLINE
  5
39C
100
AcDbEntity
  8
0
100
AcDbSpline
 62
7
  6
CONTINUOUS
 70
0
 71
3
 72
11
 73
7
 74
0
 42
0.0000001
 43
0.0000001
 44
0.0000000001
 40
0.0
 40
0.0
 40
0.0
 40
0.0
 40
0.2323661364
 40
0.4731259371
 40
0.728227876
 40
1.0
 40
1.0
 40
1.0
 40
1.0
 10
-59.0093801553
 20
187.4570343367
 30
0.0
 10
-59.3890246813
 20
187.676240433
 30
0.0
 10
-60.0970444478
 20
188.2458365467
 30
0.0
 10
-60.8794949968
 20
189.3962969951
 30
0.0
 10
-61.3569085348
 20
190.7790841208
 30
0.0
 10
-61.4566182382
 20
191.7773161166
 30
0.0
 10
-61.4566182382
 20
192.2900447969
 30
0.0
  0
SPLINE
  5
39D
100
AcDbEntity
  8
0
100
AcDbSpline
 62
7
  6
CONTINUOUS
 70
0
 71
3
 72
11
 73
7
 74
0
 42
0.0000001
 43
0.0000001
 44
0.0000000001
 40
0.0
 40
0.0
 40
0.0
 40
0.0
 40
0.2323606058
 40
0.4731242784
 40
0.7282305678
 40
1.0
 40
1.0
 40
1.0
 40
1.0
 10
-0.2426790957
 20
187.8897868386
 30
0.0
 10
-0.5463808222
 20
188.0651598084
 30
0.0
 10
-1.1128048885
 20
188.5208169936
 30
0.0
 10
-1.7387719853
 20
189.4411926173
 30
0.0
 10
-2.1207005774
 20
190.5474326111
 30
0.0
 10
-2.2004662783
 20
191.3460215673
 30
0.0
 10
-2.2004662781
 20
191.7562008718
 30
0.0
  0
SPLINE
  5
39E
100
AcDbEntity
  8
0
100
AcDbSpline
 62
7
  6
CONTINUOUS
 70
0
 71
3
 72
9
 73
5
 74
0
 42
0.0000001
 43
0.0000001
 44
0.0000000001
 40
0.0
 40
0.0
 40
0.0
 40
0.0
 40
0.477305613
 40
1.0
 40
1.0
 40
1.0
 40
1.0
 10
-52.8551563232
 20
197.4632729464
 30
0.0
 10
-52.5568974623
 20
197.1275314658
 30
0.0
 10
-52.0869507441
 20
196.2793338112
 30
0.0
 10
-51.9524856798
 20
195.3294738955
 30
0.0
 10
-51.9524856798
 20
194.8376796373
 30
0.0
  0
SPLINE
  5
39F
100
AcDbEntity
  8
0
100
AcDbSpline
 62
7
  6
CONTINUOUS
 70
0
 71
3
 72
13
 73
9
 74
0
 42
0.0000001
 43
0.0000001
 44
0.0000000001
 40
0.0
 40
0.0
 40
0.0
 40
0.0
 40
0.1054228116
 40
0.2162092768
 40
0.3355568365
 40
0.4637520711
 40
0.7347891091
 40
1.0
 40
1.0
 40
1.0
 40
1.0
 10
1.0077102533
 20
190.0546578707
 30
0.0
 10
1.2215768294
 20
189.9311317268
 30
0.0
 10
1.712046142
 20
189.7591823553
 30
0.0
 10
2.5115728197
 20
189.7715322475
 30
0.0
 10
3.31965479
 20
190.0374210708
 30
0.0
 10
4.3472035169
 20
190.7055901383
 30
0.0
 10
5.3269184576
 20
191.976357432
 30
0.0
 10
5.6507736614
 20
193.2394518237
 30
0.0
 10
5.6507736614
 20
193.8607687817
 30
0.0
  0
SPLINE
  5
3A0
100
AcDbEntity
  8
0
100
AcDbSpline
 62
7
  6
CONTINUOUS
 70
0
 71
3
 72
13
 73
9
 74
0
 42
0.0000001
 43
0.0000001
 44
0.0000000001
 40
0.0
 40
0.0
 40
0.0
 40
0.0
 40
0.2494186203
 40
0.3794395139
 40
0.5101270896
 40
0.6393638835
 40
0.765189618
 40
1.0
 40
1.0
 40
1.0
 40
1.0
 10
-61.4566182382
 20
270.4334869386
 30
0.0
 10
-61.4566182382
 20
271.3685392452
 30
0.0
 10
-61.1962171558
 20
272.8005105243
 30
0.0
 10
-60.4431230134
 20
274.5625366996
 30
0.0
 10
-59.6740825926
 20
275.8126261857
 30
0.0
 10
-58.7366728716
 20
276.9220681643
 30
0.0
 10
-57.3477301696
 20
278.1287435197
 30
0.0
 10
-56.1085403458
 20
278.7620781402
 30
0.0
 10
-55.2582709175
 20
278.9899975222
 30
0.0
  0
SPLINE
  5
3A1
100
AcDbEntity
  8
0
100
AcDbSpline
 62
7
  6
CONTINUOUS
 70
0
 71
3
 72
12
 73
8
 74
0
 42
0.0000001
 43
0.0000001
 44
0.0000000001
 40
0.0
 40
0.0
 40
0.0
 40
0.0
 40
0.2496129985
 40
0.3797352206
 40
0.5105246444
 40
0.7650066244
 40
1.0
 40
1.0
 40
1.0
 40
1.0
 10
-51.9524856798
 20
272.981121779
 30
0.0
 10
-51.9524856798
 20
272.3577535746
 30
0.0
 10
-52.126084201
 20
271.4031824348
 30
0.0
 10
-52.6281530051
 20
270.2282885713
 30
0.0
 10
-53.3052320268
 20
269.1284897403
 30
0.0
 10
-54.4005193413
 20
267.999587539
 30
0.0
 10
-55.5178709414
 20
267.4287276445
 30
0.0
 10
-56.0847172269
 20
267.2767813899
 30
0.0
  0
SPLINE
  5
3A2
100
AcDbEntity
  8
0
100
AcDbSpline
 62
7
  6
CONTINUOUS
 70
0
 71
3
 72
10
 73
6
 74
0
 42
0.0000001
 43
0.0000001
 44
0.0000000001
 40
0.0
 40
0.0
 40
0.0
 40
0.0
 40
0.5252430948
 40
0.7667940878
 40
1.0
 40
1.0
 40
1.0
 40
1.0
 10
-54.6797585009
 20
272.2500613465
 30
0.0
 10
-54.6797585009
 20
272.4738627772
 30
0.0
 10
-54.7452867517
 20
272.8106924428
 30
0.0
 10
-54.9879736631
 20
273.1666163215
 30
0.0
 10
-55.1484429663
 20
273.2958058994
 30
0.0
 10
-55.2344732987
 20
273.345530917
 30
0.0
  0
SPLINE
  5
3A3
100
AcDbEntity
  8
0
100
AcDbSpline
 62
7
  6
CONTINUOUS
 70
0
 71
3
 72
11
 73
7
 74
0
 42
0.0000001
 43
0.0000001
 44
0.0000000001
 40
0.0
 40
0.0
 40
0.0
 40
0.0
 40
0.271772124
 40
0.5268740629
 40
0.7676338636
 40
1.0
 40
1.0
 40
1.0
 40
1.0
 10
-51.1079623707
 20
194.3498986582
 30
0.0
 10
-51.1079623707
 20
194.6917177784
 30
0.0
 10
-51.1744355063
 20
195.3572057756
 30
0.0
 10
-51.4927111983
 20
196.2790638594
 30
0.0
 10
-52.0143448976
 20
197.0460374917
 30
0.0
 10
-52.4863580753
 20
197.4257682341
 30
0.0
 10
-52.739454426
 20
197.5719056317
 30
0.0
  0
SPLINE
  5
3A4
100
AcDbEntity
  8
0
100
AcDbSpline
 62
7
  6
CONTINUOUS
 70
0
 71
3
 72
10
 73
6
 74
0
 42
0.0000001
 43
0.0000001
 44
0.0000000001
 40
0.0
 40
0.0
 40
0.0
 40
0.0
 40
0.5252430948
 40
0.7667940878
 40
1.0
 40
1.0
 40
1.0
 40
1.0
 10
-54.6797585009
 20
194.1066192049
 30
0.0
 10
-54.6797585009
 20
194.3304206356
 30
0.0
 10
-54.7452867517
 20
194.6672503011
 30
0.0
 10
-54.9879736631
 20
195.0231741798
 30
0.0
 10
-55.1484429663
 20
195.1523637577
 30
0.0
 10
-55.2344732987
 20
195.2020887753
 30
0.0
  0
SPLINE
  5
3A5
100
AcDbEntity
  8
0
100
AcDbSpline
 62
7
  6
CONTINUOUS
 70
0
 71
3
 72
18
 73
14
 74
0
 42
0.0000001
 43
0.0000001
 44
0.0000000001
 40
0.0
 40
0.0
 40
0.0
 40
0.0
 40
0.133692629
 40
0.2704140467
 40
0.3389178924
 40
0.4068833086
 40
0.5394174529
 40
0.6654570602
 40
0.7835505258
 40
0.8397844418
 40
0.8943374156
 40
0.9475871769
 40
1.0
 40
1.0
 40
1.0
 40
1.0
 10
-11.1694160524
 20
252.0505787783
 30
0.0
 10
-13.3639651997
 20
250.2679943342
 30
0.0
 10
-17.4361495034
 20
246.1918733452
 30
0.0
 10
-21.4775691824
 20
240.2206471597
 30
0.0
 10
-24.0214470249
 20
235.0248192046
 30
0.0
 10
-26.0319060602
 20
229.6957411869
 30
0.0
 10
-27.5328914975
 20
222.9043235225
 30
0.0
 10
-27.6130452743
 20
214.8786537263
 30
0.0
 10
-26.17968904
 20
208.6125539644
 30
0.0
 10
-24.1527200252
 20
204.201409102
 30
0.0
 10
-22.2588614179
 20
201.279158595
 30
0.0
 10
-19.9957896629
 20
198.7400100352
 30
0.0
 10
-18.2540979658
 20
197.3218648747
 30
0.0
 10
-17.340334021
 20
196.694472469
 30
0.0
  0
SPLINE
  5
3A6
100
AcDbEntity
  8
0
100
AcDbSpline
 62
7
  6
CONTINUOUS
 70
0
 71
3
 72
11
 73
7
 74
0
 42
0.0000001
 43
0.0000001
 44
0.0000000001
 40
0.0
 40
0.0
 40
0.0
 40
0.0
 40
0.2410538952
 40
0.4918777649
 40
0.7469394684
 40
1.0
 40
1.0
 40
1.0
 40
1.0
 10
-34.9380686926
 20
216.5692992731
 30
0.0
 10
-34.9380686926
 20
219.9392183973
 30
0.0
 10
-34.170153955
 20
226.8310620472
 30
0.0
 10
-31.0006103548
 20
236.8423711865
 30
0.0
 10
-25.9741251683
 20
246.2508658365
 30
0.0
 10
-21.5116706903
 20
251.8404477826
 30
0.0
 10
-19.0483632987
 20
254.3797275348
 30
0.0
  0
SPLINE
  5
3A7
100
AcDbEntity
  8
0
100
AcDbSpline
 62
7
  6
CONTINUOUS
 70
0
 71
3
 72
11
 73
7
 74
0
 42
0.0000001
 43
0.0000001
 44
0.0000000001
 40
0.0
 40
0.0
 40
0.0
 40
0.0
 40
0.2344241165
 40
0.4783749401
 40
0.7334580984
 40
1.0
 40
1.0
 40
1.0
 40
1.0
 10
-27.4994523708
 20
193.9712549834
 30
0.0
 10
-28.7136220933
 20
195.4255751429
 30
0.0
 10
-30.8887971233
 20
198.6575345075
 30
0.0
 10
-33.2232819309
 20
204.1396293638
 30
0.0
 10
-34.6370449779
 20
210.1915069765
 30
0.0
 10
-34.9380686926
 20
214.4152016801
 30
0.0
 10
-34.9380686926
 20
216.5692992731
 30
0.0
  0
ENDSEC
  0
SECTION
  2
OBJECTS
  0
DICTIONARY
  5
C
100
AcDbDictionary
280
0
281
1
  3
ACAD_GROUP
350
D
  3
ACAD_MLINESTYLE
350
17
  3
ACAD_LAYOUT
350
1A
  3
ACAD_PLOTSETTINGS
350
19
  3
ACAD_PLOTSTYLENAME
350
E
  0
DICTIONARY
  5
D
102
{ACAD_REACTORS
330
C
102
}
100
AcDbDictionary
280
0
281
1
  0
ACDBDICTIONARYWDFLT
  5
E
102
{ACAD_REACTORS
330
C
102
}
100
AcDbDictionary
281
1
  3
Normal
350
F
100
AcDbDictionaryWithDefault
340
F
  0
DICTIONARY
  5
17
102
{ACAD_REACTORS
330
C
102
}
100
AcDbDictionary
280
0
281
1
  3
Standard
350
18
  0
DICTIONARY
  5
19
102
{ACAD_REACTORS
330
C
102
}
100
AcDbDictionary
281
1
  0
DICTIONARY
  5
1A
102
{ACAD_REACTORS
330
C
102
}
100
AcDbDictionary
281
1
  3
Model
350
3A8
  3
Layout1
350
3A9
  0
ACDBPLACEHOLDER
  5
F
102
{ACAD_REACTORS
330
E
102
}
  0
MLINESTYLE
  5
18
102
{ACAD_REACTORS
330
17
102
}
100
AcDbMlineStyle
  2
STANDARD
 70
0
  3

 62
256
 51
90.0
 52
90.0
 71
2
 49
0.5
 62
256
  6
BYLAYER
 49
-0.5
 62
256
  6
BYLAYER
  0
LAYOUT
  5
3A8
102
{ACAD_REACTORS
330
1A
102
}
100
AcDbPlotSettings
  1

  2
none_device
  4
ANSI_C_(22.00_x_17.00_Inches)
  6

 40
0.0
 41
0.0
 42
0.0
 43
0.0
 44
558.8
 45
431.8
 46
0.0
 47
0.0
 48
0.0
 49
0.0
140
0.0
141
0.0
142
1.0
143
1.0
 70
1024
 72
1
 73
0
 74
0
  7

 75
0
147
1.0
148
0.0
149
0.0
100
AcDbLayout
  1
Model
 70
0
 71
0
 10
0.0
 20
0.0
 11
558.8
 21
431.8
 12
0.0
 22
0.0
 32
0.0
 14
0.0
 24
0.0
 34
0.0
 15
0.0
 25
0.0
 35
0.0
146
0.0
 13
0.0
 23
0.0
 33
0.0
 16
1.0
 26
0.0
 36
0.0
 17
0.0
 27
1.0
 37
0.0
 76
0
330
216
345
0
346
0
  0
LAYOUT
  5
3A9
102
{ACAD_REACTORS
330
1A
102
}
100
AcDbPlotSettings
  1

  2
none_device
  4
ANSI_C_(22.00_x_17.00_Inches)
  6

 40
0.0
 41
0.0
 42
0.0
 43
0.0
 44
558.8
 45
431.8
 46
0.0
 47
0.0
 48
0.0
 49
0.0
140
0.0
141
0.0
142
1.0
143
1.0
 70
0
 72
1
 73
0
 74
0
  7

 75
0
147
1.0
148
0.0
149
0.0
100
AcDbLayout
  1
Layout1
 70
0
 71
1
 10
0.0
 20
0.0
 11
558.8
 21
431.8
 12
0.0
 22
0.0
 32
0.0
 14
0.0
 24
0.0
 34
0.0
 15
0.0
 25
0.0
 35
0.0
146
0.0
 13
0.0
 23
0.0
 33
0.0
 16
1.0
 26
0.0
 36
0.0
 17
0.0
 27
1.0
 37
0.0
 76
0
330
217
345
0
346
0
  0
ENDSEC
  0
EOF
