999
DXF file: Y:\3D PRATIKA-KAEDRA_OLGA\TRAVAIL_PHASE_2\CAD3D\PKF32M423_3D-Simplified\PKF32M423_2D-isometric.dxf
999
Pro/ENGINEER 2018260 by Parametric Technology Corporation
  0
SECTION
  2
HEADER
  9
$ACADVER
  1
AC1027
  9
$DWGCODEPAGE
  3
ANSI_1252
  9
$EXTMAX
 10
558.8
 20
431.8
 30
0.0
  9
$EXTMIN
 10
0.0
 20
0.0
 30
0.0
  9
$LIMMIN
 10
0.0
 20
0.0
  9
$LIMMAX
 10
558.8
 20
431.8
  9
$VIEWCTR
 10
279.4
 20
215.9
  9
$VIEWSIZE
 40
431.8
  9
$CLAYER
  8
0
  9
$LTSCALE
 40
30.734
  9
$CELTYPE
  6
BYLAYER
  9
$DIMSCALE
 40
1.0
  9
$DIMASZ
 40
0.1875
  9
$DIMEXO
 40
0.0625
  9
$DIMDLI
 40
21.2344
  9
$DIMEXE
 40
0.125
  9
$DIMCEN
 40
5.0292
  9
$DIMLFAC
 40
1.0
  9
$DIMBLK
  1
_CLOSED
  9
$DIMALT
 70
0
  9
$DIMALTF
 40
0.0393700787
  9
$DIMTXT
 40
0.15625
  9
$DIMTOL
 70
0
  9
$DIMLIM
 70
0
  9
$DIMTFAC
 40
1.0
  9
$DIMGAP
 40
0.625
  9
$DIMDSEP
 70
46
  9
$AUNITS
 70
0
  9
$PDMODE
 70
3
  9
$PDSIZE
 40
0.3125
  9
$HANDSEED
  5
3D8
  9
$TILEMODE
 70
1
  9
$MEASUREMENT
 70
1
  9
$INSUNITS
 70
4
  0
ENDSEC
  0
SECTION
  2
CLASSES
  0
CLASS
  1
ACDBDICTIONARYWDFLT
  2
AcDbDictionaryWithDefault
  3
AutoCAD 2000
 90
0
 91
1
280
0
281
0
  0
CLASS
  1
ACDBPLACEHOLDER
  2
AcDbPlaceHolder
  3
AutoCAD 2000
 90
0
 91
1
280
0
281
0
  0
CLASS
  1
LAYOUT
  2
AcDbLayout
  3
AutoCAD 2000
 90
0
 91
0
280
0
281
0
  0
ENDSEC
  0
SECTION
  2
TABLES
  0
TABLE
  2
VPORT
  5
8
100
AcDbSymbolTable
 70
2
  0
VPORT
  5
1F4
100
AcDbSymbolTableRecord
100
AcDbViewportTableRecord
  2
*ACTIVE
 70
0
 10
0.0
 20
0.0
 11
1.0
 21
1.0
 12
279.4
 22
215.9
 13
0.0
 23
0.0
 14
1.0
 24
1.0
 15
0.0
 25
0.0
 16
0.0
 26
0.0
 36
1.0
 17
0.0
 27
0.0
 37
0.0
 40
431.8
 41
1.2941176471
 42
50.0
 43
0.0
 44
0.0
 50
0.0
 51
0.0
 71
0
 72
100
 73
1
 74
1
 75
0
 76
0
 77
0
 78
0
  0
ENDTAB
  0
TABLE
  2
LTYPE
  5
5
100
AcDbSymbolTable
 70
6
  0
LTYPE
  5
14
100
AcDbSymbolTableRecord
100
AcDbLinetypeTableRecord
  2
BYBLOCK
 70
0
  3

 72
65
 73
0
 40
0.0
  0
LTYPE
  5
15
100
AcDbSymbolTableRecord
100
AcDbLinetypeTableRecord
  2
BYLAYER
 70
0
  3

 72
65
 73
0
 40
0.0
  0
LTYPE
  5
16
100
AcDbSymbolTableRecord
100
AcDbLinetypeTableRecord
  2
CONTINUOUS
 70
64
  3
Solid line
 72
65
 73
0
 40
0.0
  0
LTYPE
  5
1F5
100
AcDbSymbolTableRecord
100
AcDbLinetypeTableRecord
  2
CENTER
 70
64
  3
____ _ ____ _ ____ _ ____ _ ____ _ ____ _ ____
 72
65
 73
4
 40
0.6
 49
0.375
 74
0
 49
-0.075
 74
0
 49
0.075
 74
0
 49
-0.075
 74
0
  0
LTYPE
  5
1F6
100
AcDbSymbolTableRecord
100
AcDbLinetypeTableRecord
  2
HIDDEN
 70
64
  3
- - - - - - - - - - - - - - - - - - - -
 72
65
 73
2
 40
0.2
 49
0.1
 74
0
 49
-0.1
 74
0
  0
LTYPE
  5
1F7
100
AcDbSymbolTableRecord
100
AcDbLinetypeTableRecord
  2
PHANTOM
 70
64
  3
_____ _ _ _____ _ _ _____ _ _ _____
 72
65
 73
6
 40
0.8
 49
0.45
 74
0
 49
-0.05
 74
0
 49
0.1
 74
0
 49
-0.05
 74
0
 49
0.1
 74
0
 49
-0.05
 74
0
  0
LTYPE
  5
1F8
100
AcDbSymbolTableRecord
100
AcDbLinetypeTableRecord
  2
DOT
 70
64
  3
. . . . . . . . . . . . . . . . . . . .
 72
65
 73
2
 40
0.2
 49
0.1
 74
0
 49
-0.1
 74
0
  0
LTYPE
  5
1F9
100
AcDbSymbolTableRecord
100
AcDbLinetypeTableRecord
  2
DASHED
 70
64
  3
- - - - - - - - - - - - - - - - - - - -
 72
65
 73
2
 40
0.2
 49
0.1
 74
0
 49
-0.1
 74
0
  0
ENDTAB
  0
TABLE
  2
LAYER
  5
2
100
AcDbSymbolTable
 70
36
  0
LAYER
  5
10
100
AcDbSymbolTableRecord
100
AcDbLayerTableRecord
  2
0
 70
0
 62
7
  6
CONTINUOUS
370
-3
390
F
  0
LAYER
  5
1FA
100
AcDbSymbolTableRecord
100
AcDbLayerTableRecord
  2
DEFAULT_1
 70
0
 62
7
  6
CENTER
370
-3
390
F
  0
LAYER
  5
1FB
100
AcDbSymbolTableRecord
100
AcDbLayerTableRecord
  2
DEFAULT_2
 70
0
 62
8
  6
HIDDEN
370
-3
390
F
  0
LAYER
  5
1FC
100
AcDbSymbolTableRecord
100
AcDbLayerTableRecord
  2
DEFAULT_3
 70
0
 62
7
  6
PHANTOM
370
-3
390
F
  0
ENDTAB
  0
TABLE
  2
STYLE
  5
3
100
AcDbSymbolTable
 70
1
  0
STYLE
  5
11
100
AcDbSymbolTableRecord
100
AcDbTextStyleTableRecord
  2
STANDARD
 70
0
 40
0.0
 41
0.8
 50
0.0
 71
0
 42
0.2
  3
txt
  4

  0
STYLE
  5
1FD
100
AcDbSymbolTableRecord
100
AcDbTextStyleTableRecord
  2
TEXTSTYLE_1
 70
0
 40
0.0
 41
0.8
 50
0.0
 71
0
 42
0.2
  3
gdt
  4

  0
ENDTAB
  0
TABLE
  2
VIEW
  5
6
100
AcDbSymbolTable
 70
0
  0
ENDTAB
  0
TABLE
  2
UCS
  5
7
100
AcDbSymbolTable
 70
0
  0
ENDTAB
  0
TABLE
  2
APPID
  5
9
100
AcDbSymbolTable
 70
1
  0
APPID
  5
1FE
100
AcDbSymbolTableRecord
100
AcDbRegAppTableRecord
  2
ACAD
 70
0
  0
ENDTAB
  0
TABLE
  2
BLOCK_RECORD
  5
1
100
AcDbSymbolTable
 70
0
  0
BLOCK_RECORD
  5
1FF
100
AcDbSymbolTableRecord
100
AcDbBlockTableRecord
  2
*Model_Space
  0
BLOCK_RECORD
  5
200
100
AcDbSymbolTableRecord
100
AcDbBlockTableRecord
  2
*Paper_Space
  0
BLOCK_RECORD
  5
201
100
AcDbSymbolTableRecord
100
AcDbBlockTableRecord
  2
_CLOSED
  0
ENDTAB
  0
TABLE
  2
DIMSTYLE
  5
A
100
AcDbSymbolTable
 70
1
100
AcDbDimStyleTable
 71
0
  0
DIMSTYLE
105
202
100
AcDbSymbolTableRecord
100
AcDbDimStyleTableRecord
  2
STANDARD
 70
0
  3

  4

 40
1.0
 41
0.1875
 42
0.0625
 43
0.38
 44
0.125
 45
0.0
 46
0.0
 47
0.01
 48
0.01
140
0.15625
141
0.09
142
0.0
143
25.4
144
1.0
145
0.0
146
1.0
147
0.625
 71
0.0
 72
0.0
 73
1
 74
1
 75
0
 76
0
 77
0
 78
8
 79
2
170
0
171
1
172
0
173
0
174
0
175
0
176
0
177
0
178
0
270
2
179
2
271
2
272
2
273
2
274
2
275
0
280
0
281
0
282
0
283
1
284
8
285
0
286
0
287
3
288
0
340
11
278
46
341
201
342
201
343
201
344
201
  0
ENDTAB
  0
ENDSEC
  0
SECTION
  2
BLOCKS
  0
BLOCK
  5
20
100
AcDbEntity
  8
0
100
AcDbBlockBegin
  2
*Model_Space
 70
0
 10
0.0
 20
0.0
 30
0.0
  3
*Model_Space
  1

  0
ENDBLK
  5
21
100
AcDbEntity
  8
0
100
AcDbBlockEnd
  0
BLOCK
  5
1C
100
AcDbEntity
  8
0
100
AcDbBlockBegin
  2
*Paper_Space
 70
0
 10
0.0
 20
0.0
 30
0.0
  3
*Paper_Space
  1

  0
ENDBLK
  5
1D
100
AcDbEntity
  8
0
100
AcDbBlockEnd
  0
BLOCK
  5
203
100
AcDbEntity
  8
0
100
AcDbBlockBegin
  2
_CLOSED
 70
64
 10
0.0
 20
0.0
  3
_CLOSED
  1

  0
LINE
  5
204
100
AcDbEntity
  8
0
  6
BYBLOCK
 62
0
100
AcDbLine
 10
0.0
 20
0.0
 11
-1.0
 21
0.1666666667
  0
LINE
  5
205
100
AcDbEntity
  8
0
  6
BYBLOCK
 62
0
100
AcDbLine
 10
-1.0
 20
0.1666666667
 11
-1.0
 21
-0.1666666667
  0
LINE
  5
206
100
AcDbEntity
  8
0
  6
BYBLOCK
 62
0
100
AcDbLine
 10
-1.0
 20
-0.1666666667
 11
0.0
 21
0.0
  0
LINE
  5
207
100
AcDbEntity
  8
0
  6
BYBLOCK
 62
0
100
AcDbLine
 10
-1.0
 20
0.0
 11
0.0
 21
0.0
  0
ENDBLK
  5
208
100
AcDbEntity
  8
0
  6
BYBLOCK
 62
0
100
AcDbBlockEnd
  0
ENDSEC
  0
SECTION
  2
ENTITIES
  0
LINE
  5
209
100
AcDbEntity
  8
0
100
AcDbLine
 62
7
  6
CONTINUOUS
 10
-123.8010282201
 20
242.8739793753
 11
-123.8010083787
 21
242.8740664769
  0
LINE
  5
20A
100
AcDbEntity
  8
0
100
AcDbLine
 62
7
  6
CONTINUOUS
 10
-115.7553418299
 20
255.6573137941
 11
-115.7694593528
 21
255.6364958129
  0
LINE
  5
20B
100
AcDbEntity
  8
0
100
AcDbLine
 62
7
  6
CONTINUOUS
 10
-115.7553418299
 20
255.6573137941
 11
-115.7701041183
 21
255.6370445652
  0
LWPOLYLINE
  5
20C
100
AcDbEntity
  8
0
100
AcDbPolyline
 62
7
  6
CONTINUOUS
 90
6
 70
0
 10
-121.6723621944
 20
217.8632047918
 10
-121.7274150801
 20
217.7124460568
 10
-121.7658671793
 20
217.3954919191
 10
-121.7049800905
 20
217.0744683868
 10
-121.5455336434
 20
216.7868720555
 10
-121.4127602556
 20
216.6490918714
  0
LWPOLYLINE
  5
20D
100
AcDbEntity
  8
0
100
AcDbPolyline
 62
7
  6
CONTINUOUS
 90
6
 70
0
 10
-112.519185455
 20
211.2300486419
 10
-112.5116706367
 20
211.11340655
 10
-112.4387820091
 20
210.8591330387
 10
-112.2899646831
 20
210.6351744401
 10
-112.0728641612
 20
210.4626830693
 10
-111.8726038197
 20
210.3783161705
  0
LINE
  5
20E
100
AcDbEntity
  8
0
100
AcDbLine
 62
7
  6
CONTINUOUS
 10
-112.5191523701
 20
211.2300085109
 11
-112.5191525258
 21
211.3407288779
  0
LINE
  5
20F
100
AcDbEntity
  8
0
100
AcDbLine
 62
7
  6
CONTINUOUS
 10
-112.177717929
 20
211.1613760202
 11
-112.177717929
 21
211.0435807266
  0
LINE
  5
210
100
AcDbEntity
  8
0
100
AcDbLine
 62
7
  6
CONTINUOUS
 10
-121.6723273586
 20
217.8632077851
 11
-121.3689800031
 21
218.5289884547
  0
LINE
  5
211
100
AcDbEntity
  8
0
100
AcDbLine
 62
7
  6
CONTINUOUS
 10
-121.0240199967
 20
218.3396665723
 11
-121.3318307377
 21
217.664089754
  0
LWPOLYLINE
  5
212
100
AcDbEntity
  8
0
100
AcDbPolyline
 62
7
  6
CONTINUOUS
 90
6
 70
0
 10
-125.5232837631
 20
229.7778124208
 10
-125.602350007
 20
229.6972849189
 10
-125.7597950583
 20
229.4629549381
 10
-125.8612437262
 20
229.1803960398
 10
-125.8935920411
 20
228.8715630923
 10
-125.8567110397
 20
228.5913178241
  0
LINE
  5
213
100
AcDbEntity
  8
0
100
AcDbLine
 62
7
  6
CONTINUOUS
 10
-104.1733184709
 20
263.7028939939
 11
-104.1734123816
 21
263.7028411548
  0
LINE
  5
214
100
AcDbEntity
  8
0
100
AcDbLine
 62
7
  6
CONTINUOUS
 10
-125.8566953421
 20
228.5913464565
 11
-125.8567161889
 21
228.591428586
  0
LINE
  5
215
100
AcDbEntity
  8
0
100
AcDbLine
 62
7
  6
CONTINUOUS
 10
-125.5232719522
 20
229.7777807141
 11
-124.9936482198
 21
230.2598955798
  0
LINE
  5
216
100
AcDbEntity
  8
0
100
AcDbLine
 62
7
  6
CONTINUOUS
 10
-124.6476638505
 20
230.0676419078
 11
-125.1807387068
 21
229.5823854945
  0
LINE
  5
217
100
AcDbEntity
  8
0
100
AcDbLine
 62
7
  6
CONTINUOUS
 10
-90.9691049212
 20
262.832927646
 11
-90.9703598169
 21
262.8221966945
  0
LINE
  5
218
100
AcDbEntity
  8
0
100
AcDbLine
 62
7
  6
CONTINUOUS
 10
-90.8870986257
 20
263.1462648972
 11
-90.8877753333
 21
263.1433899512
  0
LINE
  5
219
100
AcDbEntity
  8
0
100
AcDbLine
 62
7
  6
CONTINUOUS
 10
-90.9680753725
 20
262.8310815177
 11
-90.9703598169
 21
262.8221966945
  0
LWPOLYLINE
  5
21A
100
AcDbEntity
  8
0
100
AcDbPolyline
 62
7
  6
CONTINUOUS
 90
6
 70
0
 10
-122.9932226234
 20
243.8205469901
 10
-123.2008387608
 20
243.7350161896
 10
-123.4173502666
 20
243.5719743209
 10
-123.6043434096
 20
243.3424612026
 10
-123.7448924792
 20
243.0611107829
 10
-123.8010413326
 20
242.8740089597
  0
LINE
  5
21B
100
AcDbEntity
  8
0
100
AcDbLine
 62
7
  6
CONTINUOUS
 10
-121.3956524206
 20
218.480354656
 11
-121.4095180447
 21
218.5004337417
  0
LINE
  5
21C
100
AcDbEntity
  8
0
100
AcDbLine
 62
7
  6
CONTINUOUS
 10
-121.3874301958
 20
218.4884943432
 11
-121.4004449738
 21
218.5093999293
  0
LINE
  5
21D
100
AcDbEntity
  8
0
100
AcDbLine
 62
7
  6
CONTINUOUS
 10
-90.9828321654
 20
262.8348757488
 11
-90.982875264
 21
262.8577458884
  0
LINE
  5
21E
100
AcDbEntity
  8
0
100
AcDbLine
 62
7
  6
CONTINUOUS
 10
-90.8871005126
 20
263.8389584733
 11
-90.8870986211
 21
263.1465032771
  0
LINE
  5
21F
100
AcDbEntity
  8
0
100
AcDbLine
 62
7
  6
CONTINUOUS
 10
-90.8877753333
 20
263.8281850003
 11
-90.8870986211
 21
263.8384173164
  0
LINE
  5
220
100
AcDbEntity
  8
0
100
AcDbLine
 62
7
  6
CONTINUOUS
 10
-102.5972590692
 20
262.9367508439
 11
-102.5864010141
 21
262.866353188
  0
LWPOLYLINE
  5
221
100
AcDbEntity
  8
0
100
AcDbPolyline
 62
7
  6
CONTINUOUS
 90
7
 70
0
 10
-90.8870659929
 20
263.838667788
 10
-90.9051502291
 20
264.0186130591
 10
-90.9906924652
 20
264.2562106369
 10
-91.1433821359
 20
264.4616775044
 10
-91.3566607543
 20
264.618659652
 10
-91.6192063784
 20
264.7110333755
 10
-91.7785941999
 20
264.7291730648
  0
LINE
  5
222
100
AcDbEntity
  8
0
100
AcDbLine
 62
7
  6
CONTINUOUS
 10
-121.4127337741
 20
216.6491023767
 11
-121.4129031439
 21
216.6492469219
  0
LINE
  5
223
100
AcDbEntity
  8
0
100
AcDbLine
 62
7
  6
CONTINUOUS
 10
-102.8941933232
 20
263.3768787204
 11
-102.9212478333
 21
263.4741409327
  0
LINE
  5
224
100
AcDbEntity
  8
0
100
AcDbLine
 62
7
  6
CONTINUOUS
 10
-121.3810781952
 20
216.6268388618
 11
-121.4127337741
 21
216.6491023767
  0
LWPOLYLINE
  5
225
100
AcDbEntity
  8
0
100
AcDbPolyline
 62
7
  6
CONTINUOUS
 90
3
 70
0
 10
-90.78128245
 20
261.1920435264
 10
-90.9466028615
 20
262.2028015602
 10
-90.9828246761
 20
262.8343356079
  0
LINE
  5
226
100
AcDbEntity
  8
0
100
AcDbLine
 62
7
  6
CONTINUOUS
 10
-71.4874208291
 20
242.2377768296
 11
-72.1277680313
 21
254.5589794559
  0
LINE
  5
227
100
AcDbEntity
  8
0
100
AcDbLine
 62
7
  6
CONTINUOUS
 10
-70.5827972562
 20
251.2019704529
 11
-70.0745054108
 21
241.4217031243
  0
LINE
  5
228
100
AcDbEntity
  8
0
100
AcDbLine
 62
7
  6
CONTINUOUS
 10
-70.4834533111
 20
215.925728982
 11
-70.4817278214
 21
215.9294309282
  0
LINE
  5
229
100
AcDbEntity
  8
0
100
AcDbLine
 62
7
  6
CONTINUOUS
 10
-67.3875957853
 20
221.2864480398
 11
-67.3851154127
 21
221.2899864384
  0
LINE
  5
22A
100
AcDbEntity
  8
0
100
AcDbLine
 62
7
  6
CONTINUOUS
 10
-117.7576191852
 20
214.2707274549
 11
-117.8693759331
 21
214.3345832295
  0
LINE
  5
22B
100
AcDbEntity
  8
0
100
AcDbLine
 62
7
  6
CONTINUOUS
 10
-117.8690019106
 20
214.1525399529
 11
-117.7710360269
 21
214.0966486639
  0
LINE
  5
22C
100
AcDbEntity
  8
0
100
AcDbLine
 62
7
  6
CONTINUOUS
 10
-23.6438789745
 20
156.1011149605
 11
-16.0290788321
 21
151.7029478181
  0
LINE
  5
22D
100
AcDbEntity
  8
0
100
AcDbLine
 62
7
  6
CONTINUOUS
 10
-60.6247175718
 20
178.0088647847
 11
-57.5972240338
 21
176.2602407429
  0
LINE
  5
22E
100
AcDbEntity
  8
0
100
AcDbLine
 62
7
  6
CONTINUOUS
 10
-117.7585049046
 20
214.2670563181
 11
-117.8693759331
 21
214.3345832295
  0
LINE
  5
22F
100
AcDbEntity
  8
0
100
AcDbLine
 62
7
  6
CONTINUOUS
 10
-57.9384562316
 20
176.4784808395
 11
-30.0083646373
 21
158.6153778631
  0
LINE
  5
230
100
AcDbEntity
  8
0
100
AcDbLine
 62
7
  6
CONTINUOUS
 10
-94.719977036
 20
203.4757341204
 11
-71.2288853804
 21
189.9077158498
  0
LINE
  5
231
100
AcDbEntity
  8
0
100
AcDbLine
 62
7
  6
CONTINUOUS
 10
-35.4962150859
 20
169.9195355498
 11
-15.9207401969
 21
158.6131048039
  0
LINE
  5
232
100
AcDbEntity
  8
0
100
AcDbLine
 62
7
  6
CONTINUOUS
 10
-36.5175138186
 20
172.9116414374
 11
-10.1356160309
 21
157.6739472322
  0
LINE
  5
233
100
AcDbEntity
  8
0
100
AcDbLine
 62
7
  6
CONTINUOUS
 10
-36.6162634697
 20
173.3805566556
 11
-25.9391697155
 21
167.2136655951
  0
LINE
  5
234
100
AcDbEntity
  8
0
100
AcDbLine
 62
7
  6
CONTINUOUS
 10
-105.4843798264
 20
213.2729832782
 11
-101.1848232428
 21
210.7896392456
  0
LINE
  5
235
100
AcDbEntity
  8
0
100
AcDbLine
 62
7
  6
CONTINUOUS
 10
-10.1356160309
 20
160.1638390546
 11
-19.2463815525
 21
165.4260480174
  0
LINE
  5
236
100
AcDbEntity
  8
0
100
AcDbLine
 62
7
  6
CONTINUOUS
 10
-102.5864010141
 20
262.866353188
 11
-102.8941933232
 21
263.3768787204
  0
LINE
  5
237
100
AcDbEntity
  8
0
100
AcDbLine
 62
7
  6
CONTINUOUS
 10
-102.9215371924
 20
263.4746192
 11
-102.5972761517
 21
262.9367791783
  0
LINE
  5
238
100
AcDbEntity
  8
0
100
AcDbLine
 62
7
  6
CONTINUOUS
 10
-98.9784419611
 20
205.9299687602
 11
-98.8011931009
 21
205.8754411011
  0
LINE
  5
239
100
AcDbEntity
  8
0
100
AcDbLine
 62
7
  6
CONTINUOUS
 10
-99.3994481582
 20
206.061499934
 11
-99.325241829
 21
206.0381148924
  0
LINE
  5
23A
100
AcDbEntity
  8
0
100
AcDbLine
 62
7
  6
CONTINUOUS
 10
-103.1345373573
 20
207.3884190904
 11
-102.8738961516
 21
207.296028014
  0
LINE
  5
23B
100
AcDbEntity
  8
0
100
AcDbLine
 62
7
  6
CONTINUOUS
 10
-99.3985601224
 20
206.0641044746
 11
-99.325241829
 21
206.0381148924
  0
LINE
  5
23C
100
AcDbEntity
  8
0
100
AcDbLine
 62
7
  6
CONTINUOUS
 10
-103.1546333828
 20
207.3341189528
 11
-102.8944369558
 21
207.2402170642
  0
LINE
  5
23D
100
AcDbEntity
  8
0
100
AcDbLine
 62
7
  6
CONTINUOUS
 10
-102.8572470013
 20
207.3349409663
 11
-102.7711378337
 21
207.3012788844
  0
LWPOLYLINE
  5
23E
100
AcDbEntity
  8
0
100
AcDbPolyline
 62
7
  6
CONTINUOUS
 90
7
 70
0
 10
-102.9213945827
 20
263.4744572278
 10
-102.9714089062
 20
263.5475134392
 10
-103.1507602881
 20
263.7154203502
 10
-103.3874650636
 20
263.8234829415
 10
-103.6718803889
 20
263.8536050292
 10
-103.9785864965
 20
263.791634722
 10
-104.1733866781
 20
263.7028793093
  0
LINE
  5
23F
100
AcDbEntity
  8
0
100
AcDbLine
 62
7
  6
CONTINUOUS
 10
-34.389744441
 20
226.9342303798
 11
-35.4811722867
 21
226.5103688595
  0
LINE
  5
240
100
AcDbEntity
  8
0
100
AcDbLine
 62
7
  6
CONTINUOUS
 10
20.3892966846
 20
207.7517118497
 11
17.0835114469
 21
206.8655779922
  0
LINE
  5
241
100
AcDbEntity
  8
0
100
AcDbLine
 62
7
  6
CONTINUOUS
 10
-111.8727939754
 20
210.3783756908
 11
-108.1681078539
 21
209.3791788063
  0
LINE
  5
242
100
AcDbEntity
  8
0
100
AcDbLine
 62
7
  6
CONTINUOUS
 10
-111.8727477576
 20
210.3783581602
 11
-111.8726038197
 21
210.3783161705
  0
LINE
  5
243
100
AcDbEntity
  8
0
100
AcDbLine
 62
7
  6
CONTINUOUS
 10
-39.4586804381
 20
229.5369322357
 11
-39.4266353901
 21
227.680141571
  0
LINE
  5
244
100
AcDbEntity
  8
0
100
AcDbLine
 62
7
  6
CONTINUOUS
 10
-39.4604917588
 20
229.5369235279
 11
-39.4588330471
 21
229.6021824748
  0
LINE
  5
245
100
AcDbEntity
  8
0
100
AcDbLine
 62
7
  6
CONTINUOUS
 10
-78.1430469537
 20
254.788301455
 11
-78.5397979124
 21
255.2959086025
  0
LINE
  5
246
100
AcDbEntity
  8
0
100
AcDbLine
 62
7
  6
CONTINUOUS
 10
-38.046099607
 20
226.4342900667
 11
-38.0789084655
 21
228.3353383128
  0
LINE
  5
247
100
AcDbEntity
  8
0
100
AcDbLine
 62
7
  6
CONTINUOUS
 10
-31.0272766491
 20
227.4835760282
 11
-31.0334485195
 21
227.8411935728
  0
LWPOLYLINE
  5
248
100
AcDbEntity
  8
0
100
AcDbPolyline
 62
7
  6
CONTINUOUS
 90
4
 70
0
 10
-78.5397979124
 20
255.2959086025
 10
-79.953580045
 20
257.0202502622
 10
-81.0044793013
 20
258.0794045322
 10
-81.3288773957
 20
258.3229193057
  0
LINE
  5
249
100
AcDbEntity
  8
0
100
AcDbLine
 62
7
  6
CONTINUOUS
 10
-28.8691647058
 20
226.0565705206
 11
-28.7859375274
 21
221.2341265694
  0
LINE
  5
24A
100
AcDbEntity
  8
0
100
AcDbLine
 62
7
  6
CONTINUOUS
 10
-30.6721154964
 20
219.6561366124
 11
-30.8006292549
 21
219.6216877948
  0
LINE
  5
24B
100
AcDbEntity
  8
0
100
AcDbLine
 62
7
  6
CONTINUOUS
 10
-31.706522923
 20
223.5200728122
 11
-31.8362885841
 21
223.4852884152
  0
LINE
  5
24C
100
AcDbEntity
  8
0
100
AcDbLine
 62
7
  6
CONTINUOUS
 10
-71.4874208291
 20
242.2377768296
 11
-70.0745054108
 21
241.4217031243
  0
LINE
  5
24D
100
AcDbEntity
  8
0
100
AcDbLine
 62
7
  6
CONTINUOUS
 10
-65.1354989427
 20
238.5690247141
 11
-63.6008061336
 21
237.6826146494
  0
LINE
  5
24E
100
AcDbEntity
  8
0
100
AcDbLine
 62
7
  6
CONTINUOUS
 10
-82.5764214246
 20
252.9323509411
 11
-78.3603679779
 21
250.4972367696
  0
LINE
  5
24F
100
AcDbEntity
  8
0
100
AcDbLine
 62
7
  6
CONTINUOUS
 10
-8.9097874326
 20
210.4993528762
 11
-2.9322642094
 21
207.0468464752
  0
LINE
  5
250
100
AcDbEntity
  8
0
100
AcDbLine
 62
7
  6
CONTINUOUS
 10
-90.1318363601
 20
262.9270102962
 11
-90.0943504108
 21
262.9032638613
  0
LINE
  5
251
100
AcDbEntity
  8
0
100
AcDbLine
 62
7
  6
CONTINUOUS
 10
-81.3283186476
 20
258.3225319461
 11
-81.3527643648
 21
258.3387363553
  0
LINE
  5
252
100
AcDbEntity
  8
0
100
AcDbLine
 62
7
  6
CONTINUOUS
 10
-15.9207401969
 20
156.1232129815
 11
-15.9207401969
 21
158.6131048039
  0
LINE
  5
253
100
AcDbEntity
  8
0
100
AcDbLine
 62
7
  6
CONTINUOUS
 10
-10.1356160309
 20
160.1638390546
 11
-10.1356160309
 21
157.6739472322
  0
LINE
  5
254
100
AcDbEntity
  8
0
100
AcDbLine
 62
7
  6
CONTINUOUS
 10
-29.170285276
 20
227.503395657
 11
-32.2694589363
 21
226.6726451656
  0
LINE
  5
255
100
AcDbEntity
  8
0
100
AcDbLine
 62
7
  6
CONTINUOUS
 10
-31.0294327343
 20
227.6085063718
 11
-31.5973784957
 21
227.4562653966
  0
LINE
  5
256
100
AcDbEntity
  8
0
100
AcDbLine
 62
7
  6
CONTINUOUS
 10
-31.0316372607
 20
227.8344365433
 11
-34.3897577929
 21
226.9342739231
  0
LINE
  5
257
100
AcDbEntity
  8
0
100
AcDbLine
 62
7
  6
CONTINUOUS
 10
-37.6394374817
 20
226.4001752992
 11
-40.0466561348
 21
225.7549071413
  0
LINE
  5
258
100
AcDbEntity
  8
0
100
AcDbLine
 62
7
  6
CONTINUOUS
 10
-24.2039746727
 20
232.8187983886
 11
-30.4400700285
 21
231.147178838
  0
LWPOLYLINE
  5
259
100
AcDbEntity
  8
0
100
AcDbPolyline
 62
7
  6
CONTINUOUS
 90
7
 70
0
 10
-114.695681144
 20
256.1805828532
 10
-114.7454810229
 20
256.1972120622
 10
-114.9890438977
 20
256.228313958
 10
-115.2453870478
 20
256.1823053266
 10
-115.4963134678
 20
256.0609688655
 10
-115.7323333364
 20
255.8661743905
 10
-115.8688661426
 20
255.7039152051
  0
LINE
  5
25A
100
AcDbEntity
  8
0
100
AcDbLine
 62
7
  6
CONTINUOUS
 10
-114.00272979
 20
255.7752092072
 11
-114.5357998225
 21
255.9746765397
  0
LINE
  5
25B
100
AcDbEntity
  8
0
100
AcDbLine
 62
7
  6
CONTINUOUS
 10
-114.6956415951
 20
256.1805256968
 11
-114.1264574486
 21
255.9675450916
  0
LINE
  5
25C
100
AcDbEntity
  8
0
100
AcDbLine
 62
7
  6
CONTINUOUS
 10
17.0835114469
 20
206.8655779922
 11
16.0138509404
 21
207.4090762653
  0
LINE
  5
25D
100
AcDbEntity
  8
0
100
AcDbLine
 62
7
  6
CONTINUOUS
 10
9.8838941061
 20
207.9481743375
 11
6.406606525
 21
209.7949707862
  0
LINE
  5
25E
100
AcDbEntity
  8
0
100
AcDbLine
 62
7
  6
CONTINUOUS
 10
-60.9307701348
 20
244.0101547722
 11
-45.2240210723
 21
234.9382282149
  0
LINE
  5
25F
100
AcDbEntity
  8
0
100
AcDbLine
 62
7
  6
CONTINUOUS
 10
-70.438721413
 20
253.5834174976
 11
-72.1277680313
 21
254.5589794559
  0
LINE
  5
260
100
AcDbEntity
  8
0
100
AcDbLine
 62
7
  6
CONTINUOUS
 10
-90.1318363601
 20
262.9270102962
 11
-90.0936804119
 21
262.9047267056
  0
LINE
  5
261
100
AcDbEntity
  8
0
100
AcDbLine
 62
7
  6
CONTINUOUS
 10
-85.3240466995
 20
260.7922073123
 11
-85.4212586755
 21
260.8490465388
  0
LINE
  5
262
100
AcDbEntity
  8
0
100
AcDbLine
 62
7
  6
CONTINUOUS
 10
-85.3886035768
 20
260.8300376326
 11
-81.3527643648
 21
258.3387363553
  0
LINE
  5
263
100
AcDbEntity
  8
0
100
AcDbLine
 62
7
  6
CONTINUOUS
 10
-31.150016869
 20
234.4819357094
 11
-28.7654212333
 21
235.1211396435
  0
LINE
  5
264
100
AcDbEntity
  8
0
100
AcDbLine
 62
7
  6
CONTINUOUS
 10
-87.8422670844
 20
262.0725812366
 11
-87.9089387339
 21
262.1013889283
  0
LINE
  5
265
100
AcDbEntity
  8
0
100
AcDbLine
 62
7
  6
CONTINUOUS
 10
-87.8592873921
 20
262.0379502938
 11
-87.9256408599
 21
262.0672492771
  0
LINE
  5
266
100
AcDbEntity
  8
0
100
AcDbLine
 62
7
  6
CONTINUOUS
 10
-66.3064898659
 20
254.6910848195
 11
-67.9955364841
 21
255.6666467778
  0
LINE
  5
267
100
AcDbEntity
  8
0
100
AcDbLine
 62
7
  6
CONTINUOUS
 10
-59.4685745864
 20
238.7902819713
 11
-63.6008061336
 21
237.6826146494
  0
LINE
  5
268
100
AcDbEntity
  8
0
100
AcDbLine
 62
7
  6
CONTINUOUS
 10
-90.8870986211
 20
263.2749321328
 11
-90.8537809872
 21
263.2656124043
  0
LINE
  5
269
100
AcDbEntity
  8
0
100
AcDbLine
 62
7
  6
CONTINUOUS
 10
-91.686890339
 20
264.701761065
 11
-91.7786037488
 21
264.7291492044
  0
LINE
  5
26A
100
AcDbEntity
  8
0
100
AcDbLine
 62
7
  6
CONTINUOUS
 10
-90.0867894051
 20
262.9127415717
 11
-90.1318092286
 21
262.9269836306
  0
LINE
  5
26B
100
AcDbEntity
  8
0
100
AcDbLine
 62
7
  6
CONTINUOUS
 10
-90.0868869804
 20
262.9125093042
 11
-90.1318092286
 21
262.9269836306
  0
LINE
  5
26C
100
AcDbEntity
  8
0
100
AcDbLine
 62
7
  6
CONTINUOUS
 10
-90.8740879271
 20
263.2553107564
 11
-90.8489600788
 21
263.2467238157
  0
LINE
  5
26D
100
AcDbEntity
  8
0
100
AcDbLine
 62
7
  6
CONTINUOUS
 10
-90.8870986211
 20
263.225382098
 11
-90.8621413782
 21
263.2164812389
  0
LINE
  5
26E
100
AcDbEntity
  8
0
100
AcDbLine
 62
7
  6
CONTINUOUS
 10
-90.8814549836
 20
263.288874362
 11
-90.8490751795
 21
263.2771911118
  0
LINE
  5
26F
100
AcDbEntity
  8
0
100
AcDbLine
 62
7
  6
CONTINUOUS
 10
6.3425288834
 20
213.5078304701
 11
6.406606525
 21
209.7949707862
  0
LINE
  5
270
100
AcDbEntity
  8
0
100
AcDbLine
 62
7
  6
CONTINUOUS
 10
9.8838941061
 20
207.9481743375
 11
9.8612052035
 21
209.2628405692
  0
LINE
  5
271
100
AcDbEntity
  8
0
100
AcDbLine
 62
7
  6
CONTINUOUS
 10
-70.0745054108
 20
241.4217031243
 11
-66.2785367346
 21
242.43923334
  0
LINE
  5
272
100
AcDbEntity
  8
0
100
AcDbLine
 62
7
  6
CONTINUOUS
 10
17.0502174373
 20
208.7947374065
 11
17.0835114469
 21
206.8655779922
  0
LINE
  5
273
100
AcDbEntity
  8
0
100
AcDbLine
 62
7
  6
CONTINUOUS
 10
20.3613227481
 20
209.3726095311
 11
20.3892966846
 21
207.7517118497
  0
LINE
  5
274
100
AcDbEntity
  8
0
100
AcDbLine
 62
7
  6
CONTINUOUS
 10
16.0138509404
 20
207.4090762653
 11
15.8153242493
 21
208.609039477
  0
LINE
  5
275
100
AcDbEntity
  8
0
100
AcDbLine
 62
7
  6
CONTINUOUS
 10
-70.438721413
 20
253.5834174976
 11
-66.3064898659
 21
254.6910848195
  0
LINE
  5
276
100
AcDbEntity
  8
0
100
AcDbLine
 62
7
  6
CONTINUOUS
 10
-72.1277680313
 20
254.5589794559
 11
-67.9955364841
 21
255.6666467778
  0
LINE
  5
277
100
AcDbEntity
  8
0
100
AcDbLine
 62
7
  6
CONTINUOUS
 10
-122.0776517993
 20
243.770130187
 11
-122.6932769883
 21
243.6051084798
  0
LINE
  5
278
100
AcDbEntity
  8
0
100
AcDbLine
 62
7
  6
CONTINUOUS
 10
-122.9931733922
 20
243.8205235219
 11
-122.3593625814
 21
243.9904200023
  0
LINE
  5
279
100
AcDbEntity
  8
0
100
AcDbLine
 62
7
  6
CONTINUOUS
 10
-91.7786037488
 20
264.7291492044
 11
-91.7786596568
 21
264.7291511348
  0
LINE
  5
27A
100
AcDbEntity
  8
0
100
AcDbLine
 62
7
  6
CONTINUOUS
 10
36.3074871052
 20
216.3519114294
 11
36.3301760078
 21
215.0372451978
  0
LINE
  5
27B
100
AcDbEntity
  8
0
100
AcDbLine
 62
7
  6
CONTINUOUS
 10
36.1211573676
 20
227.1781929149
 11
36.204384546
 21
222.3557489636
  0
ARC
  5
27C
100
AcDbEntity
  8
0
100
AcDbCircle
 62
7
  6
CONTINUOUS
 10
-684.913468039
 20
-208.1397100553
 40
763.0998849472
100
AcDbArc
 50
37.211137782
 51
37.3415715334
  0
ARC
  5
27D
100
AcDbEntity
  8
0
100
AcDbCircle
 62
7
  6
CONTINUOUS
 10
-225.8604343337
 20
141.8919510084
 40
185.8202750589
100
AcDbArc
 50
37.3905238131
 51
37.5852275491
  0
ARC
  5
27E
100
AcDbEntity
  8
0
100
AcDbCircle
 62
7
  6
CONTINUOUS
 10
-131.1573449408
 20
186.8874874428
 40
86.5800161552
100
AcDbArc
 50
46.8583420059
 51
53.1598613512
  0
ARC
  5
27F
100
AcDbEntity
  8
0
100
AcDbCircle
 62
7
  6
CONTINUOUS
 10
-79.0710074546
 20
207.9310387341
 40
55.5334208048
100
AcDbArc
 50
3.7288359556
 51
7.444430575
  0
ARC
  5
280
100
AcDbEntity
  8
0
100
AcDbCircle
 62
7
  6
CONTINUOUS
 10
-73.3171581632
 20
224.7436710597
 40
52.5038393531
100
AcDbArc
 50
143.9562961916
 51
154.7803022421
  0
ARC
  5
281
100
AcDbEntity
  8
0
100
AcDbCircle
 62
7
  6
CONTINUOUS
 10
-73.5474514588
 20
224.8756513174
 40
52.3591638004
100
AcDbArc
 50
143.9292213761
 51
154.7991952042
  0
ARC
  5
282
100
AcDbEntity
  8
0
100
AcDbCircle
 62
7
  6
CONTINUOUS
 10
-73.6803584068
 20
224.9174260612
 40
52.1012238612
100
AcDbArc
 50
154.7829818489
 51
155.5098862381
  0
ARC
  5
283
100
AcDbEntity
  8
0
100
AcDbCircle
 62
7
  6
CONTINUOUS
 10
-74.056361426
 20
225.0761360796
 40
51.6925628744
100
AcDbArc
 50
155.9973105146
 51
157.2901982953
  0
ARC
  5
284
100
AcDbEntity
  8
0
100
AcDbCircle
 62
7
  6
CONTINUOUS
 10
-79.7071804044
 20
222.1983174333
 40
48.1520805299
100
AcDbArc
 50
132.8348722742
 51
134.1911254389
  0
ARC
  5
285
100
AcDbEntity
  8
0
100
AcDbCircle
 62
7
  6
CONTINUOUS
 10
-80.1186500645
 20
222.6548813371
 40
47.5380953921
100
AcDbArc
 50
131.8901587849
 51
132.316938927
  0
ARC
  5
286
100
AcDbEntity
  8
0
100
AcDbCircle
 62
7
  6
CONTINUOUS
 10
-83.9449602811
 20
232.82145138
 40
40.9246144307
100
AcDbArc
 50
179.6949631401
 51
180.0049606783
  0
ARC
  5
287
100
AcDbEntity
  8
0
100
AcDbCircle
 62
7
  6
CONTINUOUS
 10
-84.1899678528
 20
228.3595642747
 40
40.5153473952
100
AcDbArc
 50
119.3258129263
 51
119.4778103714
  0
ARC
  5
288
100
AcDbEntity
  8
0
100
AcDbCircle
 62
7
  6
CONTINUOUS
 10
-84.8265942472
 20
232.8067179369
 40
40.0423407321
100
AcDbArc
 50
180.5791286139
 51
182.112385946
  0
ARC
  5
289
100
AcDbEntity
  8
0
100
AcDbCircle
 62
7
  6
CONTINUOUS
 10
-88.5105650776
 20
229.9141965935
 40
36.8340909621
100
AcDbArc
 50
149.0525399697
 51
151.9707362375
  0
ARC
  5
28A
100
AcDbEntity
  8
0
100
AcDbCircle
 62
7
  6
CONTINUOUS
 10
-88.7881371856
 20
230.0551031901
 40
36.5228612534
100
AcDbArc
 50
151.9612326096
 51
157.4527681207
  0
ARC
  5
28B
100
AcDbEntity
  8
0
100
AcDbCircle
 62
7
  6
CONTINUOUS
 10
-89.1446549853
 20
230.2065074455
 40
36.1355392814
100
AcDbArc
 50
157.4577255132
 51
157.6616775444
  0
ARC
  5
28C
100
AcDbEntity
  8
0
100
AcDbCircle
 62
7
  6
CONTINUOUS
 10
-90.6344265002
 20
231.723237152
 40
34.0385546383
100
AcDbArc
 50
134.081855957
 51
134.3026424962
  0
ARC
  5
28D
100
AcDbEntity
  8
0
100
AcDbCircle
 62
7
  6
CONTINUOUS
 10
-91.5515261312
 20
230.7876954552
 40
34.0360101221
100
AcDbArc
 50
105.4304026048
 51
105.6495688744
  0
ARC
  5
28E
100
AcDbEntity
  8
0
100
AcDbCircle
 62
7
  6
CONTINUOUS
 10
-91.6757959893
 20
231.2860297263
 40
33.5226304106
100
AcDbArc
 50
105.6748030894
 51
107.4025693629
  0
ARC
  5
28F
100
AcDbEntity
  8
0
100
AcDbCircle
 62
7
  6
CONTINUOUS
 10
-91.1697854535
 20
232.2861628244
 40
33.2617382389
100
AcDbArc
 50
128.7705870535
 51
134.0939929307
  0
ARC
  5
290
100
AcDbEntity
  8
0
100
AcDbCircle
 62
7
  6
CONTINUOUS
 10
-92.2367370739
 20
233.5836980071
 40
31.5819794843
100
AcDbArc
 50
125.4974324024
 51
128.7355046967
  0
ARC
  5
291
100
AcDbEntity
  8
0
100
AcDbCircle
 62
7
  6
CONTINUOUS
 10
-95.3391951922
 20
231.4796263217
 40
29.7859375937
100
AcDbArc
 50
173.1820078513
 51
179.9751037417
  0
ARC
  5
292
100
AcDbEntity
  8
0
100
AcDbCircle
 62
7
  6
CONTINUOUS
 10
-97.0773856643
 20
231.4884521207
 40
28.0477446118
100
AcDbArc
 50
179.9915901495
 51
182.5210903907
  0
ARC
  5
293
100
AcDbEntity
  8
0
100
AcDbCircle
 62
7
  6
CONTINUOUS
 10
-97.5367125237
 20
231.4700938216
 40
27.5880548699
100
AcDbArc
 50
182.5249614838
 51
182.7027798305
  0
ARC
  5
294
100
AcDbEntity
  8
0
100
AcDbCircle
 62
7
  6
CONTINUOUS
 10
-98.3307960999
 20
232.3598297996
 40
27.4885561292
100
AcDbArc
 50
179.9577892791
 51
185.4330377627
  0
ARC
  5
295
100
AcDbEntity
  8
0
100
AcDbCircle
 62
7
  6
CONTINUOUS
 10
-82.6367464897
 20
223.7165322857
 40
26.783965796
100
AcDbArc
 50
179.621963523
 51
179.9694192751
  0
ARC
  5
296
100
AcDbEntity
  8
0
100
AcDbCircle
 62
7
  6
CONTINUOUS
 10
-99.1465223899
 20
232.2893854385
 40
26.6698255702
100
AcDbArc
 50
185.4483059851
 51
185.739746752
  0
ARC
  5
297
100
AcDbEntity
  8
0
100
AcDbCircle
 62
7
  6
CONTINUOUS
 10
-82.3504519729
 20
223.6724531013
 40
25.773182063
100
AcDbArc
 50
179.6524805107
 51
179.9998587297
  0
ARC
  5
298
100
AcDbEntity
  8
0
100
AcDbCircle
 62
7
  6
CONTINUOUS
 10
-105.7938699079
 20
230.0998969657
 40
19.5990845376
100
AcDbArc
 50
212.6903324661
 51
216.6260024728
  0
ARC
  5
299
100
AcDbEntity
  8
0
100
AcDbCircle
 62
7
  6
CONTINUOUS
 10
-105.2949763282
 20
229.5275341185
 40
19.5285162951
100
AcDbArc
 50
204.6375787009
 51
210.4295347848
  0
ARC
  5
29A
100
AcDbEntity
  8
0
100
AcDbCircle
 62
7
  6
CONTINUOUS
 10
-105.9839530756
 20
229.9604626496
 40
19.3633489551
100
AcDbArc
 50
216.6304379586
 51
216.8517400171
  0
ARC
  5
29B
100
AcDbEntity
  8
0
100
AcDbCircle
 62
7
  6
CONTINUOUS
 10
-106.1225434623
 20
229.0388015909
 40
18.5674120115
100
AcDbArc
 50
210.4225418594
 51
214.5811793824
  0
ARC
  5
29C
100
AcDbEntity
  8
0
100
AcDbCircle
 62
7
  6
CONTINUOUS
 10
-93.0404034279
 20
220.8451389866
 40
16.0287440007
100
AcDbArc
 50
253.1440884363
 51
254.5378617319
  0
ARC
  5
29D
100
AcDbEntity
  8
0
100
AcDbCircle
 62
7
  6
CONTINUOUS
 10
-93.2268055999
 20
220.2406503419
 40
15.3961742068
100
AcDbArc
 50
248.1994970112
 51
253.1540851527
  0
ARC
  5
29E
100
AcDbEntity
  8
0
100
AcDbCircle
 62
7
  6
CONTINUOUS
 10
-93.2805708499
 20
220.1039650017
 40
15.2492971517
100
AcDbArc
 50
246.734266329
 51
248.1963350564
  0
ARC
  5
29F
100
AcDbEntity
  8
0
100
AcDbCircle
 62
7
  6
CONTINUOUS
 10
-93.3025371886
 20
220.0526281045
 40
15.1934582097
100
AcDbArc
 50
245.767855781
 51
246.7338975946
  0
ARC
  5
2A0
100
AcDbEntity
  8
0
100
AcDbCircle
 62
7
  6
CONTINUOUS
 10
-92.6427719995
 20
220.0723724051
 40
14.5105621329
100
AcDbArc
 50
239.991189382
 51
244.9105114471
  0
ARC
  5
2A1
100
AcDbEntity
  8
0
100
AcDbCircle
 62
7
  6
CONTINUOUS
 10
-121.1315549462
 20
216.8847588522
 40
0.3589499181
100
AcDbArc
 50
220.5062981609
 51
225.9109975453
  0
ARC
  5
2A2
100
AcDbEntity
  8
0
100
AcDbCircle
 62
7
  6
CONTINUOUS
 10
-111.7745107483
 20
210.7156773179
 40
0.3513218173
100
AcDbArc
 50
248.042611017
 51
253.7597023365
  0
ARC
  5
2A3
100
AcDbEntity
  8
0
100
AcDbCircle
 62
7
  6
CONTINUOUS
 10
-98.2640535771
 20
234.9619602279
 40
28.2283162849
100
AcDbArc
 50
211.4512218806
 51
211.8278785189
  0
ARC
  5
2A4
100
AcDbEntity
  8
0
100
AcDbCircle
 62
7
  6
CONTINUOUS
 10
-99.3213661707
 20
234.3224191784
 40
26.9930125706
100
AcDbArc
 50
210.7928043343
 51
211.0887077029
  0
ARC
  5
2A5
100
AcDbEntity
  8
0
100
AcDbCircle
 62
7
  6
CONTINUOUS
 10
-98.3093988325
 20
237.4291999486
 40
26.779545218
100
AcDbArc
 50
69.5561761145
 51
70.2955328423
  0
ARC
  5
2A6
100
AcDbEntity
  8
0
100
AcDbCircle
 62
7
  6
CONTINUOUS
 10
-92.60543737
 20
237.9782168025
 40
26.7393258441
100
AcDbArc
 50
88.0313929832
 51
88.2246769862
  0
ARC
  5
2A7
100
AcDbEntity
  8
0
100
AcDbCircle
 62
7
  6
CONTINUOUS
 10
-99.6517208606
 20
234.1147424357
 40
26.6025100146
100
AcDbArc
 50
211.8536940374
 51
212.5250462584
  0
ARC
  5
2A8
100
AcDbEntity
  8
0
100
AcDbCircle
 62
7
  6
CONTINUOUS
 10
-99.8164497726
 20
234.0093518861
 40
26.406952614
100
AcDbArc
 50
212.5244143868
 51
213.8726848973
  0
ARC
  5
2A9
100
AcDbEntity
  8
0
100
AcDbCircle
 62
7
  6
CONTINUOUS
 10
-97.276251697
 20
240.2646547517
 40
23.7618224186
100
AcDbArc
 50
71.9919215901
 51
72.3883564769
  0
ARC
  5
2AA
100
AcDbEntity
  8
0
100
AcDbCircle
 62
7
  6
CONTINUOUS
 10
-96.8708322859
 20
240.6825165679
 40
23.7518654936
100
AcDbArc
 50
104.8374054803
 51
105.0472863266
  0
ARC
  5
2AB
100
AcDbEntity
  8
0
100
AcDbCircle
 62
7
  6
CONTINUOUS
 10
-97.2840861245
 20
240.3708982382
 40
23.6681341841
100
AcDbArc
 50
66.6646038042
 51
72.2924605902
  0
ARC
  5
2AC
100
AcDbEntity
  8
0
100
AcDbCircle
 62
7
  6
CONTINUOUS
 10
-97.2374561107
 20
240.3825232627
 40
23.6377342465
100
AcDbArc
 50
70.3280284239
 51
71.9930267153
  0
ARC
  5
2AD
100
AcDbEntity
  8
0
100
AcDbCircle
 62
7
  6
CONTINUOUS
 10
-106.1729725186
 20
234.5177523733
 40
23.4848669535
100
AcDbArc
 50
229.5398998867
 51
240.1306398015
  0
ARC
  5
2AE
100
AcDbEntity
  8
0
100
AcDbCircle
 62
7
  6
CONTINUOUS
 10
-97.1711084337
 20
240.5648766188
 40
23.4437942023
100
AcDbArc
 50
69.1644994091
 51
69.486128219
  0
ARC
  5
2AF
100
AcDbEntity
  8
0
100
AcDbCircle
 62
7
  6
CONTINUOUS
 10
-97.1684195771
 20
240.6399656334
 40
23.3752590054
100
AcDbArc
 50
59.8313636413
 51
66.6636826484
  0
ARC
  5
2B0
100
AcDbEntity
  8
0
100
AcDbCircle
 62
7
  6
CONTINUOUS
 10
-97.1442894853
 20
240.6341913566
 40
23.3694731452
100
AcDbArc
 50
66.7222592483
 51
69.1655066955
  0
ARC
  5
2B1
100
AcDbEntity
  8
0
100
AcDbCircle
 62
7
  6
CONTINUOUS
 10
-106.2741205711
 20
234.3402303466
 40
23.2805585533
100
AcDbArc
 50
229.5406249597
 51
240.1289233967
  0
ARC
  5
2B2
100
AcDbEntity
  8
0
100
AcDbCircle
 62
7
  6
CONTINUOUS
 10
-97.0816133083
 20
240.7788867166
 40
23.2117846138
100
AcDbArc
 50
63.2150896468
 51
66.5439505315
  0
ARC
  5
2B3
100
AcDbEntity
  8
0
100
AcDbCircle
 62
7
  6
CONTINUOUS
 10
-97.0328794542
 20
240.8775214552
 40
23.1017714115
100
AcDbArc
 50
59.8259020086
 51
63.2127482203
  0
ARC
  5
2B4
100
AcDbEntity
  8
0
100
AcDbCircle
 62
7
  6
CONTINUOUS
 10
-96.0188268713
 20
241.1585869192
 40
23.0644966401
100
AcDbArc
 50
102.0750351987
 51
106.9967701777
  0
ARC
  5
2B5
100
AcDbEntity
  8
0
100
AcDbCircle
 62
7
  6
CONTINUOUS
 10
-96.3360715799
 20
242.5849872868
 40
21.6032941499
100
AcDbArc
 50
97.4927864734
 51
102.0436513459
  0
ARC
  5
2B6
100
AcDbEntity
  8
0
100
AcDbCircle
 62
7
  6
CONTINUOUS
 10
-96.9886859721
 20
246.3112068228
 40
18.0427116471
100
AcDbArc
 50
67.4212032766
 51
70.1059413795
  0
ARC
  5
2B7
100
AcDbEntity
  8
0
100
AcDbCircle
 62
7
  6
CONTINUOUS
 10
-96.971653624
 20
246.3531261476
 40
17.9974657108
100
AcDbArc
 50
66.949000095
 51
67.4200310353
  0
ARC
  5
2B8
100
AcDbEntity
  8
0
100
AcDbCircle
 62
7
  6
CONTINUOUS
 10
-96.190234953
 20
247.6556255556
 40
16.4806420457
100
AcDbArc
 50
68.4213921176
 51
71.0893142644
  0
ARC
  5
2B9
100
AcDbEntity
  8
0
100
AcDbCircle
 62
7
  6
CONTINUOUS
 10
-96.1569771521
 20
247.7416020785
 40
16.3884598327
100
AcDbArc
 50
68.1922776593
 51
68.4189681615
  0
ARC
  5
2BA
100
AcDbEntity
  8
0
100
AcDbCircle
 62
7
  6
CONTINUOUS
 10
-96.1314392825
 20
247.80452063
 40
16.3205568635
100
AcDbArc
 50
66.0423061745
 51
68.1934588941
  0
ARC
  5
2BB
100
AcDbEntity
  8
0
100
AcDbCircle
 62
7
  6
CONTINUOUS
 10
-89.4059677185
 20
262.6450373825
 40
1.5743889816
100
AcDbArc
 50
172.2109804064
 51
173.1458880301
  0
ARC
  5
2BC
100
AcDbEntity
  8
0
100
AcDbCircle
 62
7
  6
CONTINUOUS
 10
-91.7591554493
 20
263.8327253787
 40
0.8714205523
100
AcDbArc
 50
359.7205943881
 51
14.938999915
  0
ARC
  5
2BD
100
AcDbEntity
  8
0
100
AcDbCircle
 62
7
  6
CONTINUOUS
 10
-91.7341454133
 20
263.8383169687
 40
0.8458150211
100
AcDbArc
 50
15.0097717236
 51
18.0984510087
  0
ARC
  5
2BE
100
AcDbEntity
  8
0
100
AcDbCircle
 62
7
  6
CONTINUOUS
 10
-103.4949280016
 20
263.0370719412
 40
0.6905310717
100
AcDbArc
 50
37.232565584
 51
47.8479160297
  0
ARC
  5
2BF
100
AcDbEntity
  8
0
100
AcDbCircle
 62
7
  6
CONTINUOUS
 10
-103.4736082431
 20
263.0538432642
 40
0.6634092119
100
AcDbArc
 50
29.1398543249
 51
37.1933954695
  0
ARC
  5
2C0
100
AcDbEntity
  8
0
100
AcDbCircle
 62
7
  6
CONTINUOUS
 10
-82.1444058155
 20
272.9019125992
 40
68.6032474406
100
AcDbArc
 50
235.1118035249
 51
238.6175938045
  0
ARC
  5
2C1
100
AcDbEntity
  8
0
100
AcDbCircle
 62
7
  6
CONTINUOUS
 10
-79.3061824188
 20
265.4476012317
 40
59.5693581615
100
AcDbArc
 50
238.0891003521
 51
242.6019954873
  0
ARC
  5
2C2
100
AcDbEntity
  8
0
100
AcDbCircle
 62
7
  6
CONTINUOUS
 10
-80.761177424
 20
260.7491737871
 40
46.8708706171
100
AcDbArc
 50
226.3738156982
 51
232.0047439786
  0
ARC
  5
2C3
100
AcDbEntity
  8
0
100
AcDbCircle
 62
7
  6
CONTINUOUS
 10
-83.673675259
 20
254.5930917866
 40
40.0647720586
100
AcDbArc
 50
204.3475307079
 51
205.1654487908
  0
ARC
  5
2C4
100
AcDbEntity
  8
0
100
AcDbCircle
 62
7
  6
CONTINUOUS
 10
-77.6102182998
 20
263.2611419499
 40
39.4578447459
100
AcDbArc
 50
216.199175709
 51
222.463081754
  0
ARC
  5
2C5
100
AcDbEntity
  8
0
100
AcDbCircle
 62
7
  6
CONTINUOUS
 10
-82.8855390239
 20
238.4046826209
 40
15.9812308545
100
AcDbArc
 50
46.5060818101
 51
46.8388901535
  0
ARC
  5
2C6
100
AcDbEntity
  8
0
100
AcDbCircle
 62
7
  6
CONTINUOUS
 10
-82.052484328
 20
238.4081015507
 40
14.5150257591
100
AcDbArc
 50
54.7379861733
 51
59.9886421522
  0
ARC
  5
2C7
100
AcDbEntity
  8
0
100
AcDbCircle
 62
7
  6
CONTINUOUS
 10
-85.3013281151
 20
262.8592059263
 40
5.6813757939
100
AcDbArc
 50
177.0395273787
 51
180.0146565075
  0
ARC
  5
2C8
100
AcDbEntity
  8
0
100
AcDbCircle
 62
7
  6
CONTINUOUS
 10
-85.9600941983
 20
262.8885532774
 40
5.0219754087
100
AcDbArc
 50
175.772434364
 51
176.9857326002
  0
ARC
  5
2C9
100
AcDbEntity
  8
0
100
AcDbCircle
 62
7
  6
CONTINUOUS
 10
-82.1883253614
 20
312.2651123778
 40
105.5706369016
100
AcDbArc
 50
253.4967630031
 51
253.828206632
  0
ARC
  5
2CA
100
AcDbEntity
  8
0
100
AcDbCircle
 62
7
  6
CONTINUOUS
 10
-67.1685356817
 20
301.6837094155
 40
100.8921017228
100
AcDbArc
 50
251.3188965798
 51
251.522938443
  0
ARC
  5
2CB
100
AcDbEntity
  8
0
100
AcDbCircle
 62
7
  6
CONTINUOUS
 10
-70.5941002324
 20
296.7833839358
 40
95.1986306727
100
AcDbArc
 50
240.248104361
 51
241.4241237328
  0
ARC
  5
2CC
100
AcDbEntity
  8
0
100
AcDbCircle
 62
7
  6
CONTINUOUS
 10
-70.954187967
 20
296.1057749019
 40
94.4313273492
100
AcDbArc
 50
241.41933532
 51
250.0626000946
  0
ARC
  5
2CD
100
AcDbEntity
  8
0
100
AcDbCircle
 62
7
  6
CONTINUOUS
 10
-71.0595019233
 20
295.8624812609
 40
94.1667074919
100
AcDbArc
 50
250.2406708473
 51
252.4850252901
  0
ARC
  5
2CE
100
AcDbEntity
  8
0
100
AcDbCircle
 62
7
  6
CONTINUOUS
 10
-71.2838455654
 20
295.1437926977
 40
93.4133005161
100
AcDbArc
 50
252.5326078808
 51
252.7707681037
  0
ARC
  5
2CF
100
AcDbEntity
  8
0
100
AcDbCircle
 62
7
  6
CONTINUOUS
 10
-71.4129890882
 20
294.7399606587
 40
92.9893243971
100
AcDbArc
 50
250.213323124
 51
252.4860517542
  0
ARC
  5
2D0
100
AcDbEntity
  8
0
100
AcDbCircle
 62
7
  6
CONTINUOUS
 10
-71.8565184793
 20
293.4811134703
 40
91.654657403
100
AcDbArc
 50
250.033872642
 51
250.2078216016
  0
ARC
  5
2D1
100
AcDbEntity
  8
0
100
AcDbCircle
 62
7
  6
CONTINUOUS
 10
-72.7451153329
 20
287.7763278564
 40
85.9694091327
100
AcDbArc
 50
251.0803059338
 51
251.9895164398
  0
ARC
  5
2D2
100
AcDbEntity
  8
0
100
AcDbCircle
 62
7
  6
CONTINUOUS
 10
-72.8360079988
 20
287.4984238418
 40
85.6770192329
100
AcDbArc
 50
251.9898598382
 51
252.2504944679
  0
ARC
  5
2D3
100
AcDbEntity
  8
0
100
AcDbCircle
 62
7
  6
CONTINUOUS
 10
-72.9390182059
 20
287.1744563557
 40
85.3370698222
100
AcDbArc
 50
252.2500535571
 51
253.1406998311
  0
ARC
  5
2D4
100
AcDbEntity
  8
0
100
AcDbCircle
 62
7
  6
CONTINUOUS
 10
-75.5212572718
 20
277.1769761712
 40
75.0011270712
100
AcDbArc
 50
248.6953845866
 51
251.3671356623
  0
ARC
  5
2D5
100
AcDbEntity
  8
0
100
AcDbCircle
 62
7
  6
CONTINUOUS
 10
-79.8169281921
 20
276.7075867208
 40
73.0642394089
100
AcDbArc
 50
238.7153179677
 51
240.2463901432
  0
ARC
  5
2D6
100
AcDbEntity
  8
0
100
AcDbCircle
 62
7
  6
CONTINUOUS
 10
-76.6060824374
 20
274.3604150927
 40
71.9828995166
100
AcDbArc
 50
248.3979476054
 51
248.6117325279
  0
ARC
  5
2D7
100
AcDbEntity
  8
0
100
AcDbCircle
 62
7
  6
CONTINUOUS
 10
-78.0396851611
 20
273.6787519015
 40
70.9107125437
100
AcDbArc
 50
252.5323777682
 51
252.8254675248
  0
ARC
  5
2D8
100
AcDbEntity
  8
0
100
AcDbCircle
 62
7
  6
CONTINUOUS
 10
-47.4039652049
 20
192.515121692
 40
19.2107683621
100
AcDbArc
 50
218.2931519637
 51
222.2025537202
  0
ARC
  5
2D9
100
AcDbEntity
  8
0
100
AcDbCircle
 62
7
  6
CONTINUOUS
 10
-47.9002577504
 20
192.0499908633
 40
18.5306774775
100
AcDbArc
 50
222.1680141837
 51
229.9915814887
  0
ARC
  5
2DA
100
AcDbEntity
  8
0
100
AcDbCircle
 62
7
  6
CONTINUOUS
 10
-48.1554520568
 20
191.7507765266
 40
18.1374300645
100
AcDbArc
 50
230.0013779028
 51
232.9043085872
  0
ARC
  5
2DB
100
AcDbEntity
  8
0
100
AcDbCircle
 62
7
  6
CONTINUOUS
 10
-48.2460257921
 20
191.6318949882
 40
17.9879773078
100
AcDbArc
 50
232.9060321157
 51
237.4003254598
  0
ARC
  5
2DC
100
AcDbEntity
  8
0
100
AcDbCircle
 62
7
  6
CONTINUOUS
 10
-38.3610188834
 20
200.9490646522
 40
35.4422249735
100
AcDbArc
 50
144.9831076745
 51
154.9967280463
  0
ARC
  5
2DD
100
AcDbEntity
  8
0
100
AcDbCircle
 62
7
  6
CONTINUOUS
 10
-35.2751962073
 20
196.0332437034
 40
32.0865586874
100
AcDbArc
 50
178.0144669625
 51
180.0323815848
  0
ARC
  5
2DE
100
AcDbEntity
  8
0
100
AcDbCircle
 62
7
  6
CONTINUOUS
 10
-36.1914114669
 20
196.0297492803
 40
31.1703417413
100
AcDbArc
 50
180.0269101286
 51
182.1087128772
  0
ARC
  5
2DF
100
AcDbEntity
  8
0
100
AcDbCircle
 62
7
  6
CONTINUOUS
 10
-37.4942154562
 20
195.9718717236
 40
29.8662919954
100
AcDbArc
 50
182.0897190666
 51
185.533293404
  0
ARC
  5
2E0
100
AcDbEntity
  8
0
100
AcDbCircle
 62
7
  6
CONTINUOUS
 10
-29.8281188931
 20
198.6804094732
 40
28.8304921502
100
AcDbArc
 50
88.6925522821
 51
92.3847731716
  0
ARC
  5
2E1
100
AcDbEntity
  8
0
100
AcDbCircle
 62
7
  6
CONTINUOUS
 10
-32.9343113599
 20
198.4138584996
 40
28.2666066689
100
AcDbArc
 50
88.6522347181
 51
95.2026277205
  0
ARC
  5
2E2
100
AcDbEntity
  8
0
100
AcDbCircle
 62
7
  6
CONTINUOUS
 10
-39.1370248981
 20
195.7982460097
 40
28.2143994627
100
AcDbArc
 50
185.5040302265
 51
190.023574502
  0
ARC
  5
2E3
100
AcDbEntity
  8
0
100
AcDbCircle
 62
7
  6
CONTINUOUS
 10
-29.8499680157
 20
199.3883605181
 40
28.1222461347
100
AcDbArc
 50
92.4003137842
 51
93.5624388804
  0
ARC
  5
2E4
100
AcDbEntity
  8
0
100
AcDbCircle
 62
7
  6
CONTINUOUS
 10
-32.987034944
 20
199.0664341871
 40
27.6119393586
100
AcDbArc
 50
95.2164641633
 51
95.9310353984
  0
ARC
  5
2E5
100
AcDbEntity
  8
0
100
AcDbCircle
 62
7
  6
CONTINUOUS
 10
-33.0173364855
 20
199.3444583482
 40
27.3322724014
100
AcDbArc
 50
95.9280781236
 51
98.6331734249
  0
ARC
  5
2E6
100
AcDbEntity
  8
0
100
AcDbCircle
 62
7
  6
CONTINUOUS
 10
-33.0584916255
 20
199.6239593467
 40
27.0497605731
100
AcDbArc
 50
98.6358559523
 51
100.5331878488
  0
ARC
  5
2E7
100
AcDbEntity
  8
0
100
AcDbCircle
 62
7
  6
CONTINUOUS
 10
-33.0925262319
 20
199.8058118716
 40
26.864750715
100
AcDbArc
 50
100.5327238931
 51
105.0022470963
  0
ARC
  5
2E8
100
AcDbEntity
  8
0
100
AcDbCircle
 62
7
  6
CONTINUOUS
 10
-40.7555010292
 20
195.5063536086
 40
26.5698231571
100
AcDbArc
 50
190.0112056823
 51
193.6941737002
  0
ARC
  5
2E9
100
AcDbEntity
  8
0
100
AcDbCircle
 62
7
  6
CONTINUOUS
 10
-35.1320833145
 20
206.7428026843
 40
25.5289612203
100
AcDbArc
 50
105.0058226823
 51
105.327182183
  0
ARC
  5
2EA
100
AcDbEntity
  8
0
100
AcDbCircle
 62
7
  6
CONTINUOUS
 10
-42.256278286
 20
195.1256091504
 40
25.0215752777
100
AcDbArc
 50
193.6606775182
 51
198.6229982243
  0
ARC
  5
2EB
100
AcDbEntity
  8
0
100
AcDbCircle
 62
7
  6
CONTINUOUS
 10
-43.6386348685
 20
194.6546965424
 40
23.561217859
100
AcDbArc
 50
198.6112906135
 51
202.5187826629
  0
ARC
  5
2EC
100
AcDbEntity
  8
0
100
AcDbCircle
 62
7
  6
CONTINUOUS
 10
-35.6664814542
 20
209.6330117934
 40
22.5864959392
100
AcDbArc
 50
95.7275079911
 51
95.9343716882
  0
ARC
  5
2ED
100
AcDbEntity
  8
0
100
AcDbCircle
 62
7
  6
CONTINUOUS
 10
-35.6808643192
 20
209.7791944473
 40
22.4396076907
100
AcDbArc
 50
94.8237114976
 51
95.7282167872
  0
ARC
  5
2EE
100
AcDbEntity
  8
0
100
AcDbCircle
 62
7
  6
CONTINUOUS
 10
-44.8618536345
 20
194.1323862398
 40
22.2312313283
100
AcDbArc
 50
202.4826745397
 51
208.0030490635
  0
ARC
  5
2EF
100
AcDbEntity
  8
0
100
AcDbCircle
 62
7
  6
CONTINUOUS
 10
-35.7042524735
 20
210.0517584611
 40
22.166010542
100
AcDbArc
 50
93.367328553
 51
94.8269168525
  0
ARC
  5
2F0
100
AcDbEntity
  8
0
100
AcDbCircle
 62
7
  6
CONTINUOUS
 10
-35.7052549651
 20
210.0737592456
 40
22.1440351883
100
AcDbArc
 50
93.3556266238
 51
94.8249166204
  0
ARC
  5
2F1
100
AcDbEntity
  8
0
100
AcDbCircle
 62
7
  6
CONTINUOUS
 10
-45.8968639572
 20
193.5786021279
 40
21.0573856145
100
AcDbArc
 50
207.9949081145
 51
212.0377570172
  0
ARC
  5
2F2
100
AcDbEntity
  8
0
100
AcDbCircle
 62
7
  6
CONTINUOUS
 10
-47.3267745328
 20
212.848635573
 40
21.048181426
100
AcDbArc
 50
102.1431789322
 51
105.0097464202
  0
ARC
  5
2F3
100
AcDbEntity
  8
0
100
AcDbCircle
 62
7
  6
CONTINUOUS
 10
-46.7632945931
 20
193.0214210331
 40
20.0273452016
100
AcDbArc
 50
212.0014258706
 51
218.2941679922
  0
ARC
  5
2F4
100
AcDbEntity
  8
0
100
AcDbCircle
 62
7
  6
CONTINUOUS
 10
-29.0247141477
 20
214.0310291043
 40
13.9742362944
100
AcDbArc
 50
96.9865776412
 51
105.004571063
  0
ARC
  5
2F5
100
AcDbEntity
  8
0
100
AcDbCircle
 62
7
  6
CONTINUOUS
 10
-29.0290927811
 20
214.0465248569
 40
13.9581352573
100
AcDbArc
 50
105.0036780381
 51
112.5849083053
  0
ARC
  5
2F6
100
AcDbEntity
  8
0
100
AcDbCircle
 62
7
  6
CONTINUOUS
 10
-18.8254509423
 20
230.3730270065
 40
10.3824608334
100
AcDbArc
 50
226.0129956745
 51
226.8111294458
  0
ARC
  5
2F7
100
AcDbEntity
  8
0
100
AcDbCircle
 62
7
  6
CONTINUOUS
 10
-22.8363519686
 20
227.3007358125
 40
5.2982147701
100
AcDbArc
 50
199.9632329736
 51
204.8780664351
  0
ARC
  5
2F8
100
AcDbEntity
  8
0
100
AcDbCircle
 62
7
  6
CONTINUOUS
 10
-30.7816360791
 20
220.6212159359
 40
1.0732784973
100
AcDbArc
 50
239.2914905158
 51
239.9886823158
  0
ARC
  5
2F9
100
AcDbEntity
  8
0
100
AcDbCircle
 62
7
  6
CONTINUOUS
 10
-30.9448856076
 20
220.1454002199
 40
0.5685051852
100
AcDbArc
 50
295.3698509108
 51
298.987097016
  0
ARC
  5
2FA
100
AcDbEntity
  8
0
100
AcDbCircle
 62
7
  6
CONTINUOUS
 10
-30.9366692362
 20
220.1279798347
 40
0.5492444238
100
AcDbArc
 50
285.0385109945
 51
295.3740175537
  0
ARC
  5
2FB
100
AcDbEntity
  8
0
100
AcDbCircle
 62
7
  6
CONTINUOUS
 10
-31.7002486028
 20
222.9789963754
 40
0.5492444238
100
AcDbArc
 50
105.0385109944
 51
115.3740175537
  0
ARC
  5
2FC
100
AcDbEntity
  8
0
100
AcDbCircle
 62
7
  6
CONTINUOUS
 10
-30.9400089387
 20
220.1415226497
 40
0.5381837879
100
AcDbArc
 50
278.7822746363
 51
285.0092876957
  0
ARC
  5
2FD
100
AcDbEntity
  8
0
100
AcDbCircle
 62
7
  6
CONTINUOUS
 10
-31.6969089004
 20
222.9654535604
 40
0.5381837878
100
AcDbArc
 50
98.7822746363
 51
105.0092876957
  0
ARC
  5
2FE
100
AcDbEntity
  8
0
100
AcDbCircle
 62
7
  6
CONTINUOUS
 10
-11.8276727626
 20
155.5693408041
 40
6.1591832079
100
AcDbArc
 50
179.4979456442
 51
179.9996417013
  0
ARC
  5
2FF
100
AcDbEntity
  8
0
100
AcDbCircle
 62
7
  6
CONTINUOUS
 10
-14.1824305844
 20
158.2278186403
 40
6.1129303272
100
AcDbArc
 50
359.9996461999
 51
0.5039501568
  0
ARC
  5
300
100
AcDbEntity
  8
0
100
AcDbCircle
 62
7
  6
CONTINUOUS
 10
19.7316377353
 20
215.5555787104
 40
21.5061800611
100
AcDbArc
 50
61.1773821602
 51
62.0303554233
  0
ARC
  5
301
100
AcDbEntity
  8
0
100
AcDbCircle
 62
7
  6
CONTINUOUS
 10
-48.3747290175
 20
265.4806716905
 40
86.7119588586
100
AcDbArc
 50
211.337101104
 51
211.4539759731
  0
ARC
  5
302
100
AcDbEntity
  8
0
100
AcDbCircle
 62
7
  6
CONTINUOUS
 10
-12.5176379605
 20
239.4812453637
 40
21.4920800574
100
AcDbArc
 50
241.1528523197
 51
242.0305457337
  0
ARC
  5
303
100
AcDbEntity
  8
0
100
AcDbCircle
 62
7
  6
CONTINUOUS
 10
247.2228288081
 20
886.5219001812
 40
740.0293928268
100
AcDbArc
 50
240.0938522001
 51
241.426978106
  0
SPLINE
  5
304
100
AcDbEntity
  8
0
100
AcDbSpline
 62
7
  6
CONTINUOUS
 70
0
 71
3
 72
13
 73
9
 74
0
 42
0.0000001
 43
0.0000001
 44
0.0000000001
 40
0.0
 40
0.0
 40
0.0
 40
0.0
 40
0.2606445106
 40
0.5181238768
 40
0.6437954442
 40
0.7664317813
 40
0.8853658922
 40
1.0
 40
1.0
 40
1.0
 40
1.0
 10
-59.4685745864
 20
238.7902819713
 30
0.0
 10
-59.7916730686
 20
240.2690661093
 30
0.0
 10
-60.5731074698
 20
243.1800024044
 30
0.0
 10
-61.8783612685
 20
246.6900205045
 30
0.0
 10
-63.1050784888
 20
249.3601223573
 30
0.0
 10
-64.0950406493
 20
251.2503529201
 30
0.0
 10
-65.1539491613
 20
253.0285948857
 30
0.0
 10
-65.9154222566
 20
254.152328052
 30
0.0
 10
-66.3064898659
 20
254.6910848195
 30
0.0
  0
SPLINE
  5
305
100
AcDbEntity
  8
0
100
AcDbSpline
 62
7
  6
CONTINUOUS
 70
0
 71
3
 72
11
 73
7
 74
0
 42
0.0000001
 43
0.0000001
 44
0.0000000001
 40
0.0
 40
0.0
 40
0.0
 40
0.0
 40
0.2551335213
 40
0.5085784753
 40
0.7577070477
 40
1.0
 40
1.0
 40
1.0
 40
1.0
 10
-65.1354989427
 20
238.5690247141
 30
0.0
 10
-65.3480853649
 20
239.4418788579
 30
0.0
 10
-65.8259128203
 20
241.169145248
 30
0.0
 10
-66.6958683729
 20
243.693133782
 30
0.0
 10
-67.7068303748
 20
246.115159746
 30
0.0
 10
-68.4785768268
 20
247.6657179607
 30
0.0
 10
-68.8860755767
 20
248.4152637647
 30
0.0
  0
SPLINE
  5
306
100
AcDbEntity
  8
0
100
AcDbSpline
 62
7
  6
CONTINUOUS
 70
0
 71
3
 72
9
 73
5
 74
0
 42
0.0000001
 43
0.0000001
 44
0.0000000001
 40
0.0
 40
0.0
 40
0.0
 40
0.0
 40
0.2556381873
 40
1.0
 40
1.0
 40
1.0
 40
1.0
 10
-68.8860755767
 20
248.4152637647
 30
0.0
 10
-69.0188973078
 20
248.659573646
 30
0.0
 10
-69.5497475515
 20
249.6090547658
 30
0.0
 10
-70.1263080239
 20
250.5332048553
 30
0.0
 10
-70.5827972562
 20
251.2019704529
 30
0.0
  0
SPLINE
  5
307
100
AcDbEntity
  8
0
100
AcDbSpline
 62
7
  6
CONTINUOUS
 70
0
 71
3
 72
13
 73
9
 74
0
 42
0.0000001
 43
0.0000001
 44
0.0000000001
 40
0.0
 40
0.0
 40
0.0
 40
0.0
 40
0.1146341075
 40
0.2335682181
 40
0.356204555
 40
0.4818761223
 40
0.7393554887
 40
1.0
 40
1.0
 40
1.0
 40
1.0
 10
-70.438721413
 20
253.5834174976
 30
0.0
 10
-70.0476538049
 20
253.0446607317
 30
0.0
 10
-69.2861807115
 20
251.9209275686
 30
0.0
 10
-68.2272722016
 20
250.1426856072
 30
0.0
 10
-67.2373100419
 20
248.2524550475
 30
0.0
 10
-66.0105928208
 20
245.5823531954
 30
0.0
 10
-64.7053390194
 20
242.0723350912
 30
0.0
 10
-63.9239046166
 20
239.1613987913
 30
0.0
 10
-63.6008061336
 20
237.6826146494
 30
0.0
  0
SPLINE
  5
308
100
AcDbEntity
  8
0
100
AcDbSpline
 62
7
  6
CONTINUOUS
 70
0
 71
3
 72
20
 73
16
 74
0
 42
0.0000001
 43
0.0000001
 44
0.0000000001
 40
0.0
 40
0.0
 40
0.0
 40
0.0
 40
0.0527860015
 40
0.1117095947
 40
0.1763666303
 40
0.2459442301
 40
0.3948280941
 40
0.5471737835
 40
0.6908580996
 40
0.7562119328
 40
0.815900553
 40
0.8694870362
 40
0.9171655787
 40
0.9599859103
 40
1.0
 40
1.0
 40
1.0
 40
1.0
 10
-31.3184589195
 20
219.7148188782
 30
0.0
 10
-31.384626299
 20
219.7530359277
 30
0.0
 10
-31.5161223495
 20
219.8489787449
 30
0.0
 10
-31.6963880009
 20
220.0308474554
 30
0.0
 10
-31.8662384886
 20
220.2538390857
 30
0.0
 10
-32.0774436373
 20
220.605801179
 30
0.0
 10
-32.2843575064
 20
221.1046565953
 30
0.0
 10
-32.4291329657
 20
221.7349035083
 30
0.0
 10
-32.4570488121
 20
222.2610169494
 30
0.0
 10
-32.4136255705
 20
222.6484033219
 30
0.0
 10
-32.3522145244
 20
222.9004555154
 30
0.0
 10
-32.2623857173
 20
223.1166712183
 30
0.0
 10
-32.14557669
 20
223.2915110814
 30
0.0
 10
-32.0035436494
 20
223.4195753646
 30
0.0
 10
-31.8922304885
 20
223.4702693516
 30
0.0
 10
-31.83628538
 20
223.4852765941
 30
0.0
  0
SPLINE
  5
309
100
AcDbEntity
  8
0
100
AcDbSpline
 62
7
  6
CONTINUOUS
 70
0
 71
3
 72
9
 73
5
 74
0
 42
0.0000001
 43
0.0000001
 44
0.0000000001
 40
0.0
 40
0.0
 40
0.0
 40
0.0
 40
0.4699861662
 40
1.0
 40
1.0
 40
1.0
 40
1.0
 10
-30.8578389816
 20
219.6096487101
 30
0.0
 10
-30.9320629646
 20
219.5981788818
 30
0.0
 10
-31.0961101407
 20
219.6079541537
 30
0.0
 10
-31.2451160382
 20
219.672457392
 30
0.0
 10
-31.3184589195
 20
219.7148188782
 30
0.0
  0
SPLINE
  5
30A
100
AcDbEntity
  8
0
100
AcDbSpline
 62
7
  6
CONTINUOUS
 70
0
 71
3
 72
9
 73
5
 74
0
 42
0.0000001
 43
0.0000001
 44
0.0000000001
 40
0.0
 40
0.0
 40
0.0
 40
0.0
 40
0.4706896898
 40
1.0
 40
1.0
 40
1.0
 40
1.0
 10
-31.7790788575
 20
223.4973275
 30
0.0
 10
-31.7061574626
 20
223.5085960394
 30
0.0
 10
-31.5453294199
 20
223.4996394899
 30
0.0
 10
-31.3986777949
 20
223.4375996916
 30
0.0
 10
-31.3264625749
 20
223.3967333251
 30
0.0
  0
SPLINE
  5
30B
100
AcDbEntity
  8
0
100
AcDbSpline
 62
7
  6
CONTINUOUS
 70
0
 71
3
 72
22
 73
18
 74
0
 42
0.0000001
 43
0.0000001
 44
0.0000000001
 40
0.0
 40
0.0
 40
0.0
 40
0.0
 40
0.0514519335
 40
0.1085718918
 40
0.171036053
 40
0.2381960769
 40
0.3824058308
 40
0.45716103
 40
0.5318729256
 40
0.6052047602
 40
0.6758835983
 40
0.7427655222
 40
0.804906001
 40
0.8616486906
 40
0.9127470486
 40
0.9585150122
 40
1.0
 40
1.0
 40
1.0
 40
1.0
 10
-31.3184589195
 20
223.3921573319
 30
0.0
 10
-31.2563197098
 20
223.3562668784
 30
0.0
 10
-31.1327048084
 20
223.2672606399
 30
0.0
 10
-30.962049249
 20
223.0996393903
 30
0.0
 10
-30.8001560971
 20
222.8948341362
 30
0.0
 10
-30.5963642753
 20
222.571208157
 30
0.0
 10
-30.4329257153
 20
222.2044649715
 30
0.0
 10
-30.3119057108
 20
221.8128930254
 30
0.0
 10
-30.2443221241
 20
221.5092076953
 30
0.0
 10
-30.2026546356
 20
221.2066649412
 30
0.0
 10
-30.1878921454
 20
220.9125033495
 30
0.0
 10
-30.2003782151
 20
220.6337937363
 30
0.0
 10
-30.2398416631
 20
220.3771408945
 30
0.0
 10
-30.3054404757
 20
220.1485402264
 30
0.0
 10
-30.3959977796
 20
219.9531970318
 30
0.0
 10
-30.5099133469
 20
219.7957472773
 30
0.0
 10
-30.6041480356
 20
219.7160708982
 30
0.0
 10
-30.6533757424
 20
219.6856694314
 30
0.0
  0
SPLINE
  5
30C
100
AcDbEntity
  8
0
100
AcDbSpline
 62
7
  6
CONTINUOUS
 70
0
 71
3
 72
9
 73
5
 74
0
 42
0.0000001
 43
0.0000001
 44
0.0000000001
 40
0.0
 40
0.0
 40
0.0
 40
0.0
 40
0.253769065
 40
1.0
 40
1.0
 40
1.0
 40
1.0
 10
-30.6533757424
 20
219.6856694314
 30
0.0
 10
-30.6649537956
 20
219.6785191939
 30
0.0
 10
-30.7115365226
 20
219.6519308272
 30
0.0
 10
-30.7619833483
 20
219.6320672172
 30
0.0
 10
-30.800632459
 20
219.621699616
 30
0.0
  0
SPLINE
  5
30D
100
AcDbEntity
  8
0
100
AcDbSpline
 62
7
  6
CONTINUOUS
 70
0
 71
3
 72
9
 73
5
 74
0
 42
0.0000001
 43
0.0000001
 44
0.0000000001
 40
0.0
 40
0.0
 40
0.0
 40
0.0
 40
0.2548607718
 40
1.0
 40
1.0
 40
1.0
 40
1.0
 10
-123.8010083787
 20
242.8740664769
 30
0.0
 10
-123.9891886943
 20
242.0536632026
 30
0.0
 10
-124.6426726841
 20
238.8160645719
 30
0.0
 10
-124.9498895117
 20
235.5061582628
 30
0.0
 10
-124.9568925794
 20
233.0452555861
 30
0.0
  0
SPLINE
  5
30E
100
AcDbEntity
  8
0
100
AcDbSpline
 62
7
  6
CONTINUOUS
 70
0
 71
3
 72
9
 73
5
 74
0
 42
0.0000001
 43
0.0000001
 44
0.0000000001
 40
0.0
 40
0.0
 40
0.0
 40
0.0
 40
0.5093425045
 40
1.0
 40
1.0
 40
1.0
 40
1.0
 10
-125.8567161889
 20
228.591428586
 30
0.0
 10
-125.4517311743
 20
226.9937574242
 30
0.0
 10
-124.4228838512
 20
223.9102700971
 30
0.0
 10
-122.9027676025
 20
221.0332894329
 30
0.0
 10
-122.0386886322
 20
219.7012694319
 30
0.0
  0
SPLINE
  5
30F
100
AcDbEntity
  8
0
100
AcDbSpline
 62
7
  6
CONTINUOUS
 70
0
 71
3
 72
11
 73
7
 74
0
 42
0.0000001
 43
0.0000001
 44
0.0000000001
 40
0.0
 40
0.0
 40
0.0
 40
0.0
 40
0.2595414217
 40
0.5112058065
 40
0.7571138786
 40
1.0
 40
1.0
 40
1.0
 40
1.0
 10
-106.5110037511
 20
215.2742564913
 30
0.0
 10
-106.1679088612
 20
214.4448234847
 30
0.0
 10
-105.3729068912
 20
212.8568425158
 30
0.0
 10
-103.8424976416
 20
210.7185520028
 30
0.0
 10
-102.0201363095
 20
208.9027020251
 30
0.0
 10
-100.6273598748
 20
207.9271084905
 30
0.0
 10
-99.8999853872
 20
207.5069727991
 30
0.0
  0
SPLINE
  5
310
100
AcDbEntity
  8
0
100
AcDbSpline
 62
7
  6
CONTINUOUS
 70
0
 71
3
 72
11
 73
7
 74
0
 42
0.0000001
 43
0.0000001
 44
0.0000000001
 40
0.0
 40
0.0
 40
0.0
 40
0.0
 40
0.2660668125
 40
0.5228516249
 40
0.7678209666
 40
1.0
 40
1.0
 40
1.0
 40
1.0
 10
-106.5110037511
 20
232.9353255844
 30
0.0
 10
-107.0233464498
 20
231.4220629133
 30
0.0
 10
-107.8073904035
 20
228.3664869727
 30
0.0
 10
-108.2223906563
 20
223.7533970363
 30
0.0
 10
-107.8441727692
 20
219.338970649
 30
0.0
 10
-107.0439046613
 20
216.5625461664
 30
0.0
 10
-106.5110037511
 20
215.2742564913
 30
0.0
  0
SPLINE
  5
311
100
AcDbEntity
  8
0
100
AcDbSpline
 62
7
  6
CONTINUOUS
 70
0
 71
3
 72
18
 73
14
 74
0
 42
0.0000001
 43
0.0000001
 44
0.0000000001
 40
0.0
 40
0.0
 40
0.0
 40
0.0
 40
0.0528870497
 40
0.1062706182
 40
0.1606084374
 40
0.2162866492
 40
0.3325052442
 40
0.4562614688
 40
0.5870298485
 40
0.6545945485
 40
0.7231638514
 40
0.8617704167
 40
1.0
 40
1.0
 40
1.0
 40
1.0
 10
-74.7924797413
 20
250.9770436776
 30
0.0
 10
-75.4218334867
 20
251.3405275117
 30
0.0
 10
-76.7437443496
 20
251.9764031872
 30
0.0
 10
-78.8603597
 20
252.628209948
 30
0.0
 10
-81.0872339345
 20
252.9724322494
 30
0.0
 10
-84.2043823809
 20
253.0172435443
 30
0.0
 10
-88.2430057725
 20
252.2574298945
 30
0.0
 10
-92.9337426555
 20
250.173929535
 30
0.0
 10
-96.5549786333
 20
247.5765772695
 30
0.0
 10
-99.2154940666
 20
245.0460450363
 30
0.0
 10
-101.7086550921
 20
242.2045835888
 30
0.0
 10
-104.3559573122
 20
238.2351063448
 30
0.0
 10
-105.9018390182
 20
234.7345631906
 30
0.0
 10
-106.5110037511
 20
232.9353255844
 30
0.0
  0
SPLINE
  5
312
100
AcDbEntity
  8
0
100
AcDbSpline
 62
7
  6
CONTINUOUS
 70
0
 71
3
 72
9
 73
5
 74
0
 42
0.0000001
 43
0.0000001
 44
0.0000000001
 40
0.0
 40
0.0
 40
0.0
 40
0.0
 40
0.4942424559
 40
1.0
 40
1.0
 40
1.0
 40
1.0
 10
-122.2884971805
 20
219.5144642467
 30
0.0
 10
-122.8980234706
 20
220.463770222
 30
0.0
 10
-123.9692207277
 20
222.4925715694
 30
0.0
 10
-124.7067500007
 20
224.6629869501
 30
0.0
 10
-124.9981701089
 20
225.7800247266
 30
0.0
  0
SPLINE
  5
313
100
AcDbEntity
  8
0
100
AcDbSpline
 62
7
  6
CONTINUOUS
 70
0
 71
3
 72
9
 73
5
 74
0
 42
0.0000001
 43
0.0000001
 44
0.0000000001
 40
0.0
 40
0.0
 40
0.0
 40
0.0
 40
0.4911581253
 40
1.0
 40
1.0
 40
1.0
 40
1.0
 10
-91.7786596568
 20
264.7291511348
 30
0.0
 10
-93.2743389699
 20
264.7805618573
 30
0.0
 10
-96.3324323716
 20
264.6304359821
 30
0.0
 10
-99.328980362
 20
264.0145044938
 30
0.0
 10
-100.8223094754
 20
263.5975533087
 30
0.0
  0
SPLINE
  5
314
100
AcDbEntity
  8
0
100
AcDbSpline
 62
7
  6
CONTINUOUS
 70
0
 71
3
 72
9
 73
5
 74
0
 42
0.0000001
 43
0.0000001
 44
0.0000000001
 40
0.0
 40
0.0
 40
0.0
 40
0.0
 40
0.2451899022
 40
1.0
 40
1.0
 40
1.0
 40
1.0
 10
-104.1733184709
 20
263.7028939939
 30
0.0
 10
-104.8549538262
 20
263.3199746501
 30
0.0
 10
-107.589472765
 20
261.6780372599
 30
0.0
 10
-110.1364865017
 20
259.7281667618
 30
0.0
 10
-111.9310660947
 20
258.1243184057
 30
0.0
  0
SPLINE
  5
315
100
AcDbEntity
  8
0
100
AcDbSpline
 62
7
  6
CONTINUOUS
 70
0
 71
3
 72
9
 73
5
 74
0
 42
0.0000001
 43
0.0000001
 44
0.0000000001
 40
0.0
 40
0.0
 40
0.0
 40
0.0
 40
0.4931530112
 40
1.0
 40
1.0
 40
1.0
 40
1.0
 10
-125.8193447694
 20
232.3800810585
 30
0.0
 10
-125.8193447694
 20
234.1458628422
 30
0.0
 10
-125.4870109517
 20
237.7320654755
 30
0.0
 10
-124.5603831415
 20
241.2087792635
 30
0.0
 10
-123.9568263956
 20
242.9202904426
 30
0.0
  0
SPLINE
  5
316
100
AcDbEntity
  8
0
100
AcDbSpline
 62
7
  6
CONTINUOUS
 70
0
 71
3
 72
9
 73
5
 74
0
 42
0.0000001
 43
0.0000001
 44
0.0000000001
 40
0.0
 40
0.0
 40
0.0
 40
0.0
 40
0.5009924602
 40
1.0
 40
1.0
 40
1.0
 40
1.0
 10
-123.9568263956
 20
242.9202904426
 30
0.0
 10
-123.1102199251
 20
245.3210198657
 30
0.0
 10
-120.8857522614
 20
249.9386259427
 30
0.0
 10
-117.7312529118
 20
253.9798060293
 30
0.0
 10
-115.9568299973
 20
255.790999053
 30
0.0
  0
SPLINE
  5
317
100
AcDbEntity
  8
0
100
AcDbSpline
 62
7
  6
CONTINUOUS
 70
0
 71
3
 72
9
 73
5
 74
0
 42
0.0000001
 43
0.0000001
 44
0.0000000001
 40
0.0
 40
0.0
 40
0.0
 40
0.0
 40
0.5093464909
 40
1.0
 40
1.0
 40
1.0
 40
1.0
 10
-115.9568299973
 20
255.790999053
 30
0.0
 10
-114.5055529302
 20
257.2723499069
 30
0.0
 10
-111.3796818023
 20
259.9246408604
 30
0.0
 10
-107.7762321801
 20
261.896116147
 30
0.0
 10
-105.9251130082
 20
262.6471766305
 30
0.0
  0
SPLINE
  5
318
100
AcDbEntity
  8
0
100
AcDbSpline
 62
7
  6
CONTINUOUS
 70
0
 71
3
 72
9
 73
5
 74
0
 42
0.0000001
 43
0.0000001
 44
0.0000000001
 40
0.0
 40
0.0
 40
0.0
 40
0.0
 40
0.5050969037
 40
1.0
 40
1.0
 40
1.0
 40
1.0
 10
-102.9531362028
 20
263.6424097185
 30
0.0
 10
-101.9755998257
 20
263.9013680937
 30
0.0
 10
-100.0050692651
 20
264.2909111921
 30
0.0
 10
-97.9985609194
 20
264.4058948924
 30
0.0
 10
-97.0078457392
 20
264.3897923075
 30
0.0
  0
SPLINE
  5
319
100
AcDbEntity
  8
0
100
AcDbSpline
 62
7
  6
CONTINUOUS
 70
0
 71
3
 72
10
 73
6
 74
0
 42
0.0000001
 43
0.0000001
 44
0.0000000001
 40
0.0
 40
0.0
 40
0.0
 40
0.0
 40
0.2354345789
 40
0.4808230649
 40
1.0
 40
1.0
 40
1.0
 40
1.0
 10
-103.0315120296
 20
263.5490082632
 30
0.0
 10
-103.092809298
 20
263.6045566531
 30
0.0
 10
-103.2391038284
 20
263.6962572423
 30
0.0
 10
-103.5828755232
 20
263.7852817435
 30
0.0
 10
-103.8620169916
 20
263.7448946649
 30
0.0
 10
-104.0335992043
 20
263.6829601989
 30
0.0
  0
SPLINE
  5
31A
100
AcDbEntity
  8
0
100
AcDbSpline
 62
7
  6
CONTINUOUS
 70
0
 71
3
 72
9
 73
5
 74
0
 42
0.0000001
 43
0.0000001
 44
0.0000000001
 40
0.0
 40
0.0
 40
0.0
 40
0.0
 40
0.5657180274
 40
1.0
 40
1.0
 40
1.0
 40
1.0
 10
-104.0333893464
 20
263.68283821
 30
0.0
 10
-104.0572055346
 20
263.6966525591
 30
0.0
 10
-104.1021867354
 20
263.717719877
 30
0.0
 10
-104.1548505428
 20
263.7131726497
 30
0.0
 10
-104.1732451688
 20
263.7027629332
 30
0.0
  0
SPLINE
  5
31B
100
AcDbEntity
  8
0
100
AcDbSpline
 62
7
  6
CONTINUOUS
 70
0
 71
3
 72
24
 73
20
 74
0
 42
0.0000001
 43
0.0000001
 44
0.0000000001
 40
0.0
 40
0.0
 40
0.0
 40
0.0
 40
0.1256488137
 40
0.2513045353
 40
0.3769641229
 40
0.502623275
 40
0.5654509828
 40
0.6282750593
 40
0.6910924329
 40
0.753897097
 40
0.8166755501
 40
0.8480458917
 40
0.8793918166
 40
0.9106924142
 40
0.9418934063
 40
0.9574105736
 40
0.9727909779
 40
0.9877760874
 40
1.0
 40
1.0
 40
1.0
 40
1.0
 10
-120.9231487805
 20
247.1697735243
 30
0.0
 10
-120.9641387635
 20
247.0826645074
 30
0.0
 10
-121.0451450198
 20
246.9079803828
 30
0.0
 10
-121.163600892
 20
246.6445543062
 30
0.0
 10
-121.2788110113
 20
246.3796829891
 30
0.0
 10
-121.3718600314
 20
246.1576891574
 30
0.0
 10
-121.4442450193
 20
245.9792579501
 30
0.0
 10
-121.4973887971
 20
245.8449867579
 30
0.0
 10
-121.5492261281
 20
245.7102236804
 30
0.0
 10
-121.5994974408
 20
245.5749060355
 30
0.0
 10
-121.6397425703
 20
245.4615741204
 30
0.0
 10
-121.6705120938
 20
245.3704790815
 30
0.0
 10
-121.6926612542
 20
245.3019181708
 30
0.0
 10
-121.7135227054
 20
245.2331470792
 30
0.0
 10
-121.7293655894
 20
245.1753510035
 30
0.0
 10
-121.740179939
 20
245.1292897666
 30
0.0
 10
-121.7469224873
 20
245.093936929
 30
0.0
 10
-121.7502766976
 20
245.0642569074
 30
0.0
 10
-121.7495576784
 20
245.0373020546
 30
0.0
 10
-121.7411827439
 20
245.0331091818
 30
0.0
  0
SPLINE
  5
31C
100
AcDbEntity
  8
0
100
AcDbSpline
 62
7
  6
CONTINUOUS
 70
0
 71
3
 72
9
 73
5
 74
0
 42
0.0000001
 43
0.0000001
 44
0.0000000001
 40
0.0
 40
0.0
 40
0.0
 40
0.0
 40
0.240747914
 40
1.0
 40
1.0
 40
1.0
 40
1.0
 10
-101.7024046635
 20
263.2741254414
 30
0.0
 10
-100.5406865862
 20
262.5975366742
 30
0.0
 10
-95.7780293163
 20
259.6797750806
 30
0.0
 10
-91.2674738937
 20
256.3581553513
 30
0.0
 10
-87.9869674419
 20
253.6722236729
 30
0.0
  0
SPLINE
  5
31D
100
AcDbEntity
  8
0
100
AcDbSpline
 62
7
  6
CONTINUOUS
 70
0
 71
3
 72
11
 73
7
 74
0
 42
0.0000001
 43
0.0000001
 44
0.0000000001
 40
0.0
 40
0.0
 40
0.0
 40
0.0
 40
0.1862716794
 40
0.3948238816
 40
0.6678756877
 40
1.0
 40
1.0
 40
1.0
 40
1.0
 10
-124.9936558619
 20
230.259815769
 30
0.0
 10
-124.9729386498
 20
230.2786632648
 30
0.0
 10
-124.9139083477
 20
230.3063178641
 30
0.0
 10
-124.8122057017
 20
230.2729655623
 30
0.0
 10
-124.7219306416
 20
230.1881331169
 30
0.0
 10
-124.6715527206
 20
230.1114953731
 30
0.0
 10
-124.6476638505
 20
230.0676419078
 30
0.0
  0
SPLINE
  5
31E
100
AcDbEntity
  8
0
100
AcDbSpline
 62
7
  6
CONTINUOUS
 70
0
 71
3
 72
9
 73
5
 74
0
 42
0.0000001
 43
0.0000001
 44
0.0000000001
 40
0.0
 40
0.0
 40
0.0
 40
0.0
 40
0.2451201614
 40
1.0
 40
1.0
 40
1.0
 40
1.0
 10
-104.1270213239
 20
263.6300515615
 30
0.0
 10
-104.8063437811
 20
263.2460571128
 30
0.0
 10
-107.5322900042
 20
261.5999099634
 30
0.0
 10
-110.0710804704
 20
259.6480843035
 30
0.0
 10
-111.8600598569
 20
258.0434871008
 30
0.0
  0
SPLINE
  5
31F
100
AcDbEntity
  8
0
100
AcDbSpline
 62
7
  6
CONTINUOUS
 70
0
 71
3
 72
8
 73
4
 74
0
 42
0.0000001
 43
0.0000001
 44
0.0000000001
 40
0.0
 40
0.0
 40
0.0
 40
0.0
 40
1.0
 40
1.0
 40
1.0
 40
1.0
 10
-112.1227766307
 20
257.8060747199
 30
0.0
 10
-112.2301316644
 20
257.7069298687
 30
0.0
 10
-112.3379552495
 20
257.608292656
 30
0.0
 10
-112.4451902285
 20
257.5090179661
 30
0.0
  0
SPLINE
  5
320
100
AcDbEntity
  8
0
100
AcDbSpline
 62
7
  6
CONTINUOUS
 70
0
 71
3
 72
42
 73
38
 74
0
 42
0.0000001
 43
0.0000001
 44
0.0000000001
 40
0.0
 40
0.0
 40
0.0
 40
0.0
 40
0.10700072
 40
0.2197975013
 40
0.3380224904
 40
0.399066862
 40
0.4613372863
 40
0.524792246
 40
0.589391233
 40
0.6550947323
 40
0.7218641187
 40
0.7896610077
 40
0.8239329994
 40
0.8584468913
 40
0.8757928704
 40
0.893197218
 40
0.9106591682
 40
0.9281779569
 40
0.9369584755
 40
0.9457530458
 40
0.9545617922
 40
0.9633851842
 40
0.9678028072
 40
0.9722248675
 40
0.9766522095
 40
0.9810867046
 40
0.9855333504
 40
0.9877661962
 40
0.9900135751
 40
0.9911498075
 40
0.9923061261
 40
0.9935213874
 40
0.9942156648
 40
0.994987744
 40
0.9963603409
 40
0.9976091558
 40
1.0
 40
1.0
 40
1.0
 40
1.0
 10
-102.8110177335
 20
259.57669725
 30
0.0
 10
-102.773188075
 20
259.1184366655
 30
0.0
 10
-102.6642585168
 20
258.1794001281
 30
0.0
 10
-102.4034541391
 20
256.7494536345
 30
0.0
 10
-102.1002370488
 20
255.5305967786
 30
0.0
 10
-101.8039433802
 20
254.5356742746
 30
0.0
 10
-101.5517663643
 20
253.7735726967
 30
0.0
 10
-101.27221793
 20
253.0048218114
 30
0.0
 10
-100.9656124205
 20
252.2305693593
 30
0.0
 10
-100.6324531941
 20
251.4518577768
 30
0.0
 10
-100.2734433909
 20
250.6695859661
 30
0.0
 10
-99.9550315671
 20
250.0175581102
 30
0.0
 10
-99.6894189238
 20
249.494146082
 30
0.0
 10
-99.5190373444
 20
249.1655493287
 30
0.0
 10
-99.3807783583
 20
248.9019558816
 30
0.0
 10
-99.2761292699
 20
248.7034804962
 30
0.0
 10
-99.1709812814
 20
248.5044290019
 30
0.0
 10
-99.0833677731
 20
248.3380270832
 30
0.0
 10
-99.0136215012
 20
248.2043133063
 30
0.0
 10
-98.9616035831
 20
248.1035690553
 30
0.0
 10
-98.910148718
 20
248.0023289544
 30
0.0
 10
-98.868056566
 20
247.9174323141
 30
0.0
 10
-98.835182536
 20
247.8490148179
 30
0.0
 10
-98.8110635388
 20
247.7973533349
 30
0.0
 10
-98.7877040052
 20
247.7452616729
 30
0.0
 10
-98.7654822496
 20
247.6925601169
 30
0.0
 10
-98.7484721409
 20
247.6479043961
 30
0.0
 10
-98.7367066376
 20
247.6113807627
 30
0.0
 10
-98.7306022164
 20
247.5880053671
 30
0.0
 10
-98.727224285
 20
247.5687610498
 30
0.0
 10
-98.7260340387
 20
247.553741721
 30
0.0
 10
-98.7270891685
 20
247.5403763538
 30
0.0
 10
-98.7326852405
 20
247.5298297898
 30
0.0
 10
-98.7442541727
 20
247.5238236257
 30
0.0
 10
-98.7593397537
 20
247.527192491
 30
0.0
 10
-98.778960322
 20
247.53561346
 30
0.0
 10
-98.7922766106
 20
247.5441215617
 30
0.0
 10
-98.8007665154
 20
247.5499079734
 30
0.0
  0
SPLINE
  5
321
100
AcDbEntity
  8
0
100
AcDbSpline
 62
7
  6
CONTINUOUS
 70
0
 71
3
 72
9
 73
5
 74
0
 42
0.0000001
 43
0.0000001
 44
0.0000000001
 40
0.0
 40
0.0
 40
0.0
 40
0.0
 40
0.2542272576
 40
1.0
 40
1.0
 40
1.0
 40
1.0
 10
-98.8010529214
 20
247.5500263081
 30
0.0
 10
-98.9868511123
 20
247.8135401997
 30
0.0
 10
-99.7047235838
 20
248.8591179048
 30
0.0
 10
-100.3681699067
 20
249.9423009921
 30
0.0
 10
-100.8270030663
 20
250.7693980028
 30
0.0
  0
SPLINE
  5
322
100
AcDbEntity
  8
0
100
AcDbSpline
 62
7
  6
CONTINUOUS
 70
0
 71
3
 72
14
 73
10
 74
0
 42
0.0000001
 43
0.0000001
 44
0.0000000001
 40
0.0
 40
0.0
 40
0.0
 40
0.0
 40
0.1378706578
 40
0.2722697693
 40
0.4670126084
 40
0.5612959562
 40
0.6534350868
 40
0.8310154688
 40
1.0
 40
1.0
 40
1.0
 40
1.0
 10
-100.8270030663
 20
250.7693980028
 30
0.0
 10
-101.1262192503
 20
251.3130938087
 30
0.0
 10
-101.6895994072
 20
252.4023630036
 30
0.0
 10
-102.546506495
 20
254.3229459857
 30
0.0
 10
-103.1814831843
 20
256.124537528
 30
0.0
 10
-103.6086239531
 20
257.7871398518
 30
0.0
 10
-103.9279236215
 20
259.3948578503
 30
0.0
 10
-104.1508850969
 20
261.3618586461
 30
0.0
 10
-104.113688447
 20
262.9282825264
 30
0.0
 10
-104.03338717
 20
263.6846766642
 30
0.0
  0
SPLINE
  5
323
100
AcDbEntity
  8
0
100
AcDbSpline
 62
7
  6
CONTINUOUS
 70
0
 71
3
 72
9
 73
5
 74
0
 42
0.0000001
 43
0.0000001
 44
0.0000000001
 40
0.0
 40
0.0
 40
0.0
 40
0.0
 40
0.491274822
 40
1.0
 40
1.0
 40
1.0
 40
1.0
 10
-91.7770457276
 20
264.7047076662
 30
0.0
 10
-93.1958518774
 20
264.7486846594
 30
0.0
 10
-96.0945635324
 20
264.6081430689
 30
0.0
 10
-98.9394850621
 20
264.0456504608
 30
0.0
 10
-100.3592401529
 20
263.6649582512
 30
0.0
  0
LINE
  5
324
100
AcDbEntity
  8
0
100
AcDbLine
 62
7
  6
CONTINUOUS
 10
-100.3592401529
 20
263.6649582512
 11
-100.607407487
 21
263.5968557295
  0
SPLINE
  5
325
100
AcDbEntity
  8
0
100
AcDbSpline
 62
7
  6
CONTINUOUS
 70
0
 71
3
 72
14
 73
10
 74
0
 42
0.0000001
 43
0.0000001
 44
0.0000000001
 40
0.0
 40
0.0
 40
0.0
 40
0.0
 40
0.272126249
 40
0.4016207798
 40
0.526814687
 40
0.6482814659
 40
0.7668685392
 40
0.8836902713
 40
1.0
 40
1.0
 40
1.0
 40
1.0
 10
-109.4206889701
 20
223.7298167685
 30
0.0
 10
-109.4206676244
 20
221.8004280547
 30
0.0
 10
-109.1101490483
 20
218.9331989733
 30
0.0
 10
-107.9959846092
 20
215.3591088781
 30
0.0
 10
-106.8587069368
 20
212.9364546787
 30
0.0
 10
-105.4225171262
 20
210.7699468
 30
0.0
 10
-103.7088797526
 20
208.8937352026
 30
0.0
 10
-101.7449804882
 20
207.3398448791
 30
0.0
 10
-100.2904407155
 20
206.5363301968
 30
0.0
 10
-99.5384594864
 20
206.1978655492
 30
0.0
  0
SPLINE
  5
326
100
AcDbEntity
  8
0
100
AcDbSpline
 62
7
  6
CONTINUOUS
 70
0
 71
3
 72
9
 73
5
 74
0
 42
0.0000001
 43
0.0000001
 44
0.0000000001
 40
0.0
 40
0.0
 40
0.0
 40
0.0
 40
0.4974296833
 40
1.0
 40
1.0
 40
1.0
 40
1.0
 10
-114.1264548917
 20
255.9675247899
 30
0.0
 10
-114.0888601836
 20
255.9535147977
 30
0.0
 10
-114.0177987789
 20
255.9013017859
 30
0.0
 10
-114.0014188278
 20
255.8157229653
 30
0.0
 10
-114.00272979
 20
255.7752092072
 30
0.0
  0
SPLINE
  5
327
100
AcDbEntity
  8
0
100
AcDbSpline
 62
7
  6
CONTINUOUS
 70
0
 71
3
 72
9
 73
5
 74
0
 42
0.0000001
 43
0.0000001
 44
0.0000000001
 40
0.0
 40
0.0
 40
0.0
 40
0.0
 40
0.491017741
 40
1.0
 40
1.0
 40
1.0
 40
1.0
 10
-121.7416151625
 20
219.2914724017
 30
0.0
 10
-119.4000948395
 20
217.9520903621
 30
0.0
 10
-114.4877240075
 20
215.4697642433
 30
0.0
 10
-109.3636408196
 20
213.4653775129
 30
0.0
 10
-106.7180383129
 20
212.5600370274
 30
0.0
  0
SPLINE
  5
328
100
AcDbEntity
  8
0
100
AcDbSpline
 62
7
  6
CONTINUOUS
 70
0
 71
3
 72
9
 73
5
 74
0
 42
0.0000001
 43
0.0000001
 44
0.0000000001
 40
0.0
 40
0.0
 40
0.0
 40
0.0
 40
0.4846869748
 40
1.0
 40
1.0
 40
1.0
 40
1.0
 10
-124.8417725857
 20
231.3300579936
 30
0.0
 10
-122.4613326446
 20
229.9638559746
 30
0.0
 10
-117.4530451209
 20
227.3122444584
 30
0.0
 10
-112.2999594771
 20
224.9570657204
 30
0.0
 10
-109.615810788
 20
223.8123367561
 30
0.0
  0
SPLINE
  5
329
100
AcDbEntity
  8
0
100
AcDbSpline
 62
7
  6
CONTINUOUS
 70
0
 71
3
 72
14
 73
10
 74
0
 42
0.0000001
 43
0.0000001
 44
0.0000000001
 40
0.0
 40
0.0
 40
0.0
 40
0.0
 40
0.1162805767
 40
0.2330962785
 40
0.3517014701
 40
0.4731872702
 40
0.5984041024
 40
0.7279006609
 40
1.0
 40
1.0
 40
1.0
 40
1.0
 10
-98.674232242
 20
206.8301130616
 30
0.0
 10
-99.393881489
 20
207.1578591921
 30
0.0
 10
-100.7855497074
 20
207.934209862
 30
0.0
 10
-102.663687278
 20
209.4313269941
 30
0.0
 10
-104.3021856953
 20
211.235790132
 30
0.0
 10
-105.6750675524
 20
213.317299465
 30
0.0
 10
-106.7621875164
 20
215.6430040143
 30
0.0
 10
-107.8269471059
 20
219.0722756595
 30
0.0
 10
-108.1236340358
 20
221.8221027257
 30
0.0
 10
-108.1236340358
 20
223.6725166485
 30
0.0
  0
SPLINE
  5
32A
100
AcDbEntity
  8
0
100
AcDbSpline
 62
7
  6
CONTINUOUS
 70
0
 71
3
 72
20
 73
16
 74
0
 42
0.0000001
 43
0.0000001
 44
0.0000000001
 40
0.0
 40
0.0
 40
0.0
 40
0.0
 40
0.1310173687
 40
0.1989712752
 40
0.2677985484
 40
0.4055371103
 40
0.4734786117
 40
0.5400122695
 40
0.6669395571
 40
0.7270979316
 40
0.7849173441
 40
0.8406103752
 40
0.8945969644
 40
0.9474820486
 40
1.0
 40
1.0
 40
1.0
 40
1.0
 10
-108.1231599579
 20
223.8287757525
 30
0.0
 10
-108.1093895414
 20
226.100004128
 30
0.0
 10
-107.6331176396
 20
229.560365513
 30
0.0
 10
-106.235011476
 20
233.9934894244
 30
0.0
 10
-104.3099974436
 20
238.3546684811
 30
0.0
 10
-101.6864669387
 20
242.3781662592
 30
0.0
 10
-98.4864093559
 20
245.8582983347
 30
0.0
 10
-95.0544630952
 20
248.8277197579
 30
0.0
 10
-91.225788224
 20
251.1049201885
 30
0.0
 10
-87.1937041138
 20
252.4739085199
 30
0.0
 10
-84.2184243909
 20
253.0098806191
 30
0.0
 10
-81.3016293472
 20
253.0583363149
 30
0.0
 10
-78.5030681136
 20
252.6151985371
 30
0.0
 10
-75.883989095
 20
251.6876865475
 30
0.0
 10
-74.2957862818
 20
250.758419075
 30
0.0
 10
-73.5565751495
 20
250.2269550531
 30
0.0
  0
SPLINE
  5
32B
100
AcDbEntity
  8
0
100
AcDbSpline
 62
7
  6
CONTINUOUS
 70
0
 71
3
 72
15
 73
11
 74
0
 42
0.0000001
 43
0.0000001
 44
0.0000000001
 40
0.0
 40
0.0
 40
0.0
 40
0.0
 40
0.2419432949
 40
0.4870751512
 40
0.6115962067
 40
0.7383070884
 40
0.8688330302
 40
0.9365015047
 40
0.9705159625
 40
1.0
 40
1.0
 40
1.0
 40
1.0
 10
-122.0386947499
 20
219.701267308
 30
0.0
 10
-122.0164356141
 20
219.6669553393
 30
0.0
 10
-121.9712379984
 20
219.598129517
 30
0.0
 10
-121.9132954616
 20
219.5124943031
 30
0.0
 10
-121.8651924454
 20
219.4437461808
 30
0.0
 10
-121.8274246099
 20
219.3913957177
 30
0.0
 10
-121.7941969247
 20
219.3477073267
 30
0.0
 10
-121.7691975688
 20
219.317314666
 30
0.0
 10
-121.7539013682
 20
219.3013933872
 30
0.0
 10
-121.7460000245
 20
219.2938419864
 30
0.0
 10
-121.7416151625
 20
219.2914724017
 30
0.0
  0
SPLINE
  5
32C
100
AcDbEntity
  8
0
100
AcDbSpline
 62
7
  6
CONTINUOUS
 70
0
 71
3
 72
11
 73
7
 74
0
 42
0.0000001
 43
0.0000001
 44
0.0000000001
 40
0.0
 40
0.0
 40
0.0
 40
0.0
 40
0.2353117561
 40
0.4630042561
 40
0.7132911004
 40
1.0
 40
1.0
 40
1.0
 40
1.0
 10
-122.359399453
 20
243.9904061991
 30
0.0
 10
-122.3288192316
 20
243.9986255628
 30
0.0
 10
-122.2640922694
 20
244.0037208002
 30
0.0
 10
-122.1733588607
 20
243.9613430675
 30
0.0
 10
-122.1091084908
 20
243.8772642473
 30
0.0
 10
-122.0858636745
 20
243.8078281446
 30
0.0
 10
-122.0776517993
 20
243.770130187
 30
0.0
  0
SPLINE
  5
32D
100
AcDbEntity
  8
0
100
AcDbSpline
 62
7
  6
CONTINUOUS
 70
0
 71
3
 72
20
 73
16
 74
0
 42
0.0000001
 43
0.0000001
 44
0.0000000001
 40
0.0
 40
0.0
 40
0.0
 40
0.0
 40
0.0530591015
 40
0.105969481
 40
0.1595752432
 40
0.2146326019
 40
0.2717180241
 40
0.3311791219
 40
0.393127103
 40
0.4574514546
 40
0.5916451248
 40
0.7300973281
 40
0.7994624062
 40
0.8679865817
 40
1.0
 40
1.0
 40
1.0
 40
1.0
 10
-71.9534815046
 20
250.0618604274
 30
0.0
 10
-72.6764389921
 20
250.7398387727
 30
0.0
 10
-74.2549714191
 20
251.9587696424
 30
0.0
 10
-76.9431319046
 20
253.2892143553
 30
0.0
 10
-79.8748648324
 20
254.0816973895
 30
0.0
 10
-82.978889621
 20
254.3195062312
 30
0.0
 10
-86.1838656122
 20
254.0013991765
 30
0.0
 10
-89.4181931255
 20
253.1383070791
 30
0.0
 10
-92.6118243483
 20
251.7521429531
 30
0.0
 10
-96.7786867028
 20
249.215695124
 30
0.0
 10
-101.476294205
 20
244.9261408396
 30
0.0
 10
-105.1205334374
 20
239.6101014112
 30
0.0
 10
-107.2881512335
 20
234.9136222286
 30
0.0
 10
-108.8657622829
 20
230.1181435932
 30
0.0
 10
-109.4051618911
 20
226.3591607413
 30
0.0
 10
-109.4201292899
 20
223.8932511067
 30
0.0
  0
SPLINE
  5
32E
100
AcDbEntity
  8
0
100
AcDbSpline
 62
7
  6
CONTINUOUS
 70
0
 71
3
 72
9
 73
5
 74
0
 42
0.0000001
 43
0.0000001
 44
0.0000000001
 40
0.0
 40
0.0
 40
0.0
 40
0.0
 40
0.2209867019
 40
1.0
 40
1.0
 40
1.0
 40
1.0
 10
-90.8877753308
 20
263.1433901377
 30
0.0
 10
-90.8972206827
 20
263.1237232115
 30
0.0
 10
-90.9350257582
 20
263.0323464444
 30
0.0
 10
-90.9554013724
 20
262.9346071884
 30
0.0
 10
-90.965831122
 20
262.8584075494
 30
0.0
  0
SPLINE
  5
32F
100
AcDbEntity
  8
0
100
AcDbSpline
 62
7
  6
CONTINUOUS
 70
0
 71
3
 72
9
 73
5
 74
0
 42
0.0000001
 43
0.0000001
 44
0.0000000001
 40
0.0
 40
0.0
 40
0.0
 40
0.0
 40
0.2428123753
 40
1.0
 40
1.0
 40
1.0
 40
1.0
 10
-90.9703598169
 20
262.8221966945
 30
0.0
 10
-90.9712996769
 20
262.8139252994
 30
0.0
 10
-90.9749148677
 20
262.7798315214
 30
0.0
 10
-90.9775393901
 20
262.7456348597
 30
0.0
 10
-90.9790450778
 20
262.7197190125
 30
0.0
  0
SPLINE
  5
330
100
AcDbEntity
  8
0
100
AcDbSpline
 62
7
  6
CONTINUOUS
 70
0
 71
3
 72
9
 73
5
 74
0
 42
0.0000001
 43
0.0000001
 44
0.0000000001
 40
0.0
 40
0.0
 40
0.0
 40
0.0
 40
0.4957180203
 40
1.0
 40
1.0
 40
1.0
 40
1.0
 10
-90.0936804119
 20
262.9047267056
 30
0.0
 10
-87.7974947917
 20
261.5627849688
 30
0.0
 10
-83.311545472
 20
258.5983615736
 30
0.0
 10
-79.1671326941
 20
255.1742597222
 30
0.0
 10
-77.1711566283
 20
253.3478258724
 30
0.0
  0
SPLINE
  5
331
100
AcDbEntity
  8
0
100
AcDbSpline
 62
7
  6
CONTINUOUS
 70
0
 71
3
 72
9
 73
5
 74
0
 42
0.0000001
 43
0.0000001
 44
0.0000000001
 40
0.0
 40
0.0
 40
0.0
 40
0.0
 40
0.2597967706
 40
1.0
 40
1.0
 40
1.0
 40
1.0
 10
-87.986205868
 20
253.6717841562
 30
0.0
 10
-88.1297369012
 20
253.8990724305
 30
0.0
 10
-88.6736235719
 20
254.7793069721
 30
0.0
 10
-89.1838052458
 20
255.6805869262
 30
0.0
 10
-89.5374068677
 20
256.3599704197
 30
0.0
  0
SPLINE
  5
332
100
AcDbEntity
  8
0
100
AcDbSpline
 62
7
  6
CONTINUOUS
 70
0
 71
3
 72
15
 73
11
 74
0
 42
0.0000001
 43
0.0000001
 44
0.0000000001
 40
0.0
 40
0.0
 40
0.0
 40
0.0
 40
0.164817847
 40
0.3193364504
 40
0.4627642764
 40
0.5943881385
 40
0.7140556226
 40
0.8216324026
 40
0.9168761552
 40
1.0
 40
1.0
 40
1.0
 40
1.0
 10
-89.5374068677
 20
256.3599704197
 30
0.0
 10
-89.7579121225
 20
256.7875961255
 30
0.0
 10
-90.1691823508
 20
257.6245440404
 30
0.0
 10
-90.707672258
 20
258.8640538558
 30
0.0
 10
-91.1427285405
 20
260.0410623576
 30
0.0
 10
-91.4643868765
 20
261.1486749179
 30
0.0
 10
-91.6785461004
 20
262.1751519848
 30
0.0
 10
-91.7957923926
 20
263.1106439458
 30
0.0
 10
-91.8096935433
 20
263.9470532336
 30
0.0
 10
-91.7429520686
 20
264.4665771854
 30
0.0
 10
-91.6868843624
 20
264.7026628713
 30
0.0
  0
SPLINE
  5
333
100
AcDbEntity
  8
0
100
AcDbSpline
 62
7
  6
CONTINUOUS
 70
0
 71
3
 72
11
 73
7
 74
0
 42
0.0000001
 43
0.0000001
 44
0.0000000001
 40
0.0
 40
0.0
 40
0.0
 40
0.0
 40
0.2501120873
 40
0.4976374461
 40
0.7464825261
 40
1.0
 40
1.0
 40
1.0
 40
1.0
 10
-90.9301778259
 20
264.1010700244
 30
0.0
 10
-90.9565116988
 20
264.1816427157
 30
0.0
 10
-91.0337160794
 20
264.3350239963
 30
0.0
 10
-91.2116449275
 20
264.5197610823
 30
0.0
 10
-91.4349055607
 20
264.6476508082
 30
0.0
 10
-91.601895874
 20
264.6907906125
 30
0.0
 10
-91.6870948387
 20
264.7019066164
 30
0.0
  0
SPLINE
  5
334
100
AcDbEntity
  8
0
100
AcDbSpline
 62
7
  6
CONTINUOUS
 70
0
 71
3
 72
27
 73
23
 74
0
 42
0.0000001
 43
0.0000001
 44
0.0000000001
 40
0.0
 40
0.0
 40
0.0
 40
0.0
 40
0.2386381525
 40
0.3619663156
 40
0.487613977
 40
0.55116792
 40
0.6150917046
 40
0.6792472943
 40
0.7434169444
 40
0.7753987097
 40
0.8072187352
 40
0.8387642854
 40
0.8698526379
 40
0.9001501769
 40
0.928908917
 40
0.9421125482
 40
0.9481390194
 40
0.9534880857
 40
0.9576927703
 40
0.9683591322
 40
0.9855591158
 40
1.0
 40
1.0
 40
1.0
 40
1.0
 10
-78.1430469424
 20
254.78830145
 30
0.0
 10
-78.0504504374
 20
254.6692950157
 30
0.0
 10
-77.9115757594
 20
254.4875532996
 30
0.0
 10
-77.7274959815
 20
254.2404806628
 30
0.0
 10
-77.6108862354
 20
254.0811058246
 30
0.0
 10
-77.517403624
 20
253.9513282342
 30
0.0
 10
-77.4471856475
 20
253.8526799925
 30
0.0
 10
-77.3774015966
 20
253.7532484798
 30
0.0
 10
-77.3199032572
 20
253.6698552317
 30
0.0
 10
-77.274582999
 20
253.6028884229
 30
0.0
 10
-77.2411774595
 20
253.5527501732
 30
0.0
 10
-77.2085478769
 20
253.5027782814
 30
0.0
 10
-77.1770790297
 20
253.45319278
 30
0.0
 10
-77.1474793697
 20
253.4045480351
 30
0.0
 10
-77.1251046032
 20
253.364655025
 30
0.0
 10
-77.1118102127
 20
253.3374905577
 30
0.0
 10
-77.1063659792
 20
253.3227458524
 30
0.0
 10
-77.1033887072
 20
253.3138181797
 30
0.0
 10
-77.1046460656
 20
253.2982319237
 30
0.0
 10
-77.1323458232
 20
253.313664292
 30
0.0
 10
-77.1484692657
 20
253.3277491126
 30
0.0
 10
-77.1644207081
 20
253.3416706346
 30
0.0
 10
-77.1711566283
 20
253.3478258724
 30
0.0
  0
SPLINE
  5
335
100
AcDbEntity
  8
0
100
AcDbSpline
 62
7
  6
CONTINUOUS
 70
0
 71
3
 72
14
 73
10
 74
0
 42
0.0000001
 43
0.0000001
 44
0.0000000001
 40
0.0
 40
0.0
 40
0.0
 40
0.0
 40
0.3298163869
 40
0.4835999765
 40
0.6262815793
 40
0.7525024184
 40
0.85134768
 40
0.8976486355
 40
1.0
 40
1.0
 40
1.0
 40
1.0
 10
-90.0852262964
 20
262.917672301
 30
0.0
 10
-90.0914441653
 20
262.9196593288
 30
0.0
 10
-90.1005611289
 20
262.9225306589
 30
0.0
 10
-90.1124871125
 20
262.9260331938
 30
0.0
 10
-90.1204354516
 20
262.9283408345
 30
0.0
 10
-90.1278217627
 20
262.9299710925
 30
0.0
 10
-90.1322909661
 20
262.9314270185
 30
0.0
 10
-90.1390650264
 20
262.9309105273
 30
0.0
 10
-90.1335933937
 20
262.9280184374
 30
0.0
 10
-90.1318363601
 20
262.9270102962
 30
0.0
  0
SPLINE
  5
336
100
AcDbEntity
  8
0
100
AcDbSpline
 62
7
  6
CONTINUOUS
 70
0
 71
3
 72
14
 73
10
 74
0
 42
0.0000001
 43
0.0000001
 44
0.0000000001
 40
0.0
 40
0.0
 40
0.0
 40
0.0
 40
0.0464374512
 40
0.1044807596
 40
0.1888786756
 40
0.3031765341
 40
0.4465608362
 40
0.6146074907
 40
1.0
 40
1.0
 40
1.0
 40
1.0
 10
-121.3689609781
 20
218.5289132204
 30
0.0
 10
-121.3662709602
 20
218.5347844809
 30
0.0
 10
-121.3547339836
 20
218.5460266479
 30
0.0
 10
-121.3270535514
 20
218.5466188526
 30
0.0
 10
-121.2928257555
 20
218.5365395877
 30
0.0
 10
-121.2498146678
 20
218.5156363795
 30
0.0
 10
-121.1996668055
 20
218.484098164
 30
0.0
 10
-121.1214416965
 20
218.426779941
 30
0.0
 10
-121.0632486625
 20
218.3761877605
 30
0.0
 10
-121.0240199967
 20
218.3396665723
 30
0.0
  0
SPLINE
  5
337
100
AcDbEntity
  8
0
100
AcDbSpline
 62
7
  6
CONTINUOUS
 70
0
 71
3
 72
40
 73
36
 74
0
 42
0.0000001
 43
0.0000001
 44
0.0000000001
 40
0.0
 40
0.0
 40
0.0
 40
0.0
 40
0.0904997253
 40
0.1919051349
 40
0.2465872509
 40
0.303725455
 40
0.363314458
 40
0.4254432093
 40
0.4899734332
 40
0.5567677643
 40
0.6257522756
 40
0.6968539357
 40
0.7699639351
 40
0.8072200367
 40
0.8448994664
 40
0.8638817227
 40
0.882946042
 40
0.9020775826
 40
0.9212535254
 40
0.9308470732
 40
0.9404350159
 40
0.9500063132
 40
0.959543516
 40
0.9690158723
 40
0.9737105436
 40
0.9783598056
 40
0.9829372992
 40
0.9851856251
 40
0.9873962593
 40
0.989598332
 40
0.9910168656
 40
0.9931161495
 40
0.9949864414
 40
0.9967120183
 40
1.0
 40
1.0
 40
1.0
 40
1.0
 10
-90.7810479703
 20
261.1919877464
 30
0.0
 10
-90.729004274
 20
260.9507421395
 30
0.0
 10
-90.6080709152
 20
260.4414087523
 30
0.0
 10
-90.4252618565
 20
259.7940513728
 30
0.0
 10
-90.2494971761
 20
259.2397532936
 30
0.0
 10
-90.1019671393
 20
258.7961927058
 30
0.0
 10
-89.9403611664
 20
258.3359573959
 30
0.0
 10
-89.7604444541
 20
257.8609409741
 30
0.0
 10
-89.5645641908
 20
257.3710780132
 30
0.0
 10
-89.3538413182
 20
256.8670864208
 30
0.0
 10
-89.128279643
 20
256.3499472727
 30
0.0
 10
-88.8880674353
 20
255.8204784585
 30
0.0
 10
-88.6777874664
 20
255.3724969906
 30
0.0
 10
-88.5037384597
 20
255.0082158124
 30
0.0
 10
-88.3926620709
 20
254.7774392021
 30
0.0
 10
-88.3031001114
 20
254.5913644588
 30
0.0
 10
-88.2356419404
 20
254.4507853604
 30
0.0
 10
-88.1683597365
 20
254.3095365501
 30
0.0
 10
-88.1128287206
 20
254.1912984419
 30
0.0
 10
-88.0690868667
 20
254.096280871
 30
0.0
 10
-88.0368063086
 20
254.0248234558
 30
0.0
 10
-88.0053024935
 20
253.9531861797
 30
0.0
 10
-87.9749857327
 20
253.8813811316
 30
0.0
 10
-87.9512118841
 20
253.8212528193
 30
0.0
 10
-87.9338840822
 20
253.7729539138
 30
0.0
 10
-87.922224686
 20
253.7367984502
 30
0.0
 10
-87.9142121376
 20
253.70657208
 30
0.0
 10
-87.9098305845
 20
253.6821807303
 30
0.0
 10
-87.9086804266
 20
253.6643360136
 30
0.0
 10
-87.9100953671
 20
253.6473067054
 30
0.0
 10
-87.9240054956
 20
253.6369219687
 30
0.0
 10
-87.9394978068
 20
253.6414120809
 30
0.0
 10
-87.9531090425
 20
253.6482789784
 30
0.0
 10
-87.9688876278
 20
253.6586402319
 30
0.0
 10
-87.9800409419
 20
253.6665297857
 30
0.0
 10
-87.9869674419
 20
253.6722236729
 30
0.0
  0
SPLINE
  5
338
100
AcDbEntity
  8
0
100
AcDbSpline
 62
7
  6
CONTINUOUS
 70
0
 71
3
 72
9
 73
5
 74
0
 42
0.0000001
 43
0.0000001
 44
0.0000000001
 40
0.0
 40
0.0
 40
0.0
 40
0.0
 40
0.2620013614
 40
1.0
 40
1.0
 40
1.0
 40
1.0
 10
-90.9684054452
 20
263.2587632993
 30
0.0
 10
-90.9646959197
 20
263.3088729471
 30
0.0
 10
-90.9475757923
 20
263.4998808607
 30
0.0
 10
-90.9181526561
 20
263.6899271765
 30
0.0
 10
-90.887743668
 20
263.8281556303
 30
0.0
  0
SPLINE
  5
339
100
AcDbEntity
  8
0
100
AcDbSpline
 62
7
  6
CONTINUOUS
 70
0
 71
3
 72
20
 73
16
 74
0
 42
0.0000001
 43
0.0000001
 44
0.0000000001
 40
0.0
 40
0.0
 40
0.0
 40
0.0
 40
0.2628681079
 40
0.393620447
 40
0.5236151759
 40
0.6524116516
 40
0.7791006439
 40
0.8410231916
 40
0.9011394431
 40
0.9300066764
 40
0.957382072
 40
0.9701032852
 40
0.9816599351
 40
0.9911827186
 40
1.0
 40
1.0
 40
1.0
 40
1.0
 10
-100.8223242513
 20
263.5975776064
 30
0.0
 10
-100.90257492
 20
263.5751714376
 30
0.0
 10
-101.0224322498
 20
263.5404839625
 30
0.0
 10
-101.1810523676
 20
263.4916384814
 30
0.0
 10
-101.2985748318
 20
263.4537589587
 30
0.0
 10
-101.4142518019
 20
263.4144018304
 30
0.0
 10
-101.5087945203
 20
263.3799579775
 30
0.0
 10
-101.5820859974
 20
263.3508828511
 30
0.0
 10
-101.6260264693
 20
263.3319826647
 30
0.0
 10
-101.6592870234
 20
263.3159596848
 30
0.0
 10
-101.6784419029
 20
263.305543089
 30
0.0
 10
-101.6923600462
 20
263.2966353068
 30
0.0
 10
-101.7003424483
 20
263.2899457082
 30
0.0
 10
-101.7077958896
 20
263.2826177109
 30
0.0
 10
-101.7048671738
 20
263.2754470933
 30
0.0
 10
-101.7024046635
 20
263.2741254414
 30
0.0
  0
SPLINE
  5
33A
100
AcDbEntity
  8
0
100
AcDbSpline
 62
7
  6
CONTINUOUS
 70
0
 71
3
 72
21
 73
17
 74
0
 42
0.0000001
 43
0.0000001
 44
0.0000000001
 40
0.0
 40
0.0
 40
0.0
 40
0.0
 40
0.1268837723
 40
0.2538243026
 40
0.3807789922
 40
0.5076775036
 40
0.6343927592
 40
0.6976096443
 40
0.7606589532
 40
0.8234324515
 40
0.8857020134
 40
0.9164858996
 40
0.9468059885
 40
0.9760699841
 40
0.9895823962
 40
1.0
 40
1.0
 40
1.0
 40
1.0
 10
-111.9310963164
 20
258.1243461725
 30
0.0
 10
-111.9926210908
 20
258.0693593117
 30
0.0
 10
-112.1150766116
 20
257.9586630461
 30
0.0
 10
-112.2968095317
 20
257.7904465764
 30
0.0
 10
-112.4764295463
 20
257.6199598019
 30
0.0
 10
-112.6535828167
 20
257.4471192069
 30
0.0
 10
-112.7987737508
 20
257.3009069538
 30
0.0
 10
-112.9129090046
 20
257.1824087401
 30
0.0
 10
-112.997103172
 20
257.0928308518
 30
0.0
 10
-113.0794508643
 20
257.0023355564
 30
0.0
 10
-113.1459939907
 20
256.9259990615
 30
0.0
 10
-113.1968342944
 20
256.8636847367
 30
0.0
 10
-113.2325855756
 20
256.8177164784
 30
0.0
 10
-113.2593722005
 20
256.7763277184
 30
0.0
 10
-113.2751322699
 20
256.7490223081
 30
0.0
 10
-113.2777934503
 20
256.7274229777
 30
0.0
 10
-113.2717588056
 20
256.7243437809
 30
0.0
  0
SPLINE
  5
33B
100
AcDbEntity
  8
0
100
AcDbSpline
 62
7
  6
CONTINUOUS
 70
0
 71
3
 72
19
 73
15
 74
0
 42
0.0000001
 43
0.0000001
 44
0.0000000001
 40
0.0
 40
0.0
 40
0.0
 40
0.0
 40
0.2485267128
 40
0.3728696772
 40
0.497349328
 40
0.6220842207
 40
0.6846114408
 40
0.7473033495
 40
0.8102370677
 40
0.8735506788
 40
0.905430268
 40
0.9375337562
 40
0.9699178298
 40
1.0
 40
1.0
 40
1.0
 40
1.0
 10
-124.9569824736
 20
233.0447489181
 30
0.0
 10
-124.9573847749
 20
232.9018926526
 30
0.0
 10
-124.9558742517
 20
232.687546118
 30
0.0
 10
-124.9490730102
 20
232.4017380908
 30
0.0
 10
-124.941299526
 20
232.1871466682
 30
0.0
 10
-124.9322402965
 20
232.0081723517
 30
0.0
 10
-124.922997904
 20
231.8647922358
 30
0.0
 10
-124.9148462273
 20
231.7569386197
 30
0.0
 10
-124.9051166682
 20
231.6487859514
 30
0.0
 10
-124.8952241725
 20
231.5583601678
 30
0.0
 10
-124.8853509104
 20
231.4859744476
 30
0.0
 10
-124.8766148624
 20
231.4308906038
 30
0.0
 10
-124.8649754416
 20
231.379116818
 30
0.0
 10
-124.8548003366
 20
231.3414281204
 30
0.0
 10
-124.8417725857
 20
231.3300579936
 30
0.0
  0
SPLINE
  5
33C
100
AcDbEntity
  8
0
100
AcDbSpline
 62
7
  6
CONTINUOUS
 70
0
 71
3
 72
9
 73
5
 74
0
 42
0.0000001
 43
0.0000001
 44
0.0000000001
 40
0.0
 40
0.0
 40
0.0
 40
0.0
 40
0.4829420823
 40
1.0
 40
1.0
 40
1.0
 40
1.0
 10
-113.2717588056
 20
256.7243437809
 30
0.0
 10
-110.8852795039
 20
255.3403807518
 30
0.0
 10
-106.0062160932
 20
252.3662531413
 30
0.0
 10
-101.2392061564
 20
249.216606634
 30
0.0
 10
-98.8007665154
 20
247.5499079734
 30
0.0
  0
SPLINE
  5
33D
100
AcDbEntity
  8
0
100
AcDbSpline
 62
7
  6
CONTINUOUS
 70
0
 71
3
 72
9
 73
5
 74
0
 42
0.0000001
 43
0.0000001
 44
0.0000000001
 40
0.0
 40
0.0
 40
0.0
 40
0.0
 40
0.4786681677
 40
1.0
 40
1.0
 40
1.0
 40
1.0
 10
-102.5864011222
 20
262.8663533687
 30
0.0
 10
-102.7173242505
 20
262.3549390531
 30
0.0
 10
-102.8781709367
 20
261.2565341542
 30
0.0
 10
-102.8583170511
 20
260.1497022764
 30
0.0
 10
-102.8110225666
 20
259.5766917572
 30
0.0
  0
SPLINE
  5
33E
100
AcDbEntity
  8
0
100
AcDbSpline
 62
7
  6
CONTINUOUS
 70
0
 71
3
 72
9
 73
5
 74
0
 42
0.0000001
 43
0.0000001
 44
0.0000000001
 40
0.0
 40
0.0
 40
0.0
 40
0.0
 40
0.2586863537
 40
1.0
 40
1.0
 40
1.0
 40
1.0
 10
-102.8110052517
 20
259.5767087929
 30
0.0
 10
-102.8549706586
 20
259.9019308082
 30
0.0
 10
-102.9917205347
 20
261.1631344494
 30
0.0
 10
-102.9905102857
 20
262.4413658604
 30
0.0
 10
-102.894158548
 20
263.376878595
 30
0.0
  0
SPLINE
  5
33F
100
AcDbEntity
  8
0
100
AcDbSpline
 62
7
  6
CONTINUOUS
 70
0
 71
3
 72
9
 73
5
 74
0
 42
0.0000001
 43
0.0000001
 44
0.0000000001
 40
0.0
 40
0.0
 40
0.0
 40
0.0
 40
0.2724889091
 40
1.0
 40
1.0
 40
1.0
 40
1.0
 10
-78.60772793
 20
255.2313311009
 30
0.0
 10
-78.7176620061
 20
255.3748451373
 30
0.0
 10
-79.1226885882
 20
255.9002921262
 30
0.0
 10
-79.534460137
 20
256.4206681462
 30
0.0
 10
-79.8419364374
 20
256.7927185448
 30
0.0
  0
SPLINE
  5
340
100
AcDbEntity
  8
0
100
AcDbSpline
 62
7
  6
CONTINUOUS
 70
0
 71
3
 72
11
 73
7
 74
0
 42
0.0000001
 43
0.0000001
 44
0.0000000001
 40
0.0
 40
0.0
 40
0.0
 40
0.0
 40
0.317644817
 40
0.5895232265
 40
0.8159305653
 40
1.0
 40
1.0
 40
1.0
 40
1.0
 10
-79.8419364374
 20
256.7927185448
 30
0.0
 10
-79.9861784631
 20
256.9672533076
 30
0.0
 10
-80.2573074542
 20
257.2883614581
 30
0.0
 10
-80.6469156094
 20
257.7204894433
 30
0.0
 10
-80.9922188212
 20
258.0633677537
 30
0.0
 10
-81.2195484455
 20
258.2493002979
 30
0.0
 10
-81.3283611261
 20
258.3226188414
 30
0.0
  0
SPLINE
  5
341
100
AcDbEntity
  8
0
100
AcDbSpline
 62
7
  6
CONTINUOUS
 70
0
 71
3
 72
11
 73
7
 74
0
 42
0.0000001
 43
0.0000001
 44
0.0000000001
 40
0.0
 40
0.0
 40
0.0
 40
0.0
 40
0.4029542556
 40
0.712918012
 40
0.9104673694
 40
1.0
 40
1.0
 40
1.0
 40
1.0
 10
-115.7553566488
 20
255.6573259123
 30
0.0
 10
-115.7698533937
 20
255.6657069844
 30
0.0
 10
-115.7954119466
 20
255.6800986827
 30
0.0
 10
-115.8304999276
 20
255.6968308449
 30
0.0
 10
-115.8517342295
 20
255.7053828208
 30
0.0
 10
-115.8664758298
 20
255.7067876958
 30
0.0
 10
-115.8687345267
 20
255.7038311511
 30
0.0
  0
SPLINE
  5
342
100
AcDbEntity
  8
0
100
AcDbSpline
 62
7
  6
CONTINUOUS
 70
0
 71
3
 72
10
 73
6
 74
0
 42
0.0000001
 43
0.0000001
 44
0.0000000001
 40
0.0
 40
0.0
 40
0.0
 40
0.0
 40
0.4679886285
 40
0.7318777825
 40
1.0
 40
1.0
 40
1.0
 40
1.0
 10
-114.5357818297
 20
255.974706816
 30
0.0
 10
-114.7219382935
 20
256.0612091676
 30
0.0
 10
-115.076878758
 20
256.0509014083
 30
0.0
 10
-115.4789768809
 20
255.8778520778
 30
0.0
 10
-115.6695525623
 20
255.7376517756
 30
0.0
 10
-115.7555668398
 20
255.6574478671
 30
0.0
  0
SPLINE
  5
343
100
AcDbEntity
  8
0
100
AcDbSpline
 62
7
  6
CONTINUOUS
 70
0
 71
3
 72
14
 73
10
 74
0
 42
0.0000001
 43
0.0000001
 44
0.0000000001
 40
0.0
 40
0.0
 40
0.0
 40
0.0
 40
0.2534293192
 40
0.3793463721
 40
0.5047812398
 40
0.6296360232
 40
0.753744508
 40
0.877181832
 40
1.0
 40
1.0
 40
1.0
 40
1.0
 10
-109.4514682747
 20
239.9575732955
 30
0.0
 10
-110.3013551744
 20
241.1270625916
 30
0.0
 10
-111.4835804353
 20
242.9468980497
 30
0.0
 10
-112.8260683449
 20
245.496087656
 30
0.0
 10
-113.6969721277
 20
247.4593949175
 30
0.0
 10
-114.4328674738
 20
249.4658954946
 30
0.0
 10
-115.034614653
 20
251.504946389
 30
0.0
 10
-115.4882156169
 20
253.5702486773
 30
0.0
 10
-115.6854858758
 20
254.9628006019
 30
0.0
 10
-115.7557848907
 20
255.6598811364
 30
0.0
  0
SPLINE
  5
344
100
AcDbEntity
  8
0
100
AcDbSpline
 62
7
  6
CONTINUOUS
 70
0
 71
3
 72
10
 73
6
 74
0
 42
0.0000001
 43
0.0000001
 44
0.0000000001
 40
0.0
 40
0.0
 40
0.0
 40
0.0
 40
0.3017655799
 40
0.5933702177
 40
1.0
 40
1.0
 40
1.0
 40
1.0
 10
-112.1777280096
 20
211.0435689429
 30
0.0
 10
-112.2181864171
 20
211.0488914916
 30
0.0
 10
-112.2984756873
 20
211.0646383982
 30
0.0
 10
-112.4211461762
 20
211.1039722563
 30
0.0
 10
-112.5190790432
 20
211.1750211404
 30
0.0
 10
-112.5191495252
 20
211.2300086342
 30
0.0
  0
SPLINE
  5
345
100
AcDbEntity
  8
0
100
AcDbSpline
 62
7
  6
CONTINUOUS
 70
0
 71
3
 72
41
 73
37
 74
0
 42
0.0000001
 43
0.0000001
 44
0.0000000001
 40
0.0
 40
0.0
 40
0.0
 40
0.0
 40
0.1187221425
 40
0.2396376071
 40
0.3624563465
 40
0.424509076
 40
0.4869504597
 40
0.5497587691
 40
0.6129151993
 40
0.6764042244
 40
0.7402152048
 40
0.7722416311
 40
0.804350136
 40
0.8365443456
 40
0.8688311819
 40
0.9012242295
 40
0.9174687066
 40
0.9337534921
 40
0.9419145374
 40
0.950091102
 40
0.95828698
 40
0.9665084016
 40
0.9706319569
 40
0.9747669934
 40
0.9789172706
 40
0.9830893427
 40
0.9872966219
 40
0.9894230731
 40
0.9915775323
 40
0.9937914045
 40
0.9949591021
 40
0.9955839297
 40
0.9961855397
 40
0.9980878044
 40
0.9990399663
 40
1.0
 40
1.0
 40
1.0
 40
1.0
 10
-113.522152744
 20
250.8699192755
 30
0.0
 10
-113.3855310481
 20
250.2508523428
 30
0.0
 10
-113.0719620681
 20
249.0092702088
 30
0.0
 10
-112.4840484513
 20
247.1640658495
 30
0.0
 10
-111.894267852
 20
245.6402549794
 30
0.0
 10
-111.3628025238
 20
244.4311219479
 30
0.0
 10
-110.9332901335
 20
243.5276988276
 30
0.0
 10
-110.4749582753
 20
242.6319415619
 30
0.0
 10
-109.9885490296
 20
241.7447320562
 30
0.0
 10
-109.4749332013
 20
240.8667932733
 30
0.0
 10
-109.0255985692
 20
240.144217987
 30
0.0
 10
-108.6538039707
 20
239.5710049779
 30
0.0
 10
-108.3686731031
 20
239.1428607898
 30
0.0
 10
-108.0779280056
 20
238.7168280076
 30
0.0
 10
-107.7820135448
 20
238.2925182822
 30
0.0
 10
-107.5319036393
 20
237.9401241736
 30
0.0
 10
-107.3303130993
 20
237.6580837408
 30
0.0
 10
-107.2038904849
 20
237.4813672
 30
0.0
 10
-107.1028108884
 20
237.3394919463
 30
0.0
 10
-107.0270694488
 20
237.232599879
 30
0.0
 10
-106.9516110599
 20
237.1251134063
 30
0.0
 10
-106.8892335748
 20
237.0348887911
 30
0.0
 10
-106.8398607923
 20
236.9620415848
 30
0.0
 10
-106.8031483261
 20
236.9068783437
 30
0.0
 10
-106.766939806
 20
236.8510725864
 30
0.0
 10
-106.7314914561
 20
236.7943226632
 30
0.0
 10
-106.7030671769
 20
236.7459437522
 30
0.0
 10
-106.6816454413
 20
236.7059788139
 30
0.0
 10
-106.6666427794
 20
236.6747255631
 30
0.0
 10
-106.6557777569
 20
236.6470791715
 30
0.0
 10
-106.6516487558
 20
236.6260115262
 30
0.0
 10
-106.6524861014
 20
236.6129185578
 30
0.0
 10
-106.6641323968
 20
236.5987397798
 30
0.0
 10
-106.6858524678
 20
236.606719697
 30
0.0
 10
-106.7044354751
 20
236.6131417842
 30
0.0
 10
-106.7126940636
 20
236.6196039552
 30
0.0
 10
-106.7172103675
 20
236.622029597
 30
0.0
  0
SPLINE
  5
346
100
AcDbEntity
  8
0
100
AcDbSpline
 62
7
  6
CONTINUOUS
 70
0
 71
3
 72
9
 73
5
 74
0
 42
0.0000001
 43
0.0000001
 44
0.0000000001
 40
0.0
 40
0.0
 40
0.0
 40
0.0
 40
0.2516467334
 40
1.0
 40
1.0
 40
1.0
 40
1.0
 10
-113.5221123794
 20
250.8699693588
 30
0.0
 10
-113.6463566247
 20
251.2888443886
 30
0.0
 10
-114.1028075309
 20
252.9641120457
 30
0.0
 10
-114.4061761039
 20
254.6818647133
 30
0.0
 10
-114.5357685048
 20
255.9746882927
 30
0.0
  0
SPLINE
  5
347
100
AcDbEntity
  8
0
100
AcDbSpline
 62
7
  6
CONTINUOUS
 70
0
 71
3
 72
9
 73
5
 74
0
 42
0.0000001
 43
0.0000001
 44
0.0000000001
 40
0.0
 40
0.0
 40
0.0
 40
0.0
 40
0.2461204527
 40
1.0
 40
1.0
 40
1.0
 40
1.0
 10
-114.002729264
 20
255.7752090111
 30
0.0
 10
-114.0158052438
 20
255.3704576011
 30
0.0
 10
-114.0117665104
 20
253.7242590892
 30
0.0
 10
-113.7894172171
 20
252.0812271643
 30
0.0
 10
-113.5221150522
 20
250.8699493108
 30
0.0
  0
SPLINE
  5
348
100
AcDbEntity
  8
0
100
AcDbSpline
 62
7
  6
CONTINUOUS
 70
0
 71
3
 72
9
 73
5
 74
0
 42
0.0000001
 43
0.0000001
 44
0.0000000001
 40
0.0
 40
0.0
 40
0.0
 40
0.0
 40
0.5013294062
 40
1.0
 40
1.0
 40
1.0
 40
1.0
 10
-114.5357784416
 20
255.9746932292
 30
0.0
 10
-114.5464500601
 20
256.018243665
 30
0.0
 10
-114.5803479692
 20
256.1033729661
 30
0.0
 10
-114.6536672862
 20
256.1648106422
 30
0.0
 10
-114.6954253492
 20
256.1804796852
 30
0.0
  0
SPLINE
  5
349
100
AcDbEntity
  8
0
100
AcDbSpline
 62
7
  6
CONTINUOUS
 70
0
 71
3
 72
11
 73
7
 74
0
 42
0.0000001
 43
0.0000001
 44
0.0000000001
 40
0.0
 40
0.0
 40
0.0
 40
0.0
 40
0.3073722478
 40
0.5724121638
 40
0.7980095624
 40
1.0
 40
1.0
 40
1.0
 40
1.0
 10
-112.1777250112
 20
211.0435684641
 30
0.0
 10
-112.1849598366
 20
210.9666841687
 30
0.0
 10
-112.1840821878
 20
210.8215818093
 30
0.0
 10
-112.1366324716
 20
210.6244597889
 30
0.0
 10
-112.0441665
 20
210.4727042894
 30
0.0
 10
-111.9529382434
 20
210.4088261492
 30
0.0
 10
-111.9058759275
 20
210.3898396144
 30
0.0
  0
SPLINE
  5
34A
100
AcDbEntity
  8
0
100
AcDbSpline
 62
7
  6
CONTINUOUS
 70
0
 71
3
 72
8
 73
4
 74
0
 42
0.0000001
 43
0.0000001
 44
0.0000000001
 40
0.0
 40
0.0
 40
0.0
 40
0.0
 40
1.0
 40
1.0
 40
1.0
 40
1.0
 10
-121.0941816437
 20
246.51527072
 30
0.0
 10
-121.1555434436
 20
246.3779596711
 30
0.0
 10
-121.2176038577
 20
246.2409613368
 30
0.0
 10
-121.2788804482
 20
246.1036122411
 30
0.0
  0
SPLINE
  5
34B
100
AcDbEntity
  8
0
100
AcDbSpline
 62
7
  6
CONTINUOUS
 70
0
 71
3
 72
10
 73
6
 74
0
 42
0.0000001
 43
0.0000001
 44
0.0000000001
 40
0.0
 40
0.0
 40
0.0
 40
0.0
 40
0.3529712576
 40
0.6391984592
 40
1.0
 40
1.0
 40
1.0
 40
1.0
 10
-123.7118955603
 20
242.7756775071
 30
0.0
 10
-123.7259080419
 20
242.7837498872
 30
0.0
 10
-123.7508772927
 20
242.7998869261
 30
0.0
 10
-123.7853901623
 20
242.8277267098
 30
0.0
 10
-123.8044640565
 20
242.8578081958
 30
0.0
 10
-123.8008739489
 20
242.8739437326
 30
0.0
  0
SPLINE
  5
34C
100
AcDbEntity
  8
0
100
AcDbSpline
 62
7
  6
CONTINUOUS
 70
0
 71
3
 72
10
 73
6
 74
0
 42
0.0000001
 43
0.0000001
 44
0.0000000001
 40
0.0
 40
0.0
 40
0.0
 40
0.0
 40
0.2418796987
 40
0.5006219509
 40
1.0
 40
1.0
 40
1.0
 40
1.0
 10
-122.6932577642
 20
243.6051102145
 30
0.0
 10
-122.8008046051
 20
243.5867405473
 30
0.0
 10
-123.0168924
 20
243.5083986488
 30
0.0
 10
-123.3943940987
 20
243.2587852481
 30
0.0
 10
-123.6183207418
 20
242.9806006712
 30
0.0
 10
-123.7121060259
 20
242.7757992457
 30
0.0
  0
SPLINE
  5
34D
100
AcDbEntity
  8
0
100
AcDbSpline
 62
7
  6
CONTINUOUS
 70
0
 71
3
 72
13
 73
9
 74
0
 42
0.0000001
 43
0.0000001
 44
0.0000000001
 40
0.0
 40
0.0
 40
0.0
 40
0.0
 40
0.2450340022
 40
0.3688697957
 40
0.4936560448
 40
0.619264171
 40
0.7455153477
 40
1.0
 40
1.0
 40
1.0
 40
1.0
 10
-113.0997542874
 20
226.821383425
 30
0.0
 10
-114.2398315234
 20
227.9131292331
 30
0.0
 10
-115.8783641487
 20
229.6415706827
 30
0.0
 10
-117.8750069147
 20
232.1184093015
 30
0.0
 10
-119.277358042
 20
234.0810925442
 30
0.0
 10
-120.573566156
 20
236.1338504228
 30
0.0
 10
-122.1577325779
 20
238.9863953858
 30
0.0
 10
-123.1520661436
 20
241.23810223
 30
0.0
 10
-123.7130705594
 20
242.7785138004
 30
0.0
  0
SPLINE
  5
34E
100
AcDbEntity
  8
0
100
AcDbSpline
 62
7
  6
CONTINUOUS
 70
0
 71
3
 72
14
 73
10
 74
0
 42
0.0000001
 43
0.0000001
 44
0.0000000001
 40
0.0
 40
0.0
 40
0.0
 40
0.0
 40
0.3414178992
 40
0.5097129471
 40
0.6661550783
 40
0.8012449062
 40
0.9051419831
 40
0.971493837
 40
1.0
 40
1.0
 40
1.0
 40
1.0
 10
-121.3318379921
 20
217.6640903523
 30
0.0
 10
-121.3726603732
 20
217.6835876798
 30
0.0
 10
-121.4332889646
 20
217.7134338439
 30
0.0
 10
-121.5115012421
 20
217.7542119353
 30
0.0
 10
-121.5650332686
 20
217.7837038607
 30
0.0
 10
-121.6098012108
 20
217.8098806057
 30
0.0
 10
-121.6446580493
 20
217.8330920824
 30
0.0
 10
-121.6634489703
 20
217.8474519674
 30
0.0
 10
-121.6738756383
 20
217.8597614235
 30
0.0
 10
-121.6723396195
 20
217.863212207
 30
0.0
  0
SPLINE
  5
34F
100
AcDbEntity
  8
0
100
AcDbSpline
 62
7
  6
CONTINUOUS
 70
0
 71
3
 72
9
 73
5
 74
0
 42
0.0000001
 43
0.0000001
 44
0.0000000001
 40
0.0
 40
0.0
 40
0.0
 40
0.0
 40
0.2526167786
 40
1.0
 40
1.0
 40
1.0
 40
1.0
 10
-121.0240204157
 20
218.3396656636
 30
0.0
 10
-120.6068639918
 20
217.9512793749
 30
0.0
 10
-118.924537311
 20
216.4472352507
 30
0.0
 10
-117.1287993182
 20
215.0717506952
 30
0.0
 10
-115.7420171265
 20
214.1123761061
 30
0.0
  0
SPLINE
  5
350
100
AcDbEntity
  8
0
100
AcDbSpline
 62
7
  6
CONTINUOUS
 70
0
 71
3
 72
9
 73
5
 74
0
 42
0.0000001
 43
0.0000001
 44
0.0000000001
 40
0.0
 40
0.0
 40
0.0
 40
0.0
 40
0.2473761235
 40
1.0
 40
1.0
 40
1.0
 40
1.0
 10
-115.7420233623
 20
214.1123799917
 30
0.0
 10
-116.216705836
 20
214.3826352248
 30
0.0
 10
-118.1229360294
 20
215.4970876813
 30
0.0
 10
-119.9761278261
 20
216.7029535318
 30
0.0
 10
-121.3318289
 20
217.6641068914
 30
0.0
  0
SPLINE
  5
351
100
AcDbEntity
  8
0
100
AcDbSpline
 62
7
  6
CONTINUOUS
 70
0
 71
3
 72
9
 73
5
 74
0
 42
0.0000001
 43
0.0000001
 44
0.0000000001
 40
0.0
 40
0.0
 40
0.0
 40
0.0
 40
0.5096663963
 40
1.0
 40
1.0
 40
1.0
 40
1.0
 10
-115.7419643472
 20
214.1123267583
 30
0.0
 10
-113.7419851403
 20
212.7287453786
 30
0.0
 10
-109.6364348941
 20
210.2692401055
 30
0.0
 10
-105.2824882961
 20
208.2947276434
 30
0.0
 10
-103.107152537
 20
207.4333569891
 30
0.0
  0
SPLINE
  5
352
100
AcDbEntity
  8
0
100
AcDbSpline
 62
7
  6
CONTINUOUS
 70
0
 71
3
 72
9
 73
5
 74
0
 42
0.0000001
 43
0.0000001
 44
0.0000000001
 40
0.0
 40
0.0
 40
0.0
 40
0.0
 40
0.3229418021
 40
1.0
 40
1.0
 40
1.0
 40
1.0
 10
-99.1437618245
 20
205.9925337348
 30
0.0
 10
-99.1068002738
 20
205.9801788945
 30
0.0
 10
-99.0292399866
 20
205.9544538951
 30
0.0
 10
-98.7230650992
 20
205.8515283557
 30
0.0
 10
-98.8011931009
 20
205.8754411011
 30
0.0
  0
SPLINE
  5
353
100
AcDbEntity
  8
0
100
AcDbSpline
 62
7
  6
CONTINUOUS
 70
0
 71
3
 72
9
 73
5
 74
0
 42
0.0000001
 43
0.0000001
 44
0.0000000001
 40
0.0
 40
0.0
 40
0.0
 40
0.0
 40
0.240255366
 40
1.0
 40
1.0
 40
1.0
 40
1.0
 10
-103.1533345982
 20
207.3353908574
 30
0.0
 10
-104.2246079685
 20
207.7246030596
 30
0.0
 10
-108.6524946026
 20
209.4273046822
 30
0.0
 10
-112.9475652216
 20
211.4867574395
 30
0.0
 10
-116.0766061499
 20
213.2755850592
 30
0.0
  0
SPLINE
  5
354
100
AcDbEntity
  8
0
100
AcDbSpline
 62
7
  6
CONTINUOUS
 70
0
 71
3
 72
10
 73
6
 74
0
 42
0.0000001
 43
0.0000001
 44
0.0000000001
 40
0.0
 40
0.0
 40
0.0
 40
0.0
 40
0.2925308475
 40
0.5624926177
 40
1.0
 40
1.0
 40
1.0
 40
1.0
 10
-121.3318193408
 20
217.6640813449
 30
0.0
 10
-121.3759780521
 20
217.5862181944
 30
0.0
 10
-121.4478285958
 20
217.4282431773
 30
0.0
 10
-121.5274257634
 20
217.1336542862
 30
0.0
 10
-121.5264493669
 20
216.9043283265
 30
0.0
 10
-121.4787219043
 20
216.7792490592
 30
0.0
  0
SPLINE
  5
355
100
AcDbEntity
  8
0
100
AcDbSpline
 62
7
  6
CONTINUOUS
 70
0
 71
3
 72
9
 73
5
 74
0
 42
0.0000001
 43
0.0000001
 44
0.0000000001
 40
0.0
 40
0.0
 40
0.0
 40
0.0
 40
0.2620113914
 40
1.0
 40
1.0
 40
1.0
 40
1.0
 10
-121.4787219043
 20
216.7792490592
 30
0.0
 10
-121.474111874
 20
216.7671675621
 30
0.0
 10
-121.4547909768
 20
216.7217563749
 30
0.0
 10
-121.4281478868
 20
216.6792911093
 30
0.0
 10
-121.4044769784
 20
216.6516095265
 30
0.0
  0
SPLINE
  5
356
100
AcDbEntity
  8
0
100
AcDbSpline
 62
7
  6
CONTINUOUS
 70
0
 71
3
 72
9
 73
5
 74
0
 42
0.0000001
 43
0.0000001
 44
0.0000000001
 40
0.0
 40
0.0
 40
0.0
 40
0.0
 40
0.5087455063
 40
1.0
 40
1.0
 40
1.0
 40
1.0
 10
-125.7710379117
 20
228.4895318661
 30
0.0
 10
-125.4106503672
 20
227.0677983053
 30
0.0
 10
-124.5167086662
 20
224.3161031931
 30
0.0
 10
-123.2340584731
 20
221.7203631674
 30
0.0
 10
-122.5090171086
 20
220.5037516734
 30
0.0
  0
LINE
  5
357
100
AcDbEntity
  8
0
100
AcDbLine
 62
7
  6
CONTINUOUS
 10
-109.6028830082
 20
223.8073717067
 11
-109.615810788
 21
223.8123367561
  0
SPLINE
  5
358
100
AcDbEntity
  8
0
100
AcDbSpline
 62
7
  6
CONTINUOUS
 70
0
 71
3
 72
25
 73
21
 74
0
 42
0.0000001
 43
0.0000001
 44
0.0000000001
 40
0.0
 40
0.0
 40
0.0
 40
0.0
 40
0.1254336017
 40
0.2511305756
 40
0.3768895372
 40
0.4397476651
 40
0.5025664235
 40
0.5653344381
 40
0.6280430972
 40
0.690687344
 40
0.7532684494
 40
0.7845402469
 40
0.8158043742
 40
0.8470678202
 40
0.8783423071
 40
0.9096490327
 40
0.9410320921
 40
0.9567829332
 40
0.9726145615
 40
1.0
 40
1.0
 40
1.0
 40
1.0
 10
-119.9357995645
 20
237.5556385516
 30
0.0
 10
-119.6280435507
 20
236.9007867756
 30
0.0
 10
-118.9756821892
 20
235.6063734108
 30
0.0
 10
-117.8919193945
 20
233.7205011128
 30
0.0
 10
-116.9032428036
 20
232.199478019
 30
0.0
 10
-116.0641969473
 20
231.0162254155
 30
0.0
 10
-115.4119251251
 20
230.1464562229
 30
0.0
 10
-114.7376079814
 20
229.2947809824
 30
0.0
 10
-114.0422139796
 20
228.4615408939
 30
0.0
 10
-113.3267390479
 20
227.6469183271
 30
0.0
 10
-112.7144676548
 20
226.9834145959
 30
0.0
 10
-112.2157522321
 20
226.4616476176
 30
0.0
 10
-111.8375536526
 20
226.0747770957
 30
0.0
 10
-111.4549904145
 20
225.6917123775
 30
0.0
 10
-111.0694371337
 20
225.3131610164
 30
0.0
 10
-110.6767660268
 20
224.9339758089
 30
0.0
 10
-110.3579145784
 20
224.62999203
 30
0.0
 10
-110.0778293438
 20
224.3619167693
 30
0.0
 10
-109.8996859321
 20
224.1914885812
 30
0.0
 10
-109.4553668342
 20
223.7508524818
 30
0.0
 10
-109.6028830082
 20
223.8073717067
 30
0.0
  0
SPLINE
  5
359
100
AcDbEntity
  8
0
100
AcDbSpline
 62
7
  6
CONTINUOUS
 70
0
 71
3
 72
9
 73
5
 74
0
 42
0.0000001
 43
0.0000001
 44
0.0000000001
 40
0.0
 40
0.0
 40
0.0
 40
0.0
 40
0.2489143926
 40
1.0
 40
1.0
 40
1.0
 40
1.0
 10
-120.1752551831
 20
238.0753425168
 30
0.0
 10
-120.419966434
 20
238.5164506672
 30
0.0
 10
-121.3687949556
 20
240.307324174
 30
0.0
 10
-122.1767038327
 20
242.1733313377
 30
0.0
 10
-122.693235105
 20
243.6051301749
 30
0.0
  0
SPLINE
  5
35A
100
AcDbEntity
  8
0
100
AcDbSpline
 62
7
  6
CONTINUOUS
 70
0
 71
3
 72
9
 73
5
 74
0
 42
0.0000001
 43
0.0000001
 44
0.0000000001
 40
0.0
 40
0.0
 40
0.0
 40
0.0
 40
0.2505546437
 40
1.0
 40
1.0
 40
1.0
 40
1.0
 10
-122.0776525678
 20
243.7701299864
 30
0.0
 10
-121.9708601953
 20
243.2796281001
 30
0.0
 10
-121.4891066877
 20
241.3342641002
 30
0.0
 10
-120.794347619
 20
239.4432798093
 30
0.0
 10
-120.1751993076
 20
238.0753406787
 30
0.0
  0
SPLINE
  5
35B
100
AcDbEntity
  8
0
100
AcDbSpline
 62
7
  6
CONTINUOUS
 70
0
 71
3
 72
12
 73
8
 74
0
 42
0.0000001
 43
0.0000001
 44
0.0000000001
 40
0.0
 40
0.0
 40
0.0
 40
0.0
 40
0.3207378924
 40
0.6275716874
 40
0.7589219714
 40
0.8657514131
 40
1.0
 40
1.0
 40
1.0
 40
1.0
 10
-125.1807382658
 20
229.5823966499
 30
0.0
 10
-125.2122089751
 20
229.6127621485
 30
0.0
 10
-125.2760957457
 20
229.6699364056
 30
0.0
 10
-125.3588167172
 20
229.732001093
 30
0.0
 10
-125.4246465694
 20
229.7683343861
 30
0.0
 10
-125.4700016556
 20
229.7869741346
 30
0.0
 10
-125.509712036
 20
229.7900763979
 30
0.0
 10
-125.5232731541
 20
229.7777821338
 30
0.0
  0
SPLINE
  5
35C
100
AcDbEntity
  8
0
100
AcDbSpline
 62
7
  6
CONTINUOUS
 70
0
 71
3
 72
9
 73
5
 74
0
 42
0.0000001
 43
0.0000001
 44
0.0000000001
 40
0.0
 40
0.0
 40
0.0
 40
0.0
 40
0.2521599278
 40
1.0
 40
1.0
 40
1.0
 40
1.0
 10
-124.6476636898
 20
230.067642054
 30
0.0
 10
-124.3836116907
 20
229.5829368917
 30
0.0
 10
-123.2892057218
 20
227.6866559043
 30
0.0
 10
-122.0172423393
 20
225.8943235976
 30
0.0
 10
-120.9880749142
 20
224.621333635
 30
0.0
  0
SPLINE
  5
35D
100
AcDbEntity
  8
0
100
AcDbSpline
 62
7
  6
CONTINUOUS
 70
0
 71
3
 72
9
 73
5
 74
0
 42
0.0000001
 43
0.0000001
 44
0.0000000001
 40
0.0
 40
0.0
 40
0.0
 40
0.0
 40
0.2479318925
 40
1.0
 40
1.0
 40
1.0
 40
1.0
 10
-120.9880374968
 20
224.6213749253
 30
0.0
 10
-121.3609465084
 20
225.0078170364
 30
0.0
 10
-122.8400811687
 20
226.5902919203
 30
0.0
 10
-124.215896789
 20
228.2698708198
 30
0.0
 10
-125.1807445682
 20
229.5823925724
 30
0.0
  0
SPLINE
  5
35E
100
AcDbEntity
  8
0
100
AcDbSpline
 62
7
  6
CONTINUOUS
 70
0
 71
3
 72
39
 73
35
 74
0
 42
0.0000001
 43
0.0000001
 44
0.0000000001
 40
0.0
 40
0.0
 40
0.0
 40
0.0
 40
0.1281216942
 40
0.2556144492
 40
0.3822829546
 40
0.4452595967
 40
0.5079697418
 40
0.5703994444
 40
0.6325376092
 40
0.6943768786
 40
0.7559165018
 40
0.7865785592
 40
0.8171741454
 40
0.8477111235
 40
0.8782029094
 40
0.908674043
 40
0.9391759225
 40
0.9544742819
 40
0.9621491913
 40
0.9698525548
 40
0.9737196214
 40
0.9776010411
 40
0.9815018676
 40
0.9854304931
 40
0.9894028817
 40
0.9934578077
 40
0.9955513056
 40
0.9966252408
 40
0.9971359614
 40
0.9974504493
 40
0.9976557279
 40
0.9979214663
 40
0.9985577779
 40
1.0
 40
1.0
 40
1.0
 40
1.0
 10
-120.9879657127
 20
224.6209560661
 30
0.0
 10
-120.4811388959
 20
223.9940517735
 30
0.0
 10
-119.4373097707
 20
222.7693262402
 30
0.0
 10
-117.7845410496
 20
221.0204010185
 30
0.0
 10
-116.3419680954
 20
219.6403772094
 30
0.0
 10
-115.1548647693
 20
218.5856635918
 30
0.0
 10
-114.2512161128
 20
217.820995328
 30
0.0
 10
-113.3338483148
 20
217.0812381789
 30
0.0
 10
-112.4039296614
 20
216.3662799617
 30
0.0
 10
-111.4625797003
 20
215.6758832204
 30
0.0
 10
-110.6684730859
 20
215.1200243922
 30
0.0
 10
-110.028486318
 20
214.6870993625
 30
0.0
 10
-109.5467560206
 20
214.368435831
 30
0.0
 10
-109.0627723192
 20
214.0551754502
 30
0.0
 10
-108.5765082205
 20
213.74692874
 30
0.0
 10
-108.0877896654
 20
213.4430095113
 30
0.0
 10
-107.678435066
 20
213.1925278712
 30
0.0
 10
-107.390968402
 20
213.0176704276
 30
0.0
 10
-107.2261175158
 20
212.9172668087
 30
0.0
 10
-107.1227924957
 20
212.8541190702
 30
0.0
 10
-107.0399699521
 20
212.8031983482
 30
0.0
 10
-106.977630074
 20
212.764641088
 30
0.0
 10
-106.9151186135
 20
212.7256403421
 30
0.0
 10
-106.8523409765
 20
212.6859315918
 30
0.0
 10
-106.789223876
 20
212.645157885
 30
0.0
 10
-106.7362316435
 20
212.6093216313
 30
0.0
 10
-106.6998927166
 20
212.5828840812
 30
0.0
 10
-106.6817695152
 20
212.56723415
 30
0.0
 10
-106.6741622655
 20
212.5594833206
 30
0.0
 10
-106.6700636496
 20
212.5519108141
 30
0.0
 10
-106.6756667758
 20
212.5495921507
 30
0.0
 10
-106.6823916283
 20
212.5501671568
 30
0.0
 10
-106.697090123
 20
212.5530016891
 30
0.0
 10
-106.7094518849
 20
212.557100808
 30
0.0
 10
-106.7180383129
 20
212.5600370274
 30
0.0
  0
SPLINE
  5
35F
100
AcDbEntity
  8
0
100
AcDbSpline
 62
7
  6
CONTINUOUS
 70
0
 71
3
 72
13
 73
9
 74
0
 42
0.0000001
 43
0.0000001
 44
0.0000000001
 40
0.0
 40
0.0
 40
0.0
 40
0.0
 40
0.2408468049
 40
0.3637807835
 40
0.4883889045
 40
0.6144731159
 40
0.7418045527
 40
1.0
 40
1.0
 40
1.0
 40
1.0
 10
-110.7945349608
 20
214.880891966
 30
0.0
 10
-112.1805965555
 20
215.7460480754
 30
0.0
 10
-114.2237682686
 20
217.1367296489
 30
0.0
 10
-116.8383326991
 20
219.1731654396
 30
0.0
 10
-118.7647879801
 20
220.8218724082
 30
0.0
 10
-120.6345455729
 20
222.5785623695
 30
0.0
 10
-123.0505781817
 20
225.0714381301
 30
0.0
 10
-124.7283234753
 20
227.086222807
 30
0.0
 10
-125.773095869
 20
228.4921266632
 30
0.0
  0
SPLINE
  5
360
100
AcDbEntity
  8
0
100
AcDbSpline
 62
7
  6
CONTINUOUS
 70
0
 71
3
 72
10
 73
6
 74
0
 42
0.0000001
 43
0.0000001
 44
0.0000000001
 40
0.0
 40
0.0
 40
0.0
 40
0.0
 40
0.2618163385
 40
0.523813169
 40
1.0
 40
1.0
 40
1.0
 40
1.0
 10
-125.1807417981
 20
229.5823999373
 30
0.0
 10
-125.2533696335
 20
229.5273423649
 30
0.0
 10
-125.3877385737
 20
229.4021514897
 30
0.0
 10
-125.6023549708
 20
229.1277241993
 30
0.0
 10
-125.7140622323
 20
228.888094927
 30
0.0
 10
-125.7497671484
 20
228.7262258491
 30
0.0
  0
SPLINE
  5
361
100
AcDbEntity
  8
0
100
AcDbSpline
 62
7
  6
CONTINUOUS
 70
0
 71
3
 72
9
 73
5
 74
0
 42
0.0000001
 43
0.0000001
 44
0.0000000001
 40
0.0
 40
0.0
 40
0.0
 40
0.0
 40
0.2646943923
 40
1.0
 40
1.0
 40
1.0
 40
1.0
 10
-125.7497671484
 20
228.7262258491
 30
0.0
 10
-125.7542894791
 20
228.7057237562
 30
0.0
 10
-125.769057215
 20
228.6278060352
 30
0.0
 10
-125.7744485063
 20
228.547877621
 30
0.0
 10
-125.7712684756
 20
228.4896416746
 30
0.0
  0
SPLINE
  5
362
100
AcDbEntity
  8
0
100
AcDbSpline
 62
7
  6
CONTINUOUS
 70
0
 71
3
 72
9
 73
5
 74
0
 42
0.0000001
 43
0.0000001
 44
0.0000000001
 40
0.0
 40
0.0
 40
0.0
 40
0.0
 40
0.526864059
 40
1.0
 40
1.0
 40
1.0
 40
1.0
 10
-125.7710578389
 20
228.4895202582
 30
0.0
 10
-125.791735138
 20
228.5013980556
 30
0.0
 10
-125.8284752837
 20
228.5293967028
 30
0.0
 10
-125.8514853948
 20
228.5705752886
 30
0.0
 10
-125.856663288
 20
228.591354135
 30
0.0
  0
SPLINE
  5
363
100
AcDbEntity
  8
0
100
AcDbSpline
 62
7
  6
CONTINUOUS
 70
0
 71
3
 72
9
 73
5
 74
0
 42
0.0000001
 43
0.0000001
 44
0.0000000001
 40
0.0
 40
0.0
 40
0.0
 40
0.0
 40
0.254918709
 40
1.0
 40
1.0
 40
1.0
 40
1.0
 10
-123.7118754865
 20
242.7756772135
 30
0.0
 10
-123.8983502129
 20
241.962709738
 30
0.0
 10
-124.5467074845
 20
238.755384005
 30
0.0
 10
-124.8560211221
 20
235.4771584146
 30
0.0
 10
-124.8689947319
 20
233.0393288051
 30
0.0
  0
SPLINE
  5
364
100
AcDbEntity
  8
0
100
AcDbSpline
 62
7
  6
CONTINUOUS
 70
0
 71
3
 72
8
 73
4
 74
0
 42
0.0000001
 43
0.0000001
 44
0.0000000001
 40
0.0
 40
0.0
 40
0.0
 40
0.0
 40
1.0
 40
1.0
 40
1.0
 40
1.0
 10
-124.8695745585
 20
232.8179081199
 30
0.0
 10
-124.8686266954
 20
232.6792687035
 30
0.0
 10
-124.8682021461
 20
232.5406252596
 30
0.0
 10
-124.8668895214
 20
232.4019888168
 30
0.0
  0
SPLINE
  5
365
100
AcDbEntity
  8
0
100
AcDbSpline
 62
7
  6
CONTINUOUS
 70
0
 71
3
 72
11
 73
7
 74
0
 42
0.0000001
 43
0.0000001
 44
0.0000000001
 40
0.0
 40
0.0
 40
0.0
 40
0.0
 40
0.2752534618
 40
0.544966722
 40
0.7883948217
 40
1.0
 40
1.0
 40
1.0
 40
1.0
 10
-122.6932660832
 20
243.6051255069
 30
0.0
 10
-122.7106298967
 20
243.6367125936
 30
0.0
 10
-122.7494595707
 20
243.6969944992
 30
0.0
 10
-122.8205202988
 20
243.772862842
 30
0.0
 10
-122.9031716012
 20
243.823421548
 30
0.0
 10
-122.9663569246
 20
243.8277682713
 30
0.0
 10
-122.9931168212
 20
243.8205737238
 30
0.0
  0
SPLINE
  5
366
100
AcDbEntity
  8
0
100
AcDbSpline
 62
7
  6
CONTINUOUS
 70
0
 71
3
 72
13
 73
9
 74
0
 42
0.0000001
 43
0.0000001
 44
0.0000000001
 40
0.0
 40
0.0
 40
0.0
 40
0.0
 40
0.0961634108
 40
0.2034499667
 40
0.3207893574
 40
0.4467469968
 40
0.7174180546
 40
1.0
 40
1.0
 40
1.0
 40
1.0
 10
-23.1502815471
 20
214.5951001741
 30
0.0
 10
-22.2942998856
 20
214.1404860947
 30
0.0
 10
-20.4220375116
 20
213.2927534012
 30
0.0
 10
-17.3620319703
 20
212.2385277603
 30
0.0
 10
-13.9397920273
 20
211.3464815293
 30
0.0
 10
-8.849064791
 20
210.3718767062
 30
0.0
 10
-2.0243727494
 20
209.6800844198
 30
0.0
 10
3.5614967583
 20
209.6645460138
 30
0.0
 10
6.406606525
 20
209.7949707862
 30
0.0
  0
SPLINE
  5
367
100
AcDbEntity
  8
0
100
AcDbSpline
 62
7
  6
CONTINUOUS
 70
0
 71
3
 72
13
 73
9
 74
0
 42
0.0000001
 43
0.0000001
 44
0.0000000001
 40
0.0
 40
0.0
 40
0.0
 40
0.0
 40
0.2894789212
 40
0.5588001399
 40
0.6827541548
 40
0.7981099521
 40
0.9040491199
 40
1.0
 40
1.0
 40
1.0
 40
1.0
 10
9.8838941061
 20
207.9481743376
 30
0.0
 10
12.540588756
 20
208.1503713466
 30
0.0
 10
17.6559304858
 20
208.7459081465
 30
0.0
 10
23.8195037508
 20
210.0271775446
 30
0.0
 10
28.3100481725
 20
211.3590769688
 30
0.0
 10
31.2966275216
 20
212.4517550967
 30
0.0
 10
33.9611798031
 20
213.6526219432
 30
0.0
 10
35.5854741482
 20
214.5625355057
 30
0.0
 10
36.3301760077
 20
215.0372451978
 30
0.0
  0
SPLINE
  5
368
100
AcDbEntity
  8
0
100
AcDbSpline
 62
7
  6
CONTINUOUS
 70
0
 71
3
 72
10
 73
6
 74
0
 42
0.0000001
 43
0.0000001
 44
0.0000000001
 40
0.0
 40
0.0
 40
0.0
 40
0.0
 40
0.5282787809
 40
0.7680902809
 40
1.0
 40
1.0
 40
1.0
 40
1.0
 10
34.8141970686
 20
218.7607266355
 30
0.0
 10
35.2469739921
 20
219.2993137528
 30
0.0
 10
35.7903150188
 20
220.1704217483
 30
0.0
 10
36.1567285312
 20
221.4327251774
 30
0.0
 10
36.2095841651
 20
222.0524852795
 30
0.0
 10
36.2043505679
 20
222.3557483782
 30
0.0
  0
SPLINE
  5
369
100
AcDbEntity
  8
0
100
AcDbSpline
 62
7
  6
CONTINUOUS
 70
0
 71
3
 72
13
 73
9
 74
0
 42
0.0000001
 43
0.0000001
 44
0.0000000001
 40
0.0
 40
0.0
 40
0.0
 40
0.0
 40
0.2957834668
 40
0.5539987445
 40
0.6719954097
 40
0.7843226328
 40
0.8927730938
 40
1.0
 40
1.0
 40
1.0
 40
1.0
 10
30.1281087695
 20
234.4788554978
 30
0.0
 10
30.989182732
 20
234.0215368841
 30
0.0
 10
32.5518628952
 20
233.0630698625
 30
0.0
 10
34.2143247348
 20
231.5684194972
 30
0.0
 10
35.1761217933
 20
230.2703493116
 30
0.0
 10
35.6997531436
 20
229.2782902049
 30
0.0
 10
36.0315972427
 20
228.2431131958
 30
0.0
 10
36.1150583552
 20
227.5315888364
 30
0.0
 10
36.1211573676
 20
227.1781929149
 30
0.0
  0
SPLINE
  5
36A
100
AcDbEntity
  8
0
100
AcDbSpline
 62
7
  6
CONTINUOUS
 70
0
 71
3
 72
25
 73
21
 74
0
 42
0.0000001
 43
0.0000001
 44
0.0000000001
 40
0.0
 40
0.0
 40
0.0
 40
0.0
 40
0.0174980172
 40
0.0352353158
 40
0.0536919454
 40
0.0731991779
 40
0.1162773655
 40
0.1660890212
 40
0.2230344667
 40
0.2867326635
 40
0.3562782098
 40
0.4304158637
 40
0.5076587665
 40
0.5863789029
 40
0.6648846099
 40
0.7414932843
 40
0.8146050647
 40
0.8827816504
 40
0.9448450413
 40
1.0
 40
1.0
 40
1.0
 40
1.0
 10
-28.8691647058
 20
226.0565705206
 30
0.0
 10
-28.8756755353
 20
226.4338284161
 30
0.0
 10
-28.8074178326
 20
227.1972293107
 30
0.0
 10
-28.4689377831
 20
228.3117552486
 30
0.0
 10
-27.9125766208
 20
229.3829381391
 30
0.0
 10
-26.8700596142
 20
230.7928516421
 30
0.0
 10
-25.0457305517
 20
232.4233634293
 30
0.0
 10
-22.2797622908
 20
234.1132958002
 30
0.0
 10
-18.9116338775
 20
235.6059025827
 30
0.0
 10
-15.0084997992
 20
236.8820950059
 30
0.0
 10
-10.6539884136
 20
237.9184597693
 30
0.0
 10
-5.9497424143
 20
238.6918604531
 30
0.0
 10
-1.0093422698
 20
239.1839689275
 30
0.0
 10
4.0456172414
 20
239.3827186697
 30
0.0
 10
9.0898423116
 20
239.2831917081
 30
0.0
 10
13.9984690204
 20
238.8878373975
 30
0.0
 10
18.6509831197
 20
238.2062895943
 30
0.0
 10
22.9362306012
 20
237.2543317581
 30
0.0
 10
26.7545153078
 20
236.0527192045
 30
0.0
 10
29.0777374227
 20
235.036710443
 30
0.0
 10
30.1281087695
 20
234.4788554978
 30
0.0
  0
SPLINE
  5
36B
100
AcDbEntity
  8
0
100
AcDbSpline
 62
7
  6
CONTINUOUS
 70
0
 71
3
 72
9
 73
5
 74
0
 42
0.0000001
 43
0.0000001
 44
0.0000000001
 40
0.0
 40
0.0
 40
0.0
 40
0.0
 40
0.4904628791
 40
1.0
 40
1.0
 40
1.0
 40
1.0
 10
-35.4811729775
 20
226.5103714367
 30
0.0
 10
-35.8889701165
 20
226.4010320886
 30
0.0
 10
-36.7500276589
 20
226.2775596281
 30
0.0
 10
-37.6150288898
 20
226.3532598007
 30
0.0
 10
-38.046099607
 20
226.4342900667
 30
0.0
  0
SPLINE
  5
36C
100
AcDbEntity
  8
0
100
AcDbSpline
 62
7
  6
CONTINUOUS
 70
0
 71
3
 72
11
 73
7
 74
0
 42
0.0000001
 43
0.0000001
 44
0.0000000001
 40
0.0
 40
0.0
 40
0.0
 40
0.0
 40
0.2196849144
 40
0.4436274694
 40
0.6981414234
 40
1.0
 40
1.0
 40
1.0
 40
1.0
 10
-39.4272309175
 20
227.6801454372
 30
0.0
 10
-39.4243767039
 20
227.532525415
 30
0.0
 10
-39.3592132824
 20
227.2308752625
 30
0.0
 10
-39.0668007383
 20
226.8471568622
 30
0.0
 10
-38.609004969
 20
226.5729366565
 30
0.0
 10
-38.2454831892
 20
226.471769079
 30
0.0
 10
-38.0460996065
 20
226.4342900666
 30
0.0
  0
SPLINE
  5
36D
100
AcDbEntity
  8
0
100
AcDbSpline
 62
7
  6
CONTINUOUS
 70
0
 71
3
 72
13
 73
9
 74
0
 42
0.0000001
 43
0.0000001
 44
0.0000000001
 40
0.0
 40
0.0
 40
0.0
 40
0.0
 40
0.0985023611
 40
0.2002663451
 40
0.4239445332
 40
0.55051262
 40
0.6883825411
 40
1.0
 40
1.0
 40
1.0
 40
1.0
 10
-28.7859035492
 20
221.2341271548
 30
0.0
 10
-28.7807462699
 20
220.9352863305
 30
0.0
 10
-28.7086297051
 20
220.3271112994
 30
0.0
 10
-28.3106537453
 20
219.0967353439
 30
0.0
 10
-27.5390383857
 20
217.931529807
 30
0.0
 10
-26.505617602
 20
216.8691920811
 30
0.0
 10
-25.1556238772
 20
215.7537038233
 30
0.0
 10
-23.9853534395
 20
215.0386090209
 30
0.0
 10
-23.1502815471
 20
214.5951001741
 30
0.0
  0
SPLINE
  5
36E
100
AcDbEntity
  8
0
100
AcDbSpline
 62
7
  6
CONTINUOUS
 70
0
 71
3
 72
9
 73
5
 74
0
 42
0.0000001
 43
0.0000001
 44
0.0000000001
 40
0.0
 40
0.0
 40
0.0
 40
0.0
 40
0.4895379523
 40
1.0
 40
1.0
 40
1.0
 40
1.0
 10
-35.9989960428
 20
228.4421470423
 30
0.0
 10
-35.6125012142
 20
228.5457463965
 30
0.0
 10
-34.8470764865
 20
228.858574798
 30
0.0
 10
-34.1797883865
 20
229.3438914348
 30
0.0
 10
-33.8690833659
 20
229.6223749854
 30
0.0
  0
SPLINE
  5
36F
100
AcDbEntity
  8
0
100
AcDbSpline
 62
7
  6
CONTINUOUS
 70
0
 71
3
 72
9
 73
5
 74
0
 42
0.0000001
 43
0.0000001
 44
0.0000000001
 40
0.0
 40
0.0
 40
0.0
 40
0.0
 40
0.2677488914
 40
1.0
 40
1.0
 40
1.0
 40
1.0
 10
35.9671791055
 20
217.3419568391
 30
0.0
 10
35.721352481
 20
217.6659405987
 30
0.0
 10
34.7685462886
 20
218.8485695787
 30
0.0
 10
33.6714414322
 20
219.9201283314
 30
0.0
 10
32.788810785
 20
220.5969013304
 30
0.0
  0
SPLINE
  5
370
100
AcDbEntity
  8
0
100
AcDbSpline
 62
7
  6
CONTINUOUS
 70
0
 71
3
 72
9
 73
5
 74
0
 42
0.0000001
 43
0.0000001
 44
0.0000000001
 40
0.0
 40
0.0
 40
0.0
 40
0.0
 40
0.5128726474
 40
1.0
 40
1.0
 40
1.0
 40
1.0
 10
36.3074871052
 20
216.3519114294
 30
0.0
 10
36.3043637312
 20
216.532889519
 30
0.0
 10
36.2334821442
 20
216.8850787775
 30
0.0
 10
36.0710968691
 20
217.2049998769
 30
0.0
 10
35.9671791055
 20
217.3419568391
 30
0.0
  0
SPLINE
  5
371
100
AcDbEntity
  8
0
100
AcDbSpline
 62
7
  6
CONTINUOUS
 70
0
 71
3
 72
9
 73
5
 74
0
 42
0.0000001
 43
0.0000001
 44
0.0000000001
 40
0.0
 40
0.0
 40
0.0
 40
0.0
 40
0.2445264205
 40
1.0
 40
1.0
 40
1.0
 40
1.0
 10
-20.8187545351
 20
236.3352325368
 30
0.0
 10
-20.4926341696
 20
236.3637766966
 30
0.0
 10
-19.1546457476
 20
236.4326637583
 30
0.0
 10
-17.8130460301
 20
236.3431014335
 30
0.0
 10
-16.8079228479
 20
236.2304781018
 30
0.0
  0
SPLINE
  5
372
100
AcDbEntity
  8
0
100
AcDbSpline
 62
7
  6
CONTINUOUS
 70
0
 71
3
 72
11
 73
7
 74
0
 42
0.0000001
 43
0.0000001
 44
0.0000000001
 40
0.0
 40
0.0
 40
0.0
 40
0.0
 40
0.191834565
 40
0.420174234
 40
0.6895659611
 40
1.0
 40
1.0
 40
1.0
 40
1.0
 10
-39.4588330471
 20
229.6021824748
 30
0.0
 10
-39.4518615679
 20
229.7969159596
 30
0.0
 10
-39.3351796969
 20
230.2198402061
 30
0.0
 10
-38.9480111742
 20
230.8119523941
 30
0.0
 10
-38.3463705396
 20
231.3795738675
 30
0.0
 10
-37.8463332835
 20
231.6971680785
 30
0.0
 10
-37.5680664061
 20
231.8454876586
 30
0.0
  0
SPLINE
  5
373
100
AcDbEntity
  8
0
100
AcDbSpline
 62
7
  6
CONTINUOUS
 70
0
 71
3
 72
9
 73
5
 74
0
 42
0.0000001
 43
0.0000001
 44
0.0000000001
 40
0.0
 40
0.0
 40
0.0
 40
0.0
 40
0.4826899978
 40
1.0
 40
1.0
 40
1.0
 40
1.0
 10
-37.5680664061
 20
231.8454876586
 30
0.0
 10
-36.5816962102
 20
232.3712347931
 30
0.0
 10
-34.4834851176
 20
233.3606322925
 30
0.0
 10
-32.2967881517
 20
234.1356827576
 30
0.0
 10
-31.150016869
 20
234.4819357094
 30
0.0
  0
SPLINE
  5
374
100
AcDbEntity
  8
0
100
AcDbSpline
 62
7
  6
CONTINUOUS
 70
0
 71
3
 72
9
 73
5
 74
0
 42
0.0000001
 43
0.0000001
 44
0.0000000001
 40
0.0
 40
0.0
 40
0.0
 40
0.0
 40
0.2417122998
 40
1.0
 40
1.0
 40
1.0
 40
1.0
 10
-28.7654212333
 20
235.1211396435
 30
0.0
 10
-28.1346878099
 20
235.2699273356
 30
0.0
 10
-25.5110348887
 20
235.8257627014
 30
0.0
 10
-22.8440261739
 20
236.1579676877
 30
0.0
 10
-20.8187545351
 20
236.3352325368
 30
0.0
  0
SPLINE
  5
375
100
AcDbEntity
  8
0
100
AcDbSpline
 62
7
  6
CONTINUOUS
 70
0
 71
3
 72
9
 73
5
 74
0
 42
0.0000001
 43
0.0000001
 44
0.0000000001
 40
0.0
 40
0.0
 40
0.0
 40
0.0
 40
0.5064698752
 40
1.0
 40
1.0
 40
1.0
 40
1.0
 10
-33.8690833659
 20
229.6223749854
 30
0.0
 10
-33.3331353486
 20
229.9637240371
 30
0.0
 10
-32.2257685059
 20
230.5644078622
 30
0.0
 10
-31.0381422556
 20
230.9868622985
 30
0.0
 10
-30.4400700285
 20
231.147178838
 30
0.0
  0
SPLINE
  5
376
100
AcDbEntity
  8
0
100
AcDbSpline
 62
7
  6
CONTINUOUS
 70
0
 71
3
 72
9
 73
5
 74
0
 42
0.0000001
 43
0.0000001
 44
0.0000000001
 40
0.0
 40
0.0
 40
0.0
 40
0.0
 40
0.50272952
 40
1.0
 40
1.0
 40
1.0
 40
1.0
 10
-28.529082435
 20
228.0555963689
 30
0.0
 10
-28.897675655
 20
228.0764461192
 30
0.0
 10
-29.6347136015
 20
228.0451546468
 30
0.0
 10
-30.362034366
 20
227.9459252247
 30
0.0
 10
-30.7244958388
 20
227.9015021393
 30
0.0
  0
SPLINE
  5
377
100
AcDbEntity
  8
0
100
AcDbSpline
 62
7
  6
CONTINUOUS
 70
0
 71
3
 72
13
 73
9
 74
0
 42
0.0000001
 43
0.0000001
 44
0.0000000001
 40
0.0
 40
0.0
 40
0.0
 40
0.0
 40
0.0959508493
 40
0.2018899498
 40
0.3172456944
 40
0.4411996977
 40
0.7105209961
 40
1.0
 40
1.0
 40
1.0
 40
1.0
 10
36.3074871052
 20
216.3519114294
 30
0.0
 10
35.5627854546
 20
215.8772018707
 30
0.0
 10
33.9384924117
 20
214.9672877781
 30
0.0
 10
31.2739421314
 20
213.766419539
 30
0.0
 10
28.2873643034
 20
212.6737403502
 30
0.0
 10
23.7968197262
 20
211.3418401766
 30
0.0
 10
17.6332443116
 20
210.0605724875
 30
0.0
 10
12.5179007193
 20
209.4650376441
 30
0.0
 10
9.8612052035
 20
209.2628405692
 30
0.0
  0
SPLINE
  5
378
100
AcDbEntity
  8
0
100
AcDbSpline
 62
7
  6
CONTINUOUS
 70
0
 71
3
 72
12
 73
8
 74
0
 42
0.0000001
 43
0.0000001
 44
0.0000000001
 40
0.0
 40
0.0
 40
0.0
 40
0.0
 40
0.1026489035
 40
0.2079334996
 40
0.4350837107
 40
0.6965398815
 40
1.0
 40
1.0
 40
1.0
 40
1.0
 10
36.1211477777
 20
227.1781927494
 30
0.0
 10
36.1256559741
 20
226.9160479189
 30
0.0
 10
36.0877108396
 20
226.3830954352
 30
0.0
 10
35.8196119938
 20
225.2998047558
 30
0.0
 10
35.0975032388
 20
223.9394393677
 30
0.0
 10
33.7318835662
 20
222.4288507009
 30
0.0
 10
32.5834786024
 20
221.544076372
 30
0.0
 10
31.9410912908
 20
221.1103657045
 30
0.0
  0
SPLINE
  5
379
100
AcDbEntity
  8
0
100
AcDbSpline
 62
7
  6
CONTINUOUS
 70
0
 71
3
 72
19
 73
15
 74
0
 42
0.0000001
 43
0.0000001
 44
0.0000000001
 40
0.0
 40
0.0
 40
0.0
 40
0.0
 40
0.0457462829
 40
0.097153297
 40
0.1538497461
 40
0.2152622227
 40
0.3491856187
 40
0.4920582738
 40
0.6360668715
 40
0.7732928446
 40
0.8370726712
 40
0.896529802
 40
0.9510061025
 40
1.0
 40
1.0
 40
1.0
 40
1.0
 10
31.9410912908
 20
221.1103657045
 30
0.0
 10
31.221546838
 20
220.6245620478
 30
0.0
 10
29.6200718407
 20
219.7003884497
 30
0.0
 10
26.9516193194
 20
218.5064932438
 30
0.0
 10
23.9129967398
 20
217.4398356667
 30
0.0
 10
19.2971123722
 20
216.1744625233
 30
0.0
 10
12.9624869
 20
215.0533285892
 30
0.0
 10
4.9886569318
 20
214.4404793411
 30
0.0
 10
-3.0703245
 20
214.5673180271
 30
0.0
 10
-9.5907543732
 20
215.296287725
 30
0.0
 10
-14.440281001
 20
216.2675011245
 30
0.0
 10
-17.7006088844
 20
217.1418863252
 30
0.0
 10
-20.6216418364
 20
218.1652799205
 30
0.0
 10
-22.4123184301
 20
218.9814078306
 30
0.0
 10
-23.2335087255
 20
219.4175441253
 30
0.0
  0
SPLINE
  5
37A
100
AcDbEntity
  8
0
100
AcDbSpline
 62
7
  6
CONTINUOUS
 70
0
 71
3
 72
9
 73
5
 74
0
 42
0.0000001
 43
0.0000001
 44
0.0000000001
 40
0.0
 40
0.0
 40
0.0
 40
0.0
 40
0.492090379
 40
1.0
 40
1.0
 40
1.0
 40
1.0
 10
-30.4400700285
 20
231.147178838
 30
0.0
 10
-29.7329954873
 20
231.3367140454
 30
0.0
 10
-28.2563800072
 20
231.5859652683
 30
0.0
 10
-26.7605342617
 20
231.5608945907
 30
0.0
 10
-26.0085487079
 20
231.4873875199
 30
0.0
  0
SPLINE
  5
37B
100
AcDbEntity
  8
0
100
AcDbSpline
 62
7
  6
CONTINUOUS
 70
0
 71
3
 72
13
 73
9
 74
0
 42
0.0000001
 43
0.0000001
 44
0.0000000001
 40
0.0
 40
0.0
 40
0.0
 40
0.0
 40
0.0954823004
 40
0.2011267411
 40
0.3163563113
 40
0.4403328558
 40
0.7100138758
 40
1.0
 40
1.0
 40
1.0
 40
1.0
 10
35.9671791055
 20
217.3419568391
 30
0.0
 10
35.2290415068
 20
216.8645576539
 30
0.0
 10
33.6147555904
 20
215.9497874077
 30
0.0
 10
30.9602840326
 20
214.7443011845
 30
0.0
 10
27.9778043833
 20
213.6482870709
 30
0.0
 10
23.4841847183
 20
212.3136454784
 30
0.0
 10
17.3094733124
 20
211.0356029643
 30
0.0
 10
12.1834729734
 20
210.4489157118
 30
0.0
 10
9.5208972038
 20
210.2528859789
 30
0.0
  0
SPLINE
  5
37C
100
AcDbEntity
  8
0
100
AcDbSpline
 62
7
  6
CONTINUOUS
 70
0
 71
3
 72
11
 73
7
 74
0
 42
0.0000001
 43
0.0000001
 44
0.0000000001
 40
0.0
 40
0.0
 40
0.0
 40
0.0
 40
0.3011446996
 40
0.5544168152
 40
0.7781247544
 40
1.0
 40
1.0
 40
1.0
 40
1.0
 10
-38.0789084649
 20
228.3353383127
 30
0.0
 10
-38.2770959788
 20
228.3645944119
 30
0.0
 10
-38.6393372737
 20
228.4511202658
 30
0.0
 10
-39.0986633619
 20
228.710706589
 30
0.0
 10
-39.39229542
 20
229.0890833212
 30
0.0
 10
-39.4566126444
 20
229.3893587805
 30
0.0
 10
-39.4593961393
 20
229.5369341057
 30
0.0
  0
SPLINE
  5
37D
100
AcDbEntity
  8
0
100
AcDbSpline
 62
7
  6
CONTINUOUS
 70
0
 71
3
 72
14
 73
10
 74
0
 42
0.0000001
 43
0.0000001
 44
0.0000000001
 40
0.0
 40
0.0
 40
0.0
 40
0.0
 40
0.295478503
 40
0.4361265166
 40
0.5694496795
 40
0.6937376549
 40
0.8075540287
 40
0.9098373696
 40
1.0
 40
1.0
 40
1.0
 40
1.0
 10
6.3425288834
 20
213.5078304701
 30
0.0
 10
9.0698916911
 20
213.6328575174
 30
0.0
 10
13.0915018543
 20
214.0044305541
 30
0.0
 10
18.2782689611
 20
214.9009467684
 30
0.0
 10
21.8649053702
 20
215.7348629182
 30
0.0
 10
25.1531279548
 20
216.7270585529
 30
0.0
 10
28.0906994818
 20
217.8613171554
 30
0.0
 10
30.6303902571
 20
219.1190428331
 30
0.0
 10
32.1282938311
 20
220.0891805901
 30
0.0
 10
32.788810785
 20
220.5969013304
 30
0.0
  0
SPLINE
  5
37E
100
AcDbEntity
  8
0
100
AcDbSpline
 62
7
  6
CONTINUOUS
 70
0
 71
3
 72
9
 73
5
 74
0
 42
0.0000001
 43
0.0000001
 44
0.0000000001
 40
0.0
 40
0.0
 40
0.0
 40
0.0
 40
0.4871392601
 40
1.0
 40
1.0
 40
1.0
 40
1.0
 10
9.5208972038
 20
210.2528859789
 30
0.0
 10
9.6248174448
 20
210.1159257517
 30
0.0
 10
9.7871976309
 20
209.7960021553
 30
0.0
 10
9.858081904
 20
209.4438143475
 30
0.0
 10
9.8612052035
 20
209.2628405692
 30
0.0
  0
SPLINE
  5
37F
100
AcDbEntity
  8
0
100
AcDbSpline
 62
7
  6
CONTINUOUS
 70
0
 71
3
 72
9
 73
5
 74
0
 42
0.0000001
 43
0.0000001
 44
0.0000000001
 40
0.0
 40
0.0
 40
0.0
 40
0.0
 40
0.5078083298
 40
1.0
 40
1.0
 40
1.0
 40
1.0
 10
-38.0789084655
 20
228.3353383128
 30
0.0
 10
-37.7283104454
 20
228.2835836374
 30
0.0
 10
-37.0263475761
 20
228.2453011734
 30
0.0
 10
-36.3307819715
 20
228.3532123259
 30
0.0
 10
-35.9989960428
 20
228.4421470423
 30
0.0
  0
SPLINE
  5
380
100
AcDbEntity
  8
0
100
AcDbSpline
 62
7
  6
CONTINUOUS
 70
0
 71
3
 72
9
 73
5
 74
0
 42
0.0000001
 43
0.0000001
 44
0.0000000001
 40
0.0
 40
0.0
 40
0.0
 40
0.0
 40
0.2327925176
 40
1.0
 40
1.0
 40
1.0
 40
1.0
 10
6.3425288834
 20
213.5078304701
 30
0.0
 10
6.6231513948
 20
213.2926580883
 30
0.0
 10
7.7929588053
 20
212.3220102194
 30
0.0
 10
8.816449771
 20
211.1813026149
 30
0.0
 10
9.5208972038
 20
210.2528859789
 30
0.0
  0
SPLINE
  5
381
100
AcDbEntity
  8
0
100
AcDbSpline
 62
7
  6
CONTINUOUS
 70
0
 71
3
 72
9
 73
5
 74
0
 42
0.0000001
 43
0.0000001
 44
0.0000000001
 40
0.0
 40
0.0
 40
0.0
 40
0.0
 40
0.2568467389
 40
1.0
 40
1.0
 40
1.0
 40
1.0
 10
-23.2335087255
 20
219.4175441253
 30
0.0
 10
-23.3427277505
 20
219.4755506326
 30
0.0
 10
-23.7660858003
 20
219.7048855869
 30
0.0
 10
-24.1817728165
 20
219.9484876763
 30
0.0
 10
-24.4850261825
 20
220.1384059196
 30
0.0
  0
SPLINE
  5
382
100
AcDbEntity
  8
0
100
AcDbSpline
 62
7
  6
CONTINUOUS
 70
0
 71
3
 72
12
 73
8
 74
0
 42
0.0000001
 43
0.0000001
 44
0.0000000001
 40
0.0
 40
0.0
 40
0.0
 40
0.0
 40
0.3034858039
 40
0.564903445
 40
0.7920562025
 40
0.8973457433
 40
1.0
 40
1.0
 40
1.0
 40
1.0
 10
-24.4850261825
 20
220.1384059196
 30
0.0
 10
-25.1416957508
 20
220.5496578455
 30
0.0
 10
-26.3192876895
 20
221.3940715712
 30
0.0
 10
-27.7351958063
 20
222.8563485536
 30
0.0
 10
-28.5032352358
 20
224.1904320351
 30
0.0
 10
-28.8083542246
 20
225.2634046659
 30
0.0
 10
-28.8646486545
 20
225.7945267461
 30
0.0
 10
-28.8691551159
 20
226.056570686
 30
0.0
  0
SPLINE
  5
383
100
AcDbEntity
  8
0
100
AcDbSpline
 62
7
  6
CONTINUOUS
 70
0
 71
3
 72
9
 73
5
 74
0
 42
0.0000001
 43
0.0000001
 44
0.0000000001
 40
0.0
 40
0.0
 40
0.0
 40
0.0
 40
0.2626035978
 40
1.0
 40
1.0
 40
1.0
 40
1.0
 10
-22.8870208642
 20
220.6561184481
 30
0.0
 10
-23.0673452718
 20
220.7554600854
 30
0.0
 10
-23.7483409675
 20
221.1438274233
 30
0.0
 10
-24.406141405
 20
221.5740216463
 30
0.0
 10
-24.8697775486
 20
221.919349925
 30
0.0
  0
SPLINE
  5
384
100
AcDbEntity
  8
0
100
AcDbSpline
 62
7
  6
CONTINUOUS
 70
0
 71
3
 72
9
 73
5
 74
0
 42
0.0000001
 43
0.0000001
 44
0.0000000001
 40
0.0
 40
0.0
 40
0.0
 40
0.0
 40
0.2590838029
 40
1.0
 40
1.0
 40
1.0
 40
1.0
 10
-24.8697775486
 20
221.919349925
 30
0.0
 10
-24.9654725072
 20
221.9906260232
 30
0.0
 10
-25.3312844095
 20
222.2704305452
 30
0.0
 10
-25.6824797051
 20
222.5696077308
 30
0.0
 10
-25.9312641796
 20
222.8031583686
 30
0.0
  0
SPLINE
  5
385
100
AcDbEntity
  8
0
100
AcDbSpline
 62
7
  6
CONTINUOUS
 70
0
 71
3
 72
9
 73
5
 74
0
 42
0.0000001
 43
0.0000001
 44
0.0000000001
 40
0.0
 40
0.0
 40
0.0
 40
0.0
 40
0.2617951372
 40
1.0
 40
1.0
 40
1.0
 40
1.0
 10
-26.0360200917
 20
222.9028740295
 30
0.0
 10
-26.1352193574
 20
222.9986333263
 30
0.0
 10
-26.506649618
 20
223.371976295
 30
0.0
 10
-26.8468013631
 20
223.7773136645
 30
0.0
 10
-27.0715631747
 20
224.0945460977
 30
0.0
  0
SPLINE
  5
386
100
AcDbEntity
  8
0
100
AcDbSpline
 62
7
  6
CONTINUOUS
 70
0
 71
3
 72
9
 73
5
 74
0
 42
0.0000001
 43
0.0000001
 44
0.0000000001
 40
0.0
 40
0.0
 40
0.0
 40
0.0
 40
0.2582493328
 40
1.0
 40
1.0
 40
1.0
 40
1.0
 10
-27.0715631747
 20
224.0945460977
 30
0.0
 10
-27.1279437254
 20
224.1741225132
 30
0.0
 10
-27.3398746144
 20
224.4866907006
 30
0.0
 10
-27.5251569183
 20
224.817679764
 30
0.0
 10
-27.6429195655
 20
225.0718375002
 30
0.0
  0
SPLINE
  5
387
100
AcDbEntity
  8
0
100
AcDbSpline
 62
7
  6
CONTINUOUS
 70
0
 71
3
 72
9
 73
5
 74
0
 42
0.0000001
 43
0.0000001
 44
0.0000000001
 40
0.0
 40
0.0
 40
0.0
 40
0.0
 40
0.5059670537
 40
1.0
 40
1.0
 40
1.0
 40
1.0
 10
-27.8162070986
 20
225.4918348661
 30
0.0
 10
-27.9153630633
 20
225.7655743222
 30
0.0
 10
-28.0647208826
 20
226.3250984585
 30
0.0
 10
-28.1036490835
 20
226.9033813009
 30
0.0
 10
-28.0949181441
 20
227.1875246738
 30
0.0
  0
SPLINE
  5
388
100
AcDbEntity
  8
0
100
AcDbSpline
 62
7
  6
CONTINUOUS
 70
0
 71
3
 72
9
 73
5
 74
0
 42
0.0000001
 43
0.0000001
 44
0.0000000001
 40
0.0
 40
0.0
 40
0.0
 40
0.0
 40
0.2483520461
 40
1.0
 40
1.0
 40
1.0
 40
1.0
 10
-28.0949181441
 20
227.1875246738
 30
0.0
 10
-28.0928835617
 20
227.2537389811
 30
0.0
 10
-28.0786785024
 20
227.5201426226
 30
0.0
 10
-28.040295949
 20
227.7851955231
 30
0.0
 10
-27.9988285082
 20
227.9813553771
 30
0.0
  0
SPLINE
  5
389
100
AcDbEntity
  8
0
100
AcDbSpline
 62
7
  6
CONTINUOUS
 70
0
 71
3
 72
14
 73
10
 74
0
 42
0.0000001
 43
0.0000001
 44
0.0000000001
 40
0.0
 40
0.0
 40
0.0
 40
0.0
 40
0.087110908
 40
0.1818671382
 40
0.2869275452
 40
0.4039422708
 40
0.5337549216
 40
0.6766040022
 40
1.0
 40
1.0
 40
1.0
 40
1.0
 10
-27.9988285082
 20
227.9813553771
 30
0.0
 10
-27.9190642798
 20
228.3586764528
 30
0.0
 10
-27.6531240382
 20
229.1274519551
 30
0.0
 10
-26.9915082238
 20
230.2202372863
 30
0.0
 10
-26.0665489237
 20
231.2822759493
 30
0.0
 10
-24.8880872389
 20
232.3071623498
 30
0.0
 10
-23.465925636
 20
233.2890059726
 30
0.0
 10
-21.1638122757
 20
234.5843576652
 30
0.0
 10
-19.250880319
 20
235.381697989
 30
0.0
 10
-17.9030287037
 20
235.8646036826
 30
0.0
  0
SPLINE
  5
38A
100
AcDbEntity
  8
0
100
AcDbSpline
 62
7
  6
CONTINUOUS
 70
0
 71
3
 72
15
 73
11
 74
0
 42
0.0000001
 43
0.0000001
 44
0.0000000001
 40
0.0
 40
0.0
 40
0.0
 40
0.0
 40
0.1097139737
 40
0.2293662932
 40
0.3564360433
 40
0.4880881933
 40
0.6213062599
 40
0.7530135149
 40
0.8801912313
 40
1.0
 40
1.0
 40
1.0
 40
1.0
 10
-17.9030287037
 20
235.8646036826
 30
0.0
 10
-16.5608039175
 20
236.3454934067
 30
0.0
 10
-13.7018004723
 20
237.2054019805
 30
0.0
 10
-9.1695814721
 20
238.1800171428
 30
0.0
 10
-4.2983428956
 20
238.8768033296
 30
0.0
 10
0.7825650173
 20
239.2765371092
 30
0.0
 10
5.938531879
 20
239.3683148693
 30
0.0
 10
11.0326785114
 20
239.1496788199
 30
0.0
 10
15.9293755609
 20
238.6267792052
 30
0.0
 10
19.0930796138
 20
238.0643315917
 30
0.0
 10
20.613240566
 20
237.727845352
 30
0.0
  0
SPLINE
  5
38B
100
AcDbEntity
  8
0
100
AcDbSpline
 62
7
  6
CONTINUOUS
 70
0
 71
3
 72
10
 73
6
 74
0
 42
0.0000001
 43
0.0000001
 44
0.0000000001
 40
0.0
 40
0.0
 40
0.0
 40
0.0
 40
0.5377350767
 40
0.7790543126
 40
1.0
 40
1.0
 40
1.0
 40
1.0
 10
20.613240566
 20
237.727845352
 30
0.0
 10
22.3217785876
 20
237.3496620199
 30
0.0
 10
24.7766465437
 20
236.6864371619
 30
0.0
 10
27.8200519861
 20
235.5286000473
 30
0.0
 10
29.1831192467
 20
234.8870156149
 30
0.0
 10
29.8181178108
 20
234.5497662314
 30
0.0
  0
SPLINE
  5
38C
100
AcDbEntity
  8
0
100
AcDbSpline
 62
7
  6
CONTINUOUS
 70
0
 71
3
 72
19
 73
15
 74
0
 42
0.0000001
 43
0.0000001
 44
0.0000000001
 40
0.0
 40
0.0
 40
0.0
 40
0.0
 40
0.0485289559
 40
0.1023638327
 40
0.161037863
 40
0.2239429462
 40
0.3593772338
 40
0.5019559944
 40
0.6442572631
 40
0.77888391
 40
0.8412080698
 40
0.8992042833
 40
0.9522782203
 40
1.0
 40
1.0
 40
1.0
 40
1.0
 10
-22.5974379673
 20
220.4994785217
 30
0.0
 10
-21.8186214951
 20
220.0858470744
 30
0.0
 10
-20.1238490932
 20
219.3100641287
 30
0.0
 10
-17.3629161065
 20
218.3319520795
 30
0.0
 10
-14.2856234906
 20
217.4909993026
 30
0.0
 10
-9.7091603742
 20
216.5472072277
 30
0.0
 10
-3.5453941958
 20
215.8146422392
 30
0.0
 10
4.1001341882
 20
215.6280743308
 30
0.0
 10
11.7168583382
 20
216.1284456967
 30
0.0
 10
17.8149039764
 20
217.1137038819
 30
0.0
 10
22.3098732376
 20
218.2456228656
 30
0.0
 10
25.3117036748
 20
219.2119022229
 30
0.0
 10
27.9864838485
 20
220.3019644989
 30
0.0
 10
29.6158352302
 20
221.1473271958
 30
0.0
 10
30.3597497172
 20
221.5929542363
 30
0.0
  0
SPLINE
  5
38D
100
AcDbEntity
  8
0
100
AcDbSpline
 62
7
  6
CONTINUOUS
 70
0
 71
3
 72
17
 73
13
 74
0
 42
0.0000001
 43
0.0000001
 44
0.0000000001
 40
0.0
 40
0.0
 40
0.0
 40
0.0
 40
0.1547374662
 40
0.2863181266
 40
0.398451827
 40
0.4497202677
 40
0.4994571769
 40
0.5492186313
 40
0.6005590301
 40
0.7129501447
 40
0.8448703951
 40
1.0
 40
1.0
 40
1.0
 40
1.0
 10
30.3597497172
 20
221.5929542363
 30
0.0
 10
31.1152271786
 20
222.0455078445
 30
0.0
 10
32.4652235043
 20
222.9716578447
 30
0.0
 10
34.0868269001
 20
224.5783373781
 30
0.0
 10
34.9560169853
 20
226.0485231805
 30
0.0
 10
35.2776125255
 20
227.2249448298
 30
0.0
 10
35.3446401953
 20
228.0858030085
 30
0.0
 10
35.2426707308
 20
228.9436284251
 30
0.0
 10
34.8734051672
 20
230.1080548858
 30
0.0
 10
33.9452203307
 20
231.5460234665
 30
0.0
 10
32.2600349407
 20
233.0939997462
 30
0.0
 10
30.8732440656
 20
233.9718139124
 30
0.0
 10
30.0997577591
 20
234.3974965531
 30
0.0
  0
SPLINE
  5
38E
100
AcDbEntity
  8
0
100
AcDbSpline
 62
7
  6
CONTINUOUS
 70
0
 71
3
 72
19
 73
15
 74
0
 42
0.0000001
 43
0.0000001
 44
0.0000000001
 40
0.0
 40
0.0
 40
0.0
 40
0.0
 40
0.1300541404
 40
0.2656684278
 40
0.3344130301
 40
0.4029810503
 40
0.5372301579
 40
0.6648520445
 40
0.7255483066
 40
0.783962091
 40
0.8402158026
 40
0.8946210686
 40
0.9476700431
 40
1.0
 40
1.0
 40
1.0
 40
1.0
 10
4.5725481544
 20
192.2255257159
 30
0.0
 10
4.5725481544
 20
190.2142579398
 30
0.0
 10
4.0461102505
 20
186.0950832341
 30
0.0
 10
2.2683351119
 20
181.196157525
 30
0.0
 10
0.2247364042
 20
177.495236801
 30
0.0
 10
-2.1841017589
 20
174.0469980508
 30
0.0
 10
-5.7611077304
 20
170.3390983666
 30
0.0
 10
-9.990505036
 20
167.5932746651
 30
0.0
 10
-13.5458707034
 20
166.1792879603
 30
0.0
 10
-16.1908204501
 20
165.5370515315
 30
0.0
 10
-18.8064458029
 20
165.31037695
 30
0.0
 10
-21.3428429166
 20
165.5060577311
 30
0.0
 10
-23.7486792666
 20
166.1221335026
 30
0.0
 10
-25.2383642037
 20
166.8089465044
 30
0.0
 10
-25.9391602776
 20
167.213681954
 30
0.0
  0
SPLINE
  5
38F
100
AcDbEntity
  8
0
100
AcDbSpline
 62
7
  6
CONTINUOUS
 70
0
 71
3
 72
11
 73
7
 74
0
 42
0.0000001
 43
0.0000001
 44
0.0000000001
 40
0.0
 40
0.0
 40
0.0
 40
0.0
 40
0.2717748112
 40
0.526869873
 40
0.7676346335
 40
1.0
 40
1.0
 40
1.0
 40
1.0
 10
-28.9194509709
 20
188.9936530585
 30
0.0
 10
-28.9194509709
 20
188.5356113503
 30
0.0
 10
-28.8303960079
 20
187.6438598379
 30
0.0
 10
-28.4038705566
 20
186.4085883139
 30
0.0
 10
-27.7049131924
 20
185.3808180687
 30
0.0
 10
-27.0723749904
 20
184.8720291878
 30
0.0
 10
-26.7332438808
 20
184.6761772535
 30
0.0
  0
SPLINE
  5
390
100
AcDbEntity
  8
0
100
AcDbSpline
 62
7
  6
CONTINUOUS
 70
0
 71
3
 72
11
 73
7
 74
0
 42
0.0000001
 43
0.0000001
 44
0.0000000001
 40
0.0
 40
0.0
 40
0.0
 40
0.0
 40
0.2717748112
 40
0.526869873
 40
0.7676346335
 40
1.0
 40
1.0
 40
1.0
 40
1.0
 10
-11.0263635002
 20
193.789993257
 30
0.0
 10
-11.0263635002
 20
193.3319515489
 30
0.0
 10
-10.9373085373
 20
192.4402000365
 30
0.0
 10
-10.5107830859
 20
191.2049285124
 30
0.0
 10
-9.8118257217
 20
190.1771582672
 30
0.0
 10
-9.1792875197
 20
189.6683693863
 30
0.0
 10
-8.8401564101
 20
189.4725174521
 30
0.0
  0
SPLINE
  5
391
100
AcDbEntity
  8
0
100
AcDbSpline
 62
7
  6
CONTINUOUS
 70
0
 71
3
 72
10
 73
6
 74
0
 42
0.0000001
 43
0.0000001
 44
0.0000000001
 40
0.0
 40
0.0
 40
0.0
 40
0.0
 40
0.2403281524
 40
0.485096085
 40
1.0
 40
1.0
 40
1.0
 40
1.0
 10
-13.3985329865
 20
179.7742531361
 30
0.0
 10
-13.5448511939
 20
179.8587366578
 30
0.0
 10
-13.8597429936
 20
179.9977812017
 30
0.0
 10
-14.5518092838
 20
180.141880754
 30
0.0
 10
-15.0994977059
 20
180.0869073136
 30
0.0
 10
-15.4491449334
 20
179.9931824573
 30
0.0
  0
SPLINE
  5
392
100
AcDbEntity
  8
0
100
AcDbSpline
 62
7
  6
CONTINUOUS
 70
0
 71
3
 72
9
 73
5
 74
0
 42
0.0000001
 43
0.0000001
 44
0.0000000001
 40
0.0
 40
0.0
 40
0.0
 40
0.0
 40
0.2484591562
 40
1.0
 40
1.0
 40
1.0
 40
1.0
 10
-6.7602203242
 20
200.2234574708
 30
0.0
 10
-6.8139187306
 20
200.2544811704
 30
0.0
 10
-7.0354682119
 20
200.3697995766
 30
0.0
 10
-7.2774679205
 20
200.4451012241
 30
0.0
 10
-7.4621347991
 20
200.4780684856
 30
0.0
  0
SPLINE
  5
393
100
AcDbEntity
  8
0
100
AcDbSpline
 62
7
  6
CONTINUOUS
 70
0
 71
3
 72
15
 73
11
 74
0
 42
0.0000001
 43
0.0000001
 44
0.0000000001
 40
0.0
 40
0.0
 40
0.0
 40
0.0
 40
0.0524624705
 40
0.1056459648
 40
0.2162146438
 40
0.335328798
 40
0.4632709066
 40
0.5978578637
 40
0.7353252348
 40
1.0
 40
1.0
 40
1.0
 40
1.0
 10
-2.138190044
 20
201.0760174847
 30
0.0
 10
-2.3423384014
 20
201.1939153995
 30
0.0
 10
-2.7763551999
 20
201.3939928216
 30
0.0
 10
-3.7218027413
 20
201.6364507327
 30
0.0
 10
-5.018149727
 20
201.6186340103
 30
0.0
 10
-6.5635172415
 20
201.1087151428
 30
0.0
 10
-8.0156946487
 20
200.1660006353
 30
0.0
 10
-9.2742362025
 20
198.8607633633
 30
0.0
 10
-10.5553526182
 20
196.8065383534
 30
0.0
 10
-11.0263635002
 20
194.9793421644
 30
0.0
 10
-11.0263635002
 20
193.789993257
 30
0.0
  0
SPLINE
  5
394
100
AcDbEntity
  8
0
100
AcDbSpline
 62
7
  6
CONTINUOUS
 70
0
 71
3
 72
9
 73
5
 74
0
 42
0.0000001
 43
0.0000001
 44
0.0000000001
 40
0.0
 40
0.0
 40
0.0
 40
0.0
 40
0.2484591562
 40
1.0
 40
1.0
 40
1.0
 40
1.0
 10
-24.6533077949
 20
195.4271172723
 30
0.0
 10
-24.7070062013
 20
195.4581409718
 30
0.0
 10
-24.9285556826
 20
195.5734593781
 30
0.0
 10
-25.1705553912
 20
195.6487610255
 30
0.0
 10
-25.3552222698
 20
195.6817282871
 30
0.0
  0
SPLINE
  5
395
100
AcDbEntity
  8
0
100
AcDbSpline
 62
7
  6
CONTINUOUS
 70
0
 71
3
 72
15
 73
11
 74
0
 42
0.0000001
 43
0.0000001
 44
0.0000000001
 40
0.0
 40
0.0
 40
0.0
 40
0.0
 40
0.0524624705
 40
0.1056459648
 40
0.2162146438
 40
0.335328798
 40
0.4632709066
 40
0.5978578637
 40
0.7353252348
 40
1.0
 40
1.0
 40
1.0
 40
1.0
 10
-20.0312775147
 20
196.2796772861
 30
0.0
 10
-20.2354258721
 20
196.3975752009
 30
0.0
 10
-20.6694426706
 20
196.597652623
 30
0.0
 10
-21.6148902119
 20
196.8401105341
 30
0.0
 10
-22.9112371977
 20
196.8222938117
 30
0.0
 10
-24.4566047122
 20
196.3123749442
 30
0.0
 10
-25.9087821194
 20
195.3696604367
 30
0.0
 10
-27.1673236732
 20
194.0644231647
 30
0.0
 10
-28.4484400889
 20
192.0101981549
 30
0.0
 10
-28.9194509709
 20
190.1830019659
 30
0.0
 10
-28.9194509709
 20
188.9936530585
 30
0.0
  0
SPLINE
  5
396
100
AcDbEntity
  8
0
100
AcDbSpline
 62
7
  6
CONTINUOUS
 70
0
 71
3
 72
9
 73
5
 74
0
 42
0.0000001
 43
0.0000001
 44
0.0000000001
 40
0.0
 40
0.0
 40
0.0
 40
0.0
 40
0.2532875435
 40
1.0
 40
1.0
 40
1.0
 40
1.0
 10
-28.8776120732
 20
189.5889085593
 30
0.0
 10
-28.8368022344
 20
189.5402928128
 30
0.0
 10
-28.6678045903
 20
189.3551192148
 30
0.0
 10
-28.4664132607
 20
189.1994082035
 30
0.0
 10
-28.3043845344
 20
189.1057977809
 30
0.0
  0
SPLINE
  5
397
100
AcDbEntity
  8
0
100
AcDbSpline
 62
7
  6
CONTINUOUS
 70
0
 71
3
 72
9
 73
5
 74
0
 42
0.0000001
 43
0.0000001
 44
0.0000000001
 40
0.0
 40
0.0
 40
0.0
 40
0.0
 40
0.2532875435
 40
1.0
 40
1.0
 40
1.0
 40
1.0
 10
-10.9845246025
 20
194.3852487579
 30
0.0
 10
-10.9437147637
 20
194.3366330114
 30
0.0
 10
-10.7747171196
 20
194.1514594133
 30
0.0
 10
-10.57332579
 20
193.9957484021
 30
0.0
 10
-10.4112970637
 20
193.9021379795
 30
0.0
  0
SPLINE
  5
398
100
AcDbEntity
  8
0
100
AcDbSpline
 62
7
  6
CONTINUOUS
 70
0
 71
3
 72
12
 73
8
 74
0
 42
0.0000001
 43
0.0000001
 44
0.0000000001
 40
0.0
 40
0.0
 40
0.0
 40
0.0
 40
0.2349899833
 40
0.4894752595
 40
0.6202667695
 40
0.7503904793
 40
1.0
 40
1.0
 40
1.0
 40
1.0
 10
-15.4491449334
 20
179.9931824573
 30
0.0
 10
-15.9139526548
 20
179.8685881991
 30
0.0
 10
-16.8301850563
 20
179.4004920132
 30
0.0
 10
-17.728328789
 20
178.4747899677
 30
0.0
 10
-18.2835403544
 20
177.5729411849
 30
0.0
 10
-18.6952309279
 20
176.60952386
 30
0.0
 10
-18.8375748008
 20
175.8267786749
 30
0.0
 10
-18.837574802
 20
175.3156233443
 30
0.0
  0
SPLINE
  5
399
100
AcDbEntity
  8
0
100
AcDbSpline
 62
7
  6
CONTINUOUS
 70
0
 71
3
 72
11
 73
7
 74
0
 42
0.0000001
 43
0.0000001
 44
0.0000000001
 40
0.0
 40
0.0
 40
0.0
 40
0.0
 40
0.2717668072
 40
0.5268680782
 40
0.7676307415
 40
1.0
 40
1.0
 40
1.0
 40
1.0
 10
-18.837574802
 20
175.3156233443
 30
0.0
 10
-18.8375748027
 20
175.0353364695
 30
0.0
 10
-18.7830714864
 20
174.4896411721
 30
0.0
 10
-18.5220931659
 20
173.7337163581
 30
0.0
 10
-18.094355967
 20
173.1047869948
 30
0.0
 10
-17.7072994005
 20
172.7934021325
 30
0.0
 10
-17.4997568803
 20
172.6735679483
 30
0.0
  0
SPLINE
  5
39A
100
AcDbEntity
  8
0
100
AcDbSpline
 62
7
  6
CONTINUOUS
 70
0
 71
3
 72
13
 73
9
 74
0
 42
0.0000001
 43
0.0000001
 44
0.0000000001
 40
0.0
 40
0.0
 40
0.0
 40
0.0
 40
0.1158150361
 40
0.2327334981
 40
0.3517705192
 40
0.4737817314
 40
0.7285667905
 40
1.0
 40
1.0
 40
1.0
 40
1.0
 10
-2.9322736472
 20
207.0468301163
 30
0.0
 10
-2.351308372
 20
206.7113013504
 30
0.0
 10
-1.2334256628
 20
205.9468113662
 30
0.0
 10
0.2621351517
 20
204.5522626563
 30
0.0
 10
1.5609000861
 20
202.9263284229
 30
0.0
 10
3.0271473714
 20
200.4470356163
 30
0.0
 10
4.2674686593
 20
196.8581428163
 30
0.0
 10
4.5725481544
 20
193.7978880787
 30
0.0
 10
4.5725481544
 20
192.2255257159
 30
0.0
  0
SPLINE
  5
39B
100
AcDbEntity
  8
0
100
AcDbSpline
 62
7
  6
CONTINUOUS
 70
0
 71
3
 72
11
 73
7
 74
0
 42
0.0000001
 43
0.0000001
 44
0.0000000001
 40
0.0
 40
0.0
 40
0.0
 40
0.0
 40
0.2717748112
 40
0.526869873
 40
0.7676346335
 40
1.0
 40
1.0
 40
1.0
 40
1.0
 10
-17.8450704246
 20
191.9622014812
 30
0.0
 10
-17.8450704246
 20
192.4202431893
 30
0.0
 10
-17.9341253876
 20
193.3119947017
 30
0.0
 10
-18.360650839
 20
194.5472662258
 30
0.0
 10
-19.0596082032
 20
195.575036471
 30
0.0
 10
-19.6921464051
 20
196.0838253519
 30
0.0
 10
-20.0312775147
 20
196.2796772861
 30
0.0
  0
SPLINE
  5
39C
100
AcDbEntity
  8
0
100
AcDbSpline
 62
7
  6
CONTINUOUS
 70
0
 71
3
 72
10
 73
6
 74
0
 42
0.0000001
 43
0.0000001
 44
0.0000000001
 40
0.0
 40
0.0
 40
0.0
 40
0.0
 40
0.2403281524
 40
0.485096085
 40
1.0
 40
1.0
 40
1.0
 40
1.0
 10
-17.4997568803
 20
172.6735679483
 30
0.0
 10
-17.3534386729
 20
172.5890844266
 30
0.0
 10
-17.0385468732
 20
172.4500398827
 30
0.0
 10
-16.346480583
 20
172.3059403304
 30
0.0
 10
-15.7987921609
 20
172.3609137708
 30
0.0
 10
-15.4491449334
 20
172.4546386271
 30
0.0
  0
SPLINE
  5
39D
100
AcDbEntity
  8
0
100
AcDbSpline
 62
7
  6
CONTINUOUS
 70
0
 71
3
 72
14
 73
10
 74
0
 42
0.0000001
 43
0.0000001
 44
0.0000000001
 40
0.0
 40
0.0
 40
0.0
 40
0.0
 40
0.1052606084
 40
0.2158761655
 40
0.3350397352
 40
0.4630361372
 40
0.5976782612
 40
0.7352099669
 40
1.0
 40
1.0
 40
1.0
 40
1.0
 10
-10.4112970637
 20
193.9021379795
 30
0.0
 10
-10.1882732269
 20
193.773288262
 30
0.0
 10
-9.6767646769
 20
193.593978884
 30
0.0
 10
-8.8429115743
 20
193.6068660903
 30
0.0
 10
-8.000361231
 20
193.8842225446
 30
0.0
 10
-7.2094662013
 20
194.3979185055
 30
0.0
 10
-6.5237762472
 20
195.1089385904
 30
0.0
 10
-5.8258449007
 20
196.2280371722
 30
0.0
 10
-5.5692296645
 20
197.2234625409
 30
0.0
 10
-5.5692296645
 20
197.8713948701
 30
0.0
  0
SPLINE
  5
39E
100
AcDbEntity
  8
0
100
AcDbSpline
 62
7
  6
CONTINUOUS
 70
0
 71
3
 72
14
 73
10
 74
0
 42
0.0000001
 43
0.0000001
 44
0.0000000001
 40
0.0
 40
0.0
 40
0.0
 40
0.0
 40
0.2686164723
 40
0.3932530389
 40
0.5129262831
 40
0.6303784462
 40
0.7488454196
 40
0.8713344666
 40
1.0
 40
1.0
 40
1.0
 40
1.0
 10
-8.8985266893
 20
177.1228475786
 30
0.0
 10
-8.8985266866
 20
177.8839855459
 30
0.0
 10
-9.0885017074
 20
179.0212975892
 30
0.0
 10
-9.7890825807
 20
180.3071390063
 30
0.0
 10
-10.4872147395
 20
181.0727896215
 30
0.0
 10
-11.3432263513
 20
181.6256055281
 30
0.0
 10
-12.3202500506
 20
181.9414562876
 30
0.0
 10
-13.3750305961
 20
182.0091362117
 30
0.0
 10
-14.0835689792
 20
181.8925104749
 30
0.0
 10
-14.4357169624
 20
181.7981152773
 30
0.0
  0
SPLINE
  5
39F
100
AcDbEntity
  8
0
100
AcDbSpline
 62
7
  6
CONTINUOUS
 70
0
 71
3
 72
14
 73
10
 74
0
 42
0.0000001
 43
0.0000001
 44
0.0000000001
 40
0.0
 40
0.0
 40
0.0
 40
0.0
 40
0.2346073929
 40
0.3603379301
 40
0.4894684284
 40
0.6200482101
 40
0.7499714674
 40
0.8772023527
 40
1.0
 40
1.0
 40
1.0
 40
1.0
 10
-14.4357169624
 20
181.7981152773
 30
0.0
 10
-15.1952629531
 20
181.5945148101
 30
0.0
 10
-16.3022518381
 20
181.0286966044
 30
0.0
 10
-17.5431175553
 20
179.9508774824
 30
0.0
 10
-18.3805388477
 20
178.9595309196
 30
0.0
 10
-19.0674963201
 20
177.8434485559
 30
0.0
 10
-19.5796691725
 20
176.6435688978
 30
0.0
 10
-19.8973833135
 20
175.4052986199
 30
0.0
 10
-19.9729072342
 20
174.5658942527
 30
0.0
 10
-19.9729072356
 20
174.1542991559
 30
0.0
  0
SPLINE
  5
3A0
100
AcDbEntity
  8
0
100
AcDbSpline
 62
7
  6
CONTINUOUS
 70
0
 71
3
 72
14
 73
10
 74
0
 42
0.0000001
 43
0.0000001
 44
0.0000000001
 40
0.0
 40
0.0
 40
0.0
 40
0.0
 40
0.2686164723
 40
0.3932530389
 40
0.5129262831
 40
0.6303784462
 40
0.7488454196
 40
0.8713344666
 40
1.0
 40
1.0
 40
1.0
 40
1.0
 10
-19.9729072356
 20
174.1542991559
 30
0.0
 10
-19.9729072382
 20
173.3931611886
 30
0.0
 10
-19.7829322175
 20
172.2558491453
 30
0.0
 10
-19.0823513442
 20
170.9700077282
 30
0.0
 10
-18.3842191854
 20
170.204357113
 30
0.0
 10
-17.5282075735
 20
169.6515412065
 30
0.0
 10
-16.5511838742
 20
169.3356904469
 30
0.0
 10
-15.4964033287
 20
169.2680105228
 30
0.0
 10
-14.7878649456
 20
169.3846362597
 30
0.0
 10
-14.4357169624
 20
169.4790314573
 30
0.0
  0
SPLINE
  5
3A1
100
AcDbEntity
  8
0
100
AcDbSpline
 62
7
  6
CONTINUOUS
 70
0
 71
3
 72
15
 73
11
 74
0
 42
0.0000001
 43
0.0000001
 44
0.0000000001
 40
0.0
 40
0.0
 40
0.0
 40
0.0
 40
0.0524624705
 40
0.1056459648
 40
0.2162146438
 40
0.335328798
 40
0.4632709066
 40
0.5978578637
 40
0.7353252348
 40
1.0
 40
1.0
 40
1.0
 40
1.0
 10
-8.8401564101
 20
189.4725174521
 30
0.0
 10
-8.6360080528
 20
189.3546195373
 30
0.0
 10
-8.2019912543
 20
189.1545421152
 30
0.0
 10
-7.2565437129
 20
188.9120842041
 30
0.0
 10
-5.9601967272
 20
188.9299009265
 30
0.0
 10
-4.4148292126
 20
189.439819794
 30
0.0
 10
-2.9626518055
 20
190.3825343015
 30
0.0
 10
-1.7041102516
 20
191.6877715735
 30
0.0
 10
-0.422993836
 20
193.7419965833
 30
0.0
 10
0.0480170461
 20
195.5691927723
 30
0.0
 10
0.0480170461
 20
196.7585416797
 30
0.0
  0
SPLINE
  5
3A2
100
AcDbEntity
  8
0
100
AcDbSpline
 62
7
  6
CONTINUOUS
 70
0
 71
3
 72
14
 73
10
 74
0
 42
0.0000001
 43
0.0000001
 44
0.0000000001
 40
0.0
 40
0.0
 40
0.0
 40
0.0
 40
0.255849667
 40
0.3892373421
 40
0.5220152326
 40
0.6512958811
 40
0.774721374
 40
0.8909354277
 40
1.0
 40
1.0
 40
1.0
 40
1.0
 10
-20.9416558915
 20
193.7507317379
 30
0.0
 10
-20.9416558915
 20
192.759376694
 30
0.0
 10
-21.2694021506
 20
191.238301449
 30
0.0
 10
-22.1916041567
 20
189.4320890926
 30
0.0
 10
-23.1196038941
 20
188.2015453458
 30
0.0
 10
-24.2249075096
 20
187.1844478572
 30
0.0
 10
-25.4527405614
 20
186.4326500851
 30
0.0
 10
-26.7404887718
 20
185.9876884819
 30
0.0
 10
-27.6224613364
 20
185.9133953814
 30
0.0
 10
-28.0443078856
 20
185.9385960716
 30
0.0
  0
SPLINE
  5
3A3
100
AcDbEntity
  8
0
100
AcDbSpline
 62
7
  6
CONTINUOUS
 70
0
 71
3
 72
11
 73
7
 74
0
 42
0.0000001
 43
0.0000001
 44
0.0000000001
 40
0.0
 40
0.0
 40
0.0
 40
0.0
 40
0.2717572078
 40
0.5268814843
 40
0.7676360802
 40
1.0
 40
1.0
 40
1.0
 40
1.0
 10
-23.4623171352
 20
193.0750546716
 30
0.0
 10
-23.4623171352
 20
193.3245686868
 30
0.0
 10
-23.5108585851
 20
193.8103776792
 30
0.0
 10
-23.7431614584
 20
194.4833465067
 30
0.0
 10
-24.1239869194
 20
195.0432489551
 30
0.0
 10
-24.4685767195
 20
195.320390802
 30
0.0
 10
-24.6533077949
 20
195.4271172723
 30
0.0
  0
SPLINE
  5
3A4
100
AcDbEntity
  8
0
100
AcDbSpline
 62
7
  6
CONTINUOUS
 70
0
 71
3
 72
14
 73
10
 74
0
 42
0.0000001
 43
0.0000001
 44
0.0000000001
 40
0.0
 40
0.0
 40
0.0
 40
0.0
 40
0.2346073929
 40
0.3603379301
 40
0.4894684284
 40
0.6200482101
 40
0.7499714674
 40
0.8772023527
 40
1.0
 40
1.0
 40
1.0
 40
1.0
 10
-14.4357169624
 20
169.4790314573
 30
0.0
 10
-13.6761709718
 20
169.6826319244
 30
0.0
 10
-12.5691820868
 20
170.2484501301
 30
0.0
 10
-11.3283163696
 20
171.3262692522
 30
0.0
 10
-10.4908950772
 20
172.317615815
 30
0.0
 10
-9.8039376048
 20
173.4336981787
 30
0.0
 10
-9.2917647523
 20
174.6335778367
 30
0.0
 10
-8.9740506114
 20
175.8718481147
 30
0.0
 10
-8.8985266907
 20
176.7112524819
 30
0.0
 10
-8.8985266893
 20
177.1228475786
 30
0.0
  0
SPLINE
  5
3A5
100
AcDbEntity
  8
0
100
AcDbSpline
 62
7
  6
CONTINUOUS
 70
0
 71
3
 72
9
 73
5
 74
0
 42
0.0000001
 43
0.0000001
 44
0.0000000001
 40
0.0
 40
0.0
 40
0.0
 40
0.0
 40
0.4806659377
 40
1.0
 40
1.0
 40
1.0
 40
1.0
 10
-3.9050880208
 20
201.6082446019
 30
0.0
 10
-3.6184741091
 20
201.1805250486
 30
0.0
 10
-3.1782555965
 20
200.1809605769
 30
0.0
 10
-3.0485684208
 20
199.1033621297
 30
0.0
 10
-3.0485684208
 20
198.5470719365
 30
0.0
  0
SPLINE
  5
3A6
100
AcDbEntity
  8
0
100
AcDbSpline
 62
7
  6
CONTINUOUS
 70
0
 71
3
 72
14
 73
10
 74
0
 42
0.0000001
 43
0.0000001
 44
0.0000000001
 40
0.0
 40
0.0
 40
0.0
 40
0.0
 40
0.1052606084
 40
0.2158761655
 40
0.3350397352
 40
0.4630361372
 40
0.5976782612
 40
0.7352099669
 40
1.0
 40
1.0
 40
1.0
 40
1.0
 10
-28.3043845344
 20
189.1057977809
 30
0.0
 10
-28.0813606976
 20
188.9769480634
 30
0.0
 10
-27.5698521476
 20
188.7976386854
 30
0.0
 10
-26.735999045
 20
188.8105258917
 30
0.0
 10
-25.8934487017
 20
189.087882346
 30
0.0
 10
-25.102553672
 20
189.6015783069
 30
0.0
 10
-24.4168637179
 20
190.3125983918
 30
0.0
 10
-23.7189323714
 20
191.4316969737
 30
0.0
 10
-23.4623171352
 20
192.4271223424
 30
0.0
 10
-23.4623171352
 20
193.0750546716
 30
0.0
  0
SPLINE
  5
3A7
100
AcDbEntity
  8
0
100
AcDbSpline
 62
7
  6
CONTINUOUS
 70
0
 71
3
 72
14
 73
10
 74
0
 42
0.0000001
 43
0.0000001
 44
0.0000000001
 40
0.0
 40
0.0
 40
0.0
 40
0.0
 40
0.255849667
 40
0.3892373421
 40
0.5220152326
 40
0.6512958811
 40
0.774721374
 40
0.8909354277
 40
1.0
 40
1.0
 40
1.0
 40
1.0
 10
-3.0485684208
 20
198.5470719365
 30
0.0
 10
-3.0485684208
 20
197.5557168926
 30
0.0
 10
-3.3763146799
 20
196.0346416476
 30
0.0
 10
-4.298516686
 20
194.2284292912
 30
0.0
 10
-5.2265164234
 20
192.9978855443
 30
0.0
 10
-6.3318200389
 20
191.9807880558
 30
0.0
 10
-7.5596530907
 20
191.2289902837
 30
0.0
 10
-8.8474013011
 20
190.7840286804
 30
0.0
 10
-9.7293738657
 20
190.70973558
 30
0.0
 10
-10.1512204149
 20
190.7349362702
 30
0.0
  0
SPLINE
  5
3A8
100
AcDbEntity
  8
0
100
AcDbSpline
 62
7
  6
CONTINUOUS
 70
0
 71
3
 72
11
 73
7
 74
0
 42
0.0000001
 43
0.0000001
 44
0.0000000001
 40
0.0
 40
0.0
 40
0.0
 40
0.0
 40
0.2717572078
 40
0.5268814843
 40
0.7676360802
 40
1.0
 40
1.0
 40
1.0
 40
1.0
 10
-5.5692296645
 20
197.8713948701
 30
0.0
 10
-5.5692296645
 20
198.1209088854
 30
0.0
 10
-5.6177711144
 20
198.6067178778
 30
0.0
 10
-5.8500739877
 20
199.2796867053
 30
0.0
 10
-6.2308994487
 20
199.8395891537
 30
0.0
 10
-6.5754892488
 20
200.1167310006
 30
0.0
 10
-6.7602203242
 20
200.2234574708
 30
0.0
  0
SPLINE
  5
3A9
100
AcDbEntity
  8
0
100
AcDbSpline
 62
7
  6
CONTINUOUS
 70
0
 71
3
 72
11
 73
7
 74
0
 42
0.0000001
 43
0.0000001
 44
0.0000000001
 40
0.0
 40
0.0
 40
0.0
 40
0.0
 40
0.2717668071
 40
0.5268680781
 40
0.7676307415
 40
1.0
 40
1.0
 40
1.0
 40
1.0
 10
-12.0607150647
 20
177.1321977462
 30
0.0
 10
-12.0607150652
 20
177.4124846203
 30
0.0
 10
-12.1152183811
 20
177.9581799165
 30
0.0
 10
-12.3761967024
 20
178.7141047287
 30
0.0
 10
-12.8039339007
 20
179.3430340905
 30
0.0
 10
-13.1909904666
 20
179.6544189522
 30
0.0
 10
-13.3985329865
 20
179.7742531361
 30
0.0
  0
SPLINE
  5
3AA
100
AcDbEntity
  8
0
100
AcDbSpline
 62
7
  6
CONTINUOUS
 70
0
 71
3
 72
15
 73
11
 74
0
 42
0.0000001
 43
0.0000001
 44
0.0000000001
 40
0.0
 40
0.0
 40
0.0
 40
0.0
 40
0.0524624705
 40
0.1056459648
 40
0.2162146438
 40
0.335328798
 40
0.4632709066
 40
0.5978578637
 40
0.7353252348
 40
1.0
 40
1.0
 40
1.0
 40
1.0
 10
-26.7332438808
 20
184.6761772535
 30
0.0
 10
-26.5290955235
 20
184.5582793387
 30
0.0
 10
-26.0950787249
 20
184.3582019166
 30
0.0
 10
-25.1496311836
 20
184.1157440055
 30
0.0
 10
-23.8532841979
 20
184.1335607279
 30
0.0
 10
-22.3079166833
 20
184.6434795954
 30
0.0
 10
-20.8557392762
 20
185.5861941029
 30
0.0
 10
-19.5971977223
 20
186.8914313749
 30
0.0
 10
-18.3160813067
 20
188.9456563848
 30
0.0
 10
-17.8450704246
 20
190.7728525738
 30
0.0
 10
-17.8450704246
 20
191.9622014812
 30
0.0
  0
SPLINE
  5
3AB
100
AcDbEntity
  8
0
100
AcDbSpline
 62
7
  6
CONTINUOUS
 70
0
 71
3
 72
12
 73
8
 74
0
 42
0.0000001
 43
0.0000001
 44
0.0000000001
 40
0.0
 40
0.0
 40
0.0
 40
0.0
 40
0.2349899833
 40
0.4894752595
 40
0.6202667696
 40
0.7503904793
 40
1.0
 40
1.0
 40
1.0
 40
1.0
 10
-15.4491449334
 20
172.4546386271
 30
0.0
 10
-14.9843372115
 20
172.5792328854
 30
0.0
 10
-14.0681048091
 20
173.047329072
 30
0.0
 10
-13.1699610759
 20
173.973031119
 30
0.0
 10
-12.6147495104
 20
174.8748799031
 30
0.0
 10
-12.2030589379
 20
175.8382972293
 30
0.0
 10
-12.0607150639
 20
176.6210424151
 30
0.0
 10
-12.0607150647
 20
177.1321977462
 30
0.0
  0
SPLINE
  5
3AC
100
AcDbEntity
  8
0
100
AcDbSpline
 62
7
  6
CONTINUOUS
 70
0
 71
3
 72
9
 73
5
 74
0
 42
0.0000001
 43
0.0000001
 44
0.0000000001
 40
0.0
 40
0.0
 40
0.0
 40
0.0
 40
0.4806659377
 40
1.0
 40
1.0
 40
1.0
 40
1.0
 10
-21.7981754914
 20
196.8119044033
 30
0.0
 10
-21.5115615798
 20
196.3841848501
 30
0.0
 10
-21.0713430672
 20
195.3846203783
 30
0.0
 10
-20.9416558915
 20
194.3070219311
 30
0.0
 10
-20.9416558915
 20
193.7507317379
 30
0.0
  0
SPLINE
  5
3AD
100
AcDbEntity
  8
0
100
AcDbSpline
 62
7
  6
CONTINUOUS
 70
0
 71
3
 72
19
 73
15
 74
0
 42
0.0000001
 43
0.0000001
 44
0.0000000001
 40
0.0
 40
0.0
 40
0.0
 40
0.0
 40
0.1300541404
 40
0.2656684278
 40
0.3344130301
 40
0.4029810503
 40
0.5372301579
 40
0.6648520445
 40
0.7255483066
 40
0.783962091
 40
0.8402158026
 40
0.8946210686
 40
0.9476700431
 40
1.0
 40
1.0
 40
1.0
 40
1.0
 10
-33.4439820792
 20
182.0349863544
 30
0.0
 10
-33.4439820792
 20
184.0462541305
 30
0.0
 10
-32.9175441753
 20
188.1654288362
 30
0.0
 10
-31.1397690367
 20
193.0643545453
 30
0.0
 10
-29.0961703291
 20
196.7652752693
 30
0.0
 10
-26.6873321659
 20
200.2135140195
 30
0.0
 10
-23.1103261944
 20
203.9214137037
 30
0.0
 10
-18.8809288888
 20
206.6672374052
 30
0.0
 10
-15.3255632215
 20
208.08122411
 30
0.0
 10
-12.6806134748
 20
208.7234605388
 30
0.0
 10
-10.0649881219
 20
208.9501351203
 30
0.0
 10
-7.5285910083
 20
208.7544543392
 30
0.0
 10
-5.1227546583
 20
208.1383785677
 30
0.0
 10
-3.6330697212
 20
207.4515655659
 30
0.0
 10
-2.9322736472
 20
207.0468301163
 30
0.0
  0
SPLINE
  5
3AE
100
AcDbEntity
  8
0
100
AcDbSpline
 62
7
  6
CONTINUOUS
 70
0
 71
3
 72
11
 73
7
 74
0
 42
0.0000001
 43
0.0000001
 44
0.0000000001
 40
0.0
 40
0.0
 40
0.0
 40
0.0
 40
0.2717748112
 40
0.526869873
 40
0.7676346335
 40
1.0
 40
1.0
 40
1.0
 40
1.0
 10
0.0480170461
 20
196.7585416797
 30
0.0
 10
0.0480170461
 20
197.2165833879
 30
0.0
 10
-0.0410379169
 20
198.1083349003
 30
0.0
 10
-0.4675633683
 20
199.3436064243
 30
0.0
 10
-1.1665207325
 20
200.3713766695
 30
0.0
 10
-1.7990589344
 20
200.8801655504
 30
0.0
 10
-2.138190044
 20
201.0760174847
 30
0.0
  0
SPLINE
  5
3AF
100
AcDbEntity
  8
0
100
AcDbSpline
 62
7
  6
CONTINUOUS
 70
0
 71
3
 72
13
 73
9
 74
0
 42
0.0000001
 43
0.0000001
 44
0.0000000001
 40
0.0
 40
0.0
 40
0.0
 40
0.0
 40
0.1158150361
 40
0.2327334981
 40
0.3517705192
 40
0.4737817314
 40
0.7285667905
 40
1.0
 40
1.0
 40
1.0
 40
1.0
 10
-25.9391602776
 20
167.213681954
 30
0.0
 10
-26.5201255528
 20
167.54921072
 30
0.0
 10
-27.6380082621
 20
168.3137007041
 30
0.0
 10
-29.1335690766
 20
169.708249414
 30
0.0
 10
-30.4323340109
 20
171.3341836474
 30
0.0
 10
-31.8985812963
 20
173.813476454
 30
0.0
 10
-33.1389025842
 20
177.402369254
 30
0.0
 10
-33.4439820792
 20
180.4626239916
 30
0.0
 10
-33.4439820792
 20
182.0349863544
 30
0.0
  0
SPLINE
  5
3B0
100
AcDbEntity
  8
0
100
AcDbSpline
 62
7
  6
CONTINUOUS
 70
0
 71
3
 72
15
 73
11
 74
0
 42
0.0000001
 43
0.0000001
 44
0.0000000001
 40
0.0
 40
0.0
 40
0.0
 40
0.0
 40
0.189125573
 40
0.2512350888
 40
0.3182786453
 40
0.4630094583
 40
0.6137602937
 40
0.7596206075
 40
0.8905924294
 40
1.0
 40
1.0
 40
1.0
 40
1.0
 10
-30.6693808067
 20
219.6481123251
 30
0.0
 10
-30.4355654216
 20
219.7775976337
 30
0.0
 10
-30.2619962545
 20
220.1524975307
 30
0.0
 10
-30.1898356949
 20
220.5904488659
 30
0.0
 10
-30.1677448224
 20
220.9790020516
 30
0.0
 10
-30.2150931687
 20
221.4914029827
 30
0.0
 10
-30.3720091813
 20
222.0977982908
 30
0.0
 10
-30.6171311043
 20
222.6535559402
 30
0.0
 10
-30.9261743955
 20
223.1070558189
 30
0.0
 10
-31.1845704799
 20
223.337809221
 30
0.0
 10
-31.3184589195
 20
223.4151406972
 30
0.0
  0
SPLINE
  5
3B1
100
AcDbEntity
  8
0
100
AcDbSpline
 62
7
  6
CONTINUOUS
 70
0
 71
3
 72
11
 73
7
 74
0
 42
0.0000001
 43
0.0000001
 44
0.0000000001
 40
0.0
 40
0.0
 40
0.0
 40
0.0
 40
0.257809835
 40
0.508918496
 40
0.7554510073
 40
1.0
 40
1.0
 40
1.0
 40
1.0
 10
-17.9866195166
 20
155.6233099658
 30
0.0
 10
-19.0661869203
 20
155.5594971314
 30
0.0
 10
-21.2099124457
 20
155.5839219964
 30
0.0
 10
-24.3489214725
 20
156.1019435757
 30
0.0
 10
-27.3138247572
 20
157.0938769843
 30
0.0
 10
-29.1441452818
 20
158.0627101228
 30
0.0
 10
-30.0083453928
 20
158.6154092828
 30
0.0
  0
SPLINE
  5
3B2
100
AcDbEntity
  8
0
100
AcDbSpline
 62
7
  6
CONTINUOUS
 70
0
 71
3
 72
13
 73
9
 74
0
 42
0.0000001
 43
0.0000001
 44
0.0000000001
 40
0.0
 40
0.0
 40
0.0
 40
0.0
 40
0.2457592117
 40
0.3737160174
 40
0.5028928795
 40
0.6316688005
 40
0.7584558141
 40
1.0
 40
1.0
 40
1.0
 40
1.0
 10
13.8313269425
 20
193.517125329
 30
0.0
 10
13.8313269425
 20
189.9545502168
 30
0.0
 10
12.9591437039
 20
184.5073201868
 30
0.0
 10
10.3937241765
 20
177.6711880704
 30
0.0
 10
7.750844844
 20
172.7207556769
 30
0.0
 10
4.4922136432
 20
168.1724260629
 30
0.0
 10
-0.4518312745
 20
162.9142959769
 30
0.0
 10
-4.909394443
 20
159.7890832509
 30
0.0
 10
-8.0697367111
 20
158.2815847729
 30
0.0
  0
SPLINE
  5
3B3
100
AcDbEntity
  8
0
100
AcDbSpline
 62
7
  6
CONTINUOUS
 70
0
 71
3
 72
15
 73
11
 74
0
 42
0.0000001
 43
0.0000001
 44
0.0000000001
 40
0.0
 40
0.0
 40
0.0
 40
0.0
 40
0.2646707868
 40
0.4021362816
 40
0.5367239877
 40
0.6646692672
 40
0.7837856331
 40
0.8943547726
 40
0.947537981
 40
1.0
 40
1.0
 40
1.0
 40
1.0
 10
-8.0695002573
 20
158.2277808931
 30
0.0
 10
-8.0695002573
 20
157.1627081995
 30
0.0
 10
-8.4912857823
 20
155.5264365842
 30
0.0
 10
-9.6385301366
 20
153.6868406898
 30
0.0
 10
-10.7655804864
 20
152.5179583974
 30
0.0
 10
-12.0660513923
 20
151.6737106297
 30
0.0
 10
-13.4499857552
 20
151.2170561003
 30
0.0
 10
-14.6109032
 20
151.2011049894
 30
0.0
 10
-15.4575718804
 20
151.4182306551
 30
0.0
 10
-15.8462402629
 20
151.5974044624
 30
0.0
 10
-16.029058686
 20
151.7029828367
 30
0.0
  0
SPLINE
  5
3B4
100
AcDbEntity
  8
0
100
AcDbSpline
 62
7
  6
CONTINUOUS
 70
0
 71
3
 72
13
 73
9
 74
0
 42
0.0000001
 43
0.0000001
 44
0.0000000001
 40
0.0
 40
0.0
 40
0.0
 40
0.0
 40
0.271432411
 40
0.526217456
 40
0.6482289435
 40
0.7672664564
 40
0.8841850915
 40
1.0
 40
1.0
 40
1.0
 40
1.0
 10
-37.408344242
 20
179.7820505374
 30
0.0
 10
-37.408344242
 20
177.7653310457
 30
0.0
 10
-37.0170518262
 20
173.8402258189
 30
0.0
 10
-35.4261870709
 20
169.2370939114
 30
0.0
 10
-33.5455855662
 20
166.0571150941
 30
0.0
 10
-31.8797880196
 20
163.9716600342
 30
0.0
 10
-29.961549264
 20
162.1830112429
 30
0.0
 10
-28.5277320517
 20
161.2024902395
 30
0.0
 10
-27.7825879368
 20
160.7721280881
 30
0.0
  0
SPLINE
  5
3B5
100
AcDbEntity
  8
0
100
AcDbSpline
 62
7
  6
CONTINUOUS
 70
0
 71
3
 72
11
 73
7
 74
0
 42
0.0000001
 43
0.0000001
 44
0.0000000001
 40
0.0
 40
0.0
 40
0.0
 40
0.0
 40
0.271759443
 40
0.5268842249
 40
0.7676383724
 40
1.0
 40
1.0
 40
1.0
 40
1.0
 10
-15.9207401969
 20
156.1232129815
 30
0.0
 10
-15.9207401969
 20
155.8839510268
 30
0.0
 10
-15.8741918614
 20
155.4181046184
 30
0.0
 10
-15.6514350726
 20
154.772789975
 30
0.0
 10
-15.2862578813
 20
154.2359012975
 30
0.0
 10
-14.9558321981
 20
153.970149535
 30
0.0
 10
-14.7786944156
 20
153.8678103883
 30
0.0
  0
SPLINE
  5
3B6
100
AcDbEntity
  8
0
100
AcDbSpline
 62
7
  6
CONTINUOUS
 70
0
 71
3
 72
13
 73
9
 74
0
 42
0.0000001
 43
0.0000001
 44
0.0000000001
 40
0.0
 40
0.0
 40
0.0
 40
0.0
 40
0.2709547394
 40
0.5259072684
 40
0.6481185745
 40
0.7673433099
 40
0.8843345266
 40
1.0
 40
1.0
 40
1.0
 40
1.0
 10
-67.3618062168
 20
196.0343036308
 30
0.0
 10
-67.3618062168
 20
193.9915131405
 30
0.0
 10
-66.9792160743
 20
190.0123274492
 30
0.0
 10
-65.429147302
 20
185.3257060984
 30
0.0
 10
-63.5929663149
 20
182.0537072242
 30
0.0
 10
-61.9635898203
 20
179.8870301445
 30
0.0
 10
-60.0835355731
 20
178.0033395076
 30
0.0
 10
-58.6730721031
 20
176.9483477324
 30
0.0
 10
-57.9384378062
 20
176.4785109185
 30
0.0
  0
SPLINE
  5
3B7
100
AcDbEntity
  8
0
100
AcDbSpline
 62
7
  6
CONTINUOUS
 70
0
 71
3
 72
9
 73
5
 74
0
 42
0.0000001
 43
0.0000001
 44
0.0000000001
 40
0.0
 40
0.0
 40
0.0
 40
0.0
 40
0.2603514901
 40
1.0
 40
1.0
 40
1.0
 40
1.0
 10
-28.6381487773
 20
227.4039678856
 30
0.0
 10
-28.6826730765
 20
227.4192769585
 30
0.0
 10
-28.855569543
 20
227.4722768197
 30
0.0
 10
-29.0365596558
 20
227.5003570569
 30
0.0
 10
-29.1702852758
 20
227.503395657
 30
0.0
  0
SPLINE
  5
3B8
100
AcDbEntity
  8
0
100
AcDbSpline
 62
7
  6
CONTINUOUS
 70
0
 71
3
 72
9
 73
5
 74
0
 42
0.0000001
 43
0.0000001
 44
0.0000000001
 40
0.0
 40
0.0
 40
0.0
 40
0.0
 40
0.5068704419
 40
1.0
 40
1.0
 40
1.0
 40
1.0
 10
-49.6761382231
 20
221.0086008223
 30
0.0
 10
-48.2184927518
 20
222.1021615518
 30
0.0
 10
-45.1462724431
 20
224.013674723
 30
0.0
 10
-41.7590535941
 20
225.2958838678
 30
0.0
 10
-40.0466530673
 20
225.7548956885
 30
0.0
  0
SPLINE
  5
3B9
100
AcDbEntity
  8
0
100
AcDbSpline
 62
7
  6
CONTINUOUS
 70
0
 71
3
 72
9
 73
5
 74
0
 42
0.0000001
 43
0.0000001
 44
0.0000000001
 40
0.0
 40
0.0
 40
0.0
 40
0.0
 40
0.2719853278
 40
1.0
 40
1.0
 40
1.0
 40
1.0
 10
-31.3184589195
 20
223.4151406972
 30
0.0
 10
-31.3505155238
 20
223.4336559965
 30
0.0
 10
-31.4715074199
 20
223.4955681358
 30
0.0
 10
-31.6090318375
 20
223.5297202608
 30
0.0
 10
-31.708107521
 20
223.5281018183
 30
0.0
  0
SPLINE
  5
3BA
100
AcDbEntity
  8
0
100
AcDbSpline
 62
7
  6
CONTINUOUS
 70
0
 71
3
 72
8
 73
4
 74
0
 42
0.0000001
 43
0.0000001
 44
0.0000000001
 40
0.0
 40
0.0
 40
0.0
 40
0.0
 40
1.0
 40
1.0
 40
1.0
 40
1.0
 10
-31.708107521
 20
223.5281018183
 30
0.0
 10
-31.7534151307
 20
223.5273616997
 30
0.0
 10
-31.7989909859
 20
223.5211601139
 30
0.0
 10
-31.84276008
 20
223.509430081
 30
0.0
  0
SPLINE
  5
3BB
100
AcDbEntity
  8
0
100
AcDbSpline
 62
7
  6
CONTINUOUS
 70
0
 71
3
 72
13
 73
9
 74
0
 42
0.0000001
 43
0.0000001
 44
0.0000000001
 40
0.0
 40
0.0
 40
0.0
 40
0.0
 40
0.2402643136
 40
0.3668896113
 40
0.4957685682
 40
0.6252369033
 40
0.7535819253
 40
1.0
 40
1.0
 40
1.0
 40
1.0
 10
-16.6455471823
 20
212.167764926
 30
0.0
 10
-19.6153461535
 20
210.8760419997
 30
0.0
 10
-23.8266996014
 20
208.0885437891
 30
0.0
 10
-28.5071079224
 20
203.3036513012
 30
0.0
 10
-31.6056966455
 20
199.1191933976
 30
0.0
 10
-34.124347264
 20
194.5362551118
 30
0.0
 10
-36.5730046709
 20
188.183929109
 30
0.0
 10
-37.408344242
 20
183.1035553741
 30
0.0
 10
-37.408344242
 20
179.7820505374
 30
0.0
  0
SPLINE
  5
3BC
100
AcDbEntity
  8
0
100
AcDbSpline
 62
7
  6
CONTINUOUS
 70
0
 71
3
 72
16
 73
12
 74
0
 42
0.0000001
 43
0.0000001
 44
0.0000000001
 40
0.0
 40
0.0
 40
0.0
 40
0.0
 40
0.1112611625
 40
0.2293418147
 40
0.3537256467
 40
0.4828805986
 40
0.6145935546
 40
0.6806712836
 40
0.7464242334
 40
0.8755914068
 40
1.0
 40
1.0
 40
1.0
 40
1.0
 10
-37.569433024
 20
232.1391558827
 30
0.0
 10
-39.4467306309
 20
231.9806914806
 30
0.0
 10
-43.2852508465
 20
231.1604115195
 30
0.0
 10
-48.7688102113
 20
228.6554606908
 30
0.0
 10
-53.9132983924
 20
224.9687165259
 30
0.0
 10
-58.487206762
 20
220.2741607373
 30
0.0
 10
-61.6547634689
 20
215.7005445171
 30
0.0
 10
-63.7292919607
 20
211.7446419972
 30
0.0
 10
-65.4535854377
 20
207.6706158284
 30
0.0
 10
-66.9340102246
 20
202.4423238438
 30
0.0
 10
-67.3618062168
 20
198.1409015175
 30
0.0
 10
-67.3618062168
 20
196.0343036308
 30
0.0
  0
SPLINE
  5
3BD
100
AcDbEntity
  8
0
100
AcDbSpline
 62
7
  6
CONTINUOUS
 70
0
 71
3
 72
10
 73
6
 74
0
 42
0.0000001
 43
0.0000001
 44
0.0000000001
 40
0.0
 40
0.0
 40
0.0
 40
0.0
 40
0.2366479821
 40
0.4820034506
 40
1.0
 40
1.0
 40
1.0
 40
1.0
 10
9.9261665907
 20
207.9853558978
 30
0.0
 10
10.5706926189
 20
206.9781044006
 30
0.0
 10
11.7143368426
 20
204.8133039951
 30
0.0
 10
13.3716945123
 20
200.02535297
 30
0.0
 10
13.8313269425
 20
196.1346297874
 30
0.0
 10
13.8313269425
 20
193.517125329
 30
0.0
  0
SPLINE
  5
3BE
100
AcDbEntity
  8
0
100
AcDbSpline
 62
7
  6
CONTINUOUS
 70
0
 71
3
 72
16
 73
12
 74
0
 42
0.0000001
 43
0.0000001
 44
0.0000000001
 40
0.0
 40
0.0
 40
0.0
 40
0.0
 40
0.084497137
 40
0.1342308489
 40
0.1897402354
 40
0.3170230286
 40
0.4608850723
 40
0.611561292
 40
0.7579510519
 40
0.8897623617
 40
1.0
 40
1.0
 40
1.0
 40
1.0
 10
-31.9356138143
 20
223.4752550321
 30
0.0
 10
-32.0445333791
 20
223.4236311749
 30
0.0
 10
-32.1900850963
 20
223.2825508689
 30
0.0
 10
-32.317382969
 20
223.0435525441
 30
0.0
 10
-32.4236710302
 20
222.7276269108
 30
0.0
 10
-32.47680054
 20
222.260066428
 30
0.0
 10
-32.4294239677
 20
221.6574717792
 30
0.0
 10
-32.2771626132
 20
221.0443382785
 30
0.0
 10
-32.0342653674
 20
220.4793784046
 30
0.0
 10
-31.7249424782
 20
220.0160588372
 30
0.0
 10
-31.464932
 20
219.778737471
 30
0.0
 10
-31.3297278707
 20
219.6984363735
 30
0.0
  0
SPLINE
  5
3BF
100
AcDbEntity
  8
0
100
AcDbSpline
 62
7
  6
CONTINUOUS
 70
0
 71
3
 72
8
 73
4
 74
0
 42
0.0000001
 43
0.0000001
 44
0.0000000001
 40
0.0
 40
0.0
 40
0.0
 40
0.0
 40
1.0
 40
1.0
 40
1.0
 40
1.0
 10
-49.6761382231
 20
221.0086008223
 30
0.0
 10
-42.0066469922
 20
217.0075174384
 30
0.0
 10
-34.3383497236
 20
213.004144795
 30
0.0
 10
-26.6710793122
 20
208.9988073031
 30
0.0
  0
SPLINE
  5
3C0
100
AcDbEntity
  8
0
100
AcDbSpline
 62
7
  6
CONTINUOUS
 70
0
 71
3
 72
14
 73
10
 74
0
 42
0.0000001
 43
0.0000001
 44
0.0000000001
 40
0.0
 40
0.0
 40
0.0
 40
0.0
 40
0.1052595844
 40
0.2158748743
 40
0.3350383764
 40
0.4630345593
 40
0.5976760351
 40
0.7352081534
 40
1.0
 40
1.0
 40
1.0
 40
1.0
 10
-14.7786944156
 20
153.8678103883
 30
0.0
 10
-14.5648378334
 20
153.7442574126
 30
0.0
 10
-14.0743540386
 20
153.5723164086
 30
0.0
 10
-13.27477193
 20
153.5846717812
 30
0.0
 10
-12.4668474225
 20
153.8506270301
 30
0.0
 10
-11.7084554437
 20
154.3432088451
 30
0.0
 10
-11.0509427116
 20
155.0250056102
 30
0.0
 10
-10.3816891179
 20
156.0981154778
 30
0.0
 10
-10.1356160309
 20
157.0526380274
 30
0.0
 10
-10.1356160309
 20
157.6739472322
 30
0.0
  0
SPLINE
  5
3C1
100
AcDbEntity
  8
0
100
AcDbSpline
 62
7
  6
CONTINUOUS
 70
0
 71
3
 72
9
 73
5
 74
0
 42
0.0000001
 43
0.0000001
 44
0.0000000001
 40
0.0
 40
0.0
 40
0.0
 40
0.0
 40
0.247135367
 40
1.0
 40
1.0
 40
1.0
 40
1.0
 10
-23.6551501288
 20
211.542628844
 30
0.0
 10
-23.9139402566
 20
211.3458643463
 30
0.0
 10
-24.9504303724
 20
210.5356912125
 30
0.0
 10
-25.9449631358
 20
209.6722920116
 30
0.0
 10
-26.6710793122
 20
208.9988073031
 30
0.0
  0
SPLINE
  5
3C2
100
AcDbEntity
  8
0
100
AcDbSpline
 62
7
  6
CONTINUOUS
 70
0
 71
3
 72
9
 73
5
 74
0
 42
0.0000001
 43
0.0000001
 44
0.0000000001
 40
0.0
 40
0.0
 40
0.0
 40
0.0
 40
0.4742744602
 40
1.0
 40
1.0
 40
1.0
 40
1.0
 10
-32.2694589365
 20
226.6726451656
 30
0.0
 10
-32.1109546503
 20
226.6690435285
 30
0.0
 10
-31.7770372131
 20
226.6088322127
 30
0.0
 10
-31.4706431291
 20
226.4678935987
 30
0.0
 10
-31.3184589195
 20
226.3799948256
 30
0.0
  0
SPLINE
  5
3C3
100
AcDbEntity
  8
0
100
AcDbSpline
 62
7
  6
CONTINUOUS
 70
0
 71
3
 72
11
 73
7
 74
0
 42
0.0000001
 43
0.0000001
 44
0.0000000001
 40
0.0
 40
0.0
 40
0.0
 40
0.0
 40
0.2058054151
 40
0.4461652127
 40
0.7145114569
 40
1.0
 40
1.0
 40
1.0
 40
1.0
 10
-31.3184589195
 20
226.3799948256
 30
0.0
 10
-31.0440407843
 20
226.2214960071
 30
0.0
 10
-30.5063007036
 20
225.7787702426
 30
0.0
 10
-29.822238178
 20
224.9104661329
 30
0.0
 10
-29.2300970066
 20
223.8350897992
 30
0.0
 10
-28.9261780825
 20
223.0351130177
 30
0.0
 10
-28.7967812437
 20
222.6149886444
 30
0.0
  0
SPLINE
  5
3C4
100
AcDbEntity
  8
0
100
AcDbSpline
 62
7
  6
CONTINUOUS
 70
0
 71
3
 72
9
 73
5
 74
0
 42
0.0000001
 43
0.0000001
 44
0.0000000001
 40
0.0
 40
0.0
 40
0.0
 40
0.0
 40
0.5076536818
 40
1.0
 40
1.0
 40
1.0
 40
1.0
 10
-27.8065304991
 20
218.5009350273
 30
0.0
 10
-27.4834138583
 20
216.9126735977
 30
0.0
 10
-26.970535768
 20
213.7574942081
 30
0.0
 10
-26.7213859749
 20
210.5699257032
 30
0.0
 10
-26.6710793122
 20
208.9988073031
 30
0.0
  0
SPLINE
  5
3C5
100
AcDbEntity
  8
0
100
AcDbSpline
 62
7
  6
CONTINUOUS
 70
0
 71
3
 72
9
 73
5
 74
0
 42
0.0000001
 43
0.0000001
 44
0.0000000001
 40
0.0
 40
0.0
 40
0.0
 40
0.0
 40
0.5312871198
 40
1.0
 40
1.0
 40
1.0
 40
1.0
 10
-31.3184589195
 20
219.6918355128
 30
0.0
 10
-31.2351247801
 20
219.6437032616
 30
0.0
 10
-31.0642811131
 20
219.5723373152
 30
0.0
 10
-30.8761649374
 20
219.5755683632
 30
0.0
 10
-30.7941577591
 20
219.5975461291
 30
0.0
  0
SPLINE
  5
3C6
100
AcDbEntity
  8
0
100
AcDbSpline
 62
7
  6
CONTINUOUS
 70
0
 71
3
 72
13
 73
9
 74
0
 42
0.0000001
 43
0.0000001
 44
0.0000000001
 40
0.0
 40
0.0
 40
0.0
 40
0.0
 40
0.2444482733
 40
0.3716078699
 40
0.5001699791
 40
0.6287096152
 40
0.7557999671
 40
1.0
 40
1.0
 40
1.0
 40
1.0
 10
-39.8876831702
 20
179.1174501442
 30
0.0
 10
-39.8876831702
 20
182.4700532587
 30
0.0
 10
-39.1155321691
 20
187.5922079233
 30
0.0
 10
-36.8273672243
 20
194.0696341137
 30
0.0
 10
-34.4625066791
 20
198.7958908174
 30
0.0
 10
-31.5333156887
 20
203.1936261547
 30
0.0
 10
-27.0478472908
 20
208.3906446513
 30
0.0
 10
-22.9862173862
 20
211.5990104162
 30
0.0
 10
-20.0772275618
 20
213.2588022115
 30
0.0
  0
SPLINE
  5
3C7
100
AcDbEntity
  8
0
100
AcDbSpline
 62
7
  6
CONTINUOUS
 70
0
 71
3
 72
14
 73
10
 74
0
 42
0.0000001
 43
0.0000001
 44
0.0000000001
 40
0.0
 40
0.0
 40
0.0
 40
0.0
 40
0.1173693746
 40
0.2397881738
 40
0.3661752132
 40
0.495033847
 40
0.6246428502
 40
0.7532128969
 40
1.0
 40
1.0
 40
1.0
 40
1.0
 10
-10.1356160309
 20
160.1638390546
 30
0.0
 10
-8.6377756898
 20
160.7644331154
 30
0.0
 10
-5.6836510436
 20
162.2697138689
 30
0.0
 10
-1.6049091555
 20
165.2528697136
 30
0.0
 10
2.1005176838
 20
168.9170444909
 30
0.0
 10
5.3130900161
 20
173.1423883887
 30
0.0
 10
7.9316855
 20
177.796761449
 30
0.0
 10
10.4800517558
 20
184.2678662822
 30
0.0
 10
11.3519880142
 20
189.459335692
 30
0.0
 10
11.3519880142
 20
192.8525249359
 30
0.0
  0
SPLINE
  5
3C8
100
AcDbEntity
  8
0
100
AcDbSpline
 62
7
  6
CONTINUOUS
 70
0
 71
3
 72
11
 73
7
 74
0
 42
0.0000001
 43
0.0000001
 44
0.0000000001
 40
0.0
 40
0.0
 40
0.0
 40
0.0
 40
0.2323614766
 40
0.473126442
 40
0.7282231067
 40
1.0
 40
1.0
 40
1.0
 40
1.0
 10
-16.029058686
 20
151.7029828367
 30
0.0
 10
-16.332754014
 20
151.8783681094
 30
0.0
 10
-16.8992007614
 20
152.3339974654
 30
0.0
 10
-17.5251362372
 20
153.2543820544
 30
0.0
 10
-17.9071034396
 20
154.3606006726
 30
0.0
 10
-17.9868559704
 20
155.1591895772
 30
0.0
 10
-17.9868559704
 20
155.5693793205
 30
0.0
  0
SPLINE
  5
3C9
100
AcDbEntity
  8
0
100
AcDbSpline
 62
7
  6
CONTINUOUS
 70
0
 71
3
 72
11
 73
7
 74
0
 42
0.0000001
 43
0.0000001
 44
0.0000000001
 40
0.0
 40
0.0
 40
0.0
 40
0.0
 40
0.2690422091
 40
0.5244220288
 40
0.7670729591
 40
1.0
 40
1.0
 40
1.0
 40
1.0
 10
11.3519880142
 20
192.8525249359
 30
0.0
 10
11.3519880142
 20
194.5329309931
 30
0.0
 10
11.0782794956
 20
197.8174562415
 30
0.0
 10
9.7827755618
 20
202.4623001807
 30
0.0
 10
7.6503528768
 20
206.5394158386
 30
0.0
 10
5.6810804995
 20
208.8085756834
 30
0.0
 10
4.5975052272
 20
209.7793534015
 30
0.0
  0
SPLINE
  5
3CA
100
AcDbEntity
  8
0
100
AcDbSpline
 62
7
  6
CONTINUOUS
 70
0
 71
3
 72
11
 73
7
 74
0
 42
0.0000001
 43
0.0000001
 44
0.0000000001
 40
0.0
 40
0.0
 40
0.0
 40
0.0
 40
0.2428152408
 40
0.4886832966
 40
0.7403665505
 40
1.0
 40
1.0
 40
1.0
 40
1.0
 10
-27.7825879368
 20
160.7721280881
 30
0.0
 10
-26.9228749611
 20
160.2755960503
 30
0.0
 10
-25.1008554826
 20
159.42668067
 30
0.0
 10
-22.163762832
 20
158.6375296501
 30
0.0
 10
-19.068765978
 20
158.3405937332
 30
0.0
 10
-16.9727417009
 20
158.4709398304
 30
0.0
 10
-15.9207401969
 20
158.6131048039
 30
0.0
  0
SPLINE
  5
3CB
100
AcDbEntity
  8
0
100
AcDbSpline
 62
7
  6
CONTINUOUS
 70
0
 71
3
 72
13
 73
9
 74
0
 42
0.0000001
 43
0.0000001
 44
0.0000000001
 40
0.0
 40
0.0
 40
0.0
 40
0.0
 40
0.1156654766
 40
0.2326566892
 40
0.351881408
 40
0.4740927208
 40
0.7290452017
 40
1.0
 40
1.0
 40
1.0
 40
1.0
 10
-30.0083453928
 20
158.6154092828
 30
0.0
 10
-30.778527224
 20
159.1079790542
 30
0.0
 10
-32.2572371768
 20
160.2140214133
 30
0.0
 10
-34.2282618656
 20
162.188857648
 30
0.0
 10
-35.9364801628
 20
164.4603731153
 30
0.0
 10
-37.8615086668
 20
167.8906939759
 30
0.0
 10
-39.4865802845
 20
172.804087571
 30
0.0
 10
-39.8876831702
 20
176.9758145041
 30
0.0
 10
-39.8876831702
 20
179.1174501442
 30
0.0
  0
SPLINE
  5
3CC
100
AcDbEntity
  8
0
100
AcDbSpline
 62
7
  6
CONTINUOUS
 70
0
 71
3
 72
10
 73
6
 74
0
 42
0.0000001
 43
0.0000001
 44
0.0000000001
 40
0.0
 40
0.0
 40
0.0
 40
0.0
 40
0.2405483895
 40
0.4865774822
 40
1.0
 40
1.0
 40
1.0
 40
1.0
 10
-71.881720003
 20
249.8786371345
 30
0.0
 10
-72.6444941273
 20
250.1109376399
 30
0.0
 10
-74.2265892251
 20
250.4616976144
 30
0.0
 10
-77.5414717984
 20
250.6966958942
 30
0.0
 10
-80.0722290947
 20
250.3334822732
 30
0.0
 10
-81.7160739238
 20
249.892840654
 30
0.0
  0
SPLINE
  5
3CD
100
AcDbEntity
  8
0
100
AcDbSpline
 62
7
  6
CONTINUOUS
 70
0
 71
3
 72
20
 73
16
 74
0
 42
0.0000001
 43
0.0000001
 44
0.0000000001
 40
0.0
 40
0.0
 40
0.0
 40
0.0
 40
0.1227236417
 40
0.1878064592
 40
0.2547478232
 40
0.3916134598
 40
0.4604256078
 40
0.5284814743
 40
0.6595702828
 40
0.7219374885
 40
0.7817550658
 40
0.8390517181
 40
0.894118676
 40
0.9475100134
 40
1.0
 40
1.0
 40
1.0
 40
1.0
 10
-81.7160739238
 20
249.892840654
 30
0.0
 10
-84.0345585068
 20
249.2713581501
 30
0.0
 10
-87.4398105149
 20
247.7158335395
 30
0.0
 10
-91.4735764482
 20
244.7781270139
 30
0.0
 10
-95.3053594713
 20
241.1571622233
 30
0.0
 10
-98.481383222
 20
236.7999300079
 30
0.0
 10
-100.8362788146
 20
231.9802565049
 30
0.0
 10
-102.5647081543
 20
227.0232472435
 30
0.0
 10
-103.3602052758
 20
221.9004190508
 30
0.0
 10
-103.0826089494
 20
216.9398220973
 30
0.0
 10
-102.361652127
 20
213.4890213166
 30
0.0
 10
-101.1384623083
 20
210.3338711672
 30
0.0
 10
-99.4380822927
 20
207.5513478865
 30
0.0
 10
-97.3000093449
 20
205.2141476004
 30
0.0
 10
-95.6089557373
 20
203.9892668007
 30
0.0
 10
-94.7199663168
 20
203.4757521266
 30
0.0
  0
SPLINE
  5
3CE
100
AcDbEntity
  8
0
100
AcDbSpline
 62
7
  6
CONTINUOUS
 70
0
 71
3
 72
11
 73
7
 74
0
 42
0.0000001
 43
0.0000001
 44
0.0000000001
 40
0.0
 40
0.0
 40
0.0
 40
0.0
 40
0.2494431136
 40
0.4991051589
 40
0.7491953635
 40
1.0
 40
1.0
 40
1.0
 40
1.0
 10
-33.7547373958
 20
233.6097203123
 30
0.0
 10
-35.008323724
 20
234.0561005004
 30
0.0
 10
-37.5918124668
 20
234.7517925629
 30
0.0
 10
-41.5807391417
 20
235.18053069
 30
0.0
 10
-45.5951837917
 20
235.0012077854
 30
0.0
 10
-48.229026944
 20
234.4904248249
 30
0.0
 10
-49.5213587164
 20
234.1440211355
 30
0.0
  0
SPLINE
  5
3CF
100
AcDbEntity
  8
0
100
AcDbSpline
 62
7
  6
CONTINUOUS
 70
0
 71
3
 72
9
 73
5
 74
0
 42
0.0000001
 43
0.0000001
 44
0.0000000001
 40
0.0
 40
0.0
 40
0.0
 40
0.0
 40
0.501511172
 40
1.0
 40
1.0
 40
1.0
 40
1.0
 10
-70.4817332811
 20
215.9294192082
 30
0.0
 10
-71.2192873413
 20
214.3472726829
 30
0.0
 10
-72.457764268
 20
211.0787593394
 30
0.0
 10
-73.1870572219
 20
207.6591350049
 30
0.0
 10
-73.4135829998
 20
205.9388899832
 30
0.0
  0
SPLINE
  5
3D0
100
AcDbEntity
  8
0
100
AcDbSpline
 62
7
  6
CONTINUOUS
 70
0
 71
3
 72
15
 73
11
 74
0
 42
0.0000001
 43
0.0000001
 44
0.0000000001
 40
0.0
 40
0.0
 40
0.0
 40
0.0
 40
0.1268119959
 40
0.252828819
 40
0.3781611289
 40
0.5029749695
 40
0.6274434331
 40
0.751707737
 40
0.8758732507
 40
1.0
 40
1.0
 40
1.0
 40
1.0
 10
-73.4135829998
 20
205.9388899832
 30
0.0
 10
-73.5932961731
 20
204.5741415888
 30
0.0
 10
-73.7806240062
 20
201.8271761681
 30
0.0
 10
-73.5199244448
 20
197.7187259191
 30
0.0
 10
-72.7037366108
 20
193.7041053546
 30
0.0
 10
-71.3275840715
 20
189.8622184538
 30
0.0
 10
-69.400641961
 20
186.2768465694
 30
0.0
 10
-66.94904538
 20
183.034932659
 30
0.0
 10
-64.0204875007
 20
180.2223166918
 30
0.0
 10
-61.7914678068
 20
178.6827580515
 30
0.0
 10
-60.624717563
 20
178.0088647796
 30
0.0
  0
SPLINE
  5
3D1
100
AcDbEntity
  8
0
100
AcDbSpline
 62
7
  6
CONTINUOUS
 70
0
 71
3
 72
11
 73
7
 74
0
 42
0.0000001
 43
0.0000001
 44
0.0000000001
 40
0.0
 40
0.0
 40
0.0
 40
0.0
 40
0.2470207794
 40
0.4960242008
 40
0.7471601947
 40
1.0
 40
1.0
 40
1.0
 40
1.0
 10
-49.5218733028
 20
234.1438831978
 30
0.0
 10
-51.3059421731
 20
233.665635909
 30
0.0
 10
-54.8028206366
 20
232.3532844078
 30
0.0
 10
-59.6129789979
 20
229.4571471469
 30
0.0
 10
-63.8868969802
 20
225.7523690344
 30
0.0
 10
-66.3024866448
 20
222.8346202189
 30
0.0
 10
-67.38758826
 20
221.2864587707
 30
0.0
  0
SPLINE
  5
3D2
100
AcDbEntity
  8
0
100
AcDbSpline
 62
7
  6
CONTINUOUS
 70
0
 71
3
 72
20
 73
16
 74
0
 42
0.0000001
 43
0.0000001
 44
0.0000000001
 40
0.0
 40
0.0
 40
0.0
 40
0.0
 40
0.0602663303
 40
0.1230620905
 40
0.1881398434
 40
0.255078642
 40
0.3919402764
 40
0.5285667004
 40
0.595225037
 40
0.6599342004
 40
0.7817660899
 40
0.839058244
 40
0.8941219517
 40
0.9475112765
 40
1.0
 40
1.0
 40
1.0
 40
1.0
 10
-45.1200638611
 20
233.3523379594
 30
0.0
 10
-46.4775936769
 20
232.9884378595
 30
0.0
 10
-49.1920372321
 20
232.0152835018
 30
0.0
 10
-53.0706138069
 20
229.9348730107
 30
0.0
 10
-56.7553821734
 20
227.2535736139
 30
0.0
 10
-61.3222559913
 20
222.9362085306
 30
0.0
 10
-66.0471590565
 20
216.4570943978
 30
0.0
 10
-69.1459411213
 20
209.0686662678
 30
0.0
 10
-70.4652099133
 20
202.9427959564
 30
0.0
 10
-70.9556049153
 20
197.0480943099
 30
0.0
 10
-70.2608876241
 20
191.2999460233
 30
0.0
 10
-68.2774810199
 20
186.1861239469
 30
0.0
 10
-66.2500910295
 20
182.8680773366
 30
0.0
 10
-63.7008982955
 20
180.0816166056
 30
0.0
 10
-61.6846753027
 20
178.6211192563
 30
0.0
 10
-60.6247147814
 20
178.0088695953
 30
0.0
  0
SPLINE
  5
3D3
100
AcDbEntity
  8
0
100
AcDbSpline
 62
7
  6
CONTINUOUS
 70
0
 71
3
 72
15
 73
11
 74
0
 42
0.0000001
 43
0.0000001
 44
0.0000000001
 40
0.0
 40
0.0
 40
0.0
 40
0.0
 40
0.1150942301
 40
0.2374960544
 40
0.3657817413
 40
0.4974807998
 40
0.6295713088
 40
0.7589703158
 40
0.8830202689
 40
1.0
 40
1.0
 40
1.0
 40
1.0
 10
-73.1052490393
 20
196.0789275839
 30
0.0
 10
-73.6741312887
 20
197.7730933026
 30
0.0
 10
-74.3894186001
 20
201.4335097599
 30
0.0
 10
-74.2200954806
 20
207.149212202
 30
0.0
 10
-72.8712680151
 20
212.9691059393
 30
0.0
 10
-70.4201896289
 20
218.5779073161
 30
0.0
 10
-67.0014094268
 20
223.6756381944
 30
0.0
 10
-62.7968611464
 20
227.9870233691
 30
0.0
 10
-58.0330187503
 20
231.275813808
 30
0.0
 10
-54.5323685909
 20
232.7083965375
 30
0.0
 10
-52.7779031166
 20
233.1786906271
 30
0.0
  0
SPLINE
  5
3D4
100
AcDbEntity
  8
0
100
AcDbSpline
 62
7
  6
CONTINUOUS
 70
0
 71
3
 72
10
 73
6
 74
0
 42
0.0000001
 43
0.0000001
 44
0.0000000001
 40
0.0
 40
0.0
 40
0.0
 40
0.0
 40
0.2407999825
 40
0.4870399832
 40
1.0
 40
1.0
 40
1.0
 40
1.0
 10
-33.9974336482
 20
233.5079471726
 30
0.0
 10
-34.8683538183
 20
233.7413486392
 30
0.0
 10
-36.6669074911
 20
234.0858834806
 30
0.0
 10
-40.4147289574
 20
234.2773816645
 30
0.0
 10
-43.2648273203
 20
233.8496350066
 30
0.0
 10
-45.1200638611
 20
233.3523379594
 30
0.0
  0
SPLINE
  5
3D5
100
AcDbEntity
  8
0
100
AcDbSpline
 62
7
  6
CONTINUOUS
 70
0
 71
3
 72
9
 73
5
 74
0
 42
0.0000001
 43
0.0000001
 44
0.0000000001
 40
0.0
 40
0.0
 40
0.0
 40
0.0
 40
0.2537482895
 40
1.0
 40
1.0
 40
1.0
 40
1.0
 10
-41.7419706246
 20
231.401214043
 30
0.0
 10
-41.4309497929
 20
231.4845848821
 30
0.0
 10
-40.1991703447
 20
231.7898738904
 30
0.0
 10
-38.943584365
 20
232.0005596768
 30
0.0
 10
-38.0016820947
 20
232.0984660906
 30
0.0
  0
ENDSEC
  0
SECTION
  2
OBJECTS
  0
DICTIONARY
  5
C
100
AcDbDictionary
280
0
281
1
  3
ACAD_GROUP
350
D
  3
ACAD_MLINESTYLE
350
17
  3
ACAD_LAYOUT
350
1A
  3
ACAD_PLOTSETTINGS
350
19
  3
ACAD_PLOTSTYLENAME
350
E
  0
DICTIONARY
  5
D
102
{ACAD_REACTORS
330
C
102
}
100
AcDbDictionary
280
0
281
1
  0
ACDBDICTIONARYWDFLT
  5
E
102
{ACAD_REACTORS
330
C
102
}
100
AcDbDictionary
281
1
  3
Normal
350
F
100
AcDbDictionaryWithDefault
340
F
  0
DICTIONARY
  5
17
102
{ACAD_REACTORS
330
C
102
}
100
AcDbDictionary
280
0
281
1
  3
Standard
350
18
  0
DICTIONARY
  5
19
102
{ACAD_REACTORS
330
C
102
}
100
AcDbDictionary
281
1
  0
DICTIONARY
  5
1A
102
{ACAD_REACTORS
330
C
102
}
100
AcDbDictionary
281
1
  3
Model
350
3D6
  3
Layout1
350
3D7
  0
ACDBPLACEHOLDER
  5
F
102
{ACAD_REACTORS
330
E
102
}
  0
MLINESTYLE
  5
18
102
{ACAD_REACTORS
330
17
102
}
100
AcDbMlineStyle
  2
STANDARD
 70
0
  3

 62
256
 51
90.0
 52
90.0
 71
2
 49
0.5
 62
256
  6
BYLAYER
 49
-0.5
 62
256
  6
BYLAYER
  0
LAYOUT
  5
3D6
102
{ACAD_REACTORS
330
1A
102
}
100
AcDbPlotSettings
  1

  2
none_device
  4
ANSI_C_(22.00_x_17.00_Inches)
  6

 40
0.0
 41
0.0
 42
0.0
 43
0.0
 44
558.8
 45
431.8
 46
0.0
 47
0.0
 48
0.0
 49
0.0
140
0.0
141
0.0
142
1.0
143
1.0
 70
1024
 72
1
 73
0
 74
0
  7

 75
0
147
1.0
148
0.0
149
0.0
100
AcDbLayout
  1
Model
 70
0
 71
0
 10
0.0
 20
0.0
 11
558.8
 21
431.8
 12
0.0
 22
0.0
 32
0.0
 14
0.0
 24
0.0
 34
0.0
 15
0.0
 25
0.0
 35
0.0
146
0.0
 13
0.0
 23
0.0
 33
0.0
 16
1.0
 26
0.0
 36
0.0
 17
0.0
 27
1.0
 37
0.0
 76
0
330
1FF
345
0
346
0
  0
LAYOUT
  5
3D7
102
{ACAD_REACTORS
330
1A
102
}
100
AcDbPlotSettings
  1

  2
none_device
  4
ANSI_C_(22.00_x_17.00_Inches)
  6

 40
0.0
 41
0.0
 42
0.0
 43
0.0
 44
558.8
 45
431.8
 46
0.0
 47
0.0
 48
0.0
 49
0.0
140
0.0
141
0.0
142
1.0
143
1.0
 70
0
 72
1
 73
0
 74
0
  7

 75
0
147
1.0
148
0.0
149
0.0
100
AcDbLayout
  1
Layout1
 70
0
 71
1
 10
0.0
 20
0.0
 11
558.8
 21
431.8
 12
0.0
 22
0.0
 32
0.0
 14
0.0
 24
0.0
 34
0.0
 15
0.0
 25
0.0
 35
0.0
146
0.0
 13
0.0
 23
0.0
 33
0.0
 16
1.0
 26
0.0
 36
0.0
 17
0.0
 27
1.0
 37
0.0
 76
0
330
200
345
0
346
0
  0
ENDSEC
  0
EOF
