999
DXF file: Y:\3D PRATIKA-KAEDRA_OLGA\TRAVAIL_PHASE_2\CAD3D\PKF32M434_3D-Simplified\PKF32M434_2D-isometric.dxf
999
Pro/ENGINEER 2018260 by Parametric Technology Corporation
  0
SECTION
  2
HEADER
  9
$ACADVER
  1
AC1027
  9
$DWGCODEPAGE
  3
ANSI_1252
  9
$EXTMAX
 10
558.8
 20
431.8
 30
0.0
  9
$EXTMIN
 10
0.0
 20
0.0
 30
0.0
  9
$LIMMIN
 10
0.0
 20
0.0
  9
$LIMMAX
 10
558.8
 20
431.8
  9
$VIEWCTR
 10
279.4
 20
215.9
  9
$VIEWSIZE
 40
431.8
  9
$CLAYER
  8
0
  9
$LTSCALE
 40
30.734
  9
$CELTYPE
  6
BYLAYER
  9
$DIMSCALE
 40
1.0
  9
$DIMASZ
 40
0.1875
  9
$DIMEXO
 40
0.0625
  9
$DIMDLI
 40
21.2344
  9
$DIMEXE
 40
0.125
  9
$DIMCEN
 40
5.0292
  9
$DIMLFAC
 40
1.0
  9
$DIMBLK
  1
_CLOSED
  9
$DIMALT
 70
0
  9
$DIMALTF
 40
0.0393700787
  9
$DIMTXT
 40
0.15625
  9
$DIMTOL
 70
0
  9
$DIMLIM
 70
0
  9
$DIMTFAC
 40
1.0
  9
$DIMGAP
 40
0.625
  9
$DIMDSEP
 70
46
  9
$AUNITS
 70
0
  9
$PDMODE
 70
3
  9
$PDSIZE
 40
0.3125
  9
$HANDSEED
  5
409
  9
$TILEMODE
 70
1
  9
$MEASUREMENT
 70
1
  9
$INSUNITS
 70
4
  0
ENDSEC
  0
SECTION
  2
CLASSES
  0
CLASS
  1
ACDBDICTIONARYWDFLT
  2
AcDbDictionaryWithDefault
  3
AutoCAD 2000
 90
0
 91
1
280
0
281
0
  0
CLASS
  1
ACDBPLACEHOLDER
  2
AcDbPlaceHolder
  3
AutoCAD 2000
 90
0
 91
1
280
0
281
0
  0
CLASS
  1
LAYOUT
  2
AcDbLayout
  3
AutoCAD 2000
 90
0
 91
0
280
0
281
0
  0
ENDSEC
  0
SECTION
  2
TABLES
  0
TABLE
  2
VPORT
  5
8
100
AcDbSymbolTable
 70
2
  0
VPORT
  5
1F4
100
AcDbSymbolTableRecord
100
AcDbViewportTableRecord
  2
*ACTIVE
 70
0
 10
0.0
 20
0.0
 11
1.0
 21
1.0
 12
279.4
 22
215.9
 13
0.0
 23
0.0
 14
1.0
 24
1.0
 15
0.0
 25
0.0
 16
0.0
 26
0.0
 36
1.0
 17
0.0
 27
0.0
 37
0.0
 40
431.8
 41
1.2941176471
 42
50.0
 43
0.0
 44
0.0
 50
0.0
 51
0.0
 71
0
 72
100
 73
1
 74
1
 75
0
 76
0
 77
0
 78
0
  0
ENDTAB
  0
TABLE
  2
LTYPE
  5
5
100
AcDbSymbolTable
 70
6
  0
LTYPE
  5
14
100
AcDbSymbolTableRecord
100
AcDbLinetypeTableRecord
  2
BYBLOCK
 70
0
  3

 72
65
 73
0
 40
0.0
  0
LTYPE
  5
15
100
AcDbSymbolTableRecord
100
AcDbLinetypeTableRecord
  2
BYLAYER
 70
0
  3

 72
65
 73
0
 40
0.0
  0
LTYPE
  5
16
100
AcDbSymbolTableRecord
100
AcDbLinetypeTableRecord
  2
CONTINUOUS
 70
64
  3
Solid line
 72
65
 73
0
 40
0.0
  0
LTYPE
  5
1F5
100
AcDbSymbolTableRecord
100
AcDbLinetypeTableRecord
  2
CENTER
 70
64
  3
____ _ ____ _ ____ _ ____ _ ____ _ ____ _ ____
 72
65
 73
4
 40
0.6
 49
0.375
 74
0
 49
-0.075
 74
0
 49
0.075
 74
0
 49
-0.075
 74
0
  0
LTYPE
  5
1F6
100
AcDbSymbolTableRecord
100
AcDbLinetypeTableRecord
  2
HIDDEN
 70
64
  3
- - - - - - - - - - - - - - - - - - - -
 72
65
 73
2
 40
0.2
 49
0.1
 74
0
 49
-0.1
 74
0
  0
LTYPE
  5
1F7
100
AcDbSymbolTableRecord
100
AcDbLinetypeTableRecord
  2
PHANTOM
 70
64
  3
_____ _ _ _____ _ _ _____ _ _ _____
 72
65
 73
6
 40
0.8
 49
0.45
 74
0
 49
-0.05
 74
0
 49
0.1
 74
0
 49
-0.05
 74
0
 49
0.1
 74
0
 49
-0.05
 74
0
  0
LTYPE
  5
1F8
100
AcDbSymbolTableRecord
100
AcDbLinetypeTableRecord
  2
DOT
 70
64
  3
. . . . . . . . . . . . . . . . . . . .
 72
65
 73
2
 40
0.2
 49
0.1
 74
0
 49
-0.1
 74
0
  0
LTYPE
  5
1F9
100
AcDbSymbolTableRecord
100
AcDbLinetypeTableRecord
  2
DASHED
 70
64
  3
- - - - - - - - - - - - - - - - - - - -
 72
65
 73
2
 40
0.2
 49
0.1
 74
0
 49
-0.1
 74
0
  0
ENDTAB
  0
TABLE
  2
LAYER
  5
2
100
AcDbSymbolTable
 70
36
  0
LAYER
  5
10
100
AcDbSymbolTableRecord
100
AcDbLayerTableRecord
  2
0
 70
0
 62
7
  6
CONTINUOUS
370
-3
390
F
  0
LAYER
  5
1FA
100
AcDbSymbolTableRecord
100
AcDbLayerTableRecord
  2
DEFAULT_1
 70
0
 62
7
  6
CENTER
370
-3
390
F
  0
LAYER
  5
1FB
100
AcDbSymbolTableRecord
100
AcDbLayerTableRecord
  2
DEFAULT_2
 70
0
 62
8
  6
HIDDEN
370
-3
390
F
  0
LAYER
  5
1FC
100
AcDbSymbolTableRecord
100
AcDbLayerTableRecord
  2
DEFAULT_3
 70
0
 62
7
  6
PHANTOM
370
-3
390
F
  0
ENDTAB
  0
TABLE
  2
STYLE
  5
3
100
AcDbSymbolTable
 70
1
  0
STYLE
  5
11
100
AcDbSymbolTableRecord
100
AcDbTextStyleTableRecord
  2
STANDARD
 70
0
 40
0.0
 41
0.8
 50
0.0
 71
0
 42
0.2
  3
txt
  4

  0
STYLE
  5
1FD
100
AcDbSymbolTableRecord
100
AcDbTextStyleTableRecord
  2
TEXTSTYLE_1
 70
0
 40
0.0
 41
0.8
 50
0.0
 71
0
 42
0.2
  3
gdt
  4

  0
ENDTAB
  0
TABLE
  2
VIEW
  5
6
100
AcDbSymbolTable
 70
0
  0
ENDTAB
  0
TABLE
  2
UCS
  5
7
100
AcDbSymbolTable
 70
0
  0
ENDTAB
  0
TABLE
  2
APPID
  5
9
100
AcDbSymbolTable
 70
1
  0
APPID
  5
1FE
100
AcDbSymbolTableRecord
100
AcDbRegAppTableRecord
  2
ACAD
 70
0
  0
ENDTAB
  0
TABLE
  2
BLOCK_RECORD
  5
1
100
AcDbSymbolTable
 70
0
  0
BLOCK_RECORD
  5
1FF
100
AcDbSymbolTableRecord
100
AcDbBlockTableRecord
  2
*Model_Space
  0
BLOCK_RECORD
  5
200
100
AcDbSymbolTableRecord
100
AcDbBlockTableRecord
  2
*Paper_Space
  0
BLOCK_RECORD
  5
201
100
AcDbSymbolTableRecord
100
AcDbBlockTableRecord
  2
_CLOSED
  0
ENDTAB
  0
TABLE
  2
DIMSTYLE
  5
A
100
AcDbSymbolTable
 70
1
100
AcDbDimStyleTable
 71
0
  0
DIMSTYLE
105
202
100
AcDbSymbolTableRecord
100
AcDbDimStyleTableRecord
  2
STANDARD
 70
0
  3

  4

 40
1.0
 41
0.1875
 42
0.0625
 43
0.38
 44
0.125
 45
0.0
 46
0.0
 47
0.01
 48
0.01
140
0.15625
141
0.09
142
0.0
143
25.4
144
1.0
145
0.0
146
1.0
147
0.625
 71
0.0
 72
0.0
 73
1
 74
1
 75
0
 76
0
 77
0
 78
8
 79
2
170
0
171
1
172
0
173
0
174
0
175
0
176
0
177
0
178
0
270
2
179
2
271
2
272
2
273
2
274
2
275
0
280
0
281
0
282
0
283
1
284
8
285
0
286
0
287
3
288
0
340
11
278
46
341
201
342
201
343
201
344
201
  0
ENDTAB
  0
ENDSEC
  0
SECTION
  2
BLOCKS
  0
BLOCK
  5
20
100
AcDbEntity
  8
0
100
AcDbBlockBegin
  2
*Model_Space
 70
0
 10
0.0
 20
0.0
 30
0.0
  3
*Model_Space
  1

  0
ENDBLK
  5
21
100
AcDbEntity
  8
0
100
AcDbBlockEnd
  0
BLOCK
  5
1C
100
AcDbEntity
  8
0
100
AcDbBlockBegin
  2
*Paper_Space
 70
0
 10
0.0
 20
0.0
 30
0.0
  3
*Paper_Space
  1

  0
ENDBLK
  5
1D
100
AcDbEntity
  8
0
100
AcDbBlockEnd
  0
BLOCK
  5
203
100
AcDbEntity
  8
0
100
AcDbBlockBegin
  2
_CLOSED
 70
64
 10
0.0
 20
0.0
  3
_CLOSED
  1

  0
LINE
  5
204
100
AcDbEntity
  8
0
  6
BYBLOCK
 62
0
100
AcDbLine
 10
0.0
 20
0.0
 11
-1.0
 21
0.1666666667
  0
LINE
  5
205
100
AcDbEntity
  8
0
  6
BYBLOCK
 62
0
100
AcDbLine
 10
-1.0
 20
0.1666666667
 11
-1.0
 21
-0.1666666667
  0
LINE
  5
206
100
AcDbEntity
  8
0
  6
BYBLOCK
 62
0
100
AcDbLine
 10
-1.0
 20
-0.1666666667
 11
0.0
 21
0.0
  0
LINE
  5
207
100
AcDbEntity
  8
0
  6
BYBLOCK
 62
0
100
AcDbLine
 10
-1.0
 20
0.0
 11
0.0
 21
0.0
  0
ENDBLK
  5
208
100
AcDbEntity
  8
0
  6
BYBLOCK
 62
0
100
AcDbBlockEnd
  0
ENDSEC
  0
SECTION
  2
ENTITIES
  0
LINE
  5
209
100
AcDbEntity
  8
0
100
AcDbLine
 62
7
  6
CONTINUOUS
 10
-65.7320087143
 20
269.8866524752
 11
-65.7321026503
 21
269.8865996219
  0
LINE
  5
20A
100
AcDbEntity
  8
0
100
AcDbLine
 62
7
  6
CONTINUOUS
 10
-85.3597184635
 20
249.0577378563
 11
-85.3596986221
 21
249.0578249582
  0
LWPOLYLINE
  5
20B
100
AcDbEntity
  8
0
100
AcDbPolyline
 62
7
  6
CONTINUOUS
 90
5
 70
0
 10
-87.1610402637
 20
235.881043385
 10
-87.3184853086
 20
235.6467134058
 10
-87.4199339716
 20
235.3641545124
 10
-87.4522822844
 20
235.0553215715
 10
-87.4154012831
 20
234.7750763053
  0
LINE
  5
20C
100
AcDbEntity
  8
0
100
AcDbLine
 62
7
  6
CONTINUOUS
 10
-87.0819740065
 20
235.9615709021
 11
-87.1610402637
 21
235.881043385
  0
LINE
  5
20D
100
AcDbEntity
  8
0
100
AcDbLine
 62
7
  6
CONTINUOUS
 10
-87.0819621956
 20
235.9615391954
 11
-86.5523384632
 21
236.4436540611
  0
LINE
  5
20E
100
AcDbEntity
  8
0
100
AcDbLine
 62
7
  6
CONTINUOUS
 10
-86.20634445
 20
236.2514100143
 11
-86.7394294016
 21
235.7661444113
  0
LWPOLYLINE
  5
20F
100
AcDbEntity
  8
0
100
AcDbPolyline
 62
7
  6
CONTINUOUS
 90
6
 70
0
 10
-84.5519128674
 20
250.0043054712
 10
-84.7595290393
 20
249.9187746511
 10
-84.9760406792
 20
249.7557326384
 10
-85.1630338967
 20
249.5262193055
 10
-85.30358296
 20
249.2448686277
 10
-85.359731576
 20
249.0577674406
  0
LWPOLYLINE
  5
210
100
AcDbEntity
  8
0
100
AcDbPolyline
 62
7
  6
CONTINUOUS
 90
6
 70
0
 10
-83.2310524378
 20
224.0469632731
 10
-83.2861051366
 20
223.8962052057
 10
-83.3245574326
 20
223.5792507175
 10
-83.2636703023
 20
223.2582267799
 10
-83.1042235627
 20
222.9706301276
 10
-82.9714504997
 20
222.8328503533
  0
LINE
  5
211
100
AcDbEntity
  8
0
100
AcDbLine
 62
7
  6
CONTINUOUS
 10
-83.231017602
 20
224.0469662664
 11
-82.9276702465
 21
224.712746936
  0
LINE
  5
212
100
AcDbEntity
  8
0
100
AcDbLine
 62
7
  6
CONTINUOUS
 10
-82.5827229465
 20
224.5234598067
 11
-82.8905444211
 21
223.8478594307
  0
LWPOLYLINE
  5
213
100
AcDbEntity
  8
0
100
AcDbPolyline
 62
7
  6
CONTINUOUS
 90
6
 70
0
 10
-74.0778756984
 20
217.4138071227
 10
-74.0703608914
 20
217.2971651187
 10
-73.9974722701
 20
217.0428915582
 10
-73.8486549504
 20
216.8189329474
 10
-73.6315544101
 20
216.6464415536
 10
-73.4313190679
 20
216.5620819375
  0
LINE
  5
214
100
AcDbEntity
  8
0
100
AcDbLine
 62
7
  6
CONTINUOUS
 10
-74.0778426135
 20
217.4137669917
 11
-74.0778427692
 21
217.5244796637
  0
LINE
  5
215
100
AcDbEntity
  8
0
100
AcDbLine
 62
7
  6
CONTINUOUS
 10
-73.7364098729
 20
217.3451269672
 11
-73.7364098729
 21
217.2273394316
  0
LINE
  5
216
100
AcDbEntity
  8
0
100
AcDbLine
 62
7
  6
CONTINUOUS
 10
-87.4153856957
 20
234.7751053713
 11
-87.4154064323
 21
234.7751870672
  0
LINE
  5
217
100
AcDbEntity
  8
0
100
AcDbLine
 62
7
  6
CONTINUOUS
 10
-52.4464654878
 20
269.3271594532
 11
-52.4457888645
 21
269.3302578974
  0
LINE
  5
218
100
AcDbEntity
  8
0
100
AcDbLine
 62
7
  6
CONTINUOUS
 10
-82.9543413436
 20
224.6641112713
 11
-82.9682090289
 21
224.6841933448
  0
LINE
  5
219
100
AcDbEntity
  8
0
100
AcDbLine
 62
7
  6
CONTINUOUS
 10
-82.9461230726
 20
224.6722470448
 11
-82.9591397017
 21
224.6931558308
  0
LINE
  5
21A
100
AcDbEntity
  8
0
100
AcDbLine
 62
7
  6
CONTINUOUS
 10
-52.4464654878
 20
270.0119441528
 11
-52.4457888645
 21
270.0221757977
  0
LINE
  5
21B
100
AcDbEntity
  8
0
100
AcDbLine
 62
7
  6
CONTINUOUS
 10
-52.5415224099
 20
269.0186359467
 11
-52.5415655074
 21
269.0415057874
  0
LINE
  5
21C
100
AcDbEntity
  8
0
100
AcDbLine
 62
7
  6
CONTINUOUS
 10
-52.4457907504
 20
270.0227161477
 11
-52.4464654878
 21
269.3271594532
  0
LINE
  5
21D
100
AcDbEntity
  8
0
100
AcDbLine
 62
7
  6
CONTINUOUS
 10
6.7542959612
 20
236.3130496187
 11
6.9004422986
 21
236.3565706004
  0
LINE
  5
21E
100
AcDbEntity
  8
0
100
AcDbLine
 62
7
  6
CONTINUOUS
 10
55.560964289
 20
207.3198722445
 11
58.8667495267
 21
208.206006102
  0
LINE
  5
21F
100
AcDbEntity
  8
0
100
AcDbLine
 62
7
  6
CONTINUOUS
 10
-19.5509969282
 20
180.9504565405
 11
9.1627955825
 21
164.3659032505
  0
LINE
  5
220
100
AcDbEntity
  8
0
100
AcDbLine
 62
7
  6
CONTINUOUS
 10
14.7738663322
 20
162.2984838304
 11
22.4122309245
 21
157.8867062994
  0
LINE
  5
221
100
AcDbEntity
  8
0
100
AcDbLine
 62
7
  6
CONTINUOUS
 10
-82.9398471104
 20
222.8106425002
 11
-82.9714240175
 21
222.832860858
  0
LINE
  5
222
100
AcDbEntity
  8
0
100
AcDbLine
 62
7
  6
CONTINUOUS
 10
-82.9714240175
 20
222.832860858
 11
-82.9715907187
 21
222.8330031233
  0
LINE
  5
223
100
AcDbEntity
  8
0
100
AcDbLine
 62
7
  6
CONTINUOUS
 10
-64.1450924696
 20
269.0501141442
 11
-64.1559661427
 21
269.1205372408
  0
LWPOLYLINE
  5
224
100
AcDbEntity
  8
0
100
AcDbPolyline
 62
7
  6
CONTINUOUS
 90
7
 70
0
 10
-52.4457562363
 20
270.0224262694
 10
-52.4638404606
 20
270.2023714822
 10
-52.549382716
 20
270.4399691319
 10
-52.7020724273
 20
270.6454360336
 10
-52.9153510462
 20
270.8024181589
 10
-53.1778966986
 20
270.8947918718
 10
-53.3372844425
 20
270.9129315461
  0
LINE
  5
225
100
AcDbEntity
  8
0
100
AcDbLine
 62
7
  6
CONTINUOUS
 10
-28.9648518077
 20
227.4436919788
 11
-28.9438387459
 21
227.4736976641
  0
LINE
  5
226
100
AcDbEntity
  8
0
100
AcDbLine
 62
7
  6
CONTINUOUS
 10
3.572014426
 20
235.3256052555
 11
4.9626461185
 21
235.9424249612
  0
LINE
  5
227
100
AcDbEntity
  8
0
100
AcDbLine
 62
7
  6
CONTINUOUS
 10
6.9004422986
 20
236.3565706004
 11
7.6614744716
 21
236.5980295177
  0
LINE
  5
228
100
AcDbEntity
  8
0
100
AcDbLine
 62
7
  6
CONTINUOUS
 10
4.5629190211
 20
233.5294123742
 11
4.0898209466
 21
233.3938913135
  0
LINE
  5
229
100
AcDbEntity
  8
0
100
AcDbLine
 62
7
  6
CONTINUOUS
 10
-79.4364214778
 20
220.3413094754
 11
-79.3313827742
 21
220.2813474746
  0
LINE
  5
22A
100
AcDbEntity
  8
0
100
AcDbLine
 62
7
  6
CONTINUOUS
 10
-56.2786672794
 20
209.6594926016
 11
-32.7883145743
 21
196.0919011352
  0
LINE
  5
22B
100
AcDbEntity
  8
0
100
AcDbLine
 62
7
  6
CONTINUOUS
 10
2.9450946706
 20
176.1032940311
 11
22.5205695597
 21
164.7968632852
  0
LINE
  5
22C
100
AcDbEntity
  8
0
100
AcDbLine
 62
7
  6
CONTINUOUS
 10
1.923795938
 20
179.0953999187
 11
28.3056937257
 21
163.8577057134
  0
LINE
  5
22D
100
AcDbEntity
  8
0
100
AcDbLine
 62
7
  6
CONTINUOUS
 10
1.8250462869
 20
179.5643151369
 11
12.5021400411
 21
173.3974240763
  0
LINE
  5
22E
100
AcDbEntity
  8
0
100
AcDbLine
 62
7
  6
CONTINUOUS
 10
-67.0430700697
 20
219.4567417594
 11
-62.7435712376
 21
216.973431083
  0
LINE
  5
22F
100
AcDbEntity
  8
0
100
AcDbLine
 62
7
  6
CONTINUOUS
 10
-79.3032315279
 20
220.4423424431
 11
-79.3439600725
 21
220.4671009393
  0
LINE
  5
230
100
AcDbEntity
  8
0
100
AcDbLine
 62
7
  6
CONTINUOUS
 10
-79.2956772949
 20
220.471748154
 11
-79.336062659
 21
220.4976693088
  0
LINE
  5
231
100
AcDbEntity
  8
0
100
AcDbLine
 62
7
  6
CONTINUOUS
 10
-64.4528835777
 20
269.5606376844
 11
-64.4799380767
 21
269.6578994139
  0
LWPOLYLINE
  5
232
100
AcDbEntity
  8
0
100
AcDbPolyline
 62
7
  6
CONTINUOUS
 90
3
 70
0
 10
-52.339972691
 20
267.3758019965
 10
-52.5052923537
 20
268.3865528449
 10
-52.5415149205
 20
269.0180943529
  0
LINE
  5
233
100
AcDbEntity
  8
0
100
AcDbLine
 62
7
  6
CONTINUOUS
 10
-33.0401769548
 20
248.3073543368
 11
-33.6864582747
 21
260.7427379371
  0
LINE
  5
234
100
AcDbEntity
  8
0
100
AcDbLine
 62
7
  6
CONTINUOUS
 10
-32.042119109
 20
222.1095398419
 11
-32.0268059259
 21
222.1423543212
  0
LINE
  5
235
100
AcDbEntity
  8
0
100
AcDbLine
 62
7
  6
CONTINUOUS
 10
-10.2505844255
 20
227.9149487734
 11
-9.5577521994
 21
228.3657844542
  0
LINE
  5
236
100
AcDbEntity
  8
0
100
AcDbLine
 62
7
  6
CONTINUOUS
 10
14.6829276757
 20
217.9374699194
 11
11.6712439084
 21
217.130159169
  0
LINE
  5
237
100
AcDbEntity
  8
0
100
AcDbLine
 62
7
  6
CONTINUOUS
 10
-73.4314995736
 20
216.562138643
 11
-69.7267895898
 21
215.5629349752
  0
LINE
  5
238
100
AcDbEntity
  8
0
100
AcDbLine
 62
7
  6
CONTINUOUS
 10
-73.4314600686
 20
216.5621230739
 11
-73.4313190679
 21
216.5620819375
  0
LINE
  5
239
100
AcDbEntity
  8
0
100
AcDbLine
 62
7
  6
CONTINUOUS
 10
-59.2472476762
 20
211.6889072992
 11
-59.2462239304
 21
211.6885971035
  0
LINE
  5
23A
100
AcDbEntity
  8
0
100
AcDbLine
 62
7
  6
CONTINUOUS
 10
-60.5378226136
 20
212.1139398573
 11
-60.3598885141
 21
212.0592005497
  0
LINE
  5
23B
100
AcDbEntity
  8
0
100
AcDbLine
 62
7
  6
CONTINUOUS
 10
-60.8817161202
 20
212.2217204409
 11
-60.9579823866
 21
212.2452091788
  0
LINE
  5
23C
100
AcDbEntity
  8
0
100
AcDbLine
 62
7
  6
CONTINUOUS
 10
-60.8831239355
 20
212.2242791282
 11
-60.9570957199
 21
212.2478097107
  0
LINE
  5
23D
100
AcDbEntity
  8
0
100
AcDbLine
 62
7
  6
CONTINUOUS
 10
-64.6932369946
 20
213.5721836326
 11
-64.4325855203
 21
213.4797888354
  0
LINE
  5
23E
100
AcDbEntity
  8
0
100
AcDbLine
 62
7
  6
CONTINUOUS
 10
-60.9570957199
 20
212.2478097107
 11
-60.8838931112
 21
212.2218611133
  0
LINE
  5
23F
100
AcDbEntity
  8
0
100
AcDbLine
 62
7
  6
CONTINUOUS
 10
-64.7133339038
 20
213.5178811597
 11
-64.453127201
 21
213.4239755457
  0
LINE
  5
240
100
AcDbEntity
  8
0
100
AcDbLine
 62
7
  6
CONTINUOUS
 10
-64.6719828686
 20
213.6195506965
 11
-64.5995456636
 21
213.5909049374
  0
LINE
  5
241
100
AcDbEntity
  8
0
100
AcDbLine
 62
7
  6
CONTINUOUS
 10
28.3056937257
 20
166.3475975359
 11
19.1805551072
 21
171.6181081325
  0
LINE
  5
242
100
AcDbEntity
  8
0
100
AcDbLine
 62
7
  6
CONTINUOUS
 10
-32.1414874996
 20
257.3857289342
 11
-31.6272615365
 21
247.4912806315
  0
LINE
  5
243
100
AcDbEntity
  8
0
100
AcDbLine
 62
7
  6
CONTINUOUS
 10
7.7513677551
 20
225.8351166012
 11
7.6406805017
 21
225.8054462761
  0
LINE
  5
244
100
AcDbEntity
  8
0
100
AcDbLine
 62
7
  6
CONTINUOUS
 10
10.2415243067
 20
228.5879771829
 11
9.7438870576
 21
228.4545827899
  0
LINE
  5
245
100
AcDbEntity
  8
0
100
AcDbLine
 62
7
  6
CONTINUOUS
 10
44.1258014233
 20
209.8976637053
 11
44.1522961789
 21
209.8954236733
  0
LINE
  5
246
100
AcDbEntity
  8
0
100
AcDbLine
 62
7
  6
CONTINUOUS
 10
-64.4800848269
 20
269.6582157103
 11
-64.5300992505
 21
269.731272051
  0
LINE
  5
247
100
AcDbEntity
  8
0
100
AcDbLine
 62
7
  6
CONTINUOUS
 10
-64.1450924696
 20
269.0501141442
 11
-64.4528835777
 21
269.5606376844
  0
LINE
  5
248
100
AcDbEntity
  8
0
100
AcDbLine
 62
7
  6
CONTINUOUS
 10
-64.4802273559
 20
269.6583775498
 11
-64.1559663951
 21
269.1205376595
  0
LINE
  5
249
100
AcDbEntity
  8
0
100
AcDbLine
 62
7
  6
CONTINUOUS
 10
6.7204546719
 20
229.6999894789
 11
6.6050211725
 21
229.6690468965
  0
LINE
  5
24A
100
AcDbEntity
  8
0
100
AcDbLine
 62
7
  6
CONTINUOUS
 10
8.8586753638
 20
233.5766216968
 11
6.1718508202
 21
232.8564036469
  0
LINE
  5
24B
100
AcDbEntity
  8
0
100
AcDbLine
 62
7
  6
CONTINUOUS
 10
7.6117665494
 20
233.8458463368
 11
6.8439312609
 21
233.6400238779
  0
LINE
  5
24C
100
AcDbEntity
  8
0
100
AcDbLine
 62
7
  6
CONTINUOUS
 10
3.3798005517
 20
233.2749615891
 11
-1.6053463782
 21
231.9386656225
  0
LINE
  5
24D
100
AcDbEntity
  8
0
100
AcDbLine
 62
7
  6
CONTINUOUS
 10
7.6614152522
 20
236.5982504141
 11
17.498817613
 21
239.2352200523
  0
LINE
  5
24E
100
AcDbEntity
  8
0
100
AcDbLine
 62
7
  6
CONTINUOUS
 10
17.9203317028
 20
239.481247778
 11
5.3706691463
 21
236.1172419239
  0
LINE
  5
24F
100
AcDbEntity
  8
0
100
AcDbLine
 62
7
  6
CONTINUOUS
 10
-26.6883785285
 20
244.6386735296
 11
-27.095516282
 21
246.2793805816
  0
LINE
  5
250
100
AcDbEntity
  8
0
100
AcDbLine
 62
7
  6
CONTINUOUS
 10
-25.2845586977
 20
244.4228718483
 11
-25.1409413059
 21
243.7449025283
  0
LINE
  5
251
100
AcDbEntity
  8
0
100
AcDbLine
 62
7
  6
CONTINUOUS
 10
6.0286800265
 20
241.9780186763
 11
11.3431713433
 21
243.4025972114
  0
LWPOLYLINE
  5
252
100
AcDbEntity
  8
0
100
AcDbPolyline
 62
7
  6
CONTINUOUS
 90
6
 70
0
 10
-64.5300992505
 20
269.731272051
 10
-64.7094506479
 20
269.8991789098
 10
-64.9461553652
 20
270.0072414388
 10
-65.2305707345
 20
270.0373635054
 10
-65.5372769131
 20
269.9753931419
 10
-65.7320769219
 20
269.8866377903
  0
LINE
  5
253
100
AcDbEntity
  8
0
100
AcDbLine
 62
7
  6
CONTINUOUS
 10
-21.0087097587
 20
244.8525698502
 11
-21.1523271506
 21
245.5305391702
  0
LINE
  5
254
100
AcDbEntity
  8
0
100
AcDbLine
 62
7
  6
CONTINUOUS
 10
-0.8712225817
 20
235.2371245811
 11
-0.8712225817
 21
237.0123493345
  0
LINE
  5
255
100
AcDbEntity
  8
0
100
AcDbLine
 62
7
  6
CONTINUOUS
 10
0.5093903979
 20
235.4478710003
 11
0.5093905204
 21
233.5882803745
  0
LINE
  5
256
100
AcDbEntity
  8
0
100
AcDbLine
 62
7
  6
CONTINUOUS
 10
-21.1523271506
 20
245.5305391702
 11
-25.2845586977
 21
244.4228718483
  0
LINE
  5
257
100
AcDbEntity
  8
0
100
AcDbLine
 62
7
  6
CONTINUOUS
 10
1.0317111468
 20
239.7255412021
 11
1.0060391636
 21
239.7233147352
  0
LINE
  5
258
100
AcDbEntity
  8
0
100
AcDbLine
 62
7
  6
CONTINUOUS
 10
1.0208536606
 20
239.6487620143
 11
0.995324691
 21
239.6471012599
  0
LINE
  5
259
100
AcDbEntity
  8
0
100
AcDbLine
 62
7
  6
CONTINUOUS
 10
11.7644035439
 20
215.1995004223
 11
-10.2505844255
 21
227.9149487734
  0
LWPOLYLINE
  5
25A
100
AcDbEntity
  8
0
100
AcDbPolyline
 62
7
  6
CONTINUOUS
 90
4
 70
0
 10
-40.098479204
 20
261.479655698
 10
-41.5122622367
 20
263.2039995797
 10
-42.5631638448
 20
264.2631582867
 10
-42.8903287886
 20
264.5085166783
  0
LINE
  5
25B
100
AcDbEntity
  8
0
100
AcDbLine
 62
7
  6
CONTINUOUS
 10
-39.7017371219
 20
260.9720598396
 11
-40.098479204
 21
261.479655698
  0
LINE
  5
25C
100
AcDbEntity
  8
0
100
AcDbLine
 62
7
  6
CONTINUOUS
 10
-31.9974116564
 20
259.7671759789
 11
-31.6128757
 21
259.2253904532
  0
LINE
  5
25D
100
AcDbEntity
  8
0
100
AcDbLine
 62
7
  6
CONTINUOUS
 10
-27.4806441528
 20
260.3330577751
 11
-27.8651801093
 21
260.8748433008
  0
LINE
  5
25E
100
AcDbEntity
  8
0
100
AcDbLine
 62
7
  6
CONTINUOUS
 10
-31.6692546603
 20
256.6721955546
 11
-32.1414874996
 21
257.3857289342
  0
LINE
  5
25F
100
AcDbEntity
  8
0
100
AcDbLine
 62
7
  6
CONTINUOUS
 10
10.1257450241
 20
225.6602283352
 11
10.3103064892
 21
230.3270167183
  0
LINE
  5
260
100
AcDbEntity
  8
0
100
AcDbLine
 62
7
  6
CONTINUOUS
 10
7.6047533245
 20
233.676470929
 11
7.6073164614
 21
233.7383728887
  0
LWPOLYLINE
  5
261
100
AcDbEntity
  8
0
100
AcDbPolyline
 62
7
  6
CONTINUOUS
 90
7
 70
0
 10
-76.254371391
 20
262.3643413358
 10
-76.3041721481
 20
262.3809708038
 10
-76.5477354132
 20
262.4120724038
 10
-76.8040784859
 20
262.3660634137
 10
-77.0550044289
 20
262.2447268838
 10
-77.29102377
 20
262.0499326757
 10
-77.4275563859
 20
261.8876736865
  0
LINE
  5
262
100
AcDbEntity
  8
0
100
AcDbLine
 62
7
  6
CONTINUOUS
 10
-75.5614048547
 20
261.9589674101
 11
-76.0944915234
 21
262.1584409676
  0
LINE
  5
263
100
AcDbEntity
  8
0
100
AcDbLine
 62
7
  6
CONTINUOUS
 10
-76.2543318421
 20
262.3642841794
 11
-75.685147692
 21
262.1513035728
  0
LINE
  5
264
100
AcDbEntity
  8
0
100
AcDbLine
 62
7
  6
CONTINUOUS
 10
-33.0401769548
 20
248.3073543368
 11
-31.6272615365
 21
247.4912806315
  0
LINE
  5
265
100
AcDbEntity
  8
0
100
AcDbLine
 62
7
  6
CONTINUOUS
 10
-26.6883785285
 20
244.6386735296
 11
-25.1409413059
 21
243.7449025283
  0
LINE
  5
266
100
AcDbEntity
  8
0
100
AcDbLine
 62
7
  6
CONTINUOUS
 10
-44.1351116681
 20
259.1161094224
 11
-39.9191163669
 21
256.6810288347
  0
LINE
  5
267
100
AcDbEntity
  8
0
100
AcDbLine
 62
7
  6
CONTINUOUS
 10
-22.5159724503
 20
250.2092261339
 11
-6.7826822988
 21
241.1219699365
  0
LINE
  5
268
100
AcDbEntity
  8
0
100
AcDbLine
 62
7
  6
CONTINUOUS
 10
-46.9473750723
 20
267.0138435329
 11
-42.9106383022
 21
264.5219626684
  0
LINE
  5
269
100
AcDbEntity
  8
0
100
AcDbLine
 62
7
  6
CONTINUOUS
 10
-42.8880298534
 20
264.5069964624
 11
-42.9106383022
 21
264.5219626684
  0
LINE
  5
26A
100
AcDbEntity
  8
0
100
AcDbLine
 62
7
  6
CONTINUOUS
 10
11.6712438834
 20
217.1301633154
 11
11.7644035439
 21
215.1995004223
  0
LINE
  5
26B
100
AcDbEntity
  8
0
100
AcDbLine
 62
7
  6
CONTINUOUS
 10
14.774690808
 20
217.872350203
 11
14.7807598939
 21
217.7465732655
  0
LINE
  5
26C
100
AcDbEntity
  8
0
100
AcDbLine
 62
7
  6
CONTINUOUS
 10
-31.6128757
 20
259.2253904532
 11
-27.4806441528
 21
260.3330577751
  0
LINE
  5
26D
100
AcDbEntity
  8
0
100
AcDbLine
 62
7
  6
CONTINUOUS
 10
-27.8651801093
 20
260.8748433008
 11
-31.9974116564
 21
259.7671759789
  0
LINE
  5
26E
100
AcDbEntity
  8
0
100
AcDbLine
 62
7
  6
CONTINUOUS
 10
-49.4009545392
 20
268.2563495161
 11
-49.4676260603
 21
268.2851573992
  0
LINE
  5
26F
100
AcDbEntity
  8
0
100
AcDbLine
 62
7
  6
CONTINUOUS
 10
-49.4179738937
 20
268.2217173965
 11
-49.4843273705
 21
268.2510163509
  0
LINE
  5
270
100
AcDbEntity
  8
0
100
AcDbLine
 62
7
  6
CONTINUOUS
 10
-33.6864582747
 20
260.7427379371
 11
-31.9974116564
 21
259.7671759789
  0
LINE
  5
271
100
AcDbEntity
  8
0
100
AcDbLine
 62
7
  6
CONTINUOUS
 10
-29.5542267276
 20
261.850405259
 11
-27.8651801093
 21
260.8748433008
  0
LINE
  5
272
100
AcDbEntity
  8
0
100
AcDbLine
 62
7
  6
CONTINUOUS
 10
-46.8843791316
 20
266.9769307286
 11
-46.9886554673
 21
267.0378647183
  0
LINE
  5
273
100
AcDbEntity
  8
0
100
AcDbLine
 62
7
  6
CONTINUOUS
 10
48.730109357
 20
207.5114951097
 11
45.9013454128
 21
209.4503412595
  0
LINE
  5
274
100
AcDbEntity
  8
0
100
AcDbLine
 62
7
  6
CONTINUOUS
 10
54.5898499231
 20
207.9854779247
 11
55.560964289
 21
207.3198722445
  0
LINE
  5
275
100
AcDbEntity
  8
0
100
AcDbLine
 62
7
  6
CONTINUOUS
 10
22.5205695597
 20
162.3069714627
 11
22.5205695597
 21
164.7968632852
  0
LINE
  5
276
100
AcDbEntity
  8
0
100
AcDbLine
 62
7
  6
CONTINUOUS
 10
-83.6363161154
 20
249.9540319181
 11
-84.2519681479
 21
249.7888686277
  0
LINE
  5
277
100
AcDbEntity
  8
0
100
AcDbLine
 62
7
  6
CONTINUOUS
 10
-29.5542267276
 20
261.850405259
 11
-33.6864582747
 21
260.7427379371
  0
LINE
  5
278
100
AcDbEntity
  8
0
100
AcDbLine
 62
7
  6
CONTINUOUS
 10
-84.5518636251
 20
250.0042820059
 11
-83.9180528248
 21
250.1741784835
  0
LINE
  5
279
100
AcDbEntity
  8
0
100
AcDbLine
 62
7
  6
CONTINUOUS
 10
-52.4457888645
 20
269.4586906141
 11
-52.4124712306
 21
269.4493708856
  0
LINE
  5
27A
100
AcDbEntity
  8
0
100
AcDbLine
 62
7
  6
CONTINUOUS
 10
-53.2456590555
 20
270.8855651352
 11
-53.3372939426
 21
270.912907684
  0
LINE
  5
27B
100
AcDbEntity
  8
0
100
AcDbLine
 62
7
  6
CONTINUOUS
 10
-51.48904604
 20
269.045832215
 11
-51.5005239988
 21
269.0495305133
  0
LINE
  5
27C
100
AcDbEntity
  8
0
100
AcDbLine
 62
7
  6
CONTINUOUS
 10
-52.4327781452
 20
269.4390691979
 11
-52.4076503335
 21
269.4304822698
  0
LINE
  5
27D
100
AcDbEntity
  8
0
100
AcDbLine
 62
7
  6
CONTINUOUS
 10
-52.4457888645
 20
269.4091404814
 11
-52.4208316571
 21
269.4002396372
  0
LINE
  5
27E
100
AcDbEntity
  8
0
100
AcDbLine
 62
7
  6
CONTINUOUS
 10
-52.440145227
 20
269.4726328433
 11
-52.4077654229
 21
269.4609495931
  0
LINE
  5
27F
100
AcDbEntity
  8
0
100
AcDbLine
 62
7
  6
CONTINUOUS
 10
28.3056937257
 20
166.3475975359
 11
28.3056937257
 21
163.8577057134
  0
LINE
  5
280
100
AcDbEntity
  8
0
100
AcDbLine
 62
7
  6
CONTINUOUS
 10
-53.3372939426
 20
270.912907684
 11
-53.3373499002
 21
270.912909616
  0
LINE
  5
281
100
AcDbEntity
  8
0
100
AcDbLine
 62
7
  6
CONTINUOUS
 10
44.1522961763
 20
209.8954236734
 11
44.2964908092
 21
213.4792894958
  0
LINE
  5
282
100
AcDbEntity
  8
0
100
AcDbLine
 62
7
  6
CONTINUOUS
 10
44.1256144103
 20
209.8957468279
 11
44.2732573979
 21
213.4794315745
  0
LINE
  5
283
100
AcDbEntity
  8
0
100
AcDbLine
 62
7
  6
CONTINUOUS
 10
46.042337911
 20
212.8554312655
 11
45.9013454128
 21
209.4503412595
  0
LINE
  5
284
100
AcDbEntity
  8
0
100
AcDbLine
 62
7
  6
CONTINUOUS
 10
48.730109357
 20
207.5114951097
 11
48.7826504469
 21
208.780407588
  0
LINE
  5
285
100
AcDbEntity
  8
0
100
AcDbLine
 62
7
  6
CONTINUOUS
 10
55.5938402135
 20
208.1138540771
 11
55.560964289
 21
207.3198722445
  0
LINE
  5
286
100
AcDbEntity
  8
0
100
AcDbLine
 62
7
  6
CONTINUOUS
 10
58.8834223852
 20
208.6086699655
 11
58.8667495267
 21
208.206006102
  0
LINE
  5
287
100
AcDbEntity
  8
0
100
AcDbLine
 62
7
  6
CONTINUOUS
 10
75.2289323485
 20
215.8694784482
 11
75.1763912586
 21
214.6005659699
  0
LINE
  5
288
100
AcDbEntity
  8
0
100
AcDbLine
 62
7
  6
CONTINUOUS
 10
72.3386029063
 20
221.0020209462
 11
72.3044429892
 21
220.180065854
  0
LINE
  5
289
100
AcDbEntity
  8
0
100
AcDbLine
 62
7
  6
CONTINUOUS
 10
72.2967408264
 20
220.1899169859
 11
72.3306281677
 21
220.9946436964
  0
LINE
  5
28A
100
AcDbEntity
  8
0
100
AcDbLine
 62
7
  6
CONTINUOUS
 10
75.0527785282
 20
222.9718340094
 11
75.2546571293
 21
227.6379053523
  0
ARC
  5
28B
100
AcDbEntity
  8
0
100
AcDbCircle
 62
7
  6
CONTINUOUS
 10
-646.49800946
 20
-201.9770435111
 40
763.1332305133
100
AcDbArc
 50
37.2112229265
 51
37.341653292
  0
ARC
  5
28C
100
AcDbEntity
  8
0
100
AcDbCircle
 62
7
  6
CONTINUOUS
 10
-187.336152697
 20
148.1401245535
 40
185.7152363345
100
AcDbArc
 50
37.390278873
 51
37.5850930203
  0
ARC
  5
28D
100
AcDbEntity
  8
0
100
AcDbCircle
 62
7
  6
CONTINUOUS
 10
-73.333274725
 20
216.8992490662
 40
0.3511213701
100
AcDbArc
 50
247.9806224598
 51
253.7592791707
  0
ARC
  5
28E
100
AcDbEntity
  8
0
100
AcDbCircle
 62
7
  6
CONTINUOUS
 10
-72.9038382165
 20
237.0006040928
 40
40.8312483478
100
AcDbArc
 50
38.7840997726
 51
39.4618633879
  0
ARC
  5
28F
100
AcDbEntity
  8
0
100
AcDbCircle
 62
7
  6
CONTINUOUS
 10
-67.7313871136
 20
240.7018626717
 40
23.4853135097
100
AcDbArc
 50
229.5399451942
 51
240.1059282172
  0
ARC
  5
290
100
AcDbEntity
  8
0
100
AcDbCircle
 62
7
  6
CONTINUOUS
 10
-67.8325988706
 20
240.5244043967
 40
23.2810289701
100
AcDbArc
 50
229.5406723195
 51
240.1042091128
  0
ARC
  5
291
100
AcDbEntity
  8
0
100
AcDbCircle
 62
7
  6
CONTINUOUS
 10
-67.3525601516
 20
236.2836554468
 40
19.5990845372
100
AcDbArc
 50
212.6903324714
 51
216.6260024728
  0
ARC
  5
292
100
AcDbEntity
  8
0
100
AcDbCircle
 62
7
  6
CONTINUOUS
 10
-66.8536771081
 20
235.7112876663
 40
19.5285046796
100
AcDbArc
 50
204.6375510138
 51
210.4295374047
  0
ARC
  5
293
100
AcDbEntity
  8
0
100
AcDbCircle
 62
7
  6
CONTINUOUS
 10
-67.5426433288
 20
236.1442211235
 40
19.3633489429
100
AcDbArc
 50
216.6304379585
 51
216.8517400172
  0
ARC
  5
294
100
AcDbEntity
  8
0
100
AcDbCircle
 62
7
  6
CONTINUOUS
 10
-67.6811991985
 20
235.2225819801
 40
18.5674528297
100
AcDbArc
 50
210.42254565
 51
214.5811704579
  0
ARC
  5
295
100
AcDbEntity
  8
0
100
AcDbCircle
 62
7
  6
CONTINUOUS
 10
-50.2210026815
 20
212.2907052387
 40
62.1052247312
100
AcDbArc
 50
13.3908141387
 51
15.0858453937
  0
ARC
  5
296
100
AcDbEntity
  8
0
100
AcDbCircle
 62
7
  6
CONTINUOUS
 10
-45.0519840771
 20
213.1554699515
 40
56.8623142125
100
AcDbArc
 50
4.0082613492
 51
8.8339641034
  0
ARC
  5
297
100
AcDbEntity
  8
0
100
AcDbCircle
 62
7
  6
CONTINUOUS
 10
-34.8774490075
 20
230.9284014621
 40
52.5020598438
100
AcDbArc
 50
143.9287716841
 51
154.780515106
  0
ARC
  5
298
100
AcDbEntity
  8
0
100
AcDbCircle
 62
7
  6
CONTINUOUS
 10
-35.1061422857
 20
231.05941013
 40
52.3591631337
100
AcDbArc
 50
143.9292212932
 51
154.7991952594
  0
ARC
  5
299
100
AcDbEntity
  8
0
100
AcDbCircle
 62
7
  6
CONTINUOUS
 10
-35.2408330969
 20
231.1022684004
 40
52.0992303453
100
AcDbArc
 50
154.7832216808
 51
155.5101490393
  0
ARC
  5
29A
100
AcDbEntity
  8
0
100
AcDbCircle
 62
7
  6
CONTINUOUS
 10
-35.5719892996
 20
231.2415550873
 40
51.7393669101
100
AcDbArc
 50
155.9981551738
 51
157.2892326012
  0
ARC
  5
29B
100
AcDbEntity
  8
0
100
AcDbCircle
 62
7
  6
CONTINUOUS
 10
-41.2375599784
 20
228.3525691081
 40
48.1929715317
100
AcDbArc
 50
132.8357055815
 51
134.1906823881
  0
ARC
  5
29C
100
AcDbEntity
  8
0
100
AcDbCircle
 62
7
  6
CONTINUOUS
 10
-41.6784351237
 20
228.8401253386
 40
47.5363362028
100
AcDbArc
 50
131.8903688812
 51
132.3171977661
  0
ARC
  5
29D
100
AcDbEntity
  8
0
100
AcDbCircle
 62
7
  6
CONTINUOUS
 10
0.0803736522
 20
207.1327763346
 40
35.4423250249
100
AcDbArc
 50
145.0354491217
 51
154.9446859848
  0
ARC
  5
29E
100
AcDbEntity
  8
0
100
AcDbCircle
 62
7
  6
CONTINUOUS
 10
-2.8768111966
 20
207.8867915906
 40
32.3736446133
100
AcDbArc
 50
174.4456160872
 51
175.2498729104
  0
ARC
  5
29F
100
AcDbEntity
  8
0
100
AcDbCircle
 62
7
  6
CONTINUOUS
 10
-44.2579285198
 20
229.8952142705
 40
26.7214603372
100
AcDbArc
 50
179.6087085932
 51
179.9570696658
  0
ARC
  5
2A0
100
AcDbEntity
  8
0
100
AcDbCircle
 62
7
  6
CONTINUOUS
 10
-43.9091422189
 20
229.8562115826
 40
25.7731820604
100
AcDbArc
 50
179.6524805106
 51
179.9998587297
  0
ARC
  5
2A1
100
AcDbEntity
  8
0
100
AcDbCircle
 62
7
  6
CONTINUOUS
 10
-8.8855372528
 20
219.0326755556
 40
21.0478907587
100
AcDbArc
 50
102.1404359036
 51
105.0097543154
  0
ARC
  5
2A2
100
AcDbEntity
  8
0
100
AcDbCircle
 62
7
  6
CONTINUOUS
 10
-54.599074087
 20
227.0289626797
 40
16.0288121004
100
AcDbArc
 50
253.1461735007
 51
254.5380539456
  0
ARC
  5
2A3
100
AcDbEntity
  8
0
100
AcDbCircle
 62
7
  6
CONTINUOUS
 10
-54.7854872723
 20
226.4242903958
 40
15.3960633546
100
AcDbArc
 50
248.1963468558
 51
253.1540997926
  0
ARC
  5
2A4
100
AcDbEntity
  8
0
100
AcDbCircle
 62
7
  6
CONTINUOUS
 10
-54.8392478864
 20
226.2876338323
 40
15.2492147862
100
AcDbArc
 50
246.7342423187
 51
248.1931785293
  0
ARC
  5
2A5
100
AcDbEntity
  8
0
100
AcDbCircle
 62
7
  6
CONTINUOUS
 10
-54.8611904849
 20
226.2363542458
 40
15.1934378718
100
AcDbArc
 50
245.7669069564
 51
246.7338766171
  0
ARC
  5
2A6
100
AcDbEntity
  8
0
100
AcDbCircle
 62
7
  6
CONTINUOUS
 10
-54.2014597339
 20
226.2561357016
 40
14.5105675575
100
AcDbArc
 50
239.9911903119
 51
244.9109855416
  0
ARC
  5
2A7
100
AcDbEntity
  8
0
100
AcDbCircle
 62
7
  6
CONTINUOUS
 10
40.2642863223
 20
176.8967222211
 40
67.0756735598
100
AcDbArc
 50
92.2471921345
 51
95.2736385491
  0
ARC
  5
2A8
100
AcDbEntity
  8
0
100
AcDbCircle
 62
7
  6
CONTINUOUS
 10
39.8639211567
 20
181.1503984321
 40
62.8032046981
100
AcDbArc
 50
95.2666095441
 51
97.4073139506
  0
ARC
  5
2A9
100
AcDbEntity
  8
0
100
AcDbCircle
 62
7
  6
CONTINUOUS
 10
39.9377813023
 20
181.1940077467
 40
62.7321045862
100
AcDbArc
 50
95.3398214657
 51
97.478023358
  0
ARC
  5
2AA
100
AcDbEntity
  8
0
100
AcDbCircle
 62
7
  6
CONTINUOUS
 10
26.6154875087
 20
161.7530953399
 40
6.1610337227
100
AcDbArc
 50
179.4189988098
 51
179.9996051175
  0
ARC
  5
2AB
100
AcDbEntity
  8
0
100
AcDbCircle
 62
7
  6
CONTINUOUS
 10
24.2609119122
 20
164.4115818159
 40
6.1108975873
100
AcDbArc
 50
359.9996020678
 51
0.5833797208
  0
ARC
  5
2AC
100
AcDbEntity
  8
0
100
AcDbCircle
 62
7
  6
CONTINUOUS
 10
36.5206499379
 20
199.1025254042
 40
44.4830331075
100
AcDbArc
 50
105.005431007
 51
105.2263079907
  0
ARC
  5
2AD
100
AcDbEntity
  8
0
100
AcDbCircle
 62
7
  6
CONTINUOUS
 10
8.6081785703
 20
205.096121535
 40
28.5985480486
100
AcDbArc
 50
90.3659697359
 51
92.0109638629
  0
ARC
  5
2AE
100
AcDbEntity
  8
0
100
AcDbCircle
 62
7
  6
CONTINUOUS
 10
8.5951887017
 20
205.4982499317
 40
28.1962115091
100
AcDbArc
 50
92.0132582626
 51
93.5609140013
  0
ARC
  5
2AF
100
AcDbEntity
  8
0
100
AcDbCircle
 62
7
  6
CONTINUOUS
 10
26.6214472315
 20
200.1354809459
 40
23.0547347577
100
AcDbArc
 50
18.4425666597
 51
19.5438334098
  0
ARC
  5
2B0
100
AcDbEntity
  8
0
100
AcDbCircle
 62
7
  6
CONTINUOUS
 10
58.7225269893
 20
206.5459770361
 40
19.2100438885
100
AcDbArc
 50
39.9792489378
 51
44.224771181
  0
ARC
  5
2B1
100
AcDbEntity
  8
0
100
AcDbCircle
 62
7
  6
CONTINUOUS
 10
5.9201561756
 20
220.542512912
 40
13.4087115568
100
AcDbArc
 50
67.8819227121
 51
69.5502781773
  0
ARC
  5
2B2
100
AcDbEntity
  8
0
100
AcDbCircle
 62
7
  6
CONTINUOUS
 10
6.1250883587
 20
221.0889145477
 40
12.8251443771
100
AcDbArc
 50
69.555248146
 51
71.6072886579
  0
ARC
  5
2B3
100
AcDbEntity
  8
0
100
AcDbCircle
 62
7
  6
CONTINUOUS
 10
6.3966313783
 20
221.9110061661
 40
11.9593689663
100
AcDbArc
 50
71.599040534
 51
76.4005207111
  0
ARC
  5
2B4
100
AcDbEntity
  8
0
100
AcDbCircle
 62
7
  6
CONTINUOUS
 10
6.6492392116
 20
222.9167304405
 40
10.9224492829
100
AcDbArc
 50
76.4479745626
 51
80.6403048646
  0
ARC
  5
2B5
100
AcDbEntity
  8
0
100
AcDbCircle
 62
7
  6
CONTINUOUS
 10
6.7801938981
 20
223.6823974081
 40
10.1456794577
100
AcDbArc
 50
80.6667872204
 51
85.3779096666
  0
ARC
  5
2B6
100
AcDbEntity
  8
0
100
AcDbCircle
 62
7
  6
CONTINUOUS
 10
19.9214938708
 20
228.9476289865
 40
9.8669784375
100
AcDbArc
 50
145.8662236895
 51
146.8344786985
  0
ARC
  5
2B7
100
AcDbEntity
  8
0
100
AcDbCircle
 62
7
  6
CONTINUOUS
 10
6.8348075323
 20
224.2958980899
 40
9.5297743193
100
AcDbArc
 50
85.4079600656
 51
89.9530127958
  0
ARC
  5
2B8
100
AcDbEntity
  8
0
100
AcDbCircle
 62
7
  6
CONTINUOUS
 10
6.7810585243
 20
225.2526437765
 40
8.5690165872
100
AcDbArc
 50
104.4455868823
 51
105.0024933693
  0
ARC
  5
2B9
100
AcDbEntity
  8
0
100
AcDbCircle
 62
7
  6
CONTINUOUS
 10
5.3989720944
 20
227.0854662576
 40
2.8498972329
100
AcDbArc
 50
356.2798509176
 51
359.7926037651
  0
ARC
  5
2BA
100
AcDbEntity
  8
0
100
AcDbCircle
 62
7
  6
CONTINUOUS
 10
7.6607683512
 20
226.8068708593
 40
1.0754682012
100
AcDbArc
 50
239.2969708794
 51
239.988716325
  0
ARC
  5
2BB
100
AcDbEntity
  8
0
100
AcDbCircle
 62
7
  6
CONTINUOUS
 10
6.5992052659
 20
228.6693192738
 40
1.0469584373
100
AcDbArc
 50
59.9894872819
 51
60.4940317979
  0
ARC
  5
2BC
100
AcDbEntity
  8
0
100
AcDbCircle
 62
7
  6
CONTINUOUS
 10
6.7413493774
 20
229.1574938738
 40
0.5544010745
100
AcDbArc
 50
92.4020865418
 51
104.9261896604
  0
ARC
  5
2BD
100
AcDbEntity
  8
0
100
AcDbCircle
 62
7
  6
CONTINUOUS
 10
7.5026877528
 20
226.3160097714
 40
0.5539292091
100
AcDbArc
 50
290.1460668388
 51
297.1377655465
  0
ARC
  5
2BE
100
AcDbEntity
  8
0
100
AcDbCircle
 62
7
  6
CONTINUOUS
 10
7.5065581508
 20
226.3057658859
 40
0.5429790573
100
AcDbArc
 50
285.0065984441
 51
290.1349392262
  0
ARC
  5
2BF
100
AcDbEntity
  8
0
100
AcDbCircle
 62
7
  6
CONTINUOUS
 10
6.7391435233
 20
229.1687272867
 40
0.5429790573
100
AcDbArc
 50
105.0065984441
 51
110.1349392263
  0
ARC
  5
2C0
100
AcDbEntity
  8
0
100
AcDbCircle
 62
7
  6
CONTINUOUS
 10
7.5015012449
 20
226.3243296897
 40
0.537212903
100
AcDbArc
 50
278.7766421518
 51
285.0149201802
  0
ARC
  5
2C1
100
AcDbEntity
  8
0
100
AcDbCircle
 62
7
  6
CONTINUOUS
 10
6.7442004293
 20
229.1501634828
 40
0.537212903
100
AcDbArc
 50
98.7766421519
 51
105.01492018
  0
ARC
  5
2C2
100
AcDbEntity
  8
0
100
AcDbCircle
 62
7
  6
CONTINUOUS
 10
-55.83390835
 20
242.6508457943
 40
32.4904954285
100
AcDbArc
 50
194.213373458
 51
198.6358665127
  0
ARC
  5
2C3
100
AcDbEntity
  8
0
100
AcDbCircle
 62
7
  6
CONTINUOUS
 10
-55.9632101563
 20
242.7394332959
 40
32.4448743035
100
AcDbArc
 50
194.2096163039
 51
199.4113289272
  0
ARC
  5
2C4
100
AcDbEntity
  8
0
100
AcDbCircle
 62
7
  6
CONTINUOUS
 10
-53.7951642068
 20
239.7671146609
 40
31.5824106778
100
AcDbArc
 50
125.4975008111
 51
128.7354898235
  0
ARC
  5
2C5
100
AcDbEntity
  8
0
100
AcDbCircle
 62
7
  6
CONTINUOUS
 10
-60.4816876255
 20
241.9308353244
 40
28.5700594788
100
AcDbArc
 50
69.5815940215
 51
70.2744667745
  0
ARC
  5
2C6
100
AcDbEntity
  8
0
100
AcDbCircle
 62
7
  6
CONTINUOUS
 10
-58.6357153099
 20
237.6722161524
 40
28.04810513
100
AcDbArc
 50
179.9924282824
 51
182.5210693148
  0
ARC
  5
2C7
100
AcDbEntity
  8
0
100
AcDbCircle
 62
7
  6
CONTINUOUS
 10
-60.2222528454
 20
240.9006652918
 40
27.7596479701
100
AcDbArc
 50
211.4507934766
 51
211.8329928014
  0
ARC
  5
2C8
100
AcDbEntity
  8
0
100
AcDbCircle
 62
7
  6
CONTINUOUS
 10
-59.0960813732
 20
237.6538248955
 40
27.5873757406
100
AcDbArc
 50
182.5249667057
 51
182.7027901201
  0
ARC
  5
2C9
100
AcDbEntity
  8
0
100
AcDbCircle
 62
7
  6
CONTINUOUS
 10
-59.8894863433
 20
238.5435882808
 40
27.4885561292
100
AcDbArc
 50
179.9577892791
 51
185.4330377627
  0
ARC
  5
2CA
100
AcDbEntity
  8
0
100
AcDbCircle
 62
7
  6
CONTINUOUS
 10
-60.8799235318
 20
240.5064253675
 40
26.9932931422
100
AcDbArc
 50
210.7902943462
 51
211.0888641055
  0
ARC
  5
2CB
100
AcDbEntity
  8
0
100
AcDbCircle
 62
7
  6
CONTINUOUS
 10
-60.7052126325
 20
238.4731439199
 40
26.669825571
100
AcDbArc
 50
185.4483059851
 51
185.7397467472
  0
ARC
  5
2CC
100
AcDbEntity
  8
0
100
AcDbCircle
 62
7
  6
CONTINUOUS
 10
-61.1928905663
 20
240.3097853512
 40
26.6233498577
100
AcDbArc
 50
211.8544124195
 51
212.5252453972
  0
ARC
  5
2CD
100
AcDbEntity
  8
0
100
AcDbCircle
 62
7
  6
CONTINUOUS
 10
-61.3721474708
 20
240.1950685296
 40
26.410528645
100
AcDbArc
 50
212.524501827
 51
213.8725688318
  0
ARC
  5
2CE
100
AcDbEntity
  8
0
100
AcDbCircle
 62
7
  6
CONTINUOUS
 10
-58.9330154837
 20
246.2920744823
 40
23.9457234227
100
AcDbArc
 50
71.9221698035
 51
72.2778717792
  0
ARC
  5
2CF
100
AcDbEntity
  8
0
100
AcDbCircle
 62
7
  6
CONTINUOUS
 10
-58.8368286003
 20
246.4425363163
 40
23.7679947435
100
AcDbArc
 50
72.0208954368
 51
72.502080208
  0
ARC
  5
2D0
100
AcDbEntity
  8
0
100
AcDbCircle
 62
7
  6
CONTINUOUS
 10
-58.4295225319
 20
246.866275059
 40
23.7518654834
100
AcDbArc
 50
104.8374054815
 51
105.0472863003
  0
ARC
  5
2D1
100
AcDbEntity
  8
0
100
AcDbCircle
 62
7
  6
CONTINUOUS
 10
-58.8379032389
 20
246.56655425
 40
23.6552795413
100
AcDbArc
 50
66.6640418796
 51
71.9348705803
  0
ARC
  5
2D2
100
AcDbEntity
  8
0
100
AcDbCircle
 62
7
  6
CONTINUOUS
 10
-58.7973644776
 20
246.5626080383
 40
23.6416045901
100
AcDbArc
 50
70.3282583866
 51
71.9928258808
  0
ARC
  5
2D3
100
AcDbEntity
  8
0
100
AcDbCircle
 62
7
  6
CONTINUOUS
 10
-58.7297131668
 20
246.7490234232
 40
23.4434140082
100
AcDbArc
 50
69.1646245291
 51
69.486183745
  0
ARC
  5
2D4
100
AcDbEntity
  8
0
100
AcDbCircle
 62
7
  6
CONTINUOUS
 10
-58.7272261998
 20
246.8234732051
 40
23.3755354897
100
AcDbArc
 50
59.8561086083
 51
66.663679668
  0
ARC
  5
2D5
100
AcDbEntity
  8
0
100
AcDbCircle
 62
7
  6
CONTINUOUS
 10
-58.7029063359
 20
246.8183072386
 40
23.3691261622
100
AcDbArc
 50
66.7220813629
 51
69.1656314277
  0
ARC
  5
2D6
100
AcDbEntity
  8
0
100
AcDbCircle
 62
7
  6
CONTINUOUS
 10
-58.6402694271
 20
246.9629116535
 40
23.2115366921
100
AcDbArc
 50
63.2143086417
 51
66.5437693135
  0
ARC
  5
2D7
100
AcDbEntity
  8
0
100
AcDbCircle
 62
7
  6
CONTINUOUS
 10
-58.5916084558
 20
247.0613938886
 40
23.1016924871
100
AcDbArc
 50
59.8506518105
 51
63.2119725751
  0
ARC
  5
2D8
100
AcDbEntity
  8
0
100
AcDbCircle
 62
7
  6
CONTINUOUS
 10
-57.5774884551
 20
247.34224408
 40
23.0646019231
100
AcDbArc
 50
102.0757429433
 51
106.996764676
  0
ARC
  5
2D9
100
AcDbEntity
  8
0
100
AcDbCircle
 62
7
  6
CONTINUOUS
 10
-57.8947437266
 20
248.76863499
 40
21.6034063222
100
AcDbArc
 50
97.4927093316
 51
102.0443744815
  0
ARC
  5
2DA
100
AcDbEntity
  8
0
100
AcDbCircle
 62
7
  6
CONTINUOUS
 10
-58.5473762155
 20
252.4949653041
 40
18.042711647
100
AcDbArc
 50
67.4212032597
 51
70.1059413794
  0
ARC
  5
2DB
100
AcDbEntity
  8
0
100
AcDbCircle
 62
7
  6
CONTINUOUS
 10
-58.5303441693
 20
252.5368839083
 40
17.9974664921
100
AcDbArc
 50
66.9490629634
 51
67.4200310118
  0
ARC
  5
2DC
100
AcDbEntity
  8
0
100
AcDbCircle
 62
7
  6
CONTINUOUS
 10
-57.748928132
 20
253.8393751054
 40
16.4806514171
100
AcDbArc
 50
68.4213928978
 51
71.0893146794
  0
ARC
  5
2DD
100
AcDbEntity
  8
0
100
AcDbCircle
 62
7
  6
CONTINUOUS
 10
-57.7156670575
 20
253.925360083
 40
16.388460138
100
AcDbArc
 50
68.1922793568
 51
68.4189687178
  0
ARC
  5
2DE
100
AcDbEntity
  8
0
100
AcDbCircle
 62
7
  6
CONTINUOUS
 10
-57.6901286387
 20
253.9882800729
 40
16.3205556293
100
AcDbArc
 50
66.0425330601
 51
68.1934605128
  0
ARC
  5
2DF
100
AcDbEntity
  8
0
100
AcDbCircle
 62
7
  6
CONTINUOUS
 10
-53.3185788837
 20
270.0163819305
 40
0.8721563953
100
AcDbArc
 50
359.7083957034
 51
14.9759518583
  0
ARC
  5
2E0
100
AcDbEntity
  8
0
100
AcDbCircle
 62
7
  6
CONTINUOUS
 10
-45.5545991487
 20
233.9763692785
 40
41.1907307054
100
AcDbArc
 50
119.3309306129
 51
122.1778687243
  0
ARC
  5
2E1
100
AcDbEntity
  8
0
100
AcDbCircle
 62
7
  6
CONTINUOUS
 10
-45.4489333298
 20
234.0155013111
 40
41.1224039483
100
AcDbArc
 50
119.3297795844
 51
121.8296172073
  0
ARC
  5
2E2
100
AcDbEntity
  8
0
100
AcDbCircle
 62
7
  6
CONTINUOUS
 10
-45.5050035489
 20
239.0054266877
 40
40.9233307972
100
AcDbArc
 50
179.6958831439
 51
180.005208602
  0
ARC
  5
2E3
100
AcDbEntity
  8
0
100
AcDbCircle
 62
7
  6
CONTINUOUS
 10
-46.3438785485
 20
238.9916204968
 40
40.0837607563
100
AcDbArc
 50
180.5801617863
 51
182.111829199
  0
ARC
  5
2E4
100
AcDbEntity
  8
0
100
AcDbCircle
 62
7
  6
CONTINUOUS
 10
-50.0692734784
 20
236.0979584807
 40
36.8340736049
100
AcDbArc
 50
149.052643477
 51
151.9707266719
  0
ARC
  5
2E5
100
AcDbEntity
  8
0
100
AcDbCircle
 62
7
  6
CONTINUOUS
 10
-50.3463135702
 20
236.2386308972
 40
36.5234235512
100
AcDbArc
 50
151.9612910256
 51
157.4527396609
  0
ARC
  5
2E6
100
AcDbEntity
  8
0
100
AcDbCircle
 62
7
  6
CONTINUOUS
 10
-50.7005903285
 20
236.3890812642
 40
36.1385370841
100
AcDbArc
 50
157.457661997
 51
157.6616081558
  0
ARC
  5
2E7
100
AcDbEntity
  8
0
100
AcDbCircle
 62
7
  6
CONTINUOUS
 10
-52.1923063967
 20
237.9061453666
 40
34.0397287712
100
AcDbArc
 50
134.0818405404
 51
134.3026185429
  0
ARC
  5
2E8
100
AcDbEntity
  8
0
100
AcDbCircle
 62
7
  6
CONTINUOUS
 10
-53.2266008773
 20
237.4436784474
 40
33.5499034589
100
AcDbArc
 50
105.6757279549
 51
107.4020775494
  0
ARC
  5
2E9
100
AcDbEntity
  8
0
100
AcDbCircle
 62
7
  6
CONTINUOUS
 10
-52.7284239372
 20
238.4698678407
 40
33.261812254
100
AcDbArc
 50
128.7705996792
 51
134.0939933095
  0
ARC
  5
2EA
100
AcDbEntity
  8
0
100
AcDbCircle
 62
7
  6
CONTINUOUS
 10
-46.2879880727
 20
275.480409948
 40
63.2903307211
100
AcDbArc
 50
234.6669866707
 51
235.8077831663
  0
ARC
  5
2EB
100
AcDbEntity
  8
0
100
AcDbCircle
 62
7
  6
CONTINUOUS
 10
-45.2369924357
 20
260.7746376512
 40
40.0597127661
100
AcDbArc
 50
204.3479581918
 51
205.1655048364
  0
ARC
  5
2EC
100
AcDbEntity
  8
0
100
AcDbCircle
 62
7
  6
CONTINUOUS
 10
-51.9708596746
 20
268.4089989518
 40
13.6993224716
100
AcDbArc
 50
173.8844578037
 51
175.5289698967
  0
ARC
  5
2ED
100
AcDbEntity
  8
0
100
AcDbCircle
 62
7
  6
CONTINUOUS
 10
-46.8600148519
 20
269.0429662756
 40
5.6813792815
100
AcDbArc
 50
177.0395483284
 51
180.0146565905
  0
ARC
  5
2EE
100
AcDbEntity
  8
0
100
AcDbCircle
 62
7
  6
CONTINUOUS
 10
-47.5187502955
 20
269.0723116322
 40
5.0220095964
100
AcDbArc
 50
175.7726835279
 51
176.9857519966
  0
ARC
  5
2EF
100
AcDbEntity
  8
0
100
AcDbCircle
 62
7
  6
CONTINUOUS
 10
-47.7275979045
 20
269.0873049897
 40
4.8126249734
100
AcDbArc
 50
175.2899491766
 51
175.7674171361
  0
ARC
  5
2F0
100
AcDbEntity
  8
0
100
AcDbCircle
 62
7
  6
CONTINUOUS
 10
-50.6953935263
 20
268.7990664404
 40
1.8452974327
100
AcDbArc
 50
173.7434349976
 51
176.7101641034
  0
ARC
  5
2F1
100
AcDbEntity
  8
0
100
AcDbCircle
 62
7
  6
CONTINUOUS
 10
-50.9355864682
 20
268.8250286422
 40
1.6037057757
100
AcDbArc
 50
172.1848852938
 51
173.7302572142
  0
ARC
  5
2F2
100
AcDbEntity
  8
0
100
AcDbCircle
 62
7
  6
CONTINUOUS
 10
-53.2922056903
 20
270.0222642498
 40
0.8451596716
100
AcDbArc
 50
15.0527387622
 51
18.1336288799
  0
ARC
  5
2F3
100
AcDbEntity
  8
0
100
AcDbCircle
 62
7
  6
CONTINUOUS
 10
-40.870198545
 20
271.6223493911
 40
59.5588927353
100
AcDbArc
 50
238.0888515213
 51
242.6024053111
  0
ARC
  5
2F4
100
AcDbEntity
  8
0
100
AcDbCircle
 62
7
  6
CONTINUOUS
 10
-42.2320984089
 20
267.0299710354
 40
47.0016612358
100
AcDbArc
 50
226.3779797154
 51
231.9936152768
  0
ARC
  5
2F5
100
AcDbEntity
  8
0
100
AcDbCircle
 62
7
  6
CONTINUOUS
 10
-44.4442474534
 20
244.5884201299
 40
15.981258593
100
AcDbArc
 50
46.506208593
 51
46.8372881959
  0
ARC
  5
2F6
100
AcDbEntity
  8
0
100
AcDbCircle
 62
7
  6
CONTINUOUS
 10
-43.6111768237
 20
244.5918565156
 40
14.5150299306
100
AcDbArc
 50
54.737651704
 51
59.9886413957
  0
ARC
  5
2F7
100
AcDbEntity
  8
0
100
AcDbCircle
 62
7
  6
CONTINUOUS
 10
-43.7469787525
 20
318.4489960304
 40
105.5707693622
100
AcDbArc
 50
253.4967623456
 51
253.8282384081
  0
ARC
  5
2F8
100
AcDbEntity
  8
0
100
AcDbCircle
 62
7
  6
CONTINUOUS
 10
-28.6633215737
 20
308.0553143174
 40
101.090517605
100
AcDbArc
 50
251.3016834911
 51
251.5172578715
  0
ARC
  5
2F9
100
AcDbEntity
  8
0
100
AcDbCircle
 62
7
  6
CONTINUOUS
 10
-32.1527866679
 20
302.9671492082
 40
95.1986384587
100
AcDbArc
 50
240.2480489127
 51
241.4241233889
  0
ARC
  5
2FA
100
AcDbEntity
  8
0
100
AcDbCircle
 62
7
  6
CONTINUOUS
 10
-32.3531028201
 20
302.5969129929
 40
94.777687128
100
AcDbArc
 50
241.4234114625
 51
243.8739468016
  0
ARC
  5
2FB
100
AcDbEntity
  8
0
100
AcDbCircle
 62
7
  6
CONTINUOUS
 10
-32.5731685642
 20
302.148399718
 40
94.2780942105
100
AcDbArc
 50
243.8739950414
 51
250.0677903273
  0
ARC
  5
2FC
100
AcDbEntity
  8
0
100
AcDbCircle
 62
7
  6
CONTINUOUS
 10
-32.6066169954
 20
302.0822152106
 40
94.204498684
100
AcDbArc
 50
251.7022441755
 51
252.4849961399
  0
ARC
  5
2FD
100
AcDbEntity
  8
0
100
AcDbCircle
 62
7
  6
CONTINUOUS
 10
-32.6278450719
 20
302.0181744825
 40
94.1370313312
100
AcDbArc
 50
250.2404252776
 51
251.7022738855
  0
ARC
  5
2FE
100
AcDbEntity
  8
0
100
AcDbCircle
 62
7
  6
CONTINUOUS
 10
-32.8421101523
 20
301.3289089196
 40
93.4147233653
100
AcDbArc
 50
252.5326306622
 51
252.7702762925
  0
ARC
  5
2FF
100
AcDbEntity
  8
0
100
AcDbCircle
 62
7
  6
CONTINUOUS
 10
-32.9717697947
 20
300.9234507662
 40
92.9890411951
100
AcDbArc
 50
250.2133194425
 51
252.4861527343
  0
ARC
  5
300
100
AcDbEntity
  8
0
100
AcDbCircle
 62
7
  6
CONTINUOUS
 10
-33.4144713848
 20
299.6669347501
 40
91.6568479658
100
AcDbArc
 50
250.033872928
 51
250.2078243862
  0
ARC
  5
301
100
AcDbEntity
  8
0
100
AcDbCircle
 62
7
  6
CONTINUOUS
 10
-33.4833730575
 20
299.4766699061
 40
91.4544915776
100
AcDbArc
 50
249.0496857273
 51
250.0337423765
  0
ARC
  5
302
100
AcDbEntity
  8
0
100
AcDbCircle
 62
7
  6
CONTINUOUS
 10
-34.2510941317
 20
297.4665864712
 40
89.302788087
100
AcDbArc
 50
247.6490874143
 51
249.0485602509
  0
ARC
  5
303
100
AcDbEntity
  8
0
100
AcDbCircle
 62
7
  6
CONTINUOUS
 10
-35.2810373614
 20
294.9576394101
 40
86.5906678846
100
AcDbArc
 50
245.4921420752
 51
247.6480737783
  0
ARC
  5
304
100
AcDbEntity
  8
0
100
AcDbCircle
 62
7
  6
CONTINUOUS
 10
-34.3038125504
 20
293.9600654322
 40
85.9693870936
100
AcDbArc
 50
251.0803908209
 51
251.989543734
  0
ARC
  5
305
100
AcDbEntity
  8
0
100
AcDbCircle
 62
7
  6
CONTINUOUS
 10
-34.394653743
 20
293.682319829
 40
85.6771637585
100
AcDbArc
 50
251.9898872439
 51
252.2499622673
  0
ARC
  5
306
100
AcDbEntity
  8
0
100
AcDbCircle
 62
7
  6
CONTINUOUS
 10
-34.4976582908
 20
293.3583769877
 40
85.3372395507
100
AcDbArc
 50
252.249520663
 51
253.1406991962
  0
ARC
  5
307
100
AcDbEntity
  8
0
100
AcDbCircle
 62
7
  6
CONTINUOUS
 10
-35.0694644985
 20
289.1196259922
 40
81.1005463224
100
AcDbArc
 50
250.6476196159
 51
251.2999343291
  0
ARC
  5
308
100
AcDbEntity
  8
0
100
AcDbCircle
 62
7
  6
CONTINUOUS
 10
-37.4039065237
 20
282.5131071921
 40
74.0937270154
100
AcDbArc
 50
248.7447691477
 51
250.6578992064
  0
ARC
  5
309
100
AcDbEntity
  8
0
100
AcDbCircle
 62
7
  6
CONTINUOUS
 10
-41.2386576276
 20
283.1257799691
 40
73.3357015803
100
AcDbArc
 50
238.7317454027
 51
240.2471898776
  0
ARC
  5
30A
100
AcDbEntity
  8
0
100
AcDbCircle
 62
7
  6
CONTINUOUS
 10
-38.1085943089
 20
280.6861257689
 40
72.1355610091
100
AcDbArc
 50
248.4545943935
 51
248.7403436034
  0
ARC
  5
30B
100
AcDbEntity
  8
0
100
AcDbCircle
 62
7
  6
CONTINUOUS
 10
-39.599823111
 20
279.8579894566
 40
70.9059664576
100
AcDbArc
 50
252.5324111007
 51
252.8249227297
  0
SPLINE
  5
30C
100
AcDbEntity
  8
0
100
AcDbSpline
 62
7
  6
CONTINUOUS
 70
0
 71
3
 72
37
 73
33
 74
0
 42
0.0000001
 43
0.0000001
 44
0.0000000001
 40
0.0
 40
0.0
 40
0.0
 40
0.0
 40
0.0256145948
 40
0.0527813322
 40
0.0814826905
 40
0.1116785916
 40
0.1433097999
 40
0.176293307
 40
0.2105087274
 40
0.2458172394
 40
0.2820654162
 40
0.3190851355
 40
0.3567012648
 40
0.3947272939
 40
0.47122372
 40
0.5470464697
 40
0.5842396033
 40
0.6207046585
 40
0.6562716671
 40
0.6907844722
 40
0.724098546
 40
0.7560941827
 40
0.7866701129
 40
0.8157540254
 40
0.8433094594
 40
0.8693329441
 40
0.8938743116
 40
0.9170320923
 40
0.9389667442
 40
0.9599062013
 40
0.9801372287
 40
1.0
 40
1.0
 40
1.0
 40
1.0
 10
7.1228508371
 20
225.8985773594
 30
0.0
 10
7.0907071342
 20
225.9171429653
 30
0.0
 10
7.02645502
 20
225.9589028597
 30
0.0
 10
6.933523137
 20
226.0319661877
 30
0.0
 10
6.8419156238
 20
226.1167883648
 30
0.0
 10
6.7523137623
 20
226.2127561146
 30
0.0
 10
6.6652805487
 20
226.3191899312
 30
0.0
 10
6.5814269354
 20
226.4353969221
 30
0.0
 10
6.5012821988
 20
226.5605587341
 30
0.0
 10
6.4254244566
 20
226.693829844
 30
0.0
 10
6.3543832633
 20
226.8342932984
 30
0.0
 10
6.2886179344
 20
226.9809711323
 30
0.0
 10
6.2286186844
 20
227.1328741877
 30
0.0
 10
6.1566808403
 20
227.3413457949
 30
0.0
 10
6.0837041851
 20
227.6077343032
 30
0.0
 10
6.0340119619
 20
227.8782198253
 30
0.0
 10
6.0093066932
 20
228.0934957301
 30
0.0
 10
5.998566773
 20
228.2514790859
 30
0.0
 10
5.9955868572
 20
228.4059156758
 30
0.0
 10
6.000349134
 20
228.55574589
 30
0.0
 10
6.0128700557
 20
228.6999413631
 30
0.0
 10
6.0330249153
 20
228.8375149784
 30
0.0
 10
6.0606929407
 20
228.9675291227
 30
0.0
 10
6.0957111782
 20
229.0890919076
 30
0.0
 10
6.1378061785
 20
229.2013913776
 30
0.0
 10
6.1867698695
 20
229.3036458974
 30
0.0
 10
6.2422522981
 20
229.3951726683
 30
0.0
 10
6.3039329127
 20
229.4753339893
 30
0.0
 10
6.3714599671
 20
229.5435194828
 30
0.0
 10
6.4443811076
 20
229.5992410764
 30
0.0
 10
6.522224826
 20
229.6419429242
 30
0.0
 10
6.577222618
 20
229.6615772699
 30
0.0
 10
6.6050243766
 20
229.6690350754
 30
0.0
  0
SPLINE
  5
30D
100
AcDbEntity
  8
0
100
AcDbSpline
 62
7
  6
CONTINUOUS
 70
0
 71
3
 72
13
 73
9
 74
0
 42
0.0000001
 43
0.0000001
 44
0.0000000001
 40
0.0
 40
0.0
 40
0.0
 40
0.0
 40
0.1143045608
 40
0.2303465195
 40
0.3489051106
 40
0.470694474
 40
0.7260812433
 40
1.0
 40
1.0
 40
1.0
 40
1.0
 10
7.583470775
 20
225.7934071913
 30
0.0
 10
7.5653443798
 20
225.7906061204
 30
0.0
 10
7.5285030696
 20
225.7868207007
 30
0.0
 10
7.4724344832
 20
225.7866213693
 30
0.0
 10
7.4154021805
 20
225.7918581006
 30
0.0
 10
7.3370806248
 20
225.8062994315
 30
0.0
 10
7.2372204867
 20
225.838627075
 30
0.0
 10
7.1609119287
 20
225.8765939798
 30
0.0
 10
7.1228508371
 20
225.8985773594
 30
0.0
  0
SPLINE
  5
30E
100
AcDbEntity
  8
0
100
AcDbSpline
 62
7
  6
CONTINUOUS
 70
0
 71
3
 72
13
 73
9
 74
0
 42
0.0000001
 43
0.0000001
 44
0.0000000001
 40
0.0
 40
0.0
 40
0.0
 40
0.0
 40
0.1145534505
 40
0.2308054247
 40
0.3495122877
 40
0.4713685992
 40
0.7266135473
 40
1.0
 40
1.0
 40
1.0
 40
1.0
 10
6.6622308991
 20
229.6810859812
 30
0.0
 10
6.6800493598
 20
229.6838394671
 30
0.0
 10
6.7162524862
 20
229.6875910584
 30
0.0
 10
6.7713412824
 20
229.6879243099
 30
0.0
 10
6.8273671412
 20
229.6830040834
 30
0.0
 10
6.9042735129
 20
229.6692439967
 30
0.0
 10
7.0023404469
 20
229.6382491061
 30
0.0
 10
7.0773984511
 20
229.6016839256
 30
0.0
 10
7.1148471817
 20
229.5804918063
 30
0.0
  0
SPLINE
  5
30F
100
AcDbEntity
  8
0
100
AcDbSpline
 62
7
  6
CONTINUOUS
 70
0
 71
3
 72
20
 73
16
 74
0
 42
0.0000001
 43
0.0000001
 44
0.0000000001
 40
0.0
 40
0.0
 40
0.0
 40
0.0
 40
0.0466091148
 40
0.0965417629
 40
0.1497355917
 40
0.2060671717
 40
0.265348477
 40
0.327291781
 40
0.3915441704
 40
0.4577076583
 40
0.5253488355
 40
0.5940071572
 40
0.7323883864
 40
0.8689814598
 40
1.0
 40
1.0
 40
1.0
 40
1.0
 10
7.1228508371
 20
229.5759158132
 30
0.0
 10
7.1611216462
 20
229.5538113046
 30
0.0
 10
7.2375729869
 20
229.5030398826
 30
0.0
 10
7.3472103152
 20
229.4125000214
 30
0.0
 10
7.4546040742
 20
229.3057914082
 30
0.0
 10
7.5587400736
 20
229.1840272229
 30
0.0
 10
7.6586310004
 20
229.048331632
 30
0.0
 10
7.7533771597
 20
228.9000212576
 30
0.0
 10
7.8420328091
 20
228.7404953422
 30
0.0
 10
7.9237608583
 20
228.5713027549
 30
0.0
 10
7.9977707233
 20
228.394058813
 30
0.0
 10
8.085414638
 20
228.1486891843
 30
0.0
 10
8.1713190995
 20
227.8337294478
 30
0.0
 10
8.2346117737
 20
227.453369725
 30
0.0
 10
8.2493365395
 20
227.199383972
 30
0.0
 10
8.2488506568
 20
227.0751503728
 30
0.0
  0
SPLINE
  5
310
100
AcDbEntity
  8
0
100
AcDbSpline
 62
7
  6
CONTINUOUS
 70
0
 71
3
 72
15
 73
11
 74
0
 42
0.0000001
 43
0.0000001
 44
0.0000000001
 40
0.0
 40
0.0
 40
0.0
 40
0.0
 40
0.1543192715
 40
0.3006761256
 40
0.4384204942
 40
0.5672189864
 40
0.6870608332
 40
0.7984034073
 40
0.9021949873
 40
1.0
 40
1.0
 40
1.0
 40
1.0
 10
8.2428642023
 20
226.9005556941
 30
0.0
 10
8.238913713
 20
226.840678751
 30
0.0
 10
8.227263793
 20
226.7242229464
 30
0.0
 10
8.1974521437
 20
226.5561900228
 30
0.0
 10
8.1559579342
 20
226.4008602932
 30
0.0
 10
8.1032693812
 20
226.2598681253
 30
0.0
 10
8.0398044407
 20
226.1347314575
 30
0.0
 10
7.9662021996
 20
226.026744555
 30
0.0
 10
7.8830677513
 20
225.9372150469
 30
0.0
 10
7.8202923007
 20
225.8894113617
 30
0.0
 10
7.7879340142
 20
225.8694279127
 30
0.0
  0
SPLINE
  5
311
100
AcDbEntity
  8
0
100
AcDbSpline
 62
7
  6
CONTINUOUS
 70
0
 71
3
 72
9
 73
5
 74
0
 42
0.0000001
 43
0.0000001
 44
0.0000000001
 40
0.0
 40
0.0
 40
0.0
 40
0.0
 40
0.5039460459
 40
1.0
 40
1.0
 40
1.0
 40
1.0
 10
7.7879340142
 20
225.8694279127
 30
0.0
 10
7.7649261248
 20
225.8552189717
 30
0.0
 10
7.7172433952
 20
225.8301586392
 30
0.0
 10
7.666386645
 20
225.8123546146
 30
0.0
 10
7.6406772976
 20
225.8054580972
 30
0.0
  0
SPLINE
  5
312
100
AcDbEntity
  8
0
100
AcDbSpline
 62
7
  6
CONTINUOUS
 70
0
 71
3
 72
9
 73
5
 74
0
 42
0.0000001
 43
0.0000001
 44
0.0000000001
 40
0.0
 40
0.0
 40
0.0
 40
0.0
 40
0.2548610559
 40
1.0
 40
1.0
 40
1.0
 40
1.0
 10
-85.3596986221
 20
249.0578249582
 30
0.0
 10
-85.5478877692
 20
248.2373831813
 30
0.0
 10
-86.2013977331
 20
244.9996354082
 30
0.0
 10
-86.5086080439
 20
241.6895733628
 30
0.0
 10
-86.515584116
 20
239.2285587976
 30
0.0
  0
SPLINE
  5
313
100
AcDbEntity
  8
0
100
AcDbSpline
 62
7
  6
CONTINUOUS
 70
0
 71
3
 72
9
 73
5
 74
0
 42
0.0000001
 43
0.0000001
 44
0.0000000001
 40
0.0
 40
0.0
 40
0.0
 40
0.0
 40
0.5063608018
 40
1.0
 40
1.0
 40
1.0
 40
1.0
 10
-86.5638192453
 20
231.9564563436
 30
0.0
 10
-86.1832395357
 20
230.879162587
 30
0.0
 10
-85.3136409809
 20
228.7911335714
 30
0.0
 10
-84.2035519029
 20
226.8194732857
 30
0.0
 10
-83.5973788748
 20
225.8850279114
 30
0.0
  0
SPLINE
  5
314
100
AcDbEntity
  8
0
100
AcDbSpline
 62
7
  6
CONTINUOUS
 70
0
 71
3
 72
18
 73
14
 74
0
 42
0.0000001
 43
0.0000001
 44
0.0000000001
 40
0.0
 40
0.0
 40
0.0
 40
0.0
 40
0.0528870497
 40
0.1062706182
 40
0.1606084374
 40
0.2162866492
 40
0.3325052442
 40
0.4562614688
 40
0.5870298485
 40
0.6545945485
 40
0.7231638514
 40
0.8617704167
 40
1.0
 40
1.0
 40
1.0
 40
1.0
 10
-36.3511699847
 20
257.1608021588
 30
0.0
 10
-36.9805237301
 20
257.5242859929
 30
0.0
 10
-38.302434593
 20
258.1601616684
 30
0.0
 10
-40.4190499434
 20
258.8119684293
 30
0.0
 10
-42.6459241779
 20
259.1561907307
 30
0.0
 10
-45.7630726243
 20
259.2010020256
 30
0.0
 10
-49.8016960159
 20
258.4411883758
 30
0.0
 10
-54.4924328989
 20
256.3576880163
 30
0.0
 10
-58.1136688767
 20
253.7603357507
 30
0.0
 10
-60.77418431
 20
251.2298035175
 30
0.0
 10
-63.2673453355
 20
248.3883420701
 30
0.0
 10
-65.9146475556
 20
244.4188648261
 30
0.0
 10
-67.4605292616
 20
240.9183216718
 30
0.0
 10
-68.0696939945
 20
239.1190840657
 30
0.0
  0
SPLINE
  5
315
100
AcDbEntity
  8
0
100
AcDbSpline
 62
7
  6
CONTINUOUS
 70
0
 71
3
 72
11
 73
7
 74
0
 42
0.0000001
 43
0.0000001
 44
0.0000000001
 40
0.0
 40
0.0
 40
0.0
 40
0.0
 40
0.2595414217
 40
0.5112058065
 40
0.7571138786
 40
1.0
 40
1.0
 40
1.0
 40
1.0
 10
-68.0696939945
 20
221.4580149726
 30
0.0
 10
-67.7265991046
 20
220.6285819659
 30
0.0
 10
-66.9315971345
 20
219.040600997
 30
0.0
 10
-65.401187885
 20
216.9023104841
 30
0.0
 10
-63.5788265529
 20
215.0864605064
 30
0.0
 10
-62.1860501182
 20
214.1108669717
 30
0.0
 10
-61.4586756306
 20
213.6907312804
 30
0.0
  0
SPLINE
  5
316
100
AcDbEntity
  8
0
100
AcDbSpline
 62
7
  6
CONTINUOUS
 70
0
 71
3
 72
11
 73
7
 74
0
 42
0.0000001
 43
0.0000001
 44
0.0000000001
 40
0.0
 40
0.0
 40
0.0
 40
0.0
 40
0.2660668125
 40
0.5228516249
 40
0.7678209666
 40
1.0
 40
1.0
 40
1.0
 40
1.0
 10
-68.0696939945
 20
239.1190840657
 30
0.0
 10
-68.5820366932
 20
237.6058213946
 30
0.0
 10
-69.3660806469
 20
234.550245454
 30
0.0
 10
-69.7810808997
 20
229.9371555176
 30
0.0
 10
-69.4028630126
 20
225.5227291303
 30
0.0
 10
-68.6025949047
 20
222.7463046477
 30
0.0
 10
-68.0696939945
 20
221.4580149726
 30
0.0
  0
SPLINE
  5
317
100
AcDbEntity
  8
0
100
AcDbSpline
 62
7
  6
CONTINUOUS
 70
0
 71
3
 72
9
 73
5
 74
0
 42
0.0000001
 43
0.0000001
 44
0.0000000001
 40
0.0
 40
0.0
 40
0.0
 40
0.0
 40
0.4942424575
 40
1.0
 40
1.0
 40
1.0
 40
1.0
 10
-83.8471874229
 20
225.6982227265
 30
0.0
 10
-84.4567135598
 20
226.6475284629
 30
0.0
 10
-85.5279105849
 20
228.6763292652
 30
0.0
 10
-86.265439795
 20
230.8467440457
 30
0.0
 10
-86.55685991
 20
231.9637815124
 30
0.0
  0
SPLINE
  5
318
100
AcDbEntity
  8
0
100
AcDbSpline
 62
7
  6
CONTINUOUS
 70
0
 71
3
 72
9
 73
5
 74
0
 42
0.0000001
 43
0.0000001
 44
0.0000000001
 40
0.0
 40
0.0
 40
0.0
 40
0.0
 40
0.2464748793
 40
1.0
 40
1.0
 40
1.0
 40
1.0
 10
-53.3373499002
 20
270.912909616
 30
0.0
 10
-53.7677024791
 20
270.9277020497
 30
0.0
 10
-55.5150079955
 20
270.9458088624
 30
0.0
 10
-57.263329846
 20
270.7980689829
 30
0.0
 10
-58.5651061683
 20
270.602030371
 30
0.0
  0
SPLINE
  5
319
100
AcDbEntity
  8
0
100
AcDbSpline
 62
7
  6
CONTINUOUS
 70
0
 71
3
 72
9
 73
5
 74
0
 42
0.0000001
 43
0.0000001
 44
0.0000000001
 40
0.0
 40
0.0
 40
0.0
 40
0.0
 40
0.2471720426
 40
1.0
 40
1.0
 40
1.0
 40
1.0
 10
-58.5651061683
 20
270.602030371
 30
0.0
 10
-58.8832401813
 20
270.5541215642
 30
0.0
 10
-60.1671965598
 20
270.3398488121
 30
0.0
 10
-61.4374800127
 20
270.0447596202
 30
0.0
 10
-62.3812673246
 20
269.7812370709
 30
0.0
  0
SPLINE
  5
31A
100
AcDbEntity
  8
0
100
AcDbSpline
 62
7
  6
CONTINUOUS
 70
0
 71
3
 72
9
 73
5
 74
0
 42
0.0000001
 43
0.0000001
 44
0.0000000001
 40
0.0
 40
0.0
 40
0.0
 40
0.0
 40
0.2464145087
 40
1.0
 40
1.0
 40
1.0
 40
1.0
 10
-67.4906973582
 20
268.8401598267
 30
0.0
 10
-68.0138318626
 20
268.5111931067
 30
0.0
 10
-70.1073345823
 20
267.1296780695
 30
0.0
 10
-72.0806249953
 20
265.5674431428
 30
0.0
 10
-73.4897563393
 20
264.3080768872
 30
0.0
  0
SPLINE
  5
31B
100
AcDbEntity
  8
0
100
AcDbSpline
 62
7
  6
CONTINUOUS
 70
0
 71
3
 72
9
 73
5
 74
0
 42
0.0000001
 43
0.0000001
 44
0.0000000001
 40
0.0
 40
0.0
 40
0.0
 40
0.0
 40
0.2510398653
 40
1.0
 40
1.0
 40
1.0
 40
1.0
 10
-40.8040068249
 20
262.3622302517
 30
0.0
 10
-40.1664827176
 20
261.8845165132
 30
0.0
 10
-37.6531305355
 20
259.9469012291
 30
0.0
 10
-35.245909705
 20
257.871493705
 30
0.0
 10
-33.5122329722
 20
256.2456790524
 30
0.0
  0
SPLINE
  5
31C
100
AcDbEntity
  8
0
100
AcDbSpline
 62
7
  6
CONTINUOUS
 70
0
 71
3
 72
9
 73
5
 74
0
 42
0.0000001
 43
0.0000001
 44
0.0000000001
 40
0.0
 40
0.0
 40
0.0
 40
0.0
 40
0.4931530112
 40
1.0
 40
1.0
 40
1.0
 40
1.0
 10
-87.3780350128
 20
238.5638395397
 30
0.0
 10
-87.3780350128
 20
240.3296213234
 30
0.0
 10
-87.0457011952
 20
243.9158239566
 30
0.0
 10
-86.119073385
 20
247.3925377445
 30
0.0
 10
-85.5155166391
 20
249.1040489236
 30
0.0
  0
SPLINE
  5
31D
100
AcDbEntity
  8
0
100
AcDbSpline
 62
7
  6
CONTINUOUS
 70
0
 71
3
 72
9
 73
5
 74
0
 42
0.0000001
 43
0.0000001
 44
0.0000000001
 40
0.0
 40
0.0
 40
0.0
 40
0.0
 40
0.5009924602
 40
1.0
 40
1.0
 40
1.0
 40
1.0
 10
-85.5155166391
 20
249.1040489236
 30
0.0
 10
-84.6689101686
 20
251.5047783468
 30
0.0
 10
-82.4444425048
 20
256.122384424
 30
0.0
 10
-79.2899431551
 20
260.1635645106
 30
0.0
 10
-77.5155202406
 20
261.9747575344
 30
0.0
  0
SPLINE
  5
31E
100
AcDbEntity
  8
0
100
AcDbSpline
 62
7
  6
CONTINUOUS
 70
0
 71
3
 72
9
 73
5
 74
0
 42
0.0000001
 43
0.0000001
 44
0.0000000001
 40
0.0
 40
0.0
 40
0.0
 40
0.0
 40
0.5093464871
 40
1.0
 40
1.0
 40
1.0
 40
1.0
 10
-77.5155202406
 20
261.9747575344
 30
0.0
 10
-76.0642436302
 20
263.4561079221
 30
0.0
 10
-72.9383735524
 20
266.1083981374
 30
0.0
 10
-69.3349252581
 20
268.0798731638
 30
0.0
 10
-67.4838067506
 20
268.8309336921
 30
0.0
  0
SPLINE
  5
31F
100
AcDbEntity
  8
0
100
AcDbSpline
 62
7
  6
CONTINUOUS
 70
0
 71
3
 72
9
 73
5
 74
0
 42
0.0000001
 43
0.0000001
 44
0.0000000001
 40
0.0
 40
0.0
 40
0.0
 40
0.0
 40
0.5050969033
 40
1.0
 40
1.0
 40
1.0
 40
1.0
 10
-64.5118264467
 20
269.8261681997
 30
0.0
 10
-63.5342901467
 20
270.0851265544
 30
0.0
 10
-61.5637597432
 20
270.4746696321
 30
0.0
 10
-59.5572515576
 20
270.589653357
 30
0.0
 10
-58.5665364538
 20
270.5735507964
 30
0.0
  0
SPLINE
  5
320
100
AcDbEntity
  8
0
100
AcDbSpline
 62
7
  6
CONTINUOUS
 70
0
 71
3
 72
9
 73
5
 74
0
 42
0.0000001
 43
0.0000001
 44
0.0000000001
 40
0.0
 40
0.0
 40
0.0
 40
0.0
 40
0.2420814192
 40
1.0
 40
1.0
 40
1.0
 40
1.0
 10
-74.8303603686
 20
262.9081571098
 30
0.0
 10
-74.1499204346
 20
262.51355171
 30
0.0
 10
-71.3493521058
 20
260.865900184
 30
0.0
 10
-68.5888663927
 20
259.1504265264
 30
0.0
 10
-66.5171959123
 20
257.8189234661
 30
0.0
  0
SPLINE
  5
321
100
AcDbEntity
  8
0
100
AcDbSpline
 62
7
  6
CONTINUOUS
 70
0
 71
3
 72
9
 73
5
 74
0
 42
0.0000001
 43
0.0000001
 44
0.0000000001
 40
0.0
 40
0.0
 40
0.0
 40
0.0
 40
0.2450554885
 40
1.0
 40
1.0
 40
1.0
 40
1.0
 10
-66.5171959123
 20
257.8189234661
 30
0.0
 10
-66.0093934297
 20
257.4925488973
 30
0.0
 10
-63.9421835459
 20
256.1529657057
 30
0.0
 10
-61.8945643909
 20
254.7831922078
 30
0.0
 10
-60.3593302951
 20
253.7337464759
 30
0.0
  0
SPLINE
  5
322
100
AcDbEntity
  8
0
100
AcDbSpline
 62
7
  6
CONTINUOUS
 70
0
 71
3
 72
9
 73
5
 74
0
 42
0.0000001
 43
0.0000001
 44
0.0000000001
 40
0.0
 40
0.0
 40
0.0
 40
0.0
 40
0.4786679342
 40
1.0
 40
1.0
 40
1.0
 40
1.0
 10
-64.1450925023
 20
269.0501141998
 30
0.0
 10
-64.2760171207
 20
268.538693387
 30
0.0
 10
-64.436862943
 20
267.4402734863
 30
0.0
 10
-64.417006012
 20
266.3334271836
 30
0.0
 10
-64.3697091034
 20
265.7604090422
 30
0.0
  0
SPLINE
  5
323
100
AcDbEntity
  8
0
100
AcDbSpline
 62
7
  6
CONTINUOUS
 70
0
 71
3
 72
9
 73
5
 74
0
 42
0.0000001
 43
0.0000001
 44
0.0000000001
 40
0.0
 40
0.0
 40
0.0
 40
0.0
 40
0.2586864525
 40
1.0
 40
1.0
 40
1.0
 40
1.0
 10
-64.3696905935
 20
265.760424019
 30
0.0
 10
-64.413657345
 20
266.0856499912
 30
0.0
 10
-64.5504116545
 20
267.3468686073
 30
0.0
 10
-64.549202892
 20
268.6251157114
 30
0.0
 10
-64.4528499714
 20
269.5606396528
 30
0.0
  0
SPLINE
  5
324
100
AcDbEntity
  8
0
100
AcDbSpline
 62
7
  6
CONTINUOUS
 70
0
 71
3
 72
9
 73
5
 74
0
 42
0.0000001
 43
0.0000001
 44
0.0000000001
 40
0.0
 40
0.0
 40
0.0
 40
0.0
 40
0.7474898456
 40
1.0
 40
1.0
 40
1.0
 40
1.0
 10
-64.4528545734
 20
269.56064706
 30
0.0
 10
-64.4897360832
 20
269.6268430109
 30
0.0
 10
-64.5553750545
 20
269.7075027481
 30
0.0
 10
-64.6348089142
 20
269.770566015
 30
0.0
 10
-64.6556413431
 20
269.7854415622
 30
0.0
  0
SPLINE
  5
325
100
AcDbEntity
  8
0
100
AcDbSpline
 62
7
  6
CONTINUOUS
 70
0
 71
3
 72
9
 73
5
 74
0
 42
0.0000001
 43
0.0000001
 44
0.0000000001
 40
0.0
 40
0.0
 40
0.0
 40
0.0
 40
0.4800010076
 40
1.0
 40
1.0
 40
1.0
 40
1.0
 10
-64.6556413431
 20
269.7854415622
 30
0.0
 10
-64.781638529
 20
269.8754107689
 30
0.0
 10
-65.1065774771
 20
269.9787837098
 30
0.0
 10
-65.4345968647
 20
269.9236698568
 30
0.0
 10
-65.5923717902
 20
269.866766346
 30
0.0
  0
SPLINE
  5
326
100
AcDbEntity
  8
0
100
AcDbSpline
 62
7
  6
CONTINUOUS
 70
0
 71
3
 72
9
 73
5
 74
0
 42
0.0000001
 43
0.0000001
 44
0.0000000001
 40
0.0
 40
0.0
 40
0.0
 40
0.0
 40
0.5656840533
 40
1.0
 40
1.0
 40
1.0
 40
1.0
 10
-65.5921581912
 20
269.8666422658
 30
0.0
 10
-65.6159620779
 20
269.8804411278
 30
0.0
 10
-65.6609228743
 20
269.9014814881
 30
0.0
 10
-65.7135508009
 20
269.8969260645
 30
0.0
 10
-65.7319355563
 20
269.8865216712
 30
0.0
  0
SPLINE
  5
327
100
AcDbEntity
  8
0
100
AcDbSpline
 62
7
  6
CONTINUOUS
 70
0
 71
3
 72
9
 73
5
 74
0
 42
0.0000001
 43
0.0000001
 44
0.0000000001
 40
0.0
 40
0.0
 40
0.0
 40
0.0
 40
0.2407417313
 40
1.0
 40
1.0
 40
1.0
 40
1.0
 10
-63.2612814186
 20
269.4578190236
 30
0.0
 10
-62.0996096177
 20
268.7812503243
 30
0.0
 10
-57.3371679089
 20
265.8632458433
 30
0.0
 10
-52.8268198349
 20
262.5415212612
 30
0.0
 10
-49.5461044661
 20
259.8558677505
 30
0.0
  0
SPLINE
  5
328
100
AcDbEntity
  8
0
100
AcDbSpline
 62
7
  6
CONTINUOUS
 70
0
 71
3
 72
14
 73
10
 74
0
 42
0.0000001
 43
0.0000001
 44
0.0000000001
 40
0.0
 40
0.0
 40
0.0
 40
0.0
 40
0.2419907693
 40
0.4871709075
 40
0.6117166502
 40
0.7384529164
 40
0.8690057183
 40
0.9366892708
 40
1.0
 40
1.0
 40
1.0
 40
1.0
 10
-83.5973849925
 20
225.8850257878
 30
0.0
 10
-83.5751250649
 20
225.8507126
 30
0.0
 10
-83.5299286385
 20
225.7818781047
 30
0.0
 10
-83.4719731966
 20
225.6962634276
 30
0.0
 10
-83.4238901533
 20
225.6274646734
 30
0.0
 10
-83.3860514722
 20
225.5752641289
 30
0.0
 10
-83.3530464612
 20
225.5310804154
 30
0.0
 10
-83.3244256223
 20
225.4978798506
 30
0.0
 10
-83.3097225776
 20
225.4803427234
 30
0.0
 10
-83.3003085478
 20
225.4752553206
 30
0.0
  0
SPLINE
  5
329
100
AcDbEntity
  8
0
100
AcDbSpline
 62
7
  6
CONTINUOUS
 70
0
 71
3
 72
9
 73
5
 74
0
 42
0.0000001
 43
0.0000001
 44
0.0000000001
 40
0.0
 40
0.0
 40
0.0
 40
0.0
 40
0.2461468336
 40
1.0
 40
1.0
 40
1.0
 40
1.0
 10
-67.1366856048
 20
268.9539258283
 30
0.0
 10
-67.6851948382
 20
268.6135947445
 30
0.0
 10
-69.8815388461
 20
267.1797633326
 30
0.0
 10
-71.9471011093
 20
265.5473323151
 30
0.0
 10
-73.4188000576
 20
264.2273051279
 30
0.0
  0
SPLINE
  5
32A
100
AcDbEntity
  8
0
100
AcDbSpline
 62
7
  6
CONTINUOUS
 70
0
 71
3
 72
8
 73
4
 74
0
 42
0.0000001
 43
0.0000001
 44
0.0000000001
 40
0.0
 40
0.0
 40
0.0
 40
0.0
 40
1.0
 40
1.0
 40
1.0
 40
1.0
 10
-73.6815361416
 20
263.9898733437
 30
0.0
 10
-73.7888288042
 20
263.890671879
 30
0.0
 10
-73.8966702896
 20
263.7920647446
 30
0.0
 10
-74.0038850838
 20
263.6927791265
 30
0.0
  0
SPLINE
  5
32B
100
AcDbEntity
  8
0
100
AcDbSpline
 62
7
  6
CONTINUOUS
 70
0
 71
3
 72
9
 73
5
 74
0
 42
0.0000001
 43
0.0000001
 44
0.0000000001
 40
0.0
 40
0.0
 40
0.0
 40
0.0
 40
0.4766613591
 40
1.0
 40
1.0
 40
1.0
 40
1.0
 10
-64.369707549
 20
265.760414775
 30
0.0
 10
-64.2930251514
 20
264.8315181545
 30
0.0
 10
-64.0001826246
 20
262.8920256206
 30
0.0
 10
-63.4663060292
 20
261.0053664172
 30
0.0
 10
-63.1335067736
 20
260.0376651423
 30
0.0
  0
SPLINE
  5
32C
100
AcDbEntity
  8
0
100
AcDbSpline
 62
7
  6
CONTINUOUS
 70
0
 71
3
 72
37
 73
33
 74
0
 42
0.0000001
 43
0.0000001
 44
0.0000000001
 40
0.0
 40
0.0
 40
0.0
 40
0.0
 40
0.1177005107
 40
0.2375586823
 40
0.3594991859
 40
0.4834484535
 40
0.6093335122
 40
0.6729796384
 40
0.7370813014
 40
0.7692997824
 40
0.8016281604
 40
0.8340649831
 40
0.8666087925
 40
0.8829204448
 40
0.8992585215
 40
0.9156232312
 40
0.9320154032
 40
0.9402225657
 40
0.9484379861
 40
0.9566631842
 40
0.9649015291
 40
0.973162002
 40
0.9773094279
 40
0.9814828662
 40
0.9835917615
 40
0.985735577
 40
0.9879787459
 40
0.989252965
 40
0.9906726795
 40
0.9932411908
 40
0.9955649013
 40
1.0
 40
1.0
 40
1.0
 40
1.0
 10
-63.1335067736
 20
260.0376651423
 30
0.0
 10
-63.0439035401
 20
259.7771201986
 30
0.0
 10
-62.8551848727
 20
259.2539271867
 30
0.0
 10
-62.547046868
 20
258.47071531
 30
0.0
 10
-62.2117003144
 20
257.6828375974
 30
0.0
 10
-61.8498430199
 20
256.8912533459
 30
0.0
 10
-61.5285194084
 20
256.2314503231
 30
0.0
 10
-61.2602443946
 20
255.7017874517
 30
0.0
 10
-61.088052422
 20
255.3692603679
 30
0.0
 10
-60.9482636144
 20
255.1025199102
 30
0.0
 10
-60.8424224875
 20
254.9016747004
 30
0.0
 10
-60.7360431688
 20
254.7002526988
 30
0.0
 10
-60.6473737532
 20
254.5318779386
 30
0.0
 10
-60.5767649907
 20
254.396584764
 30
0.0
 10
-60.5240908175
 20
254.2946531933
 30
0.0
 10
-60.4719719147
 20
254.1922246748
 30
0.0
 10
-60.4293207538
 20
254.1063371376
 30
0.0
 10
-60.3959962831
 20
254.037125615
 30
0.0
 10
-60.3715374071
 20
253.9848676448
 30
0.0
 10
-60.3478361971
 20
253.9321787644
 30
0.0
 10
-60.3252695987
 20
253.878879888
 30
0.0
 10
-60.3079670183
 20
253.8337262283
 30
0.0
 10
-60.2959560474
 20
253.7968072448
 30
0.0
 10
-60.2896832954
 20
253.7731860824
 30
0.0
 10
-60.2861502557
 20
253.7537575707
 30
0.0
 10
-60.284789215
 20
253.7386062495
 30
0.0
 10
-60.2856735729
 20
253.7252080516
 30
0.0
 10
-60.2906509647
 20
253.7143636157
 30
0.0
 10
-60.3019774837
 20
253.7075835924
 30
0.0
 10
-60.3174732103
 20
253.7106627689
 30
0.0
 10
-60.3373853498
 20
253.7191011563
 30
0.0
 10
-60.350747135
 20
253.7279056338
 30
0.0
 10
-60.3593302951
 20
253.7337464759
 30
0.0
  0
SPLINE
  5
32D
100
AcDbEntity
  8
0
100
AcDbSpline
 62
7
  6
CONTINUOUS
 70
0
 71
3
 72
9
 73
5
 74
0
 42
0.0000001
 43
0.0000001
 44
0.0000000001
 40
0.0
 40
0.0
 40
0.0
 40
0.0
 40
0.2542275252
 40
1.0
 40
1.0
 40
1.0
 40
1.0
 10
-60.3597601457
 20
253.7339730259
 30
0.0
 10
-60.5455508754
 20
253.997476737
 30
0.0
 10
-61.263498619
 20
255.042940644
 30
0.0
 10
-61.9268823679
 20
256.1261069825
 30
0.0
 10
-62.3856971202
 20
256.9531703434
 30
0.0
  0
SPLINE
  5
32E
100
AcDbEntity
  8
0
100
AcDbSpline
 62
7
  6
CONTINUOUS
 70
0
 71
3
 72
14
 73
10
 74
0
 42
0.0000001
 43
0.0000001
 44
0.0000000001
 40
0.0
 40
0.0
 40
0.0
 40
0.0
 40
0.2721272669
 40
0.401621924
 40
0.5268158792
 40
0.6482825839
 40
0.766869438
 40
0.8836907947
 40
1.0
 40
1.0
 40
1.0
 40
1.0
 10
-70.9793562043
 20
229.914107644
 30
0.0
 10
-70.979352024
 20
227.9846849048
 30
0.0
 10
-70.6688834374
 20
225.117405066
 30
0.0
 10
-69.5547761483
 20
221.5432333164
 30
0.0
 10
-68.4175324402
 20
219.1205213627
 30
0.0
 10
-66.9813682876
 20
216.9539551841
 30
0.0
 10
-65.2677478322
 20
215.0776866244
 30
0.0
 10
-63.3038569942
 20
213.5237421502
 30
0.0
 10
-61.8493165565
 20
212.7201937917
 30
0.0
 10
-61.0973338705
 20
212.3817135057
 30
0.0
  0
SPLINE
  5
32F
100
AcDbEntity
  8
0
100
AcDbSpline
 62
7
  6
CONTINUOUS
 70
0
 71
3
 72
9
 73
5
 74
0
 42
0.0000001
 43
0.0000001
 44
0.0000000001
 40
0.0
 40
0.0
 40
0.0
 40
0.0
 40
0.2539423848
 40
1.0
 40
1.0
 40
1.0
 40
1.0
 10
-62.3856971202
 20
256.9531703434
 30
0.0
 10
-62.5114109773
 20
257.1819084502
 30
0.0
 10
-62.9970586819
 20
258.0877512241
 30
0.0
 10
-63.443054145
 20
259.0151680205
 30
0.0
 10
-63.7470432078
 20
259.7191540016
 30
0.0
  0
SPLINE
  5
330
100
AcDbEntity
  8
0
100
AcDbSpline
 62
7
  6
CONTINUOUS
 70
0
 71
3
 72
11
 73
7
 74
0
 42
0.0000001
 43
0.0000001
 44
0.0000000001
 40
0.0
 40
0.0
 40
0.0
 40
0.0
 40
0.2675957121
 40
0.5236561962
 40
0.7678267662
 40
1.0
 40
1.0
 40
1.0
 40
1.0
 10
-63.7470432078
 20
259.7191540016
 30
0.0
 10
-64.1015804399
 20
260.5402007817
 30
0.0
 10
-64.7180517917
 20
262.1820259645
 30
0.0
 10
-65.3552797334
 20
264.6734025226
 30
0.0
 10
-65.6816671676
 20
267.1047406452
 30
0.0
 10
-65.689064684
 20
268.703358651
 30
0.0
 10
-65.6284934201
 20
269.4769299679
 30
0.0
  0
SPLINE
  5
331
100
AcDbEntity
  8
0
100
AcDbSpline
 62
7
  6
CONTINUOUS
 70
0
 71
3
 72
14
 73
10
 74
0
 42
0.0000001
 43
0.0000001
 44
0.0000000001
 40
0.0
 40
0.0
 40
0.0
 40
0.0
 40
0.3858019821
 40
0.5538431728
 40
0.6971023374
 40
0.8114437618
 40
0.8956247164
 40
0.9535990372
 40
1.0
 40
1.0
 40
1.0
 40
1.0
 10
-82.5827229465
 20
224.5234598067
 30
0.0
 10
-82.6219910351
 20
224.5600168209
 30
0.0
 10
-82.6802355094
 20
224.6106267736
 30
0.0
 10
-82.7584976877
 20
224.6679523508
 30
0.0
 10
-82.8086716084
 20
224.69941724
 30
0.0
 10
-82.8516148111
 20
224.7203429253
 30
0.0
 10
-82.8858178464
 20
224.7304262628
 30
0.0
 10
-82.9134261564
 20
224.7298198402
 30
0.0
 10
-82.9249953091
 20
224.7186183855
 30
0.0
 10
-82.9276647941
 20
224.7127438205
 30
0.0
  0
SPLINE
  5
332
100
AcDbEntity
  8
0
100
AcDbSpline
 62
7
  6
CONTINUOUS
 70
0
 71
3
 72
9
 73
5
 74
0
 42
0.0000001
 43
0.0000001
 44
0.0000000001
 40
0.0
 40
0.0
 40
0.0
 40
0.0
 40
0.4910171493
 40
1.0
 40
1.0
 40
1.0
 40
1.0
 10
-83.3003085478
 20
225.4752553206
 30
0.0
 10
-80.9587989968
 20
224.1358718203
 30
0.0
 10
-76.0464310138
 20
221.6535564694
 30
0.0
 10
-70.9223409311
 20
219.6492286049
 30
0.0
 10
-68.2767553664
 20
218.7438457783
 30
0.0
  0
SPLINE
  5
333
100
AcDbEntity
  8
0
100
AcDbSpline
 62
7
  6
CONTINUOUS
 70
0
 71
3
 72
11
 73
7
 74
0
 42
0.0000001
 43
0.0000001
 44
0.0000000001
 40
0.0
 40
0.0
 40
0.0
 40
0.0
 40
0.3324856396
 40
0.6054904736
 40
0.8138884035
 40
1.0
 40
1.0
 40
1.0
 40
1.0
 10
-86.20634445
 20
236.2514100143
 30
0.0
 10
-86.23025819
 20
236.2953090953
 30
0.0
 10
-86.2806592091
 20
236.3719996114
 30
0.0
 10
-86.3710409647
 20
236.4567256146
 30
0.0
 10
-86.4726446202
 20
236.4901143497
 30
0.0
 10
-86.5316514825
 20
236.4624969314
 30
0.0
 10
-86.5523373829
 20
236.4436527702
 30
0.0
  0
SPLINE
  5
334
100
AcDbEntity
  8
0
100
AcDbSpline
 62
7
  6
CONTINUOUS
 70
0
 71
3
 72
9
 73
5
 74
0
 42
0.0000001
 43
0.0000001
 44
0.0000000001
 40
0.0
 40
0.0
 40
0.0
 40
0.0
 40
0.2471795622
 40
1.0
 40
1.0
 40
1.0
 40
1.0
 10
-86.683820195
 20
237.6759227488
 30
0.0
 10
-86.6838292525
 20
237.9668524843
 30
0.0
 10
-86.6659507734
 20
239.1437990869
 30
0.0
 10
-86.5772455414
 20
240.3195346795
 30
0.0
 10
-86.473182536
 20
241.1994704941
 30
0.0
  0
SPLINE
  5
335
100
AcDbEntity
  8
0
100
AcDbSpline
 62
7
  6
CONTINUOUS
 70
0
 71
3
 72
9
 73
5
 74
0
 42
0.0000001
 43
0.0000001
 44
0.0000000001
 40
0.0
 40
0.0
 40
0.0
 40
0.0
 40
0.242521673
 40
1.0
 40
1.0
 40
1.0
 40
1.0
 10
-86.4004451607
 20
237.5136156591
 30
0.0
 10
-85.666506486
 20
237.0923821942
 30
0.0
 10
-82.6221466067
 20
235.3870700334
 30
0.0
 10
-79.5080659468
 20
233.8071751093
 30
0.0
 10
-77.1207835536
 20
232.6728616049
 30
0.0
  0
SPLINE
  5
336
100
AcDbEntity
  8
0
100
AcDbSpline
 62
7
  6
CONTINUOUS
 70
0
 71
3
 72
9
 73
5
 74
0
 42
0.0000001
 43
0.0000001
 44
0.0000000001
 40
0.0
 40
0.0
 40
0.0
 40
0.0
 40
0.2460008305
 40
1.0
 40
1.0
 40
1.0
 40
1.0
 10
-77.1207835536
 20
232.6728616049
 30
0.0
 10
-76.6377768105
 20
232.4433617045
 30
0.0
 10
-74.6694785856
 20
231.5206996874
 30
0.0
 10
-72.6821570335
 20
230.6386822418
 30
0.0
 10
-71.1744890931
 20
229.9957118831
 30
0.0
  0
SPLINE
  5
337
100
AcDbEntity
  8
0
100
AcDbSpline
 62
7
  6
CONTINUOUS
 70
0
 71
3
 72
14
 73
10
 74
0
 42
0.0000001
 43
0.0000001
 44
0.0000000001
 40
0.0
 40
0.0
 40
0.0
 40
0.0
 40
0.1162806567
 40
0.2330963632
 40
0.3517015133
 40
0.4731872558
 40
0.5984040403
 40
0.727900581
 40
1.0
 40
1.0
 40
1.0
 40
1.0
 10
-60.2327697942
 20
213.0138020045
 30
0.0
 10
-60.9524291995
 20
213.3415427607
 30
0.0
 10
-62.3441178791
 20
214.11788502
 30
0.0
 10
-64.2222851772
 20
215.6149972042
 30
0.0
 10
-65.8608104864
 20
217.4194623059
 30
0.0
 10
-67.2337154732
 20
219.5009798825
 30
0.0
 10
-68.3208540953
 20
221.8266981933
 30
0.0
 10
-69.3856323128
 20
225.255995126
 30
0.0
 10
-69.6823242792
 20
228.0058455156
 30
0.0
 10
-69.6823242792
 20
229.8562751298
 30
0.0
  0
SPLINE
  5
338
100
AcDbEntity
  8
0
100
AcDbSpline
 62
7
  6
CONTINUOUS
 70
0
 71
3
 72
20
 73
16
 74
0
 42
0.0000001
 43
0.0000001
 44
0.0000000001
 40
0.0
 40
0.0
 40
0.0
 40
0.0
 40
0.131017414
 40
0.1989713464
 40
0.2677986443
 40
0.4055372408
 40
0.4734787486
 40
0.5400124033
 40
0.6669396543
 40
0.7270980001
 40
0.784917381
 40
0.8406103831
 40
0.8945969523
 40
0.947482032
 40
1.0
 40
1.0
 40
1.0
 40
1.0
 10
-69.6818502013
 20
230.0125342337
 30
0.0
 10
-69.6680797583
 20
232.283766971
 30
0.0
 10
-69.1918060608
 20
235.7441350805
 30
0.0
 10
-67.793694835
 20
240.1772668376
 30
0.0
 10
-65.8686740227
 20
244.5384527556
 30
0.0
 10
-63.2451346259
 20
248.5619553479
 30
0.0
 10
-60.0450667692
 20
252.0420890491
 30
0.0
 10
-56.6131106495
 20
255.0115091577
 30
0.0
 10
-52.7844256745
 20
257.2887046697
 30
0.0
 10
-48.7523328629
 20
258.6576832846
 30
0.0
 10
-45.7770481031
 20
259.1936460114
 30
0.0
 10
-42.8602495811
 20
259.2420902897
 30
0.0
 10
-40.0616867719
 20
258.7989392488
 30
0.0
 10
-37.4426084048
 20
257.8714124722
 30
0.0
 10
-35.8544080042
 20
256.9421346261
 30
0.0
 10
-35.1151984771
 20
256.4106654241
 30
0.0
  0
SPLINE
  5
339
100
AcDbEntity
  8
0
100
AcDbSpline
 62
7
  6
CONTINUOUS
 70
0
 71
3
 72
9
 73
5
 74
0
 42
0.0000001
 43
0.0000001
 44
0.0000000001
 40
0.0
 40
0.0
 40
0.0
 40
0.0
 40
0.246396742
 40
1.0
 40
1.0
 40
1.0
 40
1.0
 10
-53.2456590555
 20
270.8855651352
 30
0.0
 10
-53.6663663583
 20
270.9000260335
 30
0.0
 10
-55.3750334609
 20
270.918416346
 30
0.0
 10
-57.084757491
 20
270.7772403594
 30
0.0
 10
-58.3584532518
 20
270.5892705426
 30
0.0
  0
SPLINE
  5
33A
100
AcDbEntity
  8
0
100
AcDbSpline
 62
7
  6
CONTINUOUS
 70
0
 71
3
 72
9
 73
5
 74
0
 42
0.0000001
 43
0.0000001
 44
0.0000000001
 40
0.0
 40
0.0
 40
0.0
 40
0.0
 40
0.247288886
 40
1.0
 40
1.0
 40
1.0
 40
1.0
 10
-58.3584532518
 20
270.5892705426
 30
0.0
 10
-58.6550294748
 20
270.5455023367
 30
0.0
 10
-59.8516493009
 20
270.3506214395
 30
0.0
 10
-61.0366233511
 20
270.0850921469
 30
0.0
 10
-61.9179995228
 20
269.8487569362
 30
0.0
  0
SPLINE
  5
33B
100
AcDbEntity
  8
0
100
AcDbSpline
 62
7
  6
CONTINUOUS
 70
0
 71
3
 72
8
 73
4
 74
0
 42
0.0000001
 43
0.0000001
 44
0.0000000001
 40
0.0
 40
0.0
 40
0.0
 40
0.0
 40
1.0
 40
1.0
 40
1.0
 40
1.0
 10
-61.9179995228
 20
269.8487569362
 30
0.0
 10
-62.0425343444
 20
269.8144985098
 30
0.0
 10
-62.1671616848
 20
269.7805714952
 30
0.0
 10
-62.2915365022
 20
269.7457366514
 30
0.0
  0
SPLINE
  5
33C
100
AcDbEntity
  8
0
100
AcDbSpline
 62
7
  6
CONTINUOUS
 70
0
 71
3
 72
19
 73
15
 74
0
 42
0.0000001
 43
0.0000001
 44
0.0000000001
 40
0.0
 40
0.0
 40
0.0
 40
0.0
 40
0.2484867872
 40
0.372809913
 40
0.4972697887
 40
0.6219849802
 40
0.6845022687
 40
0.7471841481
 40
0.8101076089
 40
0.8734106601
 40
0.9052836737
 40
0.9373833043
 40
0.9697667022
 40
1.0
 40
1.0
 40
1.0
 40
1.0
 10
-86.5157027483
 20
239.2280498453
 30
0.0
 10
-86.5161045858
 20
239.0852302176
 30
0.0
 10
-86.5145936536
 20
238.8709385617
 30
0.0
 10
-86.5077935348
 20
238.5852037061
 30
0.0
 10
-86.5000223016
 20
238.3706667381
 30
0.0
 10
-86.4909640465
 20
238.1917385274
 30
0.0
 10
-86.4817268305
 20
238.0483936897
 30
0.0
 10
-86.4735715323
 20
237.9405712592
 30
0.0
 10
-86.4638714658
 20
237.8324328614
 30
0.0
 10
-86.4539071496
 20
237.7420735857
 30
0.0
 10
-86.444202016
 20
237.6696185593
 30
0.0
 10
-86.4350246634
 20
237.6148096012
 30
0.0
 10
-86.424849779
 20
237.5620108398
 30
0.0
 10
-86.4124408172
 20
237.5261878599
 30
0.0
 10
-86.4004451607
 20
237.5136156591
 30
0.0
  0
SPLINE
  5
33D
100
AcDbEntity
  8
0
100
AcDbSpline
 62
7
  6
CONTINUOUS
 70
0
 71
3
 72
9
 73
5
 74
0
 42
0.0000001
 43
0.0000001
 44
0.0000000001
 40
0.0
 40
0.0
 40
0.0
 40
0.0
 40
0.4957093693
 40
1.0
 40
1.0
 40
1.0
 40
1.0
 10
-51.6904925857
 20
269.1107523867
 30
0.0
 10
-49.387243339
 20
267.766560836
 30
0.0
 10
-44.8876220922
 20
264.7960007738
 30
0.0
 10
-40.7313491551
 20
261.3630525982
 30
0.0
 10
-38.7298654596
 20
259.5315973519
 30
0.0
  0
SPLINE
  5
33E
100
AcDbEntity
  8
0
100
AcDbSpline
 62
7
  6
CONTINUOUS
 70
0
 71
3
 72
9
 73
5
 74
0
 42
0.0000001
 43
0.0000001
 44
0.0000000001
 40
0.0
 40
0.0
 40
0.0
 40
0.0
 40
0.2210606487
 40
1.0
 40
1.0
 40
1.0
 40
1.0
 10
-52.4464654852
 20
269.3271595314
 30
0.0
 10
-52.4558845185
 20
269.3075473765
 30
0.0
 10
-52.4935868935
 20
269.2164629054
 30
0.0
 10
-52.5139549242
 20
269.1190441121
 30
0.0
 10
-52.5243970311
 20
269.0430956276
 30
0.0
  0
SPLINE
  5
33F
100
AcDbEntity
  8
0
100
AcDbSpline
 62
7
  6
CONTINUOUS
 70
0
 71
3
 72
27
 73
23
 74
0
 42
0.0000001
 43
0.0000001
 44
0.0000000001
 40
0.0
 40
0.0
 40
0.0
 40
0.0
 40
0.23861903
 40
0.3619447099
 40
0.4875928309
 40
0.551147773
 40
0.6150729201
 40
0.6792301411
 40
0.7434016081
 40
0.7753843281
 40
0.8072053281
 40
0.8387518602
 40
0.8698412004
 40
0.9001397027
 40
0.9288993607
 40
0.9421033663
 40
0.9481299725
 40
0.9534791936
 40
0.9576847272
 40
0.968339394
 40
0.9855587212
 40
1.0
 40
1.0
 40
1.0
 40
1.0
 10
-39.7017171765
 20
260.9720485969
 30
0.0
 10
-39.6091357868
 20
260.8530473451
 30
0.0
 10
-39.4702773455
 20
260.6713129439
 30
0.0
 10
-39.2862103924
 20
260.4242507054
 30
0.0
 10
-39.1696024606
 20
260.2648774427
 30
0.0
 10
-39.0761192265
 20
260.1350997901
 30
0.0
 10
-39.0058998037
 20
260.0364507527
 30
0.0
 10
-38.9361137774
 20
259.9370181825
 30
0.0
 10
-38.8786135013
 20
259.8536239432
 30
0.0
 10
-38.8332915474
 20
259.7866562591
 30
0.0
 10
-38.7998846686
 20
259.7365173099
 30
0.0
 10
-38.767253722
 20
259.6865446987
 30
0.0
 10
-38.7357834722
 20
259.6369584805
 30
0.0
 10
-38.7061824649
 20
259.5883130278
 30
0.0
 10
-38.6838065182
 20
259.5484194276
 30
0.0
 10
-38.6705114971
 20
259.5212546551
 30
0.0
 10
-38.6650668841
 20
259.5065096485
 30
0.0
 10
-38.6620896074
 20
259.4975816494
 30
0.0
 10
-38.6633444294
 20
259.4820027294
 30
0.0
 10
-38.6910508615
 20
259.4974130261
 30
0.0
 10
-38.7071663266
 20
259.5115160982
 30
0.0
 10
-38.7231293125
 20
259.5254421085
 30
0.0
 10
-38.7298654596
 20
259.5315973519
 30
0.0
  0
SPLINE
  5
340
100
AcDbEntity
  8
0
100
AcDbSpline
 62
7
  6
CONTINUOUS
 70
0
 71
3
 72
9
 73
5
 74
0
 42
0.0000001
 43
0.0000001
 44
0.0000000001
 40
0.0
 40
0.0
 40
0.0
 40
0.0
 40
0.2597720003
 40
1.0
 40
1.0
 40
1.0
 40
1.0
 10
-49.5450386201
 20
259.8551357625
 30
0.0
 10
-49.6883981155
 20
260.0825290161
 30
0.0
 10
-50.2322267829
 20
260.9628992821
 30
0.0
 10
-50.7423634252
 20
261.8643009572
 30
0.0
 10
-51.0960860777
 20
262.5437238335
 30
0.0
  0
SPLINE
  5
341
100
AcDbEntity
  8
0
100
AcDbSpline
 62
7
  6
CONTINUOUS
 70
0
 71
3
 72
14
 73
10
 74
0
 42
0.0000001
 43
0.0000001
 44
0.0000000001
 40
0.0
 40
0.0
 40
0.0
 40
0.0
 40
0.3296608467
 40
0.4833688806
 40
0.6259759751
 40
0.7521208076
 40
0.8508913304
 40
0.8970979626
 40
1.0
 40
1.0
 40
1.0
 40
1.0
 10
-51.6439165362
 20
269.1014307814
 30
0.0
 10
-51.6501354614
 20
269.1034181469
 30
0.0
 10
-51.6592539888
 20
269.1062900465
 30
0.0
 10
-51.6711816468
 20
269.1097927921
 30
0.0
 10
-51.6791313144
 20
269.1121012815
 30
0.0
 10
-51.6865164772
 20
269.1137293099
 30
0.0
 10
-51.6909880532
 20
269.115189537
 30
0.0
 10
-51.6977678611
 20
269.1146599171
 30
0.0
 10
-51.692260205
 20
269.1117666047
 30
0.0
 10
-51.6904925857
 20
269.1107523867
 30
0.0
  0
SPLINE
  5
342
100
AcDbEntity
  8
0
100
AcDbSpline
 62
7
  6
CONTINUOUS
 70
0
 71
3
 72
12
 73
8
 74
0
 42
0.0000001
 43
0.0000001
 44
0.0000000001
 40
0.0
 40
0.0
 40
0.0
 40
0.0
 40
0.3013652457
 40
0.5700139426
 40
0.8032584645
 40
0.9062407995
 40
1.0
 40
1.0
 40
1.0
 40
1.0
 10
-51.0960860777
 20
262.5437238335
 30
0.0
 10
-51.4456993149
 20
263.2228033348
 30
0.0
 10
-52.0717064137
 20
264.5265382055
 30
0.0
 10
-52.7893689737
 20
266.4348310902
 30
0.0
 10
-53.168972749
 20
267.9248714587
 30
0.0
 10
-53.3231138923
 20
269.0045357764
 30
0.0
 10
-53.354259876
 20
269.5029808565
 30
0.0
 10
-53.3569760848
 20
269.7405923925
 30
0.0
  0
SPLINE
  5
343
100
AcDbEntity
  8
0
100
AcDbSpline
 62
7
  6
CONTINUOUS
 70
0
 71
3
 72
9
 73
5
 74
0
 42
0.0000001
 43
0.0000001
 44
0.0000000001
 40
0.0
 40
0.0
 40
0.0
 40
0.0
 40
0.2703173215
 40
1.0
 40
1.0
 40
1.0
 40
1.0
 10
-53.3569760848
 20
269.7405923925
 30
0.0
 10
-53.3581633863
 20
269.8444564775
 30
0.0
 10
-53.3536996067
 20
270.2285034579
 30
0.0
 10
-53.3111833445
 20
270.613832307
 30
0.0
 10
-53.2457172926
 20
270.8864669337
 30
0.0
  0
SPLINE
  5
344
100
AcDbEntity
  8
0
100
AcDbSpline
 62
7
  6
CONTINUOUS
 70
0
 71
3
 72
11
 73
7
 74
0
 42
0.0000001
 43
0.0000001
 44
0.0000000001
 40
0.0
 40
0.0
 40
0.0
 40
0.0
 40
0.250093537
 40
0.4976098523
 40
0.7464413755
 40
1.0
 40
1.0
 40
1.0
 40
1.0
 10
-52.4890223772
 20
270.2853069004
 30
0.0
 10
-52.5153932339
 20
270.3658251094
 30
0.0
 10
-52.5926555126
 20
270.519084352
 30
0.0
 10
-52.7705553296
 20
270.7036813013
 30
0.0
 10
-52.9937632127
 20
270.8314612789
 30
0.0
 10
-53.1606897267
 20
270.8745917098
 30
0.0
 10
-53.2458673393
 20
270.8857127679
 30
0.0
  0
SPLINE
  5
345
100
AcDbEntity
  8
0
100
AcDbSpline
 62
7
  6
CONTINUOUS
 70
0
 71
3
 72
41
 73
37
 74
0
 42
0.0000001
 43
0.0000001
 44
0.0000000001
 40
0.0
 40
0.0
 40
0.0
 40
0.0
 40
0.0904968013
 40
0.1918987803
 40
0.2465790511
 40
0.3037154421
 40
0.3633023923
 40
0.4254290674
 40
0.4899571461
 40
0.5567492681
 40
0.6257314975
 40
0.6968308034
 40
0.7699383791
 40
0.8071932442
 40
0.8448714211
 40
0.8638530447
 40
0.8829167271
 40
0.902047626
 40
0.9212229213
 40
0.9308161426
 40
0.940403756
 40
0.9499747205
 40
0.9595115845
 40
0.9689835905
 40
0.9736780785
 40
0.9783271466
 40
0.9829044247
 40
0.9851526299
 40
0.9873631375
 40
0.9895652588
 40
0.990985767
 40
0.9930854395
 40
0.9949548901
 40
0.9966810444
 40
0.9983216103
 40
1.0
 40
1.0
 40
1.0
 40
1.0
 10
-52.3397402508
 20
267.375746754
 30
0.0
 10
-52.2876967889
 20
267.1345000243
 30
0.0
 10
-52.1667591367
 20
266.6251657783
 30
0.0
 10
-51.9839508063
 20
265.9778059918
 30
0.0
 10
-51.8081866431
 20
265.42350569
 30
0.0
 10
-51.6606527007
 20
264.9799448206
 30
0.0
 10
-51.4990487943
 20
264.5197070742
 30
0.0
 10
-51.3191308444
 20
264.0446895385
 30
0.0
 10
-51.1232499796
 20
263.5548249438
 30
0.0
 10
-50.9125259745
 20
263.0508317919
 30
0.0
 10
-50.6869632578
 20
262.5336909656
 30
0.0
 10
-50.4467499839
 20
262.0042204377
 30
0.0
 10
-50.2364691536
 20
261.5562375092
 30
0.0
 10
-50.0624194769
 20
261.1919551434
 30
0.0
 10
-49.9513426979
 20
260.9611777787
 30
0.0
 10
-49.8617804661
 20
260.7751024222
 30
0.0
 10
-49.7943221271
 20
260.6345228633
 30
0.0
 10
-49.7270398108
 20
260.4932735896
 30
0.0
 10
-49.6715087715
 20
260.3750350847
 30
0.0
 10
-49.6277669841
 20
260.2800171857
 30
0.0
 10
-49.5954865433
 20
260.2085595309
 30
0.0
 10
-49.5639829462
 20
260.1369220131
 30
0.0
 10
-49.5336665731
 20
260.0651167399
 30
0.0
 10
-49.5098933049
 20
260.0049881888
 30
0.0
 10
-49.4925663287
 20
259.9566891413
 30
0.0
 10
-49.4809079872
 20
259.9205334425
 30
0.0
 10
-49.4728967371
 20
259.8903074242
 30
0.0
 10
-49.4685177807
 20
259.8659150838
 30
0.0
 10
-49.4673700484
 20
259.8480726439
 30
0.0
 10
-49.468795009
 20
259.831028476
 30
0.0
 10
-49.482739697
 20
259.8206793521
 30
0.0
 10
-49.4982393141
 20
259.825169699
 30
0.0
 10
-49.5117923165
 20
259.83211718
 30
0.0
 10
-49.5239853867
 20
259.8397506054
 30
0.0
 10
-49.5346694569
 20
259.8484168152
 30
0.0
 10
-49.5425751883
 20
259.8529531613
 30
0.0
 10
-49.5461044661
 20
259.8558677505
 30
0.0
  0
SPLINE
  5
346
100
AcDbEntity
  8
0
100
AcDbSpline
 62
7
  6
CONTINUOUS
 70
0
 71
3
 72
9
 73
5
 74
0
 42
0.0000001
 43
0.0000001
 44
0.0000000001
 40
0.0
 40
0.0
 40
0.0
 40
0.0
 40
0.2612276824
 40
1.0
 40
1.0
 40
1.0
 40
1.0
 10
-52.5239706329
 20
269.4824856882
 30
0.0
 10
-52.5201424428
 20
269.5289396781
 30
0.0
 10
-52.5028724127
 20
269.7065297075
 30
0.0
 10
-52.474755964
 20
269.8831740207
 30
0.0
 10
-52.446433813
 20
270.0119163741
 30
0.0
  0
SPLINE
  5
347
100
AcDbEntity
  8
0
100
AcDbSpline
 62
7
  6
CONTINUOUS
 70
0
 71
3
 72
20
 73
16
 74
0
 42
0.0000001
 43
0.0000001
 44
0.0000000001
 40
0.0
 40
0.0
 40
0.0
 40
0.0
 40
0.2628452825
 40
0.3935853019
 40
0.5235677518
 40
0.6523518032
 40
0.7790301136
 40
0.840949275
 40
0.9010661191
 40
0.9299367626
 40
0.9573197981
 40
0.9700358018
 40
0.9817651722
 40
0.9911250316
 40
1.0
 40
1.0
 40
1.0
 40
1.0
 10
-62.3814549712
 20
269.781232101
 30
0.0
 10
-62.4616910826
 20
269.7588314333
 30
0.0
 10
-62.5815263066
 20
269.7241520858
 30
0.0
 10
-62.7401166407
 20
269.6753170497
 30
0.0
 10
-62.8576170024
 20
269.6374467688
 30
0.0
 10
-62.9732712815
 20
269.5980965995
 30
0.0
 10
-63.0678002296
 20
269.5636656004
 30
0.0
 10
-63.1410760963
 20
269.5345888691
 30
0.0
 10
-63.1850279269
 20
269.515717474
 30
0.0
 10
-63.2182646518
 20
269.4996564912
 30
0.0
 10
-63.2374860524
 20
269.4893512175
 30
0.0
 10
-63.2513357427
 20
269.480225258
 30
0.0
 10
-63.2595925853
 20
269.473996751
 30
0.0
 10
-63.2667785276
 20
269.4659670035
 30
0.0
 10
-63.2634043863
 20
269.4596642056
 30
0.0
 10
-63.2612814186
 20
269.4578190236
 30
0.0
  0
SPLINE
  5
348
100
AcDbEntity
  8
0
100
AcDbSpline
 62
7
  6
CONTINUOUS
 70
0
 71
3
 72
11
 73
7
 74
0
 42
0.0000001
 43
0.0000001
 44
0.0000000001
 40
0.0
 40
0.0
 40
0.0
 40
0.0
 40
0.2870095996
 40
0.5373125221
 40
0.7649948965
 40
1.0
 40
1.0
 40
1.0
 40
1.0
 10
-83.6363161154
 20
249.9540319181
 30
0.0
 10
-83.6445434251
 20
249.9917547381
 30
0.0
 10
-83.6678717003
 20
250.0611921116
 30
0.0
 10
-83.7321893148
 20
250.1452038175
 30
0.0
 10
-83.8228780562
 20
250.1875464063
 30
0.0
 10
-83.8875193586
 20
250.1823415816
 30
0.0
 10
-83.9180559897
 20
250.1741597044
 30
0.0
  0
SPLINE
  5
349
100
AcDbEntity
  8
0
100
AcDbSpline
 62
7
  6
CONTINUOUS
 70
0
 71
3
 72
21
 73
17
 74
0
 42
0.0000001
 43
0.0000001
 44
0.0000000001
 40
0.0
 40
0.0
 40
0.0
 40
0.0
 40
0.1268869305
 40
0.2538306205
 40
0.3807884696
 40
0.5076901378
 40
0.6344085419
 40
0.6976269946
 40
0.7606778628
 40
0.8234529048
 40
0.8857239771
 40
0.9165085895
 40
0.9468293549
 40
0.9760939231
 40
0.9896066628
 40
1.0
 40
1.0
 40
1.0
 40
1.0
 10
-73.4897865583
 20
264.3081046523
 30
0.0
 10
-73.5513115869
 20
264.2531175646
 30
0.0
 10
-73.6737676108
 20
264.142420839
 30
0.0
 10
-73.8555012676
 20
263.9742036617
 30
0.0
 10
-74.035122004
 20
263.8037161601
 30
0.0
 10
-74.2122759517
 20
263.6308748192
 30
0.0
 10
-74.3574674773
 20
263.4846619178
 30
0.0
 10
-74.471603046
 20
263.3661631798
 30
0.0
 10
-74.555797762
 20
263.2765848552
 30
0.0
 10
-74.6381446581
 20
263.1860892483
 30
0.0
 10
-74.7046910437
 20
263.1097520533
 30
0.0
 10
-74.7555249999
 20
263.0474380696
 30
0.0
 10
-74.7912947725
 20
263.0014676112
 30
0.0
 10
-74.8180254174
 20
262.9600843964
 30
0.0
 10
-74.8338773525
 20
262.9327805049
 30
0.0
 10
-74.8363808052
 20
262.9112291213
 30
0.0
 10
-74.8303603686
 20
262.9081571098
 30
0.0
  0
SPLINE
  5
34A
100
AcDbEntity
  8
0
100
AcDbSpline
 62
7
  6
CONTINUOUS
 70
0
 71
3
 72
24
 73
20
 74
0
 42
0.0000001
 43
0.0000001
 44
0.0000000001
 40
0.0
 40
0.0
 40
0.0
 40
0.0
 40
0.1256686691
 40
0.2513442473
 40
0.3770236922
 40
0.502702702
 40
0.5655403385
 40
0.628374344
 40
0.6912016462
 40
0.754016239
 40
0.8168046224
 40
0.8481799312
 40
0.8795308273
 40
0.9108364069
 40
0.9420424233
 40
0.9575621537
 40
0.9729453333
 40
0.9879370356
 40
1.0
 40
1.0
 40
1.0
 40
1.0
 10
-82.4818390231
 20
253.3535320063
 30
0.0
 10
-82.5228281888
 20
253.2664247225
 30
0.0
 10
-82.6038328519
 20
253.0917440836
 30
0.0
 10
-82.7222864588
 20
252.8283232915
 30
0.0
 10
-82.8374944493
 20
252.5634573173
 30
0.0
 10
-82.9305418396
 20
252.3414679958
 30
0.0
 10
-83.0029256234
 20
252.163040435
 30
0.0
 10
-83.0560685796
 20
252.0287720027
 30
0.0
 10
-83.1079051569
 20
251.8940117195
 30
0.0
 10
-83.1581759273
 20
251.7586968855
 30
0.0
 10
-83.1984205305
 20
251.6453674263
 30
0.0
 10
-83.2291904165
 20
251.5542742613
 30
0.0
 10
-83.2513384772
 20
251.4857151615
 30
0.0
 10
-83.2722050218
 20
251.4169444297
 30
0.0
 10
-83.2880344025
 20
251.3591532305
 30
0.0
 10
-83.2988794734
 20
251.3130856714
 30
0.0
 10
-83.3055376195
 20
251.2777520642
 30
0.0
 10
-83.3091817289
 20
251.2481098594
 30
0.0
 10
-83.3078807247
 20
251.2215169035
 30
0.0
 10
-83.2996175934
 20
251.2173798472
 30
0.0
  0
SPLINE
  5
34B
100
AcDbEntity
  8
0
100
AcDbSpline
 62
7
  6
CONTINUOUS
 70
0
 71
3
 72
9
 73
5
 74
0
 42
0.0000001
 43
0.0000001
 44
0.0000000001
 40
0.0
 40
0.0
 40
0.0
 40
0.0
 40
0.2418127638
 40
1.0
 40
1.0
 40
1.0
 40
1.0
 10
-83.2996175934
 20
251.2173798472
 30
0.0
 10
-82.6390924696
 20
250.8363707491
 30
0.0
 10
-79.9041530725
 20
249.2666029452
 30
0.0
 10
-77.1574608259
 20
247.7173423955
 30
0.0
 10
-75.0694772525
 20
246.5525981199
 30
0.0
  0
SPLINE
  5
34C
100
AcDbEntity
  8
0
100
AcDbSpline
 62
7
  6
CONTINUOUS
 70
0
 71
3
 72
9
 73
5
 74
0
 42
0.0000001
 43
0.0000001
 44
0.0000000001
 40
0.0
 40
0.0
 40
0.0
 40
0.0
 40
0.2445863736
 40
1.0
 40
1.0
 40
1.0
 40
1.0
 10
-75.0694772525
 20
246.5525981199
 30
0.0
 10
-74.5170825613
 20
246.2444546255
 30
0.0
 10
-72.2569299466
 20
244.9875873002
 30
0.0
 10
-69.9901681997
 20
243.7426320171
 30
0.0
 10
-68.275563796
 20
242.8063456481
 30
0.0
  0
SPLINE
  5
34D
100
AcDbEntity
  8
0
100
AcDbSpline
 62
7
  6
CONTINUOUS
 70
0
 71
3
 72
9
 73
5
 74
0
 42
0.0000001
 43
0.0000001
 44
0.0000000001
 40
0.0
 40
0.0
 40
0.0
 40
0.0
 40
0.5027801858
 40
1.0
 40
1.0
 40
1.0
 40
1.0
 10
-75.5614048547
 20
261.9589674101
 30
0.0
 10
-75.5600939409
 20
261.9995020822
 30
0.0
 10
-75.5765044249
 20
262.0851104882
 30
0.0
 10
-75.6476010162
 20
262.1372449588
 30
0.0
 10
-75.6851711446
 20
262.1512836459
 30
0.0
  0
SPLINE
  5
34E
100
AcDbEntity
  8
0
100
AcDbSpline
 62
7
  6
CONTINUOUS
 70
0
 71
3
 72
20
 73
16
 74
0
 42
0.0000001
 43
0.0000001
 44
0.0000000001
 40
0.0
 40
0.0
 40
0.0
 40
0.0
 40
0.0530591206
 40
0.1059695103
 40
0.1595752534
 40
0.2146325503
 40
0.2717178633
 40
0.331178809
 40
0.3931266085
 40
0.4574507682
 40
0.5916441214
 40
0.730096251
 40
0.7994614307
 40
0.8679858183
 40
1.0
 40
1.0
 40
1.0
 40
1.0
 10
-33.5121368062
 20
256.2455861409
 30
0.0
 10
-34.2350850482
 20
256.9235559323
 30
0.0
 10
-35.8135954383
 20
258.1424729813
 30
0.0
 10
-38.5017155237
 20
259.4729103439
 30
0.0
 10
-41.4334036207
 20
260.265400425
 30
0.0
 10
-44.5373820487
 20
260.5032308171
 30
0.0
 10
-47.7423129233
 20
260.1851591814
 30
0.0
 10
-50.9765992268
 20
259.3221152156
 30
0.0
 10
-54.1701956494
 20
257.9360102853
 30
0.0
 10
-58.3370238418
 20
255.3996540717
 30
0.0
 10
-63.0346189542
 20
251.1102270851
 30
0.0
 10
-66.678888257
 20
245.79431853
 30
0.0
 10
-68.846562303
 20
241.0979352313
 30
0.0
 10
-70.4242524382
 20
236.3025309889
 30
0.0
 10
-70.9637328757
 20
232.543593615
 30
0.0
 10
-70.9787657195
 20
230.0777023459
 30
0.0
  0
SPLINE
  5
34F
100
AcDbEntity
  8
0
100
AcDbSpline
 62
7
  6
CONTINUOUS
 70
0
 71
3
 72
9
 73
5
 74
0
 42
0.0000001
 43
0.0000001
 44
0.0000000001
 40
0.0
 40
0.0
 40
0.0
 40
0.0
 40
0.2650594096
 40
1.0
 40
1.0
 40
1.0
 40
1.0
 10
-40.1664179413
 20
261.4150916852
 30
0.0
 10
-40.2456266346
 20
261.5185864091
 30
0.0
 10
-40.5453857822
 20
261.9083330159
 30
0.0
 10
-40.8490076003
 20
262.2951303623
 30
0.0
 10
-41.0753973175
 20
262.5767881626
 30
0.0
  0
SPLINE
  5
350
100
AcDbEntity
  8
0
100
AcDbSpline
 62
7
  6
CONTINUOUS
 70
0
 71
3
 72
11
 73
7
 74
0
 42
0.0000001
 43
0.0000001
 44
0.0000000001
 40
0.0
 40
0.0
 40
0.0
 40
0.0
 40
0.3173853685
 40
0.5897719604
 40
0.8169279301
 40
1.0
 40
1.0
 40
1.0
 40
1.0
 10
-41.380163081
 20
262.9514951677
 30
0.0
 10
-41.5264085084
 20
263.1289949222
 30
0.0
 10
-41.8012738425
 20
263.4562878659
 30
0.0
 10
-42.1974855982
 20
263.8964488786
 30
0.0
 10
-42.5488426679
 20
264.2449071643
 30
0.0
 10
-42.7796194752
 20
264.4340423352
 30
0.0
 10
-42.8897081026
 20
264.5080626225
 30
0.0
  0
SPLINE
  5
351
100
AcDbEntity
  8
0
100
AcDbSpline
 62
7
  6
CONTINUOUS
 70
0
 71
3
 72
11
 73
7
 74
0
 42
0.0000001
 43
0.0000001
 44
0.0000000001
 40
0.0
 40
0.0
 40
0.0
 40
0.0
 40
0.4029627103
 40
0.7129166797
 40
0.9104594778
 40
1.0
 40
1.0
 40
1.0
 40
1.0
 10
-77.314125567
 20
261.8411298743
 30
0.0
 10
-77.3286125974
 20
261.8495041879
 30
0.0
 10
-77.3541536118
 20
261.8638840804
 30
0.0
 10
-77.3892167587
 20
261.8806002656
 30
0.0
 10
-77.4104372561
 20
261.8891450714
 30
0.0
 10
-77.4251676842
 20
261.8905444252
 30
0.0
 10
-77.4274247618
 20
261.8875896267
 30
0.0
  0
SPLINE
  5
352
100
AcDbEntity
  8
0
100
AcDbSpline
 62
7
  6
CONTINUOUS
 70
0
 71
3
 72
10
 73
6
 74
0
 42
0.0000001
 43
0.0000001
 44
0.0000000001
 40
0.0
 40
0.0
 40
0.0
 40
0.0
 40
0.4680062452
 40
0.731878664
 40
1.0
 40
1.0
 40
1.0
 40
1.0
 10
-76.0944700997
 20
262.1584572446
 30
0.0
 10
-76.2806645061
 20
262.2449067585
 30
0.0
 10
-76.63558235
 20
262.2346366445
 30
0.0
 10
-77.0376953921
 20
262.0615788569
 30
0.0
 10
-77.2282951363
 20
261.9214287783
 30
0.0
 10
-77.314339459
 20
261.8412539511
 30
0.0
  0
SPLINE
  5
353
100
AcDbEntity
  8
0
100
AcDbSpline
 62
7
  6
CONTINUOUS
 70
0
 71
3
 72
9
 73
5
 74
0
 42
0.0000001
 43
0.0000001
 44
0.0000000001
 40
0.0
 40
0.0
 40
0.0
 40
0.0
 40
0.2509361717
 40
1.0
 40
1.0
 40
1.0
 40
1.0
 10
-71.0101800118
 20
246.141355532
 30
0.0
 10
-71.2251981537
 20
246.4375147801
 30
0.0
 10
-72.0668757206
 20
247.6286142579
 30
0.0
 10
-72.8442511554
 20
248.8657013054
 30
0.0
 10
-73.3807760796
 20
249.8173660877
 30
0.0
  0
SPLINE
  5
354
100
AcDbEntity
  8
0
100
AcDbSpline
 62
7
  6
CONTINUOUS
 70
0
 71
3
 72
11
 73
7
 74
0
 42
0.0000001
 43
0.0000001
 44
0.0000000001
 40
0.0
 40
0.0
 40
0.0
 40
0.0
 40
0.2527858259
 40
0.5038567264
 40
0.7529622697
 40
1.0
 40
1.0
 40
1.0
 40
1.0
 10
-73.3807760796
 20
249.8173660877
 30
0.0
 10
-73.9078173031
 20
250.7522090905
 30
0.0
 10
-74.8717871857
 20
252.6660650162
 30
0.0
 10
-76.0259746775
 20
255.6525072723
 30
0.0
 10
-76.8696058655
 20
258.7158309996
 30
0.0
 10
-77.2100764539
 20
260.8000632669
 30
0.0
 10
-77.3145999906
 20
261.8436134794
 30
0.0
  0
SPLINE
  5
355
100
AcDbEntity
  8
0
100
AcDbSpline
 62
7
  6
CONTINUOUS
 70
0
 71
3
 72
9
 73
5
 74
0
 42
0.0000001
 43
0.0000001
 44
0.0000000001
 40
0.0
 40
0.0
 40
0.0
 40
0.0
 40
0.2507357386
 40
1.0
 40
1.0
 40
1.0
 40
1.0
 10
-68.2774880141
 20
242.8071079915
 30
0.0
 10
-68.5208002199
 20
243.0729927833
 30
0.0
 10
-69.4771037789
 20
244.1461988034
 30
0.0
 10
-70.3750686297
 20
245.2715488426
 30
0.0
 10
-71.0101800118
 20
246.141355532
 30
0.0
  0
SPLINE
  5
356
100
AcDbEntity
  8
0
100
AcDbSpline
 62
7
  6
CONTINUOUS
 70
0
 71
3
 72
40
 73
36
 74
0
 42
0.0000001
 43
0.0000001
 44
0.0000000001
 40
0.0
 40
0.0
 40
0.0
 40
0.0
 40
0.1187253692
 40
0.2396422501
 40
0.3624618091
 40
0.4245144365
 40
0.4869555736
 40
0.5497636634
 40
0.6129200804
 40
0.6764094602
 40
0.7402212974
 40
0.8043564932
 40
0.8365515696
 40
0.8688393206
 40
0.8850217725
 40
0.9012333413
 40
0.9174782831
 40
0.93376353
 40
0.9419248039
 40
0.9501015963
 40
0.9582977009
 40
0.9665193477
 40
0.9706430152
 40
0.9747781624
 40
0.9789285494
 40
0.9831007272
 40
0.9873081032
 40
0.9915879356
 40
0.9926838239
 40
0.9938029786
 40
0.9949699689
 40
0.9956001455
 40
0.9961913538
 40
0.9980940215
 40
1.0
 40
1.0
 40
1.0
 40
1.0
 10
-75.0808738829
 20
257.0535757191
 30
0.0
 10
-74.9428404877
 20
256.4348117568
 30
0.0
 10
-74.6315301885
 20
255.1927118607
 30
0.0
 10
-74.0426580438
 20
253.3477180664
 30
0.0
 10
-73.4531069961
 20
251.8238625186
 30
0.0
 10
-72.9215565701
 20
250.6147735291
 30
0.0
 10
-72.4920094035
 20
249.7113845678
 30
0.0
 10
-72.0336366987
 20
248.8156633206
 30
0.0
 10
-71.5472026931
 20
247.9284809225
 30
0.0
 10
-71.033575729
 20
247.0505518382
 30
0.0
 10
-70.4937240177
 20
246.1823531023
 30
0.0
 10
-70.0237778088
 20
245.4678227778
 30
0.0
 10
-69.6366722879
 20
244.9005004391
 30
0.0
 10
-69.3902955824
 20
244.5471725888
 30
0.0
 10
-69.191009638
 20
244.2650743755
 30
0.0
 10
-69.0404577519
 20
244.0534360569
 30
0.0
 10
-68.8891311703
 20
243.841676426
 30
0.0
 10
-68.7627195492
 20
243.6649475123
 30
0.0
 10
-68.6616490839
 20
243.5230621673
 30
0.0
 10
-68.5859142964
 20
243.4161627339
 30
0.0
 10
-68.5104625546
 20
243.308669023
 30
0.0
 10
-68.4480901119
 20
243.2184386676
 30
0.0
 10
-68.3987220077
 20
243.14558683
 30
0.0
 10
-68.3620111451
 20
243.0904206366
 30
0.0
 10
-68.32581091
 20
243.034610724
 30
0.0
 10
-68.2903454896
 20
242.9778618667
 30
0.0
 10
-68.2561728531
 20
242.9195501803
 30
0.0
 10
-68.2323677075
 20
242.8741349594
 30
0.0
 10
-68.2192132309
 20
242.8420318005
 30
0.0
 10
-68.2135097102
 20
242.8248661654
 30
0.0
 10
-68.210467584
 20
242.8095453753
 30
0.0
 10
-68.2113338141
 20
242.7964593524
 30
0.0
 10
-68.2229829711
 20
242.7824255981
 30
0.0
 10
-68.2503667843
 20
242.7916043045
 30
0.0
 10
-68.2679999189
 20
242.7995359998
 30
0.0
 10
-68.275563796
 20
242.8063456481
 30
0.0
  0
SPLINE
  5
357
100
AcDbEntity
  8
0
100
AcDbSpline
 62
7
  6
CONTINUOUS
 70
0
 71
3
 72
9
 73
5
 74
0
 42
0.0000001
 43
0.0000001
 44
0.0000000001
 40
0.0
 40
0.0
 40
0.0
 40
0.0
 40
0.2516467501
 40
1.0
 40
1.0
 40
1.0
 40
1.0
 10
-75.0807844732
 20
257.0536527938
 30
0.0
 10
-75.2050319473
 20
257.4725344533
 30
0.0
 10
-75.6614944712
 20
259.1478287913
 30
0.0
 10
-75.964869821
 20
260.8656098983
 30
0.0
 10
-76.0944640699
 20
262.1584549172
 30
0.0
  0
SPLINE
  5
358
100
AcDbEntity
  8
0
100
AcDbSpline
 62
7
  6
CONTINUOUS
 70
0
 71
3
 72
9
 73
5
 74
0
 42
0.0000001
 43
0.0000001
 44
0.0000000001
 40
0.0
 40
0.0
 40
0.0
 40
0.0
 40
0.2461200838
 40
1.0
 40
1.0
 40
1.0
 40
1.0
 10
-75.561404886
 20
261.9589674217
 30
0.0
 10
-75.5744816741
 20
261.5542112634
 30
0.0
 10
-75.5704666159
 20
259.9079912047
 30
0.0
 10
-75.3481174226
 20
258.2649345151
 30
0.0
 10
-75.0808065916
 20
257.0536410797
 30
0.0
  0
SPLINE
  5
359
100
AcDbEntity
  8
0
100
AcDbSpline
 62
7
  6
CONTINUOUS
 70
0
 71
3
 72
9
 73
5
 74
0
 42
0.0000001
 43
0.0000001
 44
0.0000000001
 40
0.0
 40
0.0
 40
0.0
 40
0.0
 40
0.5013294451
 40
1.0
 40
1.0
 40
1.0
 40
1.0
 10
-76.0944701424
 20
262.1584576577
 30
0.0
 10
-76.1051421895
 20
262.2020069665
 30
0.0
 10
-76.1390403987
 20
262.2871339337
 30
0.0
 10
-76.212358457
 20
262.3485694819
 30
0.0
 10
-76.2541155911
 20
262.3642381702
 30
0.0
  0
SPLINE
  5
35A
100
AcDbEntity
  8
0
100
AcDbSpline
 62
7
  6
CONTINUOUS
 70
0
 71
3
 72
10
 73
6
 74
0
 42
0.0000001
 43
0.0000001
 44
0.0000000001
 40
0.0
 40
0.0
 40
0.0
 40
0.0
 40
0.3017658479
 40
0.5933703976
 40
1.0
 40
1.0
 40
1.0
 40
1.0
 10
-73.7364199536
 20
217.2273276479
 30
0.0
 10
-73.7768782243
 20
217.2326502383
 30
0.0
 10
-73.8571671587
 20
217.248397219
 30
0.0
 10
-73.9798371239
 20
217.2877311167
 30
0.0
 10
-74.0777692957
 20
217.3587798698
 30
0.0
 10
-74.0778397701
 20
217.413767115
 30
0.0
  0
LINE
  5
35B
100
AcDbEntity
  8
0
100
AcDbLine
 62
7
  6
CONTINUOUS
 10
-82.6529412284
 20
252.6990692075
 11
-82.8375753067
 21
252.2873733813
  0
SPLINE
  5
35C
100
AcDbEntity
  8
0
100
AcDbSpline
 62
7
  6
CONTINUOUS
 70
0
 71
3
 72
11
 73
7
 74
0
 42
0.0000001
 43
0.0000001
 44
0.0000000001
 40
0.0
 40
0.0
 40
0.0
 40
0.0
 40
0.3073486476
 40
0.5724580286
 40
0.7980332996
 40
1.0
 40
1.0
 40
1.0
 40
1.0
 10
-73.7364190849
 20
217.2273274492
 30
0.0
 10
-73.7436116263
 20
217.1504843166
 30
0.0
 10
-73.7428472123
 20
217.0054406638
 30
0.0
 10
-73.6953170243
 20
216.8084396262
 30
0.0
 10
-73.603046174
 20
216.6566855533
 30
0.0
 10
-73.5119296798
 20
216.5927650443
 30
0.0
 10
-73.4649172008
 20
216.5737395039
 30
0.0
  0
SPLINE
  5
35D
100
AcDbEntity
  8
0
100
AcDbSpline
 62
7
  6
CONTINUOUS
 70
0
 71
3
 72
10
 73
6
 74
0
 42
0.0000001
 43
0.0000001
 44
0.0000000001
 40
0.0
 40
0.0
 40
0.0
 40
0.0
 40
0.3529558346
 40
0.6391669031
 40
1.0
 40
1.0
 40
1.0
 40
1.0
 10
-85.2706645318
 20
248.959481353
 30
0.0
 10
-85.2846660416
 20
248.967550396
 30
0.0
 10
-85.3096149307
 20
248.9836802403
 30
0.0
 10
-85.3441009529
 20
249.0115098741
 30
0.0
 10
-85.3631527693
 20
249.0415758167
 30
0.0
 10
-85.3595642755
 20
249.0577022324
 30
0.0
  0
SPLINE
  5
35E
100
AcDbEntity
  8
0
100
AcDbSpline
 62
7
  6
CONTINUOUS
 70
0
 71
3
 72
10
 73
6
 74
0
 42
0.0000001
 43
0.0000001
 44
0.0000000001
 40
0.0
 40
0.0
 40
0.0
 40
0.0
 40
0.2418924059
 40
0.5006546284
 40
1.0
 40
1.0
 40
1.0
 40
1.0
 10
-84.2519580519
 20
249.7888869682
 30
0.0
 10
-84.3594999564
 20
249.7704534862
 30
0.0
 10
-84.5756151007
 20
249.6921820494
 30
0.0
 10
-84.953070115
 20
249.442460009
 30
0.0
 10
-85.1770147953
 20
249.1643548344
 30
0.0
 10
-85.2708786751
 20
248.9596052584
 30
0.0
  0
SPLINE
  5
35F
100
AcDbEntity
  8
0
100
AcDbSpline
 62
7
  6
CONTINUOUS
 70
0
 71
3
 72
9
 73
5
 74
0
 42
0.0000001
 43
0.0000001
 44
0.0000000001
 40
0.0
 40
0.0
 40
0.0
 40
0.0
 40
0.2490314856
 40
1.0
 40
1.0
 40
1.0
 40
1.0
 10
-74.6584416188
 20
233.0051503165
 30
0.0
 10
-74.8922651296
 20
233.2292099523
 30
0.0
 10
-75.8224902333
 20
234.1379537988
 30
0.0
 10
-76.7163572556
 20
235.0840933397
 30
0.0
 10
-77.3632238916
 20
235.8157102888
 30
0.0
  0
SPLINE
  5
360
100
AcDbEntity
  8
0
100
AcDbSpline
 62
7
  6
CONTINUOUS
 70
0
 71
3
 72
11
 73
7
 74
0
 42
0.0000001
 43
0.0000001
 44
0.0000000001
 40
0.0
 40
0.0
 40
0.0
 40
0.0
 40
0.2462468569
 40
0.4952187042
 40
0.7465546255
 40
1.0
 40
1.0
 40
1.0
 40
1.0
 10
-77.3632238916
 20
235.8157102888
 30
0.0
 10
-78.201891719
 20
236.7642575829
 30
0.0
 10
-79.8068269792
 20
238.7460248261
 30
0.0
 10
-81.9482872803
 20
241.9379737923
 30
0.0
 10
-83.8063564842
 20
245.3451176739
 30
0.0
 10
-84.8264869641
 20
247.737549942
 30
0.0
 10
-85.271853955
 20
248.9622339233
 30
0.0
  0
LINE
  5
361
100
AcDbEntity
  8
0
100
AcDbLine
 62
7
  6
CONTINUOUS
 10
-71.1615672983
 20
229.9909390446
 11
-71.1744890931
 21
229.9957118831
  0
SPLINE
  5
362
100
AcDbEntity
  8
0
100
AcDbSpline
 62
7
  6
CONTINUOUS
 70
0
 71
3
 72
25
 73
21
 74
0
 42
0.0000001
 43
0.0000001
 44
0.0000000001
 40
0.0
 40
0.0
 40
0.0
 40
0.0
 40
0.1254310153
 40
0.2511275359
 40
0.3768858996
 40
0.4397437331
 40
0.5025621994
 40
0.5653299229
 40
0.628038294
 40
0.6906822563
 40
0.7532630766
 40
0.7845347334
 40
0.8157987204
 40
0.8470620265
 40
0.8783363754
 40
0.9096429654
 40
0.9410258938
 40
0.9567766733
 40
0.9726082489
 40
1.0
 40
1.0
 40
1.0
 40
1.0
 10
-81.4945210279
 20
243.7393002133
 30
0.0
 10
-81.1867700633
 20
243.0844587388
 30
0.0
 10
-80.5343059038
 20
241.7901092305
 30
0.0
 10
-79.4505997008
 20
239.9042196509
 30
0.0
 10
-78.4619085558
 20
238.3832032779
 30
0.0
 10
-77.6228632212
 20
237.1999505231
 30
0.0
 10
-76.9705901358
 20
236.3301820496
 30
0.0
 10
-76.2962721208
 20
235.4785073286
 30
0.0
 10
-75.6008771461
 20
234.6452677979
 30
0.0
 10
-74.8854013628
 20
233.830645686
 30
0.0
 10
-74.2731291382
 20
233.1671424459
 30
0.0
 10
-73.7744131621
 20
232.6453757471
 30
0.0
 10
-73.3962140957
 20
232.2585055115
 30
0.0
 10
-73.0136506176
 20
231.87544072
 30
0.0
 10
-72.6280961609
 20
231.4968905516
 30
0.0
 10
-72.2354275424
 20
231.1177014355
 30
0.0
 10
-71.9165668326
 20
230.8137299054
 30
0.0
 10
-71.6364998355
 20
230.5456290674
 30
0.0
 10
-71.4582666955
 20
230.3752785696
 30
0.0
 10
-71.0141188592
 20
229.9341398672
 30
0.0
 10
-71.1615672983
 20
229.9909390446
 30
0.0
  0
SPLINE
  5
363
100
AcDbEntity
  8
0
100
AcDbSpline
 62
7
  6
CONTINUOUS
 70
0
 71
3
 72
14
 73
10
 74
0
 42
0.0000001
 43
0.0000001
 44
0.0000000001
 40
0.0
 40
0.0
 40
0.0
 40
0.0
 40
0.3414258416
 40
0.5097216116
 40
0.6661624658
 40
0.8012498149
 40
0.9051442117
 40
0.9714942217
 40
1.0
 40
1.0
 40
1.0
 40
1.0
 10
-82.8905516773
 20
223.8478600297
 30
0.0
 10
-82.9313722549
 20
223.8673567263
 30
0.0
 10
-82.9919977847
 20
223.8972017238
 30
0.0
 10
-83.0702056277
 20
223.9379779997
 30
0.0
 10
-83.123733624
 20
223.9674681115
 30
0.0
 10
-83.1684977952
 20
223.9936430201
 30
0.0
 10
-83.203351227
 20
224.0168527543
 30
0.0
 10
-83.222140539
 20
224.031211584
 30
0.0
 10
-83.2325657581
 20
224.0435201753
 30
0.0
 10
-83.2310298562
 20
224.0469706853
 30
0.0
  0
SPLINE
  5
364
100
AcDbEntity
  8
0
100
AcDbSpline
 62
7
  6
CONTINUOUS
 70
0
 71
3
 72
9
 73
5
 74
0
 42
0.0000001
 43
0.0000001
 44
0.0000000001
 40
0.0
 40
0.0
 40
0.0
 40
0.0
 40
0.2526170431
 40
1.0
 40
1.0
 40
1.0
 40
1.0
 10
-82.5827233808
 20
224.5234588723
 30
0.0
 10
-82.1655652659
 20
224.1350702284
 30
0.0
 10
-80.4832571023
 20
222.630992319
 30
0.0
 10
-78.6875072406
 20
221.2555057197
 30
0.0
 10
-77.3007200931
 20
220.2961276652
 30
0.0
  0
SPLINE
  5
365
100
AcDbEntity
  8
0
100
AcDbSpline
 62
7
  6
CONTINUOUS
 70
0
 71
3
 72
9
 73
5
 74
0
 42
0.0000001
 43
0.0000001
 44
0.0000000001
 40
0.0
 40
0.0
 40
0.0
 40
0.0
 40
0.2477784907
 40
1.0
 40
1.0
 40
1.0
 40
1.0
 10
-77.3007243596
 20
220.2961352828
 30
0.0
 10
-77.6857755688
 20
220.5153600002
 30
0.0
 10
-79.231502168
 20
221.4145621219
 30
0.0
 10
-80.7427081726
 20
222.3733937615
 30
0.0
 10
-81.855319815
 20
223.129374853
 30
0.0
  0
SPLINE
  5
366
100
AcDbEntity
  8
0
100
AcDbSpline
 62
7
  6
CONTINUOUS
 70
0
 71
3
 72
9
 73
5
 74
0
 42
0.0000001
 43
0.0000001
 44
0.0000000001
 40
0.0
 40
0.0
 40
0.0
 40
0.0
 40
0.5096461417
 40
1.0
 40
1.0
 40
1.0
 40
1.0
 10
-77.3006591952
 20
220.2960867446
 30
0.0
 10
-75.3016815969
 20
218.9131974456
 30
0.0
 10
-71.1980592196
 20
216.454797093
 30
0.0
 10
-66.8463221409
 20
214.4807712817
 30
0.0
 10
-64.6719828686
 20
213.6195506965
 30
0.0
  0
SPLINE
  5
367
100
AcDbEntity
  8
0
100
AcDbSpline
 62
7
  6
CONTINUOUS
 70
0
 71
3
 72
9
 73
5
 74
0
 42
0.0000001
 43
0.0000001
 44
0.0000000001
 40
0.0
 40
0.0
 40
0.0
 40
0.0
 40
0.3209829628
 40
1.0
 40
1.0
 40
1.0
 40
1.0
 10
-60.7109364346
 20
212.1791278508
 30
0.0
 10
-60.673292745
 20
212.1665421178
 30
0.0
 10
-60.5935953876
 20
212.1400820051
 30
0.0
 10
-60.2795994893
 20
212.0346267234
 30
0.0
 10
-60.3598885141
 20
212.0592005497
 30
0.0
  0
SPLINE
  5
368
100
AcDbEntity
  8
0
100
AcDbSpline
 62
7
  6
CONTINUOUS
 70
0
 71
3
 72
9
 73
5
 74
0
 42
0.0000001
 43
0.0000001
 44
0.0000000001
 40
0.0
 40
0.0
 40
0.0
 40
0.0
 40
0.2458672676
 40
1.0
 40
1.0
 40
1.0
 40
1.0
 10
-71.2004082276
 20
216.1684106965
 30
0.0
 10
-71.7391609774
 20
216.4141747201
 30
0.0
 10
-73.9197415401
 20
217.4368554158
 30
0.0
 10
-76.055338697
 20
218.5561802439
 30
0.0
 10
-77.6321657668
 20
219.4575956727
 30
0.0
  0
SPLINE
  5
369
100
AcDbEntity
  8
0
100
AcDbSpline
 62
7
  6
CONTINUOUS
 70
0
 71
3
 72
9
 73
5
 74
0
 42
0.0000001
 43
0.0000001
 44
0.0000000001
 40
0.0
 40
0.0
 40
0.0
 40
0.0
 40
0.2484965324
 40
1.0
 40
1.0
 40
1.0
 40
1.0
 10
-79.3439600725
 20
220.4671009393
 30
0.0
 10
-79.6479616225
 20
220.652039373
 30
0.0
 10
-80.8657449183
 20
221.4053870006
 30
0.0
 10
-82.0603806999
 20
222.1962788567
 30
0.0
 10
-82.9425933512
 20
222.8125039599
 30
0.0
  0
SPLINE
  5
36A
100
AcDbEntity
  8
0
100
AcDbSpline
 62
7
  6
CONTINUOUS
 70
0
 71
3
 72
11
 73
7
 74
0
 42
0.0000001
 43
0.0000001
 44
0.0000000001
 40
0.0
 40
0.0
 40
0.0
 40
0.0
 40
0.3099738018
 40
0.5845975014
 40
0.8123937297
 40
1.0
 40
1.0
 40
1.0
 40
1.0
 10
-82.8905300656
 20
223.8478496083
 30
0.0
 10
-82.9465659907
 20
223.7489135527
 30
0.0
 10
-83.0323078674
 20
223.5502088923
 30
0.0
 10
-83.0890711262
 20
223.2548743505
 30
0.0
 10
-83.0665909927
 20
222.9983860831
 30
0.0
 10
-82.9895281108
 20
222.8586017468
 30
0.0
 10
-82.9400759257
 20
222.8107454238
 30
0.0
  0
SPLINE
  5
36B
100
AcDbEntity
  8
0
100
AcDbSpline
 62
7
  6
CONTINUOUS
 70
0
 71
3
 72
9
 73
5
 74
0
 42
0.0000001
 43
0.0000001
 44
0.0000000001
 40
0.0
 40
0.0
 40
0.0
 40
0.0
 40
0.2548473186
 40
1.0
 40
1.0
 40
1.0
 40
1.0
 10
-86.620880297
 20
232.268425483
 30
0.0
 10
-86.4538554279
 20
231.7741013551
 30
0.0
 10
-85.7503210666
 20
229.8511721188
 30
0.0
 10
-84.849393859
 20
227.9992247308
 30
0.0
 10
-84.0684208336
 20
226.6886300462
 30
0.0
  0
LINE
  5
36C
100
AcDbEntity
  8
0
100
AcDbLine
 62
7
  6
CONTINUOUS
 10
-83.9961014392
 20
226.5679823551
 11
-83.9036915109
 21
226.4166217213
  0
SPLINE
  5
36D
100
AcDbEntity
  8
0
100
AcDbSpline
 62
7
  6
CONTINUOUS
 70
0
 71
3
 72
9
 73
5
 74
0
 42
0.0000001
 43
0.0000001
 44
0.0000000001
 40
0.0
 40
0.0
 40
0.0
 40
0.0
 40
0.248914298
 40
1.0
 40
1.0
 40
1.0
 40
1.0
 10
-81.7337618673
 20
244.2587646362
 30
0.0
 10
-81.9784954871
 20
244.6999029102
 30
0.0
 10
-82.9274094593
 20
246.4909011431
 30
0.0
 10
-83.7353838972
 20
248.3570452274
 30
0.0
 10
-84.2519508922
 20
249.7889513043
 30
0.0
  0
SPLINE
  5
36E
100
AcDbEntity
  8
0
100
AcDbSpline
 62
7
  6
CONTINUOUS
 70
0
 71
3
 72
9
 73
5
 74
0
 42
0.0000001
 43
0.0000001
 44
0.0000000001
 40
0.0
 40
0.0
 40
0.0
 40
0.0
 40
0.2505537001
 40
1.0
 40
1.0
 40
1.0
 40
1.0
 10
-83.6363005237
 20
249.9539689439
 30
0.0
 10
-83.5295036354
 20
249.4634324488
 30
0.0
 10
-83.0478007797
 20
247.5179055127
 30
0.0
 10
-82.3529574678
 20
245.6267872896
 30
0.0
 10
-81.7337447178
 20
244.2587548592
 30
0.0
  0
SPLINE
  5
36F
100
AcDbEntity
  8
0
100
AcDbSpline
 62
7
  6
CONTINUOUS
 70
0
 71
3
 72
11
 73
7
 74
0
 42
0.0000001
 43
0.0000001
 44
0.0000000001
 40
0.0
 40
0.0
 40
0.0
 40
0.0
 40
0.2752535362
 40
0.5449669263
 40
0.7883947718
 40
1.0
 40
1.0
 40
1.0
 40
1.0
 10
-84.2519572429
 20
249.7888856549
 30
0.0
 10
-84.2693210185
 20
249.8204725767
 30
0.0
 10
-84.3081507541
 20
249.8807540694
 30
0.0
 10
-84.3792112636
 20
249.9566219155
 30
0.0
 10
-84.4618623258
 20
250.0071801423
 30
0.0
 10
-84.5250472832
 20
250.0115266954
 30
0.0
 10
-84.5518070662
 20
250.004332211
 30
0.0
  0
SPLINE
  5
370
100
AcDbEntity
  8
0
100
AcDbSpline
 62
7
  6
CONTINUOUS
 70
0
 71
3
 72
12
 73
8
 74
0
 42
0.0000001
 43
0.0000001
 44
0.0000000001
 40
0.0
 40
0.0
 40
0.0
 40
0.0
 40
0.3207380614
 40
0.6275718029
 40
0.7589220395
 40
0.8657514265
 40
1.0
 40
1.0
 40
1.0
 40
1.0
 10
-86.7394289606
 20
235.7661555667
 30
0.0
 10
-86.7708996528
 20
235.7965210206
 30
0.0
 10
-86.8347863492
 20
235.8536951883
 30
0.0
 10
-86.9175072339
 20
235.9157597478
 30
0.0
 10
-86.9833369804
 20
235.9520929471
 30
0.0
 10
-87.0286920004
 20
235.9707326363
 30
0.0
 10
-87.0684022999
 20
235.9738348576
 30
0.0
 10
-87.0819633972
 20
235.9615406147
 30
0.0
  0
SPLINE
  5
371
100
AcDbEntity
  8
0
100
AcDbSpline
 62
7
  6
CONTINUOUS
 70
0
 71
3
 72
9
 73
5
 74
0
 42
0.0000001
 43
0.0000001
 44
0.0000000001
 40
0.0
 40
0.0
 40
0.0
 40
0.0
 40
0.2521601877
 40
1.0
 40
1.0
 40
1.0
 40
1.0
 10
-86.2063444258
 20
236.2514100361
 30
0.0
 10
-85.9423031732
 20
235.766724173
 30
0.0
 10
-84.8479560747
 20
233.870513698
 30
0.0
 10
-83.5760795985
 20
232.0782299057
 30
0.0
 10
-82.5469633056
 20
230.8052857454
 30
0.0
  0
SPLINE
  5
372
100
AcDbEntity
  8
0
100
AcDbSpline
 62
7
  6
CONTINUOUS
 70
0
 71
3
 72
9
 73
5
 74
0
 42
0.0000001
 43
0.0000001
 44
0.0000000001
 40
0.0
 40
0.0
 40
0.0
 40
0.0
 40
0.2479319887
 40
1.0
 40
1.0
 40
1.0
 40
1.0
 10
-82.546926922
 20
230.805326199
 30
0.0
 10
-82.9198181961
 20
231.1917541441
 30
0.0
 10
-84.3988826254
 20
232.7741692308
 30
0.0
 10
-85.7746360118
 20
234.4536798308
 30
0.0
 10
-86.7394428423
 20
235.7661458942
 30
0.0
  0
SPLINE
  5
373
100
AcDbEntity
  8
0
100
AcDbSpline
 62
7
  6
CONTINUOUS
 70
0
 71
3
 72
39
 73
35
 74
0
 42
0.0000001
 43
0.0000001
 44
0.0000000001
 40
0.0
 40
0.0
 40
0.0
 40
0.0
 40
0.1281210484
 40
0.2556136085
 40
0.3822819257
 40
0.4452584763
 40
0.5079685379
 40
0.5703981565
 40
0.6325362384
 40
0.6943754251
 40
0.7559149606
 40
0.7865769745
 40
0.8171725154
 40
0.847709446
 40
0.878201184
 40
0.9086722669
 40
0.939174093
 40
0.9544724235
 40
0.9621473179
 40
0.9698506662
 40
0.9737177249
 40
0.9775991356
 40
0.9814999535
 40
0.9854285684
 40
0.9894009448
 40
0.9934558571
 40
0.99554925
 40
0.996623096
 40
0.9971335534
 40
0.9974480644
 40
0.997653287
 40
0.9979191634
 40
0.9985554115
 40
1.0
 40
1.0
 40
1.0
 40
1.0
 10
-82.5468309493
 20
230.8049155146
 30
0.0
 10
-82.0400030059
 20
230.1780008294
 30
0.0
 10
-80.9961537614
 20
228.9532656272
 30
0.0
 10
-79.3433778518
 20
227.2043038017
 30
0.0
 10
-77.9007880532
 20
225.824255548
 30
0.0
 10
-76.7136711225
 20
224.7695226105
 30
0.0
 10
-75.810011575
 20
224.0048405023
 30
0.0
 10
-74.892632224
 20
223.2650702524
 30
0.0
 10
-73.9627015263
 20
222.5500995876
 30
0.0
 10
-73.0213391106
 20
221.8596910439
 30
0.0
 10
-72.2272216895
 20
221.3038230441
 30
0.0
 10
-71.5872261534
 20
220.8708909701
 30
0.0
 10
-71.1054892018
 20
220.5522223587
 30
0.0
 10
-70.6214987638
 20
220.2389570977
 30
0.0
 10
-70.1352278887
 20
219.9307056478
 30
0.0
 10
-69.6465024742
 20
219.6267818824
 30
0.0
 10
-69.2371421273
 20
219.3762965786
 30
0.0
 10
-68.949671397
 20
219.2014366736
 30
0.0
 10
-68.7848181949
 20
219.1010316582
 30
0.0
 10
-68.6814917128
 20
219.0378830646
 30
0.0
 10
-68.598668029
 20
218.9869616302
 30
0.0
 10
-68.5363272343
 20
218.9484039154
 30
0.0
 10
-68.4738150343
 20
218.9094025463
 30
0.0
 10
-68.4110361005
 20
218.8696937266
 30
0.0
 10
-68.3479197423
 20
218.8289180725
 30
0.0
 10
-68.2949221614
 20
218.7930865804
 30
0.0
 10
-68.2585930954
 20
218.7666406163
 30
0.0
 10
-68.2404582385
 20
218.7510051289
 30
0.0
 10
-68.2328696115
 20
218.7432392857
 30
0.0
 10
-68.2287548212
 20
218.7356849266
 30
0.0
 10
-68.2343495354
 20
218.7333419411
 30
0.0
 10
-68.241077985
 20
218.7339332064
 30
0.0
 10
-68.2557919632
 20
218.7367473997
 30
0.0
 10
-68.2681542388
 20
218.7409060799
 30
0.0
 10
-68.2767553664
 20
218.7438457783
 30
0.0
  0
SPLINE
  5
374
100
AcDbEntity
  8
0
100
AcDbSpline
 62
7
  6
CONTINUOUS
 70
0
 71
3
 72
11
 73
7
 74
0
 42
0.0000001
 43
0.0000001
 44
0.0000000001
 40
0.0
 40
0.0
 40
0.0
 40
0.0
 40
0.2408612681
 40
0.4883815027
 40
0.7417637768
 40
1.0
 40
1.0
 40
1.0
 40
1.0
 10
-72.3532386327
 20
221.0646606514
 30
0.0
 10
-73.7390475687
 20
221.9299891163
 30
0.0
 10
-76.4821124971
 20
223.7951054441
 30
0.0
 10
-80.3850149077
 20
226.9812732702
 30
0.0
 10
-84.0603299449
 20
230.5981575457
 30
0.0
 10
-86.2874184927
 20
233.2696443844
 30
0.0
 10
-87.331842494
 20
234.6758562854
 30
0.0
  0
SPLINE
  5
375
100
AcDbEntity
  8
0
100
AcDbSpline
 62
7
  6
CONTINUOUS
 70
0
 71
3
 72
11
 73
7
 74
0
 42
0.0000001
 43
0.0000001
 44
0.0000000001
 40
0.0
 40
0.0
 40
0.0
 40
0.0
 40
0.2738397065
 40
0.5429282962
 40
0.7883265674
 40
1.0
 40
1.0
 40
1.0
 40
1.0
 10
-86.7394292654
 20
235.76615574
 30
0.0
 10
-86.8327086269
 20
235.6953820308
 30
0.0
 10
-87.000158559
 20
235.5313533263
 30
0.0
 10
-87.1910424055
 20
235.2509366327
 30
0.0
 10
-87.3089688771
 20
234.9611063545
 30
0.0
 10
-87.334938152
 20
234.7638232523
 30
0.0
 10
-87.3300411271
 20
234.6734476172
 30
0.0
  0
SPLINE
  5
376
100
AcDbEntity
  8
0
100
AcDbSpline
 62
7
  6
CONTINUOUS
 70
0
 71
3
 72
9
 73
5
 74
0
 42
0.0000001
 43
0.0000001
 44
0.0000000001
 40
0.0
 40
0.0
 40
0.0
 40
0.0
 40
0.5268408282
 40
1.0
 40
1.0
 40
1.0
 40
1.0
 10
-87.3298268108
 20
234.6733239863
 30
0.0
 10
-87.3504856664
 20
234.6852004401
 30
0.0
 10
-87.3871916641
 20
234.7131932397
 30
0.0
 10
-87.4101791036
 20
234.7543467303
 30
0.0
 10
-87.4153539587
 20
234.7751129699
 30
0.0
  0
SPLINE
  5
377
100
AcDbEntity
  8
0
100
AcDbSpline
 62
7
  6
CONTINUOUS
 70
0
 71
3
 72
9
 73
5
 74
0
 42
0.0000001
 43
0.0000001
 44
0.0000000001
 40
0.0
 40
0.0
 40
0.0
 40
0.0
 40
0.2549189199
 40
1.0
 40
1.0
 40
1.0
 40
1.0
 10
-85.2706444536
 20
248.9594810574
 30
0.0
 10
-85.4571286484
 20
248.1464723027
 30
0.0
 10
-86.1055134684
 20
244.9389855621
 30
0.0
 10
-86.4148227449
 20
241.6605910716
 30
0.0
 10
-86.4277578775
 20
239.2226401783
 30
0.0
  0
SPLINE
  5
378
100
AcDbEntity
  8
0
100
AcDbSpline
 62
7
  6
CONTINUOUS
 70
0
 71
3
 72
8
 73
4
 74
0
 42
0.0000001
 43
0.0000001
 44
0.0000000001
 40
0.0
 40
0.0
 40
0.0
 40
0.0
 40
1.0
 40
1.0
 40
1.0
 40
1.0
 10
-86.428334177
 20
239.00170646
 30
0.0
 10
-86.4273110637
 20
238.8630550381
 30
0.0
 10
-86.4269168139
 20
238.7243987536
 30
0.0
 10
-86.4255844188
 20
238.5857499589
 30
0.0
  0
SPLINE
  5
379
100
AcDbEntity
  8
0
100
AcDbSpline
 62
7
  6
CONTINUOUS
 70
0
 71
3
 72
15
 73
11
 74
0
 42
0.0000001
 43
0.0000001
 44
0.0000000001
 40
0.0
 40
0.0
 40
0.0
 40
0.0
 40
0.1395831902
 40
0.2785297922
 40
0.4147062068
 40
0.5463976958
 40
0.6720593199
 40
0.7903275193
 40
0.8999897226
 40
1.0
 40
1.0
 40
1.0
 40
1.0
 10
44.1522961789
 20
209.8954236733
 30
0.0
 10
44.2373172124
 20
209.8944094815
 30
0.0
 10
44.4069504334
 20
209.8875428102
 30
0.0
 10
44.658524481
 20
209.8632093352
 30
0.0
 10
44.9035242107
 20
209.8250224651
 30
0.0
 10
45.137859994
 20
209.7737562354
 30
0.0
 10
45.3578402929
 20
209.7101586114
 30
0.0
 10
45.5600511088
 20
209.6353092747
 30
0.0
 10
45.7410979721
 20
209.5503036937
 30
0.0
 10
45.8510946314
 20
209.4847833466
 30
0.0
 10
45.9013454128
 20
209.4503412595
 30
0.0
  0
SPLINE
  5
37A
100
AcDbEntity
  8
0
100
AcDbSpline
 62
7
  6
CONTINUOUS
 70
0
 71
3
 72
9
 73
5
 74
0
 42
0.0000001
 43
0.0000001
 44
0.0000000001
 40
0.0
 40
0.0
 40
0.0
 40
0.0
 40
0.5040598967
 40
1.0
 40
1.0
 40
1.0
 40
1.0
 10
48.730109357
 20
207.5114951097
 30
0.0
 10
49.7052286707
 20
207.5498712115
 30
0.0
 10
51.6385716546
 20
207.6603344168
 30
0.0
 10
53.5666220226
 20
207.8414698767
 30
0.0
 10
54.5206583857
 20
207.9496843263
 30
0.0
  0
SPLINE
  5
37B
100
AcDbEntity
  8
0
100
AcDbSpline
 62
7
  6
CONTINUOUS
 70
0
 71
3
 72
20
 73
16
 74
0
 42
0.0000001
 43
0.0000001
 44
0.0000000001
 40
0.0
 40
0.0
 40
0.0
 40
0.0
 40
0.1454205885
 40
0.2863649187
 40
0.4220306256
 40
0.4876599833
 40
0.5517069368
 40
0.6140967875
 40
0.6747627977
 40
0.7336439837
 40
0.7906936992
 40
0.8458787392
 40
0.8991731039
 40
0.9505526376
 40
1.0
 40
1.0
 40
1.0
 40
1.0
 10
54.5206583857
 20
207.9496843263
 30
0.0
 10
55.5758888621
 20
208.0693770231
 30
0.0
 10
57.6491926287
 20
208.349317929
 30
0.0
 10
60.6826205493
 20
208.900555569
 30
0.0
 10
63.1181755032
 20
209.4670223695
 30
0.0
 10
64.9865805277
 20
209.9816472399
 30
0.0
 10
66.3281489098
 20
210.3917266291
 30
0.0
 10
67.6227800488
 20
210.829376119
 30
0.0
 10
68.8679381612
 20
211.2936532038
 30
0.0
 10
70.0611480519
 20
211.7837007417
 30
0.0
 10
71.2000949314
 20
212.2985753518
 30
0.0
 10
72.2826148699
 20
212.8372604991
 30
0.0
 10
73.3065218886
 20
213.3987928412
 30
0.0
 10
74.2696564267
 20
213.9818726091
 30
0.0
 10
74.8816186085
 20
214.3919751497
 30
0.0
 10
75.1763912586
 20
214.6005659699
 30
0.0
  0
SPLINE
  5
37C
100
AcDbEntity
  8
0
100
AcDbSpline
 62
7
  6
CONTINUOUS
 70
0
 71
3
 72
15
 73
11
 74
0
 42
0.0000001
 43
0.0000001
 44
0.0000000001
 40
0.0
 40
0.0
 40
0.0
 40
0.0
 40
0.1352088649
 40
0.2665614034
 40
0.394456255
 40
0.5193496896
 40
0.6417580018
 40
0.7622567605
 40
0.8814593603
 40
1.0
 40
1.0
 40
1.0
 40
1.0
 10
73.4879877895
 20
218.8757752774
 30
0.0
 10
73.6077071227
 20
219.0367317442
 30
0.0
 10
73.834269891
 20
219.3612467716
 30
0.0
 10
74.1379272524
 20
219.8620061076
 30
0.0
 10
74.3996158471
 20
220.3688281436
 30
0.0
 10
74.6187278642
 20
220.8810971724
 30
0.0
 10
74.7945929156
 20
221.398239833
 30
0.0
 10
74.926816959
 20
221.9195522973
 30
0.0
 10
75.0153459464
 20
222.4441954479
 30
0.0
 10
75.0452023424
 20
222.7961282104
 30
0.0
 10
75.0527875273
 20
222.9718336372
 30
0.0
  0
SPLINE
  5
37D
100
AcDbEntity
  8
0
100
AcDbSpline
 62
7
  6
CONTINUOUS
 70
0
 71
3
 72
11
 73
7
 74
0
 42
0.0000001
 43
0.0000001
 44
0.0000000001
 40
0.0
 40
0.0
 40
0.0
 40
0.0
 40
0.2560272128
 40
0.5069163264
 40
0.7543446764
 40
1.0
 40
1.0
 40
1.0
 40
1.0
 10
37.6367525259
 20
243.9142246396
 30
0.0
 10
37.3357690808
 20
243.9515238357
 30
0.0
 10
36.7361690552
 20
243.9989669671
 30
0.0
 10
35.8413569562
 20
243.9855301331
 30
0.0
 10
34.964253516
 20
243.8865451204
 30
0.0
 10
34.3920904854
 20
243.7635098146
 30
0.0
 10
34.1110080426
 20
243.6881884124
 30
0.0
  0
SPLINE
  5
37E
100
AcDbEntity
  8
0
100
AcDbSpline
 62
7
  6
CONTINUOUS
 70
0
 71
3
 72
9
 73
5
 74
0
 42
0.0000001
 43
0.0000001
 44
0.0000000001
 40
0.0
 40
0.0
 40
0.0
 40
0.0
 40
0.491757593
 40
1.0
 40
1.0
 40
1.0
 40
1.0
 10
11.3431713433
 20
243.4025972114
 30
0.0
 10
12.3858960183
 20
243.5990392604
 30
0.0
 10
14.5227335669
 20
243.9139121489
 30
0.0
 10
16.6743601207
 20
244.0904596843
 30
0.0
 10
17.7691287789
 20
244.1544437627
 30
0.0
  0
SPLINE
  5
37F
100
AcDbEntity
  8
0
100
AcDbSpline
 62
7
  6
CONTINUOUS
 70
0
 71
3
 72
14
 73
10
 74
0
 42
0.0000001
 43
0.0000001
 44
0.0000000001
 40
0.0
 40
0.0
 40
0.0
 40
0.0
 40
0.1245615092
 40
0.2521390821
 40
0.3813550561
 40
0.5109073504
 40
0.6392799978
 40
0.7648042953
 40
1.0
 40
1.0
 40
1.0
 40
1.0
 10
17.7691287789
 20
244.1544437627
 30
0.0
 10
18.0698253732
 20
244.1720180642
 30
0.0
 10
18.6799947164
 20
244.1845569034
 30
0.0
 10
19.6018072801
 20
244.14482411
 30
0.0
 10
20.5319949961
 20
244.0536007407
 30
0.0
 10
21.4587926306
 20
243.919593472
 30
0.0
 10
22.3709562928
 20
243.7520021507
 30
0.0
 10
23.527041932
 20
243.5018430584
 30
0.0
 10
24.372491392
 20
243.285841579
 30
0.0
 10
24.9210756312
 20
243.1357695261
 30
0.0
  0
SPLINE
  5
380
100
AcDbEntity
  8
0
100
AcDbSpline
 62
7
  6
CONTINUOUS
 70
0
 71
3
 72
11
 73
7
 74
0
 42
0.0000001
 43
0.0000001
 44
0.0000000001
 40
0.0
 40
0.0
 40
0.0
 40
0.0
 40
0.2822366008
 40
0.5445050921
 40
0.7844835507
 40
1.0
 40
1.0
 40
1.0
 40
1.0
 10
24.9210756312
 20
243.1357695261
 30
0.0
 10
25.1115732606
 20
243.0836565264
 30
0.0
 10
25.4785170613
 20
242.9810062455
 30
0.0
 10
26.0055724894
 20
242.8274964275
 30
0.0
 10
26.4866615288
 20
242.6832015111
 30
0.0
 10
26.7914483098
 20
242.5899264765
 30
0.0
 10
26.9354006056
 20
242.5449692407
 30
0.0
  0
SPLINE
  5
381
100
AcDbEntity
  8
0
100
AcDbSpline
 62
7
  6
CONTINUOUS
 70
0
 71
3
 72
11
 73
7
 74
0
 42
0.0000001
 43
0.0000001
 44
0.0000000001
 40
0.0
 40
0.0
 40
0.0
 40
0.0
 40
0.2400085729
 40
0.4869404774
 40
0.7403808634
 40
1.0
 40
1.0
 40
1.0
 40
1.0
 10
1.0198169079
 20
239.6646988846
 30
0.0
 10
1.4026339576
 20
239.8855544619
 30
0.0
 10
2.1892212168
 20
240.3167005674
 30
0.0
 10
3.413050053
 20
240.9185204568
 30
0.0
 10
4.6959936372
 20
241.4787591522
 30
0.0
 10
5.5785356626
 20
241.8170234172
 30
0.0
 10
6.0286800266
 20
241.9780186763
 30
0.0
  0
SPLINE
  5
382
100
AcDbEntity
  8
0
100
AcDbSpline
 62
7
  6
CONTINUOUS
 70
0
 71
3
 72
14
 73
10
 74
0
 42
0.0000001
 43
0.0000001
 44
0.0000000001
 40
0.0
 40
0.0
 40
0.0
 40
0.0
 40
0.1116474509
 40
0.2258551608
 40
0.3433630277
 40
0.4648377483
 40
0.5908069496
 40
0.7216873255
 40
1.0
 40
1.0
 40
1.0
 40
1.0
 10
-0.6526067602
 20
234.4419376612
 30
0.0
 10
-0.6242447331
 20
234.3951276847
 30
0.0
 10
-0.5617478922
 20
234.3034435003
 30
0.0
 10
-0.4529518984
 20
234.1746486366
 30
0.0
 10
-0.3284566919
 20
234.0539231225
 30
0.0
 10
-0.1887047896
 20
233.9418381625
 30
0.0
 10
-0.0343505744
 20
233.8386216601
 30
0.0
 10
0.1948300529
 20
233.7105227823
 30
0.0
 10
0.3807665056
 20
233.6329125816
 30
0.0
 10
0.5097252945
 20
233.5883701186
 30
0.0
  0
SPLINE
  5
383
100
AcDbEntity
  8
0
100
AcDbSpline
 62
7
  6
CONTINUOUS
 70
0
 71
3
 72
9
 73
5
 74
0
 42
0.0000001
 43
0.0000001
 44
0.0000000001
 40
0.0
 40
0.0
 40
0.0
 40
0.0
 40
0.5036743248
 40
1.0
 40
1.0
 40
1.0
 40
1.0
 10
4.9626461185
 20
235.9424249612
 30
0.0
 10
5.0256654542
 20
235.9826211435
 30
0.0
 10
5.1582530492
 20
236.0511562414
 30
0.0
 10
5.2995243735
 20
236.0981711923
 30
0.0
 10
5.3706694942
 20
236.1172420172
 30
0.0
  0
SPLINE
  5
384
100
AcDbEntity
  8
0
100
AcDbSpline
 62
7
  6
CONTINUOUS
 70
0
 71
3
 72
9
 73
5
 74
0
 42
0.0000001
 43
0.0000001
 44
0.0000000001
 40
0.0
 40
0.0
 40
0.0
 40
0.0
 40
0.503211783
 40
1.0
 40
1.0
 40
1.0
 40
1.0
 10
6.8426227223
 20
233.8256692047
 30
0.0
 10
6.4701194055
 20
233.8257772309
 30
0.0
 10
5.7290628
 20
233.7810100622
 30
0.0
 10
4.999549641
 20
233.6424895746
 30
0.0
 10
4.6434277644
 20
233.5507507899
 30
0.0
  0
SPLINE
  5
385
100
AcDbEntity
  8
0
100
AcDbSpline
 62
7
  6
CONTINUOUS
 70
0
 71
3
 72
38
 73
34
 74
0
 42
0.0000001
 43
0.0000001
 44
0.0000000001
 40
0.0
 40
0.0
 40
0.0
 40
0.0
 40
0.0182587113
 40
0.0367140295
 40
0.0555520013
 40
0.0749431607
 40
0.084897033
 40
0.0950440867
 40
0.115973214
 40
0.1378413603
 40
0.1607328191
 40
0.1847112414
 40
0.2098198829
 40
0.2360874856
 40
0.2635264788
 40
0.2921359806
 40
0.321905576
 40
0.3528123375
 40
0.3848256576
 40
0.417907697
 40
0.4520116636
 40
0.4870864476
 40
0.5230745694
 40
0.5975279981
 40
0.6358638005
 40
0.6748394276
 40
0.7143785302
 40
0.7543996571
 40
0.7948199841
 40
0.8355582963
 40
0.8765350578
 40
0.9176683946
 40
1.0
 40
1.0
 40
1.0
 40
1.0
 10
10.1257597221
 20
225.660227733
 30
0.0
 10
10.1160737779
 20
225.4150351265
 30
0.0
 10
10.1252218302
 20
224.920417198
 30
0.0
 10
10.2245033112
 20
224.1789352015
 30
0.0
 10
10.4090872988
 20
223.4382996011
 30
0.0
 10
10.6313962731
 20
222.828832311
 30
0.0
 10
10.8493853931
 20
222.3447385774
 30
0.0
 10
11.0995167734
 20
221.8531102274
 30
0.0
 10
11.465834782
 20
221.2419449764
 30
0.0
 10
11.9820009393
 20
220.5246364007
 30
0.0
 10
12.5779149148
 20
219.8176619237
 30
0.0
 10
13.2519677757
 20
219.1228424866
 30
0.0
 10
14.0023002478
 20
218.4417793742
 30
0.0
 10
14.8270544322
 20
217.7762874187
 30
0.0
 10
15.7240470769
 20
217.1279925981
 30
0.0
 10
16.6909387174
 20
216.4984947294
 30
0.0
 10
17.7252939446
 20
215.8895158729
 30
0.0
 10
18.8243762728
 20
215.3025144247
 30
0.0
 10
19.9853594357
 20
214.7390366489
 30
0.0
 10
21.2052561139
 20
214.2006004031
 30
0.0
 10
22.4808557829
 20
213.6884962144
 30
0.0
 10
23.8088887374
 20
213.2041318772
 30
0.0
 10
25.6658550319
 20
212.5900523845
 30
0.0
 10
27.5910138469
 20
212.0455132023
 30
0.0
 10
29.5740978073
 20
211.5680222178
 30
0.0
 10
31.1099451741
 20
211.2395977365
 30
0.0
 10
32.6757179317
 20
210.945295917
 30
0.0
 10
34.2673204435
 20
210.6858660531
 30
0.0
 10
35.8806046638
 20
210.4621638219
 30
0.0
 10
37.5114189484
 20
210.2747022783
 30
0.0
 10
39.1556322514
 20
210.1235468151
 30
0.0
 10
41.3604201898
 20
209.970505723
 30
0.0
 10
43.0194080014
 20
209.9112715074
 30
0.0
 10
44.1258014233
 20
209.8976637053
 30
0.0
  0
SPLINE
  5
386
100
AcDbEntity
  8
0
100
AcDbSpline
 62
7
  6
CONTINUOUS
 70
0
 71
3
 72
13
 73
9
 74
0
 42
0.0000001
 43
0.0000001
 44
0.0000000001
 40
0.0
 40
0.0
 40
0.0
 40
0.0
 40
0.2945034122
 40
0.5571729311
 40
0.6769635831
 40
0.7899023741
 40
0.897092509
 40
1.0
 40
1.0
 40
1.0
 40
1.0
 10
72.4886198126
 20
219.9445021257
 30
0.0
 10
72.4353095549
 20
219.9991565542
 30
0.0
 10
72.3399343376
 20
220.1081752004
 30
0.0
 10
72.2443967068
 20
220.2565585587
 30
0.0
 10
72.1919773828
 20
220.3740560581
 30
0.0
 10
72.1653063216
 20
220.4582736117
 30
0.0
 10
72.1503858605
 20
220.5409247718
 30
0.0
 10
72.1484269253
 20
220.5955928945
 30
0.0
 10
72.1495312555
 20
220.6222482601
 30
0.0
  0
SPLINE
  5
387
100
AcDbEntity
  8
0
100
AcDbSpline
 62
7
  6
CONTINUOUS
 70
0
 71
3
 72
15
 73
11
 74
0
 42
0.0000001
 43
0.0000001
 44
0.0000000001
 40
0.0
 40
0.0
 40
0.0
 40
0.0
 40
0.1196913017
 40
0.2449887406
 40
0.3735428723
 40
0.5033245633
 40
0.632428482
 40
0.7592396266
 40
0.8822263695
 40
1.0
 40
1.0
 40
1.0
 40
1.0
 10
75.2289323485
 20
215.8694784482
 30
0.0
 10
75.2306964435
 20
215.9120828574
 30
0.0
 10
75.2298687698
 20
215.9995071033
 30
0.0
 10
75.2171057656
 20
216.1321150547
 30
0.0
 10
75.193019632
 20
216.2667917488
 30
0.0
 10
75.1586023808
 20
216.4005872975
 30
0.0
 10
75.1147639299
 20
216.5309382884
 30
0.0
 10
75.0626744469
 20
216.6555984733
 30
0.0
 10
75.0034651842
 20
216.7725226644
 30
0.0
 10
74.9590797926
 20
216.8460358833
 30
0.0
 10
74.9359412855
 20
216.8810367506
 30
0.0
  0
SPLINE
  5
388
100
AcDbEntity
  8
0
100
AcDbSpline
 62
7
  6
CONTINUOUS
 70
0
 71
3
 72
9
 73
5
 74
0
 42
0.0000001
 43
0.0000001
 44
0.0000000001
 40
0.0
 40
0.0
 40
0.0
 40
0.0
 40
0.5097059743
 40
1.0
 40
1.0
 40
1.0
 40
1.0
 10
74.9359412855
 20
216.8810367506
 30
0.0
 10
74.7014177848
 20
217.2357928234
 30
0.0
 10
74.2226012661
 20
217.9196445047
 30
0.0
 10
73.7056852397
 20
218.5752516163
 30
0.0
 10
73.442745518
 20
218.8886247531
 30
0.0
  0
SPLINE
  5
389
100
AcDbEntity
  8
0
100
AcDbSpline
 62
7
  6
CONTINUOUS
 70
0
 71
3
 72
15
 73
11
 74
0
 42
0.0000001
 43
0.0000001
 44
0.0000000001
 40
0.0
 40
0.0
 40
0.0
 40
0.0
 40
0.1000942792
 40
0.2059161667
 40
0.3185489937
 40
0.4386571114
 40
0.5666697217
 40
0.7028731449
 40
0.8473789754
 40
1.0
 40
1.0
 40
1.0
 40
1.0
 10
-0.8711730791
 20
237.0828682913
 30
0.0
 10
-0.8711622083
 20
237.1943115703
 30
0.0
 10
-0.8488064635
 20
237.4239820379
 30
0.0
 10
-0.7542490087
 20
237.7673166864
 30
0.0
 10
-0.5993563393
 20
238.1124471987
 30
0.0
 10
-0.3855866007
 20
238.4538377409
 30
0.0
 10
-0.1143788921
 20
238.7861293481
 30
0.0
 10
0.212483855
 20
239.1040826841
 30
0.0
 10
0.5927719798
 20
239.4022992025
 30
0.0
 10
0.8724246196
 20
239.5801397523
 30
0.0
 10
1.0198169079
 20
239.6646988846
 30
0.0
  0
SPLINE
  5
38A
100
AcDbEntity
  8
0
100
AcDbSpline
 62
7
  6
CONTINUOUS
 70
0
 71
3
 72
11
 73
7
 74
0
 42
0.0000001
 43
0.0000001
 44
0.0000000001
 40
0.0
 40
0.0
 40
0.0
 40
0.0
 40
0.253350362
 40
0.5026050121
 40
0.7505211766
 40
1.0
 40
1.0
 40
1.0
 40
1.0
 10
-0.871179685
 20
235.2371217035
 30
0.0
 10
-0.8711859061
 20
235.1666495368
 30
0.0
 10
-0.8623232316
 20
235.0266500836
 30
0.0
 10
-0.8210498211
 20
234.8213571766
 30
0.0
 10
-0.7522343089
 20
234.6247157132
 30
0.0
 10
-0.6885673414
 20
234.5012886358
 30
0.0
 10
-0.6526067602
 20
234.4419376612
 30
0.0
  0
SPLINE
  5
38B
100
AcDbEntity
  8
0
100
AcDbSpline
 62
7
  6
CONTINUOUS
 70
0
 71
3
 72
14
 73
10
 74
0
 42
0.0000001
 43
0.0000001
 44
0.0000000001
 40
0.0
 40
0.0
 40
0.0
 40
0.0
 40
0.1193639845
 40
0.2393264405
 40
0.3604069148
 40
0.4831369827
 40
0.6080394917
 40
0.7355944566
 40
1.0
 40
1.0
 40
1.0
 40
1.0
 10
4.0898445276
 20
233.3938033377
 30
0.0
 10
3.9500144482
 20
233.3563295895
 30
0.0
 10
3.6664688238
 20
233.2925531771
 30
0.0
 10
3.2332387629
 20
233.2312473202
 30
0.0
 10
2.7924099132
 20
233.2043554007
 30
0.0
 10
2.3448695076
 20
233.2119282201
 30
0.0
 10
1.8913413444
 20
233.2539056298
 30
0.0
 10
1.2725945579
 20
233.3568385159
 30
0.0
 10
0.8126669568
 20
233.4841027083
 30
0.0
 10
0.5093905204
 20
233.5882803745
 30
0.0
  0
SPLINE
  5
38C
100
AcDbEntity
  8
0
100
AcDbSpline
 62
7
  6
CONTINUOUS
 70
0
 71
3
 72
11
 73
7
 74
0
 42
0.0000001
 43
0.0000001
 44
0.0000000001
 40
0.0
 40
0.0
 40
0.0
 40
0.0
 40
0.2406260309
 40
0.4879938216
 40
0.7413481893
 40
1.0
 40
1.0
 40
1.0
 40
1.0
 10
24.827116138
 20
242.0775795532
 30
0.0
 10
25.3752680136
 20
242.2245146688
 30
0.0
 10
26.4925902416
 20
242.5017294699
 30
0.0
 10
28.2034153545
 20
242.8639217271
 30
0.0
 10
29.9670694365
 20
243.1770958968
 30
0.0
 10
31.1622767474
 20
243.3507885404
 30
0.0
 10
31.7671947914
 20
243.4294923764
 30
0.0
  0
SPLINE
  5
38D
100
AcDbEntity
  8
0
100
AcDbSpline
 62
7
  6
CONTINUOUS
 70
0
 71
3
 72
35
 73
31
 74
0
 42
0.0000001
 43
0.0000001
 44
0.0000000001
 40
0.0
 40
0.0
 40
0.0
 40
0.0
 40
0.0787719836
 40
0.1580280412
 40
0.2370189493
 40
0.2761844697
 40
0.3150060974
 40
0.3533939496
 40
0.3912619658
 40
0.4650990258
 40
0.5009205804
 40
0.5359121155
 40
0.5700092941
 40
0.6031551701
 40
0.6352977352
 40
0.666396728
 40
0.6964202252
 40
0.7253458082
 40
0.753167201
 40
0.7798892429
 40
0.8055321249
 40
0.8301348365
 40
0.8537535867
 40
0.876463206
 40
0.8983628846
 40
0.9195693927
 40
0.9401892559
 40
0.9603517689
 40
0.9802234329
 40
1.0
 40
1.0
 40
1.0
 40
1.0
 10
37.6341923492
 20
243.9208118396
 30
0.0
 10
38.7982946021
 20
243.9669543952
 30
0.0
 10
41.1363756073
 20
244.0008040925
 30
0.0
 10
44.6410277586
 20
243.880596166
 30
0.0
 10
47.5519758814
 20
243.6387496268
 30
0.0
 10
49.8570994583
 20
243.3604474821
 30
0.0
 10
51.5603033858
 20
243.1112065238
 30
0.0
 10
53.2376392879
 20
242.8214829707
 30
0.0
 10
55.4145369434
 20
242.3860998316
 30
0.0
 10
57.5364038653
 20
241.8719457997
 30
0.0
 10
59.5914631539
 20
241.2764578627
 30
0.0
 10
61.0680392739
 20
240.798963103
 30
0.0
 10
62.4911745103
 20
240.2873705977
 30
0.0
 10
63.8568964726
 20
239.7430675896
 30
0.0
 10
65.1613643839
 20
239.1673099546
 30
0.0
 10
66.4009999947
 20
238.5615217249
 30
0.0
 10
67.5724413664
 20
237.9270957317
 30
0.0
 10
68.6725033192
 20
237.2653027005
 30
0.0
 10
69.6982449753
 20
236.5774513793
 30
0.0
 10
70.6468957717
 20
235.8647278235
 30
0.0
 10
71.5157883109
 20
235.1282081594
 30
0.0
 10
72.3023366624
 20
234.3688806158
 30
0.0
 10
73.0040134599
 20
233.5877244157
 30
0.0
 10
73.6179884692
 20
232.7854907186
 30
0.0
 10
74.1410859201
 20
231.9630036885
 30
0.0
 10
74.5698119343
 20
231.1219457433
 30
0.0
 10
74.900919028
 20
230.2651710796
 30
0.0
 10
75.1303996307
 20
229.3959168692
 30
0.0
 10
75.2550135149
 20
228.5181390268
 30
0.0
 10
75.2667577206
 20
227.930145032
 30
0.0
 10
75.2546571293
 20
227.6379053523
 30
0.0
  0
SPLINE
  5
38E
100
AcDbEntity
  8
0
100
AcDbSpline
 62
7
  6
CONTINUOUS
 70
0
 71
3
 72
13
 73
9
 74
0
 42
0.0000001
 43
0.0000001
 44
0.0000000001
 40
0.0
 40
0.0
 40
0.0
 40
0.0
 40
0.1219487046
 40
0.2439507481
 40
0.3664627173
 40
0.4899178957
 40
0.7410497584
 40
1.0
 40
1.0
 40
1.0
 40
1.0
 10
10.3103064892
 20
230.3270167183
 30
0.0
 10
10.3175211828
 20
230.5012577686
 30
0.0
 10
10.344692727
 20
230.8494224096
 30
0.0
 10
10.4233262776
 20
231.3679760649
 30
0.0
 10
10.5393419019
 20
231.8817060317
 30
0.0
 10
10.7443252708
 20
232.562904511
 30
0.0
 10
11.0945369718
 20
233.4014972694
 30
0.0
 10
11.4593333461
 20
234.035469806
 30
0.0
 10
11.6619087053
 20
234.3454541392
 30
0.0
  0
SPLINE
  5
38F
100
AcDbEntity
  8
0
100
AcDbSpline
 62
7
  6
CONTINUOUS
 70
0
 71
3
 72
20
 73
16
 74
0
 42
0.0000001
 43
0.0000001
 44
0.0000000001
 40
0.0
 40
0.0
 40
0.0
 40
0.0
 40
0.0999314182
 40
0.1521661771
 40
0.2060623131
 40
0.2617209485
 40
0.3192227473
 40
0.3786280747
 40
0.4399733909
 40
0.5032771856
 40
0.5685454618
 40
0.6357711436
 40
0.7049355899
 40
0.848933831
 40
1.0
 40
1.0
 40
1.0
 40
1.0
 10
11.7543028706
 20
234.4842574418
 30
0.0
 10
12.0423672828
 20
234.9092267535
 30
0.0
 10
12.531572404
 20
235.5232769659
 30
0.0
 10
13.2676675908
 20
236.2845975238
 30
0.0
 10
13.8805532586
 20
236.8468710159
 30
0.0
 10
14.5445491295
 20
237.3912813504
 30
0.0
 10
15.2584561689
 20
237.917571873
 30
0.0
 10
16.0209585122
 20
238.4253377132
 30
0.0
 10
16.8307225158
 20
238.9141719882
 30
0.0
 10
17.6863684158
 20
239.3836157694
 30
0.0
 10
18.5864902182
 20
239.8331886575
 30
0.0
 10
19.5296571039
 20
240.2624127577
 30
0.0
 10
20.8605010256
 20
240.8143053488
 30
0.0
 10
22.6229504098
 20
241.4466893146
 30
0.0
 10
24.0774745961
 20
241.8766340279
 30
0.0
 10
24.827116138
 20
242.0775795532
 30
0.0
  0
SPLINE
  5
390
100
AcDbEntity
  8
0
100
AcDbSpline
 62
7
  6
CONTINUOUS
 70
0
 71
3
 72
15
 73
11
 74
0
 42
0.0000001
 43
0.0000001
 44
0.0000000001
 40
0.0
 40
0.0
 40
0.0
 40
0.0
 40
0.1316926601
 40
0.2624718232
 40
0.3917588444
 40
0.51907848
 40
0.6439888941
 40
0.7660677004
 40
0.8848925757
 40
1.0
 40
1.0
 40
1.0
 40
1.0
 10
44.2978171862
 20
213.4802202376
 30
0.0
 10
45.0377642379
 20
213.4713946855
 30
0.0
 10
46.5128934519
 20
213.4762287578
 30
0.0
 10
48.7133085218
 20
213.5509944746
 30
0.0
 10
50.885804098
 20
213.69322006
 30
0.0
 10
53.0197920216
 20
213.9020360611
 30
0.0
 10
55.1054988959
 20
214.1765676641
 30
0.0
 10
57.1333807318
 20
214.5154575519
 30
0.0
 10
59.0935457389
 20
214.9172353826
 30
0.0
 10
60.3705247044
 20
215.2308160445
 30
0.0
 10
60.9952736544
 20
215.3982834259
 30
0.0
  0
SPLINE
  5
391
100
AcDbEntity
  8
0
100
AcDbSpline
 62
7
  6
CONTINUOUS
 70
0
 71
3
 72
15
 73
11
 74
0
 42
0.0000001
 43
0.0000001
 44
0.0000000001
 40
0.0
 40
0.0
 40
0.0
 40
0.0
 40
0.1467860683
 40
0.287919343
 40
0.422937349
 40
0.5515629735
 40
0.6736164617
 40
0.7890185448
 40
0.897780696
 40
1.0
 40
1.0
 40
1.0
 40
1.0
 10
60.9952736544
 20
215.3982834259
 30
0.0
 10
61.5983235861
 20
215.5599342664
 30
0.0
 10
62.7749186978
 20
215.9011609034
 30
0.0
 10
64.479231534
 20
216.4788051879
 30
0.0
 10
66.0817313009
 20
217.1102563149
 30
0.0
 10
67.574708396
 20
217.7922658375
 30
0.0
 10
68.9513892539
 20
218.5218891573
 30
0.0
 10
70.2056465222
 20
219.2958194817
 30
0.0
 10
71.3312250329
 20
220.1106209952
 30
0.0
 10
72.0131161542
 20
220.6961668682
 30
0.0
 10
72.3288170585
 20
220.9951086761
 30
0.0
  0
SPLINE
  5
392
100
AcDbEntity
  8
0
100
AcDbSpline
 62
7
  6
CONTINUOUS
 70
0
 71
3
 72
23
 73
19
 74
0
 42
0.0000001
 43
0.0000001
 44
0.0000000001
 40
0.0
 40
0.0
 40
0.0
 40
0.0
 40
0.0476914778
 40
0.0976899731
 40
0.1499684012
 40
0.2044916628
 40
0.2612143751
 40
0.3200682583
 40
0.3809618277
 40
0.4437916878
 40
0.5084403789
 40
0.5747815849
 40
0.642673675
 40
0.7119668929
 40
0.7825105074
 40
0.8541526327
 40
0.9267194016
 40
1.0
 40
1.0
 40
1.0
 40
1.0
 10
74.9359412855
 20
216.8810367506
 30
0.0
 10
74.5779972118
 20
216.623780413
 30
0.0
 10
73.8277882249
 20
216.120183852
 30
0.0
 10
72.6345560147
 20
215.4135968327
 30
0.0
 10
71.350476804
 20
214.7403512309
 30
0.0
 10
69.9796659983
 20
214.102533346
 30
0.0
 10
68.5261869393
 20
213.502003441
 30
0.0
 10
66.9943621104
 20
212.9405363036
 30
0.0
 10
65.3888196956
 20
212.4197627217
 30
0.0
 10
63.7143986901
 20
211.9413862054
 30
0.0
 10
61.9761814312
 20
211.5067254184
 30
0.0
 10
60.1794089829
 20
211.1172253943
 30
0.0
 10
58.3295760224
 20
210.7739558802
 30
0.0
 10
56.4322770864
 20
210.4780194847
 30
0.0
 10
54.4931499186
 20
210.2302978248
 30
0.0
 10
52.5179883779
 20
210.0315472108
 30
0.0
 10
50.5131152674
 20
209.8824313177
 30
0.0
 10
49.1665251482
 20
209.8165996904
 30
0.0
 10
48.4896593838
 20
209.7919658903
 30
0.0
  0
SPLINE
  5
393
100
AcDbEntity
  8
0
100
AcDbSpline
 62
7
  6
CONTINUOUS
 70
0
 71
3
 72
14
 73
10
 74
0
 42
0.0000001
 43
0.0000001
 44
0.0000000001
 40
0.0
 40
0.0
 40
0.0
 40
0.0
 40
0.2775607164
 40
0.4081437959
 40
0.5339213792
 40
0.6553562079
 40
0.7730255768
 40
0.8876458805
 40
1.0
 40
1.0
 40
1.0
 40
1.0
 10
0.509723046
 20
235.4479602403
 30
0.0
 10
0.3809928511
 20
235.488984107
 30
0.0
 10
0.1951515763
 20
235.5618811727
 30
0.0
 10
-0.0340018183
 20
235.6849670147
 30
0.0
 10
-0.1884301054
 20
235.7852627976
 30
0.0
 10
-0.3282942664
 20
235.8951542805
 30
0.0
 10
-0.4529100078
 20
236.0143988449
 30
0.0
 10
-0.5618104536
 20
236.1423900924
 30
0.0
 10
-0.6242672857
 20
236.2338305085
 30
0.0
 10
-0.6526081201
 20
236.2806054064
 30
0.0
  0
SPLINE
  5
394
100
AcDbEntity
  8
0
100
AcDbSpline
 62
7
  6
CONTINUOUS
 70
0
 71
3
 72
11
 73
7
 74
0
 42
0.0000001
 43
0.0000001
 44
0.0000000001
 40
0.0
 40
0.0
 40
0.0
 40
0.0
 40
0.2479878909
 40
0.4954622766
 40
0.7452583259
 40
1.0
 40
1.0
 40
1.0
 40
1.0
 10
-0.6526081201
 20
236.2806054064
 30
0.0
 10
-0.6886492367
 20
236.340089172
 30
0.0
 10
-0.7524258411
 20
236.4641554151
 30
0.0
 10
-0.821171964
 20
236.662233201
 30
0.0
 10
-0.8623690301
 20
236.8697272474
 30
0.0
 10
-0.8711800483
 20
237.0114235686
 30
0.0
 10
-0.8711730791
 20
237.0828682913
 30
0.0
  0
SPLINE
  5
395
100
AcDbEntity
  8
0
100
AcDbSpline
 62
7
  6
CONTINUOUS
 70
0
 71
3
 72
10
 73
6
 74
0
 42
0.0000001
 43
0.0000001
 44
0.0000000001
 40
0.0
 40
0.0
 40
0.0
 40
0.0
 40
0.2407333763
 40
0.4881067855
 40
1.0
 40
1.0
 40
1.0
 40
1.0
 10
60.6339585362
 20
217.6474996631
 30
0.0
 10
60.1277349371
 20
217.5118036519
 30
0.0
 10
59.0964115816
 20
217.2546543027
 30
0.0
 10
56.9677446277
 20
216.7969092066
 30
0.0
 10
55.3358799902
 20
216.5254250436
 30
0.0
 10
54.2318901475
 20
216.3732308599
 30
0.0
  0
SPLINE
  5
396
100
AcDbEntity
  8
0
100
AcDbSpline
 62
7
  6
CONTINUOUS
 70
0
 71
3
 72
28
 73
24
 74
0
 42
0.0000001
 43
0.0000001
 44
0.0000000001
 40
0.0
 40
0.0
 40
0.0
 40
0.0
 40
0.0669986197
 40
0.1354983152
 40
0.2050392466
 40
0.275151168
 40
0.3453579723
 40
0.4151803462
 40
0.4841451402
 40
0.5517904837
 40
0.6176732015
 40
0.681376644
 40
0.7122917761
 40
0.7425217857
 40
0.8007568712
 40
0.828696374
 40
0.8558069008
 40
0.8820617775
 40
0.9074412999
 40
0.9319304366
 40
0.955519297
 40
0.9782070238
 40
1.0
 40
1.0
 40
1.0
 40
1.0
 10
54.2318901475
 20
216.3732308599
 30
0.0
 10
53.3116340197
 20
216.2463658973
 30
0.0
 10
51.4442894566
 20
216.0331342985
 30
0.0
 10
48.6075180871
 20
215.8339254047
 30
0.0
 10
45.7217026829
 20
215.752945582
 30
0.0
 10
42.8113661232
 20
215.7908057054
 30
0.0
 10
39.9010800179
 20
215.9472425146
 30
0.0
 10
37.0154371336
 20
216.2209442662
 30
0.0
 10
34.1788210267
 20
216.6095139935
 30
0.0
 10
31.4151825868
 20
217.1097355751
 30
0.0
 10
28.7478877927
 20
217.7173330384
 30
0.0
 10
26.603094679
 20
218.3146158621
 30
0.0
 10
24.9546575391
 20
218.8436988406
 30
0.0
 10
23.3926327808
 20
219.3917677981
 30
0.0
 10
21.8921555629
 20
219.9894399971
 30
0.0
 10
20.461919504
 20
220.6393275169
 30
0.0
 10
19.4513939786
 20
221.1395336711
 30
0.0
 10
18.490391698
 20
221.6582654264
 30
0.0
 10
17.5808902356
 20
222.1943714275
 30
0.0
 10
16.7247953386
 20
222.746708177
 30
0.0
 10
15.9239596738
 20
223.3142181722
 30
0.0
 10
15.1800564654
 20
223.8956318771
 30
0.0
 10
14.7137524479
 20
224.2998037185
 30
0.0
 10
14.4910771518
 20
224.5040604792
 30
0.0
  0
SPLINE
  5
397
100
AcDbEntity
  8
0
100
AcDbSpline
 62
7
  6
CONTINUOUS
 70
0
 71
3
 72
35
 73
31
 74
0
 42
0.0000001
 43
0.0000001
 44
0.0000000001
 40
0.0
 40
0.0
 40
0.0
 40
0.0
 40
0.0321959274
 40
0.0631122785
 40
0.1212960573
 40
0.1487523065
 40
0.1752437015
 40
0.2008963422
 40
0.2258570636
 40
0.2502916195
 40
0.2743797784
 40
0.2983124169
 40
0.322285487
 40
0.3464932799
 40
0.3711234288
 40
0.3963499656
 40
0.4223304163
 40
0.4492046966
 40
0.4770908869
 40
0.5362406707
 40
0.5676785883
 40
0.6004121559
 40
0.634472887
 40
0.6698775154
 40
0.7066279947
 40
0.7447178412
 40
0.784133001
 40
0.8248516799
 40
0.910070385
 40
1.0
 40
1.0
 40
1.0
 40
1.0
 10
14.4910771518
 20
224.5040604792
 30
0.0
 10
14.2833917753
 20
224.694567208
 30
0.0
 10
13.8859505004
 20
225.0788497797
 30
0.0
 10
13.1665155475
 20
225.8601518447
 30
0.0
 10
12.5451917654
 20
226.6742617737
 30
0.0
 10
12.0409315546
 20
227.5173446447
 30
0.0
 10
11.7315560522
 20
228.1425798767
 30
0.0
 10
11.484568443
 20
228.771631576
 30
0.0
 10
11.3006118129
 20
229.403268428
 30
0.0
 10
11.1800509812
 20
230.0361322598
 30
0.0
 10
11.1232880975
 20
230.6688880629
 30
0.0
 10
11.130606323
 20
231.3001226486
 30
0.0
 10
11.2018505584
 20
231.9284107715
 30
0.0
 10
11.3368564164
 20
232.5523653625
 30
0.0
 10
11.5353861578
 20
233.1705806396
 30
0.0
 10
11.7967863763
 20
233.781783252
 30
0.0
 10
12.1204012812
 20
234.3847439666
 30
0.0
 10
12.5056097648
 20
234.9782346642
 30
0.0
 10
13.1118814428
 20
235.7708633452
 30
0.0
 10
13.8304200763
 20
236.5237055396
 30
0.0
 10
14.6427138863
 20
237.2351787726
 30
0.0
 10
15.3206583842
 20
237.7648892176
 30
0.0
 10
16.0534768517
 20
238.2786113411
 30
0.0
 10
16.8397760166
 20
238.7754037739
 30
0.0
 10
17.6778996945
 20
239.2543488963
 30
0.0
 10
18.5662037718
 20
239.7144663714
 30
0.0
 10
19.5029762921
 20
240.1548214274
 30
0.0
 10
20.8344170561
 20
240.7231793699
 30
0.0
 10
22.6093771375
 20
241.3753090129
 30
0.0
 10
24.0784083398
 20
241.8172820361
 30
0.0
 10
24.8379709114
 20
242.0240263705
 30
0.0
  0
SPLINE
  5
398
100
AcDbEntity
  8
0
100
AcDbSpline
 62
7
  6
CONTINUOUS
 70
0
 71
3
 72
23
 73
19
 74
0
 42
0.0000001
 43
0.0000001
 44
0.0000000001
 40
0.0
 40
0.0
 40
0.0
 40
0.0
 40
0.0479173264
 40
0.0981069949
 40
0.1505400497
 40
0.2051805574
 40
0.2619831936
 40
0.3208808146
 40
0.381784101
 40
0.4445924062
 40
0.5091917097
 40
0.5754595263
 40
0.6432586683
 40
0.7124441461
 40
0.782870082
 40
0.8543895202
 40
0.9268341912
 40
1.0
 40
1.0
 40
1.0
 40
1.0
 10
75.2289323485
 20
215.8694784482
 30
0.0
 10
74.8675487392
 20
215.6137515229
 30
0.0
 10
74.1111940095
 20
215.113124915
 30
0.0
 10
72.9102892745
 20
214.4102927222
 30
0.0
 10
71.6202808975
 20
213.7404540021
 30
0.0
 10
70.245182073
 20
213.1056260426
 30
0.0
 10
68.7889512878
 20
212.5076081808
 30
0.0
 10
67.2557932235
 20
211.9481168896
 30
0.0
 10
65.6502054959
 20
211.4287309821
 30
0.0
 10
63.9768870957
 20
210.9510984467
 30
0.0
 10
62.2407686316
 20
210.5164993206
 30
0.0
 10
60.4469323343
 20
210.1263342341
 30
0.0
 10
58.6007034139
 20
209.7816453714
 30
0.0
 10
56.7075024326
 20
209.4835062847
 30
0.0
 10
54.7727903849
 20
209.2327791237
 30
0.0
 10
52.8021788207
 20
209.0302065446
 30
0.0
 10
50.8017914237
 20
208.8764442631
 30
0.0
 10
49.4581130916
 20
208.8069906151
 30
0.0
 10
48.7826504469
 20
208.780407588
 30
0.0
  0
SPLINE
  5
399
100
AcDbEntity
  8
0
100
AcDbSpline
 62
7
  6
CONTINUOUS
 70
0
 71
3
 72
15
 73
11
 74
0
 42
0.0000001
 43
0.0000001
 44
0.0000000001
 40
0.0
 40
0.0
 40
0.0
 40
0.0
 40
0.1177793154
 40
0.2407751306
 40
0.3675926437
 40
0.4966971614
 40
0.6264722126
 40
0.7550188438
 40
0.8803100139
 40
1.0
 40
1.0
 40
1.0
 40
1.0
 10
48.4896593838
 20
209.7919658903
 30
0.0
 10
48.5127991335
 20
209.7569631435
 30
0.0
 10
48.5571864673
 20
209.6834444074
 30
0.0
 10
48.6164012194
 20
209.5665139114
 30
0.0
 10
48.6684991103
 20
209.4418502743
 30
0.0
 10
48.712342875
 20
209.3115001358
 30
0.0
 10
48.7467633575
 20
209.1777095275
 30
0.0
 10
48.770844419
 20
209.0430382895
 30
0.0
 10
48.7835940554
 20
208.9104335379
 30
0.0
 10
48.784414532
 20
208.8230117603
 30
0.0
 10
48.7826504469
 20
208.780407588
 30
0.0
  0
SPLINE
  5
39A
100
AcDbEntity
  8
0
100
AcDbSpline
 62
7
  6
CONTINUOUS
 70
0
 71
3
 72
9
 73
5
 74
0
 42
0.0000001
 43
0.0000001
 44
0.0000000001
 40
0.0
 40
0.0
 40
0.0
 40
0.0
 40
0.4836383221
 40
1.0
 40
1.0
 40
1.0
 40
1.0
 10
46.042337911
 20
212.8554312655
 30
0.0
 10
46.4842008102
 20
212.4024271867
 30
0.0
 10
47.3488277051
 20
211.4171581655
 30
0.0
 10
48.1170671697
 20
210.355574016
 30
0.0
 10
48.4896593838
 20
209.7919658903
 30
0.0
  0
SPLINE
  5
39B
100
AcDbEntity
  8
0
100
AcDbSpline
 62
7
  6
CONTINUOUS
 70
0
 71
3
 72
42
 73
38
 74
0
 42
0.0000001
 43
0.0000001
 44
0.0000000001
 40
0.0
 40
0.0
 40
0.0
 40
0.0
 40
0.0337527647
 40
0.0685926262
 40
0.1043833504
 40
0.1410024405
 40
0.1783285174
 40
0.2162275796
 40
0.2545593461
 40
0.2931815255
 40
0.3319504134
 40
0.3707210786
 40
0.4093479513
 40
0.4476870565
 40
0.4855962273
 40
0.5229368857
 40
0.5595746757
 40
0.5953807993
 40
0.6302337019
 40
0.6640194007
 40
0.6966347277
 40
0.7279865607
 40
0.7579969812
 40
0.7866016643
 40
0.8137571209
 40
0.8394390145
 40
0.8636514615
 40
0.8864264231
 40
0.9078345544
 40
0.9279862352
 40
0.9470415141
 40
0.9562266144
 40
0.9652204987
 40
0.9740573222
 40
0.9827735677
 40
0.9914077403
 40
1.0
 40
1.0
 40
1.0
 40
1.0
 10
61.0407247383
 20
216.4681881213
 30
0.0
 10
60.4190163253
 20
216.3015357726
 30
0.0
 10
59.1483404786
 20
215.9893751637
 30
0.0
 10
57.198003647
 20
215.5890417646
 30
0.0
 10
55.1804708053
 20
215.250967214
 30
0.0
 10
53.1054927044
 20
214.9766362869
 30
0.0
 10
50.982558029
 20
214.7674075723
 30
0.0
 10
48.8214422462
 20
214.624087696
 30
0.0
 10
46.6322129218
 20
214.5475151543
 30
0.0
 10
44.4250865601
 20
214.5379394218
 30
0.0
 10
42.2103208632
 20
214.5954901207
 30
0.0
 10
39.9982100324
 20
214.7198273468
 30
0.0
 10
37.799043102
 20
214.9104233969
 30
0.0
 10
35.6230540976
 20
215.1663665143
 30
0.0
 10
33.4803574108
 20
215.4864611446
 30
0.0
 10
31.3809205393
 20
215.8692394638
 30
0.0
 10
29.3344889744
 20
216.3128660642
 30
0.0
 10
27.3505831946
 20
216.8153491731
 30
0.0
 10
25.4383883252
 20
217.3742471896
 30
0.0
 10
23.6067999937
 20
217.9870862922
 30
0.0
 10
21.8642585424
 20
218.6508710445
 30
0.0
 10
20.2188712385
 20
219.3627009901
 30
0.0
 10
18.6781599587
 20
220.1190998147
 30
0.0
 10
17.2492976976
 20
220.9168117194
 30
0.0
 10
15.9387351953
 20
221.7519847342
 30
0.0
 10
14.7525980894
 20
222.6211011768
 30
0.0
 10
13.696165403
 20
223.5200859446
 30
0.0
 10
12.774480942
 20
224.4452646014
 30
0.0
 10
11.9916773495
 20
225.3925474101
 30
0.0
 10
11.3518777061
 20
226.3580237326
 30
0.0
 10
10.9355069485
 20
227.1845907137
 30
0.0
 10
10.6808885316
 20
227.8479283232
 30
0.0
 10
10.5297515083
 20
228.3409031259
 30
0.0
 10
10.4163001249
 20
228.8347253241
 30
0.0
 10
10.340681178
 20
229.3288313489
 30
0.0
 10
10.30305515
 20
229.8225793073
 30
0.0
 10
10.3033712297
 20
230.1514687196
 30
0.0
 10
10.3098533215
 20
230.3151927557
 30
0.0
  0
SPLINE
  5
39C
100
AcDbEntity
  8
0
100
AcDbSpline
 62
7
  6
CONTINUOUS
 70
0
 71
3
 72
12
 73
8
 74
0
 42
0.0000001
 43
0.0000001
 44
0.0000000001
 40
0.0
 40
0.0
 40
0.0
 40
0.0
 40
0.2489888358
 40
0.3743175465
 40
0.4999564917
 40
0.7509304438
 40
1.0
 40
1.0
 40
1.0
 40
1.0
 10
5.3706694942
 20
236.1172420172
 30
0.0
 10
5.4828349259
 20
236.1473085528
 30
0.0
 10
5.6556979378
 20
236.1766133803
 30
0.0
 10
5.8876371929
 20
236.1998780428
 30
0.0
 10
6.1210471194
 20
236.2182824837
 30
0.0
 10
6.4118709742
 20
236.2413907304
 30
0.0
 10
6.6426988252
 20
236.280717613
 30
0.0
 10
6.7549006092
 20
236.3107939367
 30
0.0
  0
SPLINE
  5
39D
100
AcDbEntity
  8
0
100
AcDbSpline
 62
7
  6
CONTINUOUS
 70
0
 71
3
 72
15
 73
11
 74
0
 42
0.0000001
 43
0.0000001
 44
0.0000000001
 40
0.0
 40
0.0
 40
0.0
 40
0.0
 40
0.1430886052
 40
0.2814963082
 40
0.4148608551
 40
0.5429326978
 40
0.665560539
 40
0.7826376545
 40
0.8941133942
 40
1.0
 40
1.0
 40
1.0
 40
1.0
 10
60.6339585362
 20
217.6474996631
 30
0.0
 10
61.1434277232
 20
217.7840656719
 30
0.0
 10
62.141065407
 20
218.0704612544
 30
0.0
 10
63.5942026446
 20
218.5481739225
 30
0.0
 10
64.9747932633
 20
219.0655771279
 30
0.0
 10
66.277671219
 20
219.6207833967
 30
0.0
 10
67.49839862
 20
220.2117946112
 30
0.0
 10
68.6328427023
 20
220.8367495093
 30
0.0
 10
69.6771123043
 20
221.4933109452
 30
0.0
 10
70.3273288607
 20
221.9627616857
 30
0.0
 10
70.6352475089
 20
222.202629172
 30
0.0
  0
SPLINE
  5
39E
100
AcDbEntity
  8
0
100
AcDbSpline
 62
7
  6
CONTINUOUS
 70
0
 71
3
 72
46
 73
42
 74
0
 42
0.0000001
 43
0.0000001
 44
0.0000000001
 40
0.0
 40
0.0
 40
0.0
 40
0.0
 40
0.0251835699
 40
0.0487458054
 40
0.0599675889
 40
0.0708449732
 40
0.081406349
 40
0.0916849849
 40
0.1017188118
 40
0.1115495413
 40
0.12122251
 40
0.1307865001
 40
0.1402925198
 40
0.1497926588
 40
0.1593392716
 40
0.1689837179
 40
0.1787750966
 40
0.1887596943
 40
0.209463319
 40
0.2313991839
 40
0.2547891754
 40
0.2797861492
 40
0.306486385
 40
0.3349331519
 40
0.3651304678
 40
0.397044551
 40
0.4306151338
 40
0.4657548906
 40
0.5023582635
 40
0.5403001062
 40
0.5794425123
 40
0.6196335644
 40
0.6607125655
 40
0.7025093148
 40
0.7448481353
 40
0.7875477946
 40
0.8304244932
 40
0.8732922612
 40
0.9159660316
 40
0.9582623544
 40
1.0
 40
1.0
 40
1.0
 40
1.0
 10
70.6352475089
 20
222.202629172
 30
0.0
 10
70.9945565241
 20
222.482529564
 30
0.0
 10
71.6675480583
 20
223.0542261542
 30
0.0
 10
72.4210653302
 20
223.8374444272
 30
0.0
 10
72.9397250573
 20
224.4806422328
 30
0.0
 10
73.281922137
 20
224.9626062783
 30
0.0
 10
73.5830702262
 20
225.4513357863
 30
0.0
 10
73.8427226109
 20
225.946196183
 30
0.0
 10
74.0605528892
 20
226.4464939238
 30
0.0
 10
74.2362281884
 20
226.9515563856
 30
0.0
 10
74.3693889036
 20
227.4607051286
 30
0.0
 10
74.4598254248
 20
227.973206518
 30
0.0
 10
74.5074555084
 20
228.488312474
 30
0.0
 10
74.5121961027
 20
229.0052826959
 30
0.0
 10
74.4739557954
 20
229.5233621826
 30
0.0
 10
74.3928512118
 20
230.0417878982
 30
0.0
 10
74.2690702199
 20
230.5598502344
 30
0.0
 10
74.0447728508
 20
231.2573900962
 30
0.0
 10
73.6528357605
 20
232.1284689876
 30
0.0
 10
73.0222059712
 20
233.1460311591
 30
0.0
 10
72.2294810363
 20
234.1438505802
 30
0.0
 10
71.2796086504
 20
235.1172285921
 30
0.0
 10
70.177559481
 20
236.061321727
 30
0.0
 10
68.9293778396
 20
236.9716842798
 30
0.0
 10
67.5414975993
 20
237.8434766556
 30
0.0
 10
66.0213593316
 20
238.6724169563
 30
0.0
 10
64.3769101893
 20
239.4539460792
 30
0.0
 10
62.6169557615
 20
240.1841281291
 30
0.0
 10
60.750809646
 20
240.8588860186
 30
0.0
 10
58.7884788074
 20
241.4747797592
 30
0.0
 10
56.7404248442
 20
242.0283482963
 30
0.0
 10
54.6176419293
 20
242.5167541595
 30
0.0
 10
52.4314945244
 20
242.9372440215
 30
0.0
 10
50.1937250183
 20
243.2876607068
 30
0.0
 10
47.9163397056
 20
243.5660230282
 30
0.0
 10
45.6115734881
 20
243.7709063236
 30
0.0
 10
43.2918095991
 20
243.9011455098
 30
0.0
 10
40.9695128251
 20
243.9560914041
 30
0.0
 10
38.6571413986
 20
243.9354128112
 30
0.0
 10
36.3671533791
 20
243.8392375371
 30
0.0
 10
34.8513417706
 20
243.7241936802
 30
0.0
 10
34.0997679583
 20
243.6538712273
 30
0.0
  0
SPLINE
  5
39F
100
AcDbEntity
  8
0
100
AcDbSpline
 62
7
  6
CONTINUOUS
 70
0
 71
3
 72
11
 73
7
 74
0
 42
0.0000001
 43
0.0000001
 44
0.0000000001
 40
0.0
 40
0.0
 40
0.0
 40
0.0
 40
0.2589340615
 40
0.5123905004
 40
0.7596674596
 40
1.0
 40
1.0
 40
1.0
 40
1.0
 10
31.7734551349
 20
243.392566605
 30
0.0
 10
31.1827601822
 20
243.314850926
 30
0.0
 10
30.0160538906
 20
243.1437885112
 30
0.0
 10
28.2950451607
 20
242.8365516352
 30
0.0
 10
26.6267983036
 20
242.4823721551
 30
0.0
 10
25.5376491926
 20
242.2119203983
 30
0.0
 10
25.0035210111
 20
242.0687444108
 30
0.0
  0
SPLINE
  5
3A0
100
AcDbEntity
  8
0
100
AcDbSpline
 62
7
  6
CONTINUOUS
 70
0
 71
3
 72
11
 73
7
 74
0
 42
0.0000001
 43
0.0000001
 44
0.0000000001
 40
0.0
 40
0.0
 40
0.0
 40
0.0
 40
0.2421288363
 40
0.4846138334
 40
0.7352265513
 40
1.0
 40
1.0
 40
1.0
 40
1.0
 10
72.1495312555
 20
220.6222482601
 30
0.0
 10
72.1509493289
 20
220.6564764871
 30
0.0
 10
72.1606626518
 20
220.724936789
 30
0.0
 10
72.1969081025
 20
220.8232281787
 30
0.0
 10
72.2538730974
 20
220.9148458044
 30
0.0
 10
72.3032999022
 20
220.969026279
 30
0.0
 10
72.3306365935
 20
220.994640073
 30
0.0
  0
SPLINE
  5
3A1
100
AcDbEntity
  8
0
100
AcDbSpline
 62
7
  6
CONTINUOUS
 70
0
 71
3
 72
13
 73
9
 74
0
 42
0.0000001
 43
0.0000001
 44
0.0000000001
 40
0.0
 40
0.0
 40
0.0
 40
0.0
 40
0.2632056492
 40
0.515396999
 40
0.6383451757
 40
0.7597514605
 40
0.8801268651
 40
1.0
 40
1.0
 40
1.0
 40
1.0
 10
0.5093903979
 20
235.4478710003
 30
0.0
 10
0.7691621667
 20
235.3655571196
 30
0.0
 10
1.2880915959
 20
235.2344614118
 30
0.0
 10
1.9469925033
 20
235.1592351842
 30
0.0
 10
2.4614817572
 20
235.1571334807
 30
0.0
 10
2.8385297265
 20
235.1836853339
 30
0.0
 10
3.2092999625
 20
235.2383104981
 30
0.0
 10
3.4521442256
 20
235.2934555092
 30
0.0
 10
3.5720150286
 20
235.3256030076
 30
0.0
  0
SPLINE
  5
3A2
100
AcDbEntity
  8
0
100
AcDbSpline
 62
7
  6
CONTINUOUS
 70
0
 71
3
 72
14
 73
10
 74
0
 42
0.0000001
 43
0.0000001
 44
0.0000000001
 40
0.0
 40
0.0
 40
0.0
 40
0.0
 40
0.1196540831
 40
0.2398561861
 40
0.3611099474
 40
0.4839364291
 40
0.6088363538
 40
0.7362676384
 40
1.0
 40
1.0
 40
1.0
 40
1.0
 10
7.6614206371
 20
236.5982303685
 30
0.0
 10
7.883171769
 20
236.6576528066
 30
0.0
 10
8.3325890392
 20
236.7592737811
 30
0.0
 10
9.0189411771
 20
236.8586951712
 30
0.0
 10
9.717039273
 20
236.9049913219
 30
0.0
 10
10.4255992551
 20
236.8981641655
 30
0.0
 10
11.1435669247
 20
236.8382370414
 30
0.0
 10
12.1225489112
 20
236.685982511
 30
0.0
 10
12.8510685848
 20
236.4943268163
 30
0.0
 10
13.33182912
 20
236.336476778
 30
0.0
  0
LINE
  5
3A3
100
AcDbEntity
  8
0
100
AcDbLine
 62
7
  6
CONTINUOUS
 10
72.3306281677
 20
220.9946436964
 11
72.3386029063
 21
221.0020209462
  0
LINE
  5
3A4
100
AcDbEntity
  8
0
100
AcDbLine
 62
7
  6
CONTINUOUS
 10
44.2964883558
 20
213.4792916077
 11
44.2732573979
 21
213.4794315745
  0
SPLINE
  5
3A5
100
AcDbEntity
  8
0
100
AcDbSpline
 62
7
  6
CONTINUOUS
 70
0
 71
3
 72
23
 73
19
 74
0
 42
0.0000001
 43
0.0000001
 44
0.0000000001
 40
0.0
 40
0.0
 40
0.0
 40
0.0
 40
0.0448336279
 40
0.0903215431
 40
0.1370739449
 40
0.1856341733
 40
0.2364671388
 40
0.2899439795
 40
0.3463525498
 40
0.4058986826
 40
0.4687157033
 40
0.5348772213
 40
0.6043927968
 40
0.6772331116
 40
0.7533348132
 40
0.8326073299
 40
0.9149016877
 40
1.0
 40
1.0
 40
1.0
 40
1.0
 10
75.2541301796
 20
227.6260844456
 30
0.0
 10
75.2417268058
 20
227.3397109263
 30
0.0
 10
75.1775394987
 20
226.7637458838
 30
0.0
 10
74.9647394459
 20
225.9111346955
 30
0.0
 10
74.6362876295
 20
225.0704867372
 30
0.0
 10
74.1941088783
 20
224.2450517936
 30
0.0
 10
73.6399919234
 20
223.437783501
 30
0.0
 10
72.9764819483
 20
222.6511961419
 30
0.0
 10
72.2059732582
 20
221.8879417522
 30
0.0
 10
71.3313328706
 20
221.1504573972
 30
0.0
 10
70.3556859459
 20
220.4411118163
 30
0.0
 10
69.2824011914
 20
219.7624310683
 30
0.0
 10
68.1153897556
 20
219.1165237386
 30
0.0
 10
66.8586350721
 20
218.5057775294
 30
0.0
 10
65.5164681796
 20
217.9321664198
 30
0.0
 10
64.0935139163
 20
217.3977655125
 30
0.0
 10
62.5951589879
 20
216.9045577805
 30
0.0
 10
61.5662445893
 20
216.6090565986
 30
0.0
 10
61.0407247383
 20
216.4681881213
 30
0.0
  0
SPLINE
  5
3A6
100
AcDbEntity
  8
0
100
AcDbSpline
 62
7
  6
CONTINUOUS
 70
0
 71
3
 72
15
 73
11
 74
0
 42
0.0000001
 43
0.0000001
 44
0.0000000001
 40
0.0
 40
0.0
 40
0.0
 40
0.0
 40
0.1355057579
 40
0.2706370792
 40
0.4036005519
 40
0.5330885818
 40
0.6580640153
 40
0.7778081642
 40
0.8918664959
 40
1.0
 40
1.0
 40
1.0
 40
1.0
 10
44.2964908092
 20
213.4792894958
 30
0.0
 10
44.3822333287
 20
213.4783782382
 30
0.0
 10
44.5534801928
 20
213.4698070462
 30
0.0
 10
44.8070600999
 20
213.4373907844
 30
0.0
 10
45.0535568085
 20
213.3856337678
 30
0.0
 10
45.2886871925
 20
213.3151081345
 30
0.0
 10
45.5086007263
 20
213.2263219379
 30
0.0
 10
45.7098411596
 20
213.1202555702
 30
0.0
 10
45.8889306401
 20
212.9979728795
 30
0.0
 10
45.9945592812
 20
212.9044145908
 30
0.0
 10
46.042337911
 20
212.8554312655
 30
0.0
  0
SPLINE
  5
3A7
100
AcDbEntity
  8
0
100
AcDbSpline
 62
7
  6
CONTINUOUS
 70
0
 71
3
 72
16
 73
12
 74
0
 42
0.0000001
 43
0.0000001
 44
0.0000000001
 40
0.0
 40
0.0
 40
0.0
 40
0.0
 40
0.1330955506
 40
0.2633372374
 40
0.3908137628
 40
0.5158354455
 40
0.6387934866
 40
0.6996526293
 40
0.7601643255
 40
0.8803687356
 40
1.0
 40
1.0
 40
1.0
 40
1.0
 10
24.0055927942
 20
172.1693184075
 30
0.0
 10
23.4968424922
 20
172.0329450997
 30
0.0
 10
22.4783836811
 20
171.8050523742
 30
0.0
 10
20.9432816222
 20
171.601000742
 30
0.0
 10
19.4275547627
 20
171.5405673514
 30
0.0
 10
17.9417678585
 20
171.6240549003
 30
0.0
 10
16.7321231333
 20
171.8140621567
 30
0.0
 10
15.7909689539
 20
172.037364642
 30
0.0
 10
14.873150246
 20
172.3062364063
 30
0.0
 10
13.7600833261
 20
172.7296576558
 30
0.0
 10
12.912109633
 20
173.1606568969
 30
0.0
 10
12.5021567549
 20
173.397452923
 30
0.0
  0
SPLINE
  5
3A8
100
AcDbEntity
  8
0
100
AcDbSpline
 62
7
  6
CONTINUOUS
 70
0
 71
3
 72
11
 73
7
 74
0
 42
0.0000001
 43
0.0000001
 44
0.0000000001
 40
0.0
 40
0.0
 40
0.0
 40
0.0
 40
0.2356879286
 40
0.4818605091
 40
0.7372668671
 40
1.0
 40
1.0
 40
1.0
 40
1.0
 10
13.6750139263
 20
197.8995231191
 30
0.0
 10
13.3035285376
 20
197.7999444239
 30
0.0
 10
12.5607640696
 20
197.5294438197
 30
0.0
 10
11.5042619228
 20
196.9451236508
 30
0.0
 10
10.507378199
 20
196.1891152573
 30
0.0
 10
9.9061934599
 20
195.5905522329
 30
0.0
 10
9.6222289513
 20
195.2693416761
 30
0.0
  0
SPLINE
  5
3A9
100
AcDbEntity
  8
0
100
AcDbSpline
 62
7
  6
CONTINUOUS
 70
0
 71
3
 72
11
 73
7
 74
0
 42
0.0000001
 43
0.0000001
 44
0.0000000001
 40
0.0
 40
0.0
 40
0.0
 40
0.0
 40
0.2490376828
 40
0.4998711908
 40
0.750768027
 40
1.0
 40
1.0
 40
1.0
 40
1.0
 10
9.6222289513
 20
195.2693416761
 30
0.0
 10
9.3978523577
 20
195.0155348503
 30
0.0
 10
8.9727894116
 20
194.4831137241
 30
0.0
 10
8.4158817486
 20
193.6251946307
 30
0.0
 10
7.9445654916
 20
192.7171404581
 30
0.0
 10
7.6910921177
 20
192.0843879165
 30
0.0
 10
7.5809655085
 20
191.7637416506
 30
0.0
  0
SPLINE
  5
3AA
100
AcDbEntity
  8
0
100
AcDbSpline
 62
7
  6
CONTINUOUS
 70
0
 71
3
 72
21
 73
17
 74
0
 42
0.0000001
 43
0.0000001
 44
0.0000000001
 40
0.0
 40
0.0
 40
0.0
 40
0.0
 40
0.1414684336
 40
0.2790773167
 40
0.3461257814
 40
0.4118368491
 40
0.4761478898
 40
0.5390256913
 40
0.6004811085
 40
0.6605606577
 40
0.7193554434
 40
0.7769986243
 40
0.8336612546
 40
0.8895536819
 40
0.9449124086
 40
1.0
 40
1.0
 40
1.0
 40
1.0
 10
7.5809655085
 20
191.7637416506
 30
0.0
 10
7.4415818038
 20
191.3579099917
 30
0.0
 10
7.2171837536
 20
190.5388482604
 30
0.0
 10
7.0771684957
 20
189.494764338
 30
0.0
 10
7.0565222192
 20
188.6742959059
 30
0.0
 10
7.0861654498
 20
188.0766864669
 30
0.0
 10
7.1603983915
 20
187.4956966246
 30
0.0
 10
7.2789925222
 20
186.9352516778
 30
0.0
 10
7.4410109753
 20
186.3991360435
 30
0.0
 10
7.6454762869
 20
185.8909960368
 30
0.0
 10
7.8911035642
 20
185.4143457661
 30
0.0
 10
8.1761222267
 20
184.9723687823
 30
0.0
 10
8.4988500182
 20
184.5682816869
 30
0.0
 10
8.8568967277
 20
184.204720433
 30
0.0
 10
9.2479221163
 20
183.8844174354
 30
0.0
 10
9.5291394994
 20
183.7009367579
 30
0.0
 10
9.6738246579
 20
183.6173567367
 30
0.0
  0
SPLINE
  5
3AB
100
AcDbEntity
  8
0
100
AcDbSpline
 62
7
  6
CONTINUOUS
 70
0
 71
3
 72
11
 73
7
 74
0
 42
0.0000001
 43
0.0000001
 44
0.0000000001
 40
0.0
 40
0.0
 40
0.0
 40
0.0
 40
0.2356879286
 40
0.4818605091
 40
0.7372668671
 40
1.0
 40
1.0
 40
1.0
 40
1.0
 10
24.0055927942
 20
212.1603740918
 30
0.0
 10
23.6341074054
 20
212.0607953966
 30
0.0
 10
22.8913429374
 20
211.7902947924
 30
0.0
 10
21.8348407906
 20
211.2059746234
 30
0.0
 10
20.8379570668
 20
210.4499662299
 30
0.0
 10
20.2367723278
 20
209.8514032055
 30
0.0
 10
19.9528078191
 20
209.5301926487
 30
0.0
  0
SPLINE
  5
3AC
100
AcDbEntity
  8
0
100
AcDbSpline
 62
7
  6
CONTINUOUS
 70
0
 71
3
 72
11
 73
7
 74
0
 42
0.0000001
 43
0.0000001
 44
0.0000000001
 40
0.0
 40
0.0
 40
0.0
 40
0.0
 40
0.2490376828
 40
0.4998711908
 40
0.750768027
 40
1.0
 40
1.0
 40
1.0
 40
1.0
 10
19.9528078191
 20
209.5301926487
 30
0.0
 10
19.7284312255
 20
209.2763858229
 30
0.0
 10
19.3033682794
 20
208.7439646967
 30
0.0
 10
18.7464606165
 20
207.8860456033
 30
0.0
 10
18.2751443594
 20
206.9779914308
 30
0.0
 10
18.0216709855
 20
206.3452388892
 30
0.0
 10
17.9115443764
 20
206.0245926232
 30
0.0
  0
SPLINE
  5
3AD
100
AcDbEntity
  8
0
100
AcDbSpline
 62
7
  6
CONTINUOUS
 70
0
 71
3
 72
21
 73
17
 74
0
 42
0.0000001
 43
0.0000001
 44
0.0000000001
 40
0.0
 40
0.0
 40
0.0
 40
0.0
 40
0.1414684336
 40
0.2790773167
 40
0.3461257814
 40
0.4118368491
 40
0.4761478898
 40
0.5390256913
 40
0.6004811085
 40
0.6605606577
 40
0.7193554434
 40
0.7769986243
 40
0.8336612546
 40
0.8895536819
 40
0.9449124086
 40
1.0
 40
1.0
 40
1.0
 40
1.0
 10
17.9115443764
 20
206.0245926232
 30
0.0
 10
17.7721606716
 20
205.6187609644
 30
0.0
 10
17.5477626215
 20
204.7996992331
 30
0.0
 10
17.4077473635
 20
203.7556153107
 30
0.0
 10
17.387101087
 20
202.9351468786
 30
0.0
 10
17.4167443176
 20
202.3375374396
 30
0.0
 10
17.4909772594
 20
201.7565475972
 30
0.0
 10
17.6095713901
 20
201.1961026505
 30
0.0
 10
17.7715898431
 20
200.6599870161
 30
0.0
 10
17.9760551547
 20
200.1518470094
 30
0.0
 10
18.221682432
 20
199.6751967388
 30
0.0
 10
18.5067010945
 20
199.233219755
 30
0.0
 10
18.829428886
 20
198.8291326596
 30
0.0
 10
19.1874755955
 20
198.4655714057
 30
0.0
 10
19.5785009842
 20
198.145268408
 30
0.0
 10
19.8597183673
 20
197.9617877306
 30
0.0
 10
20.0044035257
 20
197.8782077093
 30
0.0
  0
SPLINE
  5
3AE
100
AcDbEntity
  8
0
100
AcDbSpline
 62
7
  6
CONTINUOUS
 70
0
 71
3
 72
11
 73
7
 74
0
 42
0.0000001
 43
0.0000001
 44
0.0000000001
 40
0.0
 40
0.0
 40
0.0
 40
0.0
 40
0.2356879286
 40
0.4818605091
 40
0.7372668671
 40
1.0
 40
1.0
 40
1.0
 40
1.0
 10
34.336171662
 20
203.4378597286
 30
0.0
 10
33.9646862732
 20
203.3382810334
 30
0.0
 10
33.2219218052
 20
203.0677804293
 30
0.0
 10
32.1654196584
 20
202.4834602603
 30
0.0
 10
31.1685359347
 20
201.7274518668
 30
0.0
 10
30.5673511956
 20
201.1288888424
 30
0.0
 10
30.283386687
 20
200.8076782856
 30
0.0
  0
SPLINE
  5
3AF
100
AcDbEntity
  8
0
100
AcDbSpline
 62
7
  6
CONTINUOUS
 70
0
 71
3
 72
11
 73
7
 74
0
 42
0.0000001
 43
0.0000001
 44
0.0000000001
 40
0.0
 40
0.0
 40
0.0
 40
0.0
 40
0.2490376828
 40
0.4998711908
 40
0.750768027
 40
1.0
 40
1.0
 40
1.0
 40
1.0
 10
30.283386687
 20
200.8076782856
 30
0.0
 10
30.0590100933
 20
200.5538714598
 30
0.0
 10
29.6339471473
 20
200.0214503336
 30
0.0
 10
29.0770394843
 20
199.1635312402
 30
0.0
 10
28.6057232273
 20
198.2554770676
 30
0.0
 10
28.3522498533
 20
197.6227245261
 30
0.0
 10
28.2421232442
 20
197.3020782601
 30
0.0
  0
SPLINE
  5
3B0
100
AcDbEntity
  8
0
100
AcDbSpline
 62
7
  6
CONTINUOUS
 70
0
 71
3
 72
21
 73
17
 74
0
 42
0.0000001
 43
0.0000001
 44
0.0000000001
 40
0.0
 40
0.0
 40
0.0
 40
0.0
 40
0.1414684336
 40
0.2790773167
 40
0.3461257814
 40
0.4118368491
 40
0.4761478898
 40
0.5390256913
 40
0.6004811085
 40
0.6605606577
 40
0.7193554434
 40
0.7769986243
 40
0.8336612546
 40
0.8895536819
 40
0.9449124086
 40
1.0
 40
1.0
 40
1.0
 40
1.0
 10
28.2421232442
 20
197.3020782601
 30
0.0
 10
28.1027395394
 20
196.8962466013
 30
0.0
 10
27.8783414893
 20
196.07718487
 30
0.0
 10
27.7383262313
 20
195.0331009475
 30
0.0
 10
27.7176799548
 20
194.2126325155
 30
0.0
 10
27.7473231855
 20
193.6150230765
 30
0.0
 10
27.8215561272
 20
193.0340332341
 30
0.0
 10
27.9401502579
 20
192.4735882874
 30
0.0
 10
28.102168711
 20
191.937472653
 30
0.0
 10
28.3066340226
 20
191.4293326463
 30
0.0
 10
28.5522612998
 20
190.9526823757
 30
0.0
 10
28.8372799623
 20
190.5107053919
 30
0.0
 10
29.1600077538
 20
190.1066182965
 30
0.0
 10
29.5180544634
 20
189.7430570426
 30
0.0
 10
29.909079852
 20
189.4227540449
 30
0.0
 10
30.1902972351
 20
189.2392733675
 30
0.0
 10
30.3349823935
 20
189.1556933462
 30
0.0
  0
SPLINE
  5
3B1
100
AcDbEntity
  8
0
100
AcDbSpline
 62
7
  6
CONTINUOUS
 70
0
 71
3
 72
14
 73
10
 74
0
 42
0.0000001
 43
0.0000001
 44
0.0000000001
 40
0.0
 40
0.0
 40
0.0
 40
0.0
 40
0.1196731367
 40
0.239913265
 40
0.3612595596
 40
0.4842358753
 40
0.6093202071
 40
0.7369179579
 40
1.0
 40
1.0
 40
1.0
 40
1.0
 10
25.2015398501
 20
186.5014607874
 30
0.0
 10
25.1186460429
 20
186.5493233254
 30
0.0
 10
24.94717569
 20
186.6364227506
 30
0.0
 10
24.6766491225
 20
186.7393963237
 30
0.0
 10
24.3942297441
 20
186.8140878964
 30
0.0
 10
24.1018494348
 20
186.8599847616
 30
0.0
 10
23.8013476046
 20
186.8769070761
 30
0.0
 10
23.388693588
 20
186.8603225718
 30
0.0
 10
23.0790940499
 20
186.8042404803
 30
0.0
 10
22.8758458128
 20
186.7497586761
 30
0.0
  0
SPLINE
  5
3B2
100
AcDbEntity
  8
0
100
AcDbSpline
 62
7
  6
CONTINUOUS
 70
0
 71
3
 72
14
 73
10
 74
0
 42
0.0000001
 43
0.0000001
 44
0.0000000001
 40
0.0
 40
0.0
 40
0.0
 40
0.0
 40
0.1196731055
 40
0.2399048393
 40
0.361246136
 40
0.4842301089
 40
0.6093371775
 40
0.7369594654
 40
1.0
 40
1.0
 40
1.0
 40
1.0
 10
33.0651109202
 20
201.0323487073
 30
0.0
 10
33.0000433115
 20
201.0699169209
 30
0.0
 10
32.8654686446
 20
201.1383091743
 30
0.0
 10
32.6531378399
 20
201.2191669738
 30
0.0
 10
32.4314486856
 20
201.2777585586
 30
0.0
 10
32.2019360145
 20
201.3138126721
 30
0.0
 10
31.9660219718
 20
201.3270865983
 30
0.0
 10
31.6421114471
 20
201.3140265366
 30
0.0
 10
31.3990994031
 20
201.2700428069
 30
0.0
 10
31.2395861952
 20
201.227284417
 30
0.0
  0
SPLINE
  5
3B3
100
AcDbEntity
  8
0
100
AcDbSpline
 62
7
  6
CONTINUOUS
 70
0
 71
3
 72
14
 73
10
 74
0
 42
0.0000001
 43
0.0000001
 44
0.0000000001
 40
0.0
 40
0.0
 40
0.0
 40
0.0
 40
0.1196666507
 40
0.239911446
 40
0.361271807
 40
0.4842494938
 40
0.6093142524
 40
0.7368751532
 40
1.0
 40
1.0
 40
1.0
 40
1.0
 10
38.3373609305
 20
203.0106722962
 30
0.0
 10
38.1947722001
 20
203.0930412775
 30
0.0
 10
37.8998046733
 20
203.2429675862
 30
0.0
 10
37.4343080815
 20
203.4199854927
 30
0.0
 10
36.9484134775
 20
203.5485323521
 30
0.0
 10
36.4453949372
 20
203.6275002041
 30
0.0
 10
35.9284792636
 20
203.6565776487
 30
0.0
 10
35.2185469976
 20
203.6281978777
 30
0.0
 10
34.6859036327
 20
203.5316073009
 30
0.0
 10
34.336171662
 20
203.4378597286
 30
0.0
  0
SPLINE
  5
3B4
100
AcDbEntity
  8
0
100
AcDbSpline
 62
7
  6
CONTINUOUS
 70
0
 71
3
 72
14
 73
10
 74
0
 42
0.0000001
 43
0.0000001
 44
0.0000000001
 40
0.0
 40
0.0
 40
0.0
 40
0.0
 40
0.1196731055
 40
0.2399048393
 40
0.361246136
 40
0.4842301089
 40
0.6093371775
 40
0.7369594654
 40
1.0
 40
1.0
 40
1.0
 40
1.0
 10
22.7345320523
 20
209.7548630704
 30
0.0
 10
22.6694644437
 20
209.7924312841
 30
0.0
 10
22.5348897767
 20
209.8608235374
 30
0.0
 10
22.3225589721
 20
209.9416813369
 30
0.0
 10
22.1008698178
 20
210.0002729218
 30
0.0
 10
21.8713571466
 20
210.0363270352
 30
0.0
 10
21.635443104
 20
210.0496009614
 30
0.0
 10
21.3115325793
 20
210.0365408997
 30
0.0
 10
21.0685205353
 20
209.99255717
 30
0.0
 10
20.9090073273
 20
209.9497987801
 30
0.0
  0
SPLINE
  5
3B5
100
AcDbEntity
  8
0
100
AcDbSpline
 62
7
  6
CONTINUOUS
 70
0
 71
3
 72
14
 73
10
 74
0
 42
0.0000001
 43
0.0000001
 44
0.0000000001
 40
0.0
 40
0.0
 40
0.0
 40
0.0
 40
0.1196666507
 40
0.239911446
 40
0.361271807
 40
0.4842494938
 40
0.6093142524
 40
0.7368751532
 40
1.0
 40
1.0
 40
1.0
 40
1.0
 10
28.0067820626
 20
211.7331866593
 30
0.0
 10
27.8641933323
 20
211.8155556406
 30
0.0
 10
27.5692258054
 20
211.9654819493
 30
0.0
 10
27.1037292137
 20
212.1424998558
 30
0.0
 10
26.6178346096
 20
212.2710467152
 30
0.0
 10
26.1148160694
 20
212.3500145672
 30
0.0
 10
25.5979003958
 20
212.3790920118
 30
0.0
 10
24.8879681298
 20
212.3507122408
 30
0.0
 10
24.3553247649
 20
212.254121664
 30
0.0
 10
24.0055927942
 20
212.1603740918
 30
0.0
  0
SPLINE
  5
3B6
100
AcDbEntity
  8
0
100
AcDbSpline
 62
7
  6
CONTINUOUS
 70
0
 71
3
 72
14
 73
10
 74
0
 42
0.0000001
 43
0.0000001
 44
0.0000000001
 40
0.0
 40
0.0
 40
0.0
 40
0.0
 40
0.1196731055
 40
0.2399048393
 40
0.361246136
 40
0.4842301089
 40
0.6093371775
 40
0.7369594654
 40
1.0
 40
1.0
 40
1.0
 40
1.0
 10
12.4039531845
 20
195.4940120978
 30
0.0
 10
12.3388855759
 20
195.5315803114
 30
0.0
 10
12.2043109089
 20
195.5999725647
 30
0.0
 10
11.9919801043
 20
195.6808303642
 30
0.0
 10
11.77029095
 20
195.7394219491
 30
0.0
 10
11.5407782788
 20
195.7754760625
 30
0.0
 10
11.3048642361
 20
195.7887499887
 30
0.0
 10
10.9809537115
 20
195.775689927
 30
0.0
 10
10.7379416674
 20
195.7317061974
 30
0.0
 10
10.5784284595
 20
195.6889478074
 30
0.0
  0
SPLINE
  5
3B7
100
AcDbEntity
  8
0
100
AcDbSpline
 62
7
  6
CONTINUOUS
 70
0
 71
3
 72
14
 73
10
 74
0
 42
0.0000001
 43
0.0000001
 44
0.0000000001
 40
0.0
 40
0.0
 40
0.0
 40
0.0
 40
0.1196666507
 40
0.239911446
 40
0.361271807
 40
0.4842494938
 40
0.6093142524
 40
0.7368751532
 40
1.0
 40
1.0
 40
1.0
 40
1.0
 10
17.6762031948
 20
197.4723356866
 30
0.0
 10
17.5336144645
 20
197.5547046679
 30
0.0
 10
17.2386469376
 20
197.7046309767
 30
0.0
 10
16.7731503459
 20
197.8816488831
 30
0.0
 10
16.2872557418
 20
198.0101957425
 30
0.0
 10
15.7842372016
 20
198.0891635946
 30
0.0
 10
15.2673215279
 20
198.1182410392
 30
0.0
 10
14.557389262
 20
198.0898612682
 30
0.0
 10
14.024745897
 20
197.9932706913
 30
0.0
 10
13.6750139263
 20
197.8995231191
 30
0.0
  0
SPLINE
  5
3B8
100
AcDbEntity
  8
0
100
AcDbSpline
 62
7
  6
CONTINUOUS
 70
0
 71
3
 72
27
 73
23
 74
0
 42
0.0000001
 43
0.0000001
 44
0.0000000001
 40
0.0
 40
0.0
 40
0.0
 40
0.0
 40
0.0265246231
 40
0.0534432127
 40
0.0808128165
 40
0.1086783081
 40
0.1659827594
 40
0.1954925825
 40
0.2255638314
 40
0.2873061813
 40
0.3510424804
 40
0.4164431386
 40
0.4830798369
 40
0.5504551475
 40
0.6180318631
 40
0.6852622436
 40
0.7516164366
 40
0.8166132646
 40
0.8798463131
 40
0.9107175526
 40
0.9410528304
 40
1.0
 40
1.0
 40
1.0
 40
1.0
 10
39.1335888374
 20
210.1717192108
 30
0.0
 10
39.4015543257
 20
209.8517125702
 30
0.0
 10
39.913525628
 20
209.183002231
 30
0.0
 10
40.599345833
 20
208.1105073084
 30
0.0
 10
41.204934935
 20
206.966703231
 30
0.0
 10
41.9081153258
 20
205.3398270818
 30
0.0
 10
42.4308318143
 20
203.6045056434
 30
0.0
 10
42.7743214205
 20
201.7965482316
 30
0.0
 10
43.0029806679
 20
199.8998212024
 30
0.0
 10
43.0546370892
 20
197.4455285032
 30
0.0
 10
42.7515541311
 20
194.4504181517
 30
0.0
 10
42.0904239266
 20
191.4348627271
 30
0.0
 10
41.0841655402
 20
188.4562307394
 30
0.0
 10
39.7520862564
 20
185.5708003285
 30
0.0
 10
38.1195405883
 20
182.8332708316
 30
0.0
 10
36.217494841
 20
180.2955959506
 30
0.0
 10
34.0818493028
 20
178.0059091905
 30
0.0
 10
31.7531048382
 20
176.0080160775
 30
0.0
 10
29.6706942388
 20
174.6063734595
 30
0.0
 10
27.9497967737
 20
173.6694543421
 30
0.0
 10
26.2338413155
 20
172.8735859567
 30
0.0
 10
24.9015395535
 20
172.4094818485
 30
0.0
 10
24.0055927942
 20
172.1693184075
 30
0.0
  0
SPLINE
  5
3B9
100
AcDbEntity
  8
0
100
AcDbSpline
 62
7
  6
CONTINUOUS
 70
0
 71
3
 72
9
 73
5
 74
0
 42
0.0000001
 43
0.0000001
 44
0.0000000001
 40
0.0
 40
0.0
 40
0.0
 40
0.0
 40
0.4892845189
 40
1.0
 40
1.0
 40
1.0
 40
1.0
 10
10.5784284595
 20
195.6889478074
 30
0.0
 10
10.4150262296
 20
195.6451469438
 30
0.0
 10
10.0882529303
 20
195.5272099244
 30
0.0
 10
9.7831441135
 20
195.361767318
 30
0.0
 10
9.6340640451
 20
195.2671317803
 30
0.0
  0
SPLINE
  5
3BA
100
AcDbEntity
  8
0
100
AcDbSpline
 62
7
  6
CONTINUOUS
 70
0
 71
3
 72
17
 73
13
 74
0
 42
0.0000001
 43
0.0000001
 44
0.0000000001
 40
0.0
 40
0.0
 40
0.0
 40
0.0
 40
0.1388267339
 40
0.2733697813
 40
0.4034509365
 40
0.5291473351
 40
0.6508386239
 40
0.7691832249
 40
0.827432159
 40
0.885217601
 40
0.9426875675
 40
1.0
 40
1.0
 40
1.0
 40
1.0
 10
7.5692337577
 20
191.7601895417
 30
0.0
 10
7.5607154649
 20
191.6218080612
 30
0.0
 10
7.5583486631
 20
191.3481553978
 30
0.0
 10
7.6008808986
 20
190.9465874494
 30
0.0
 10
7.688961861
 20
190.5657956925
 30
0.0
 10
7.8214635214
 20
190.2116443491
 30
0.0
 10
7.9964453469
 20
189.8896330304
 30
0.0
 10
8.176736658
 20
189.6508904404
 30
0.0
 10
8.3389464286
 20
189.4818560485
 30
0.0
 10
8.4685866431
 20
189.3665951313
 30
0.0
 10
8.6063479106
 20
189.2627454207
 30
0.0
 10
8.7033357203
 20
189.2013600213
 30
0.0
 10
8.7529037345
 20
189.172740839
 30
0.0
  0
SPLINE
  5
3BB
100
AcDbEntity
  8
0
100
AcDbSpline
 62
7
  6
CONTINUOUS
 70
0
 71
3
 72
9
 73
5
 74
0
 42
0.0000001
 43
0.0000001
 44
0.0000000001
 40
0.0
 40
0.0
 40
0.0
 40
0.0
 40
0.4892845189
 40
1.0
 40
1.0
 40
1.0
 40
1.0
 10
20.9090073273
 20
209.9497987801
 30
0.0
 10
20.7456050974
 20
209.9059979165
 30
0.0
 10
20.4188317981
 20
209.788060897
 30
0.0
 10
20.1137229813
 20
209.6226182907
 30
0.0
 10
19.964642913
 20
209.527982753
 30
0.0
  0
SPLINE
  5
3BC
100
AcDbEntity
  8
0
100
AcDbSpline
 62
7
  6
CONTINUOUS
 70
0
 71
3
 72
17
 73
13
 74
0
 42
0.0000001
 43
0.0000001
 44
0.0000000001
 40
0.0
 40
0.0
 40
0.0
 40
0.0
 40
0.1388267339
 40
0.2733697813
 40
0.4034509365
 40
0.5291473351
 40
0.6508386239
 40
0.7691832249
 40
0.827432159
 40
0.885217601
 40
0.9426875675
 40
1.0
 40
1.0
 40
1.0
 40
1.0
 10
17.8998126255
 20
206.0210405144
 30
0.0
 10
17.8912943328
 20
205.8826590339
 30
0.0
 10
17.8889275309
 20
205.6090063705
 30
0.0
 10
17.9314597665
 20
205.2074384221
 30
0.0
 10
18.0195407288
 20
204.8266466651
 30
0.0
 10
18.1520423892
 20
204.4724953218
 30
0.0
 10
18.3270242147
 20
204.150484003
 30
0.0
 10
18.5073155259
 20
203.9117414131
 30
0.0
 10
18.6695252964
 20
203.7427070212
 30
0.0
 10
18.7991655109
 20
203.6274461039
 30
0.0
 10
18.9369267784
 20
203.5235963934
 30
0.0
 10
19.0339145881
 20
203.4622109939
 30
0.0
 10
19.0834826023
 20
203.4335918117
 30
0.0
  0
SPLINE
  5
3BD
100
AcDbEntity
  8
0
100
AcDbSpline
 62
7
  6
CONTINUOUS
 70
0
 71
3
 72
9
 73
5
 74
0
 42
0.0000001
 43
0.0000001
 44
0.0000000001
 40
0.0
 40
0.0
 40
0.0
 40
0.0
 40
0.4892845189
 40
1.0
 40
1.0
 40
1.0
 40
1.0
 10
31.2395861952
 20
201.227284417
 30
0.0
 10
31.0761839653
 20
201.1834835534
 30
0.0
 10
30.749410666
 20
201.0655465339
 30
0.0
 10
30.4443018492
 20
200.9001039275
 30
0.0
 10
30.2952217808
 20
200.8054683898
 30
0.0
  0
SPLINE
  5
3BE
100
AcDbEntity
  8
0
100
AcDbSpline
 62
7
  6
CONTINUOUS
 70
0
 71
3
 72
17
 73
13
 74
0
 42
0.0000001
 43
0.0000001
 44
0.0000000001
 40
0.0
 40
0.0
 40
0.0
 40
0.0
 40
0.1388267339
 40
0.2733697813
 40
0.4034509365
 40
0.5291473351
 40
0.6508386239
 40
0.7691832249
 40
0.827432159
 40
0.885217601
 40
0.9426875675
 40
1.0
 40
1.0
 40
1.0
 40
1.0
 10
28.2303914934
 20
197.2985261513
 30
0.0
 10
28.2218732006
 20
197.1601446708
 30
0.0
 10
28.2195063987
 20
196.8864920074
 30
0.0
 10
28.2620386343
 20
196.484924059
 30
0.0
 10
28.3501195966
 20
196.104132302
 30
0.0
 10
28.482621257
 20
195.7499809586
 30
0.0
 10
28.6576030826
 20
195.4279696399
 30
0.0
 10
28.8378943937
 20
195.18922705
 30
0.0
 10
29.0001041643
 20
195.0201926581
 30
0.0
 10
29.1297443787
 20
194.9049317408
 30
0.0
 10
29.2675056462
 20
194.8010820303
 30
0.0
 10
29.3644934559
 20
194.7396966308
 30
0.0
 10
29.4140614701
 20
194.7110774486
 30
0.0
  0
SPLINE
  5
3BF
100
AcDbEntity
  8
0
100
AcDbSpline
 62
7
  6
CONTINUOUS
 70
0
 71
3
 72
18
 73
14
 74
0
 42
0.0000001
 43
0.0000001
 44
0.0000000001
 40
0.0
 40
0.0
 40
0.0
 40
0.0
 40
0.1146769824
 40
0.2353004408
 40
0.3608628063
 40
0.4898297561
 40
0.555031312
 40
0.6203356699
 40
0.6854740723
 40
0.7501767937
 40
0.8772620135
 40
0.9393151177
 40
1.0
 40
1.0
 40
1.0
 40
1.0
 10
22.8758458128
 20
186.7497586761
 30
0.0
 10
22.6178443161
 20
186.6805999605
 30
0.0
 10
22.1023131271
 20
186.4829118152
 30
0.0
 10
21.3817188104
 20
186.0425552484
 30
0.0
 10
20.7188202306
 20
185.4675194202
 30
0.0
 10
20.2364154218
 20
184.8961013388
 30
0.0
 10
19.9002303528
 20
184.393311667
 30
0.0
 10
19.6757060349
 20
183.9962606589
 30
0.0
 10
19.4818018587
 20
183.5846529454
 30
0.0
 10
19.2680489352
 20
183.0252652454
 30
0.0
 10
19.1204078212
 20
182.4496878585
 30
0.0
 10
19.0457111834
 20
181.8721103764
 30
0.0
 10
19.0328704739
 20
181.5860716046
 30
0.0
 10
19.0328704739
 20
181.4447221143
 30
0.0
  0
SPLINE
  5
3C0
100
AcDbEntity
  8
0
100
AcDbSpline
 62
7
  6
CONTINUOUS
 70
0
 71
3
 72
15
 73
11
 74
0
 42
0.0000001
 43
0.0000001
 44
0.0000000001
 40
0.0
 40
0.0
 40
0.0
 40
0.0
 40
0.1377706741
 40
0.2715922931
 40
0.4011469167
 40
0.5266418378
 40
0.6485391341
 40
0.7674753238
 40
0.8842882781
 40
1.0
 40
1.0
 40
1.0
 40
1.0
 10
19.0328704739
 20
181.4447221143
 30
0.0
 10
19.0328704739
 20
181.2832260217
 30
0.0
 10
19.0492040472
 20
180.9645810543
 30
0.0
 10
19.1243135971
 20
180.4994185923
 30
0.0
 10
19.2493586726
 20
180.0599058167
 30
0.0
 10
19.4225022077
 20
179.6520603253
 30
0.0
 10
19.6418019618
 20
179.2813294558
 30
0.0
 10
19.9042867272
 20
178.952565728
 30
0.0
 10
20.2067085894
 20
178.6706642048
 30
0.0
 10
20.4326878103
 20
178.5160678626
 30
0.0
 10
20.5501517754
 20
178.4482446599
 30
0.0
  0
SPLINE
  5
3C1
100
AcDbEntity
  8
0
100
AcDbSpline
 62
7
  6
CONTINUOUS
 70
0
 71
3
 72
29
 73
25
 74
0
 42
0.0000001
 43
0.0000001
 44
0.0000000001
 40
0.0
 40
0.0
 40
0.0
 40
0.0
 40
0.0601996645
 40
0.1229467885
 40
0.1879606463
 40
0.254838105
 40
0.3915667146
 40
0.4603112714
 40
0.5283001493
 40
0.594890731
 40
0.6275036789
 40
0.6595745009
 40
0.6910572493
 40
0.7219206578
 40
0.7521448132
 40
0.7817251927
 40
0.8106740988
 40
0.8390180692
 40
0.8668032278
 40
0.894090458
 40
0.9209569949
 40
0.9474944579
 40
0.9738047493
 40
1.0
 40
1.0
 40
1.0
 40
1.0
 10
13.6750139263
 20
183.1901693042
 30
0.0
 10
14.0252923334
 20
183.2840633517
 30
0.0
 10
14.7257850318
 20
183.5352662065
 30
0.0
 10
15.7267559942
 20
184.0720378142
 30
0.0
 10
16.6777038929
 20
184.7641717992
 30
0.0
 10
17.8561237904
 20
185.8779464159
 30
0.0
 10
18.8336276486
 20
187.2189241474
 30
0.0
 10
19.5580738911
 20
188.7015236522
 30
0.0
 10
19.9622422378
 20
189.861036391
 30
0.0
 10
20.1750243212
 20
190.8484557767
 30
0.0
 10
20.2651807949
 20
191.6345985619
 30
0.0
 10
20.2925904804
 20
192.2137247907
 30
0.0
 10
20.2798633787
 20
192.7828258552
 30
0.0
 10
20.2272113661
 20
193.3384865991
 30
0.0
 10
20.1348936672
 20
193.8773619052
 30
0.0
 10
20.0033344713
 20
194.3961671918
 30
0.0
 10
19.8334924758
 20
194.8918143584
 30
0.0
 10
19.6261382914
 20
195.3612240158
 30
0.0
 10
19.3826406697
 20
195.8015790675
 30
0.0
 10
19.1044088779
 20
196.2101849228
 30
0.0
 10
18.7930096445
 20
196.5844239867
 30
0.0
 10
18.4504864285
 20
196.9221342559
 30
0.0
 10
18.0788097032
 20
197.2210130512
 30
0.0
 10
17.8128440106
 20
197.3934026267
 30
0.0
 10
17.6762031948
 20
197.4723356866
 30
0.0
  0
SPLINE
  5
3C2
100
AcDbEntity
  8
0
100
AcDbSpline
 62
7
  6
CONTINUOUS
 70
0
 71
3
 72
14
 73
10
 74
0
 42
0.0000001
 43
0.0000001
 44
0.0000000001
 40
0.0
 40
0.0
 40
0.0
 40
0.0
 40
0.1196731367
 40
0.239913265
 40
0.3612595596
 40
0.4842358753
 40
0.6093202071
 40
0.7369179579
 40
1.0
 40
1.0
 40
1.0
 40
1.0
 10
20.5501517754
 20
178.4482446599
 30
0.0
 10
20.6330455825
 20
178.400382122
 30
0.0
 10
20.8045159352
 20
178.3132826969
 30
0.0
 10
21.0750425024
 20
178.2103091239
 30
0.0
 10
21.3574618803
 20
178.1356175512
 30
0.0
 10
21.6498421893
 20
178.0897206859
 30
0.0
 10
21.950344019
 20
178.0727983712
 30
0.0
 10
22.3629980351
 20
178.0893828752
 30
0.0
 10
22.6725975728
 20
178.1454649663
 30
0.0
 10
22.8758458097
 20
178.1999467704
 30
0.0
  0
SPLINE
  5
3C3
100
AcDbEntity
  8
0
100
AcDbSpline
 62
7
  6
CONTINUOUS
 70
0
 71
3
 72
29
 73
25
 74
0
 42
0.0000001
 43
0.0000001
 44
0.0000000001
 40
0.0
 40
0.0
 40
0.0
 40
0.0
 40
0.0601996645
 40
0.1229467885
 40
0.1879606463
 40
0.254838105
 40
0.3915667146
 40
0.4603112714
 40
0.5283001493
 40
0.594890731
 40
0.6275036789
 40
0.6595745009
 40
0.6910572493
 40
0.7219206578
 40
0.7521448132
 40
0.7817251927
 40
0.8106740988
 40
0.8390180692
 40
0.8668032278
 40
0.894090458
 40
0.9209569949
 40
0.9474944579
 40
0.9738047493
 40
1.0
 40
1.0
 40
1.0
 40
1.0
 10
34.336171662
 20
188.7285059137
 30
0.0
 10
34.6864500691
 20
188.8223999612
 30
0.0
 10
35.3869427675
 20
189.0736028161
 30
0.0
 10
36.3879137298
 20
189.6103744237
 30
0.0
 10
37.3388616285
 20
190.3025084088
 30
0.0
 10
38.517281526
 20
191.4162830255
 30
0.0
 10
39.4947853843
 20
192.7572607569
 30
0.0
 10
40.2192316268
 20
194.2398602618
 30
0.0
 10
40.6233999735
 20
195.3993730005
 30
0.0
 10
40.8361820569
 20
196.3867923863
 30
0.0
 10
40.9263385306
 20
197.1729351715
 30
0.0
 10
40.953748216
 20
197.7520614003
 30
0.0
 10
40.9410211144
 20
198.3211624647
 30
0.0
 10
40.8883691017
 20
198.8768232086
 30
0.0
 10
40.7960514029
 20
199.4156985148
 30
0.0
 10
40.6644922069
 20
199.9345038013
 30
0.0
 10
40.4946502115
 20
200.4301509679
 30
0.0
 10
40.2872960271
 20
200.8995606254
 30
0.0
 10
40.0437984054
 20
201.339915677
 30
0.0
 10
39.7655666135
 20
201.7485215324
 30
0.0
 10
39.4541673801
 20
202.1227605962
 30
0.0
 10
39.1116441641
 20
202.4604708655
 30
0.0
 10
38.7399674389
 20
202.7593496608
 30
0.0
 10
38.4740017462
 20
202.9317392362
 30
0.0
 10
38.3373609305
 20
203.0106722962
 30
0.0
  0
SPLINE
  5
3C4
100
AcDbEntity
  8
0
100
AcDbSpline
 62
7
  6
CONTINUOUS
 70
0
 71
3
 72
22
 73
18
 74
0
 42
0.0000001
 43
0.0000001
 44
0.0000000001
 40
0.0
 40
0.0
 40
0.0
 40
0.0
 40
0.114640602
 40
0.1742903503
 40
0.2353137956
 40
0.2975898356
 40
0.3609337112
 40
0.4251295694
 40
0.4899401137
 40
0.5551142663
 40
0.6203902631
 40
0.6855029361
 40
0.7501863016
 40
0.81418828
 40
0.8773007103
 40
0.9393226291
 40
1.0
 40
1.0
 40
1.0
 40
1.0
 10
24.0055927942
 20
175.7026890608
 30
0.0
 10
24.3749631906
 20
175.8017008203
 30
0.0
 10
24.9222365879
 20
176.0115412626
 30
0.0
 10
25.6110182598
 20
176.389170542
 30
0.0
 10
26.1193358996
 20
176.7283858129
 30
0.0
 10
26.6070579596
 20
177.1164314398
 30
0.0
 10
27.0698846849
 20
177.5494990989
 30
0.0
 10
27.5031561813
 20
178.0236054196
 30
0.0
 10
27.9029292653
 20
178.534037512
 30
0.0
 10
28.2652150313
 20
179.0760519028
 30
0.0
 10
28.5867426645
 20
179.6443501795
 30
0.0
 10
28.8642158519
 20
180.2336051035
 30
0.0
 10
29.0952148959
 20
180.8380470401
 30
0.0
 10
29.2773301476
 20
181.4520308128
 30
0.0
 10
29.4089628799
 20
182.0697511687
 30
0.0
 10
29.4885710315
 20
182.6851052526
 30
0.0
 10
29.5069152975
 20
183.0945879478
 30
0.0
 10
29.5069152975
 20
183.2969915075
 30
0.0
  0
SPLINE
  5
3C5
100
AcDbEntity
  8
0
100
AcDbSpline
 62
7
  6
CONTINUOUS
 70
0
 71
3
 72
22
 73
18
 74
0
 42
0.0000001
 43
0.0000001
 44
0.0000000001
 40
0.0
 40
0.0
 40
0.0
 40
0.0
 40
0.0700230949
 40
0.1383422235
 40
0.2048174109
 40
0.2694897981
 40
0.3324866459
 40
0.3939887335
 40
0.4542410992
 40
0.5135645207
 40
0.5723290803
 40
0.6309386027
 40
0.6898049314
 40
0.7493183195
 40
0.8098372429
 40
0.8716870149
 40
1.0
 40
1.0
 40
1.0
 40
1.0
 10
29.5069152975
 20
183.2969915075
 30
0.0
 10
29.5069152975
 20
183.4946617616
 30
0.0
 10
29.4898093097
 20
183.8854394546
 30
0.0
 10
29.4113406708
 20
184.4591170034
 30
0.0
 10
29.2806105082
 20
185.0077954699
 30
0.0
 10
29.0990635334
 20
185.5259965459
 30
0.0
 10
28.868164131
 20
186.0087476341
 30
0.0
 10
28.5902602619
 20
186.451496818
 30
0.0
 10
28.2676718952
 20
186.8496681686
 30
0.0
 10
27.9037264419
 20
187.1994545783
 30
0.0
 10
27.5017640479
 20
187.4971329345
 30
0.0
 10
27.0659235245
 20
187.7399326331
 30
0.0
 10
26.6004106438
 20
187.9251519493
 30
0.0
 10
26.1100577744
 20
188.051327445
 30
0.0
 10
25.5994951099
 20
188.1170243538
 30
0.0
 10
24.8906474655
 20
188.1236738529
 30
0.0
 10
24.3554596994
 20
188.0357583782
 30
0.0
 10
24.0055927942
 20
187.9419746363
 30
0.0
  0
SPLINE
  5
3C6
100
AcDbEntity
  8
0
100
AcDbSpline
 62
7
  6
CONTINUOUS
 70
0
 71
3
 72
14
 73
10
 74
0
 42
0.0000001
 43
0.0000001
 44
0.0000000001
 40
0.0
 40
0.0
 40
0.0
 40
0.0
 40
0.1196731055
 40
0.2399048393
 40
0.361246136
 40
0.4842301089
 40
0.6093371775
 40
0.7369594654
 40
1.0
 40
1.0
 40
1.0
 40
1.0
 10
29.4140614701
 20
194.7110774486
 30
0.0
 10
29.4791290788
 20
194.673509235
 30
0.0
 10
29.6137037457
 20
194.6051169816
 30
0.0
 10
29.8260345504
 20
194.5242591821
 30
0.0
 10
30.0477237047
 20
194.4656675973
 30
0.0
 10
30.2772363758
 20
194.4296134838
 30
0.0
 10
30.5131504185
 20
194.4163395576
 30
0.0
 10
30.8370609432
 20
194.4293996193
 30
0.0
 10
31.0800729872
 20
194.473383349
 30
0.0
 10
31.2395861952
 20
194.5161417389
 30
0.0
  0
SPLINE
  5
3C7
100
AcDbEntity
  8
0
100
AcDbSpline
 62
7
  6
CONTINUOUS
 70
0
 71
3
 72
22
 73
18
 74
0
 42
0.0000001
 43
0.0000001
 44
0.0000000001
 40
0.0
 40
0.0
 40
0.0
 40
0.0
 40
0.114640602
 40
0.1742903503
 40
0.2353137956
 40
0.2975898356
 40
0.3609337112
 40
0.4251295694
 40
0.4899401137
 40
0.5551142663
 40
0.6203902631
 40
0.6855029361
 40
0.7501863016
 40
0.81418828
 40
0.8773007103
 40
0.9393226291
 40
1.0
 40
1.0
 40
1.0
 40
1.0
 10
24.0055927942
 20
187.9419746363
 30
0.0
 10
23.6362223977
 20
187.8429628766
 30
0.0
 10
23.0889490004
 20
187.6331224345
 30
0.0
 10
22.4001673285
 20
187.2554931551
 30
0.0
 10
21.8918496887
 20
186.9162778842
 30
0.0
 10
21.4041276287
 20
186.5282322572
 30
0.0
 10
20.9413009034
 20
186.0951645981
 30
0.0
 10
20.5080294071
 20
185.6210582774
 30
0.0
 10
20.108256323
 20
185.110626185
 30
0.0
 10
19.745970557
 20
184.5686117943
 30
0.0
 10
19.4244429239
 20
184.0003135175
 30
0.0
 10
19.1469697364
 20
183.4110585936
 30
0.0
 10
18.9159706924
 20
182.806616657
 30
0.0
 10
18.7338554408
 20
182.1926328842
 30
0.0
 10
18.6022227084
 20
181.5749125284
 30
0.0
 10
18.5226145568
 20
180.9595584444
 30
0.0
 10
18.5042702908
 20
180.5500757492
 30
0.0
 10
18.5042702908
 20
180.3476721895
 30
0.0
  0
SPLINE
  5
3C8
100
AcDbEntity
  8
0
100
AcDbSpline
 62
7
  6
CONTINUOUS
 70
0
 71
3
 72
28
 73
24
 74
0
 42
0.0000001
 43
0.0000001
 44
0.0000000001
 40
0.0
 40
0.0
 40
0.0
 40
0.0
 40
0.0266331869
 40
0.0536796733
 40
0.0811889055
 40
0.1092013455
 40
0.1668001536
 40
0.1964465399
 40
0.2266431448
 40
0.2885912287
 40
0.352460915
 40
0.3850283956
 40
0.4179421933
 40
0.4845579733
 40
0.5518450063
 40
0.5855886407
 40
0.6193021663
 40
0.7523140535
 40
0.7849203367
 40
0.8171329618
 40
0.8801696147
 40
0.9411968655
 40
1.0
 40
1.0
 40
1.0
 40
1.0
 10
36.6204044212
 20
203.5876707352
 30
0.0
 10
36.7086818944
 20
203.4738136061
 30
0.0
 10
36.8768703007
 20
203.2366086402
 30
0.0
 10
37.1007849666
 20
202.858269508
 30
0.0
 10
37.2972546331
 20
202.4566154642
 30
0.0
 10
37.5232041973
 20
201.887430983
 30
0.0
 10
37.6877219748
 20
201.2834210959
 30
0.0
 10
37.7913860128
 20
200.6563023519
 30
0.0
 10
37.8557716137
 20
200.0001872026
 30
0.0
 10
37.856997547
 20
199.1539357069
 30
0.0
 10
37.7562292227
 20
198.3010925781
 30
0.0
 10
37.615952062
 20
197.6152712143
 30
0.0
 10
37.4343631146
 20
196.9238266488
 30
0.0
 10
37.1342623191
 20
196.070861281
 30
0.0
 10
36.7445929753
 20
195.2500795906
 30
0.0
 10
36.3814714643
 20
194.6176753953
 30
0.0
 10
35.793478968
 20
193.7064508328
 30
0.0
 10
35.0903531851
 20
192.8746884344
 30
0.0
 10
34.2930867366
 20
192.1605037641
 30
0.0
 10
33.7525843258
 20
191.7284408275
 30
0.0
 10
33.0475281261
 20
191.2581092642
 30
0.0
 10
32.1614490339
 20
190.8128683976
 30
0.0
 10
31.5468314281
 20
190.5993949397
 30
0.0
 10
31.2395861952
 20
190.5170361705
 30
0.0
  0
SPLINE
  5
3C9
100
AcDbEntity
  8
0
100
AcDbSpline
 62
7
  6
CONTINUOUS
 70
0
 71
3
 72
14
 73
10
 74
0
 42
0.0000001
 43
0.0000001
 44
0.0000000001
 40
0.0
 40
0.0
 40
0.0
 40
0.0
 40
0.1196666507
 40
0.239911446
 40
0.361271807
 40
0.4842494938
 40
0.6093142524
 40
0.7368751532
 40
1.0
 40
1.0
 40
1.0
 40
1.0
 10
30.3349823935
 20
189.1556933462
 30
0.0
 10
30.4775711239
 20
189.0733243649
 30
0.0
 10
30.7725386507
 20
188.9233980562
 30
0.0
 10
31.2380352425
 20
188.7463801497
 30
0.0
 10
31.7239298465
 20
188.6178332903
 30
0.0
 10
32.2269483868
 20
188.5388654383
 30
0.0
 10
32.7438640604
 20
188.5097879937
 30
0.0
 10
33.4537963264
 20
188.5381677646
 30
0.0
 10
33.9864396913
 20
188.6347583415
 30
0.0
 10
34.336171662
 20
188.7285059137
 30
0.0
  0
SPLINE
  5
3CA
100
AcDbEntity
  8
0
100
AcDbSpline
 62
7
  6
CONTINUOUS
 70
0
 71
3
 72
22
 73
18
 74
0
 42
0.0000001
 43
0.0000001
 44
0.0000000001
 40
0.0
 40
0.0
 40
0.0
 40
0.0
 40
0.0700230949
 40
0.1383422235
 40
0.2048174109
 40
0.2694897981
 40
0.3324866459
 40
0.3939887335
 40
0.4542410992
 40
0.5135645207
 40
0.5723290803
 40
0.6309386027
 40
0.6898049314
 40
0.7493183195
 40
0.8098372429
 40
0.8716870149
 40
1.0
 40
1.0
 40
1.0
 40
1.0
 10
18.5042702908
 20
180.3476721895
 30
0.0
 10
18.5042702908
 20
180.1500019354
 30
0.0
 10
18.5213762786
 20
179.7592242425
 30
0.0
 10
18.5998449175
 20
179.1855466937
 30
0.0
 10
18.7305750801
 20
178.6368682271
 30
0.0
 10
18.912122055
 20
178.1186671511
 30
0.0
 10
19.1430214573
 20
177.635916063
 30
0.0
 10
19.4209253265
 20
177.1931668791
 30
0.0
 10
19.7435136932
 20
176.7949955284
 30
0.0
 10
20.1074591464
 20
176.4452091187
 30
0.0
 10
20.5094215404
 20
176.1475307625
 30
0.0
 10
20.9452620639
 20
175.904731064
 30
0.0
 10
21.4107749446
 20
175.7195117477
 30
0.0
 10
21.9011278139
 20
175.5933362521
 30
0.0
 10
22.4116904784
 20
175.5276393432
 30
0.0
 10
23.1205381228
 20
175.5209898441
 30
0.0
 10
23.6557258889
 20
175.6089053189
 30
0.0
 10
24.0055927942
 20
175.7026890608
 30
0.0
  0
SPLINE
  5
3CB
100
AcDbEntity
  8
0
100
AcDbSpline
 62
7
  6
CONTINUOUS
 70
0
 71
3
 72
14
 73
10
 74
0
 42
0.0000001
 43
0.0000001
 44
0.0000000001
 40
0.0
 40
0.0
 40
0.0
 40
0.0
 40
0.1196731055
 40
0.2399048393
 40
0.361246136
 40
0.4842301089
 40
0.6093371775
 40
0.7369594654
 40
1.0
 40
1.0
 40
1.0
 40
1.0
 10
19.0834826023
 20
203.4335918117
 30
0.0
 10
19.1485502109
 20
203.3960235981
 30
0.0
 10
19.2831248779
 20
203.3276313447
 30
0.0
 10
19.4954556825
 20
203.2467735452
 30
0.0
 10
19.7171448368
 20
203.1881819604
 30
0.0
 10
19.946657508
 20
203.152127847
 30
0.0
 10
20.1825715507
 20
203.1388539207
 30
0.0
 10
20.5064820753
 20
203.1519139825
 30
0.0
 10
20.7494941194
 20
203.1958977121
 30
0.0
 10
20.9090073273
 20
203.238656102
 30
0.0
  0
SPLINE
  5
3CC
100
AcDbEntity
  8
0
100
AcDbSpline
 62
7
  6
CONTINUOUS
 70
0
 71
3
 72
11
 73
7
 74
0
 42
0.0000001
 43
0.0000001
 44
0.0000000001
 40
0.0
 40
0.0
 40
0.0
 40
0.0
 40
0.2584974258
 40
0.5111536587
 40
0.7581013159
 40
1.0
 40
1.0
 40
1.0
 40
1.0
 10
10.5784284595
 20
184.978699561
 30
0.0
 10
10.3873957512
 20
184.9274921961
 30
0.0
 10
10.0048089517
 20
184.8432713522
 30
0.0
 10
9.428160169
 20
184.7729075272
 30
0.0
 10
8.860004022
 20
184.7609989964
 30
0.0
 10
8.4864636977
 20
184.792424378
 30
0.0
 10
8.3031651681
 20
184.8180211921
 30
0.0
  0
SPLINE
  5
3CD
100
AcDbEntity
  8
0
100
AcDbSpline
 62
7
  6
CONTINUOUS
 70
0
 71
3
 72
28
 73
24
 74
0
 42
0.0000001
 43
0.0000001
 44
0.0000000001
 40
0.0
 40
0.0
 40
0.0
 40
0.0
 40
0.0266331869
 40
0.0536796733
 40
0.0811889055
 40
0.1092013455
 40
0.1668001536
 40
0.1964465399
 40
0.2266431448
 40
0.2885912287
 40
0.352460915
 40
0.3850283956
 40
0.4179421933
 40
0.4845579733
 40
0.5518450063
 40
0.5855886407
 40
0.6193021663
 40
0.7523140535
 40
0.7849203367
 40
0.8171329618
 40
0.8801696147
 40
0.9411968655
 40
1.0
 40
1.0
 40
1.0
 40
1.0
 10
26.2898255534
 20
212.3101850983
 30
0.0
 10
26.3781030265
 20
212.1963279692
 30
0.0
 10
26.5462914329
 20
211.9591230033
 30
0.0
 10
26.7702060988
 20
211.5807838711
 30
0.0
 10
26.9666757652
 20
211.1791298274
 30
0.0
 10
27.1926253294
 20
210.6099453461
 30
0.0
 10
27.357143107
 20
210.0059354591
 30
0.0
 10
27.460807145
 20
209.378816715
 30
0.0
 10
27.5251927458
 20
208.7227015657
 30
0.0
 10
27.5264186791
 20
207.87645007
 30
0.0
 10
27.4256503549
 20
207.0236069412
 30
0.0
 10
27.2853731942
 20
206.3377855774
 30
0.0
 10
27.1037842468
 20
205.6463410119
 30
0.0
 10
26.8036834512
 20
204.7933756442
 30
0.0
 10
26.4140141075
 20
203.9725939537
 30
0.0
 10
26.0508925965
 20
203.3401897584
 30
0.0
 10
25.4629001002
 20
202.428965196
 30
0.0
 10
24.7597743173
 20
201.5972027975
 30
0.0
 10
23.9625078688
 20
200.8830181272
 30
0.0
 10
23.422005458
 20
200.4509551906
 30
0.0
 10
22.7169492583
 20
199.9806236273
 30
0.0
 10
21.830870166
 20
199.5353827608
 30
0.0
 10
21.2162525603
 20
199.3219093028
 30
0.0
 10
20.9090073273
 20
199.2395505336
 30
0.0
  0
SPLINE
  5
3CE
100
AcDbEntity
  8
0
100
AcDbSpline
 62
7
  6
CONTINUOUS
 70
0
 71
3
 72
25
 73
21
 74
0
 42
0.0000001
 43
0.0000001
 44
0.0000000001
 40
0.0
 40
0.0
 40
0.0
 40
0.0
 40
0.0601934796
 40
0.1229750702
 40
0.1879989517
 40
0.2548855042
 40
0.3916381859
 40
0.4603930961
 40
0.5283942396
 40
0.5949971465
 40
0.6596548096
 40
0.7219720905
 40
0.7817416611
 40
0.8106956875
 40
0.8390446466
 40
0.8940685306
 40
0.9209390921
 40
0.9474814189
 40
0.9737978416
 40
1.0
 40
1.0
 40
1.0
 40
1.0
 10
10.5784284595
 20
188.9778051294
 30
0.0
 10
10.7381967999
 20
189.020631909
 30
0.0
 10
11.0577843295
 20
189.1353138567
 30
0.0
 10
11.5145302327
 20
189.3801260915
 30
0.0
 10
11.9484495462
 20
189.6959400479
 30
0.0
 10
12.4860039814
 20
190.2041692889
 30
0.0
 10
12.9320698824
 20
190.8159103904
 30
0.0
 10
13.2625327871
 20
191.4923523648
 30
0.0
 10
13.4469833565
 20
192.0213985778
 30
0.0
 10
13.5626169685
 20
192.5580708131
 30
0.0
 10
13.6066526315
 20
193.0897971634
 30
0.0
 10
13.5779879194
 20
193.6038815748
 30
0.0
 10
13.492641349
 20
194.0119836427
 30
0.0
 10
13.3882303045
 20
194.3166631069
 30
0.0
 10
13.2633923449
 20
194.599260576
 30
0.0
 10
13.1044004227
 20
194.8595668165
 30
0.0
 10
12.9135284143
 20
195.0888919401
 30
0.0
 10
12.7572330336
 20
195.242972772
 30
0.0
 10
12.5876873581
 20
195.379384582
 30
0.0
 10
12.4663083817
 20
195.4580099545
 30
0.0
 10
12.4039531845
 20
195.4940120978
 30
0.0
  0
SPLINE
  5
3CF
100
AcDbEntity
  8
0
100
AcDbSpline
 62
7
  6
CONTINUOUS
 70
0
 71
3
 72
14
 73
10
 74
0
 42
0.0000001
 43
0.0000001
 44
0.0000000001
 40
0.0
 40
0.0
 40
0.0
 40
0.0
 40
0.1196666507
 40
0.239911446
 40
0.361271807
 40
0.4842494938
 40
0.6093142524
 40
0.7368751532
 40
1.0
 40
1.0
 40
1.0
 40
1.0
 10
20.0044035257
 20
197.8782077093
 30
0.0
 10
20.146992256
 20
197.795838728
 30
0.0
 10
20.4419597829
 20
197.6459124193
 30
0.0
 10
20.9074563746
 20
197.4688945128
 30
0.0
 10
21.3933509787
 20
197.3403476534
 30
0.0
 10
21.8963695189
 20
197.2613798014
 30
0.0
 10
22.4132851926
 20
197.2323023568
 30
0.0
 10
23.1232174585
 20
197.2606821278
 30
0.0
 10
23.6558608234
 20
197.3572727046
 30
0.0
 10
24.0055927942
 20
197.4510202769
 30
0.0
  0
SPLINE
  5
3D0
100
AcDbEntity
  8
0
100
AcDbSpline
 62
7
  6
CONTINUOUS
 70
0
 71
3
 72
11
 73
7
 74
0
 42
0.0000001
 43
0.0000001
 44
0.0000000001
 40
0.0
 40
0.0
 40
0.0
 40
0.0
 40
0.2584974258
 40
0.5111536587
 40
0.7581013159
 40
1.0
 40
1.0
 40
1.0
 40
1.0
 10
20.9090073273
 20
199.2395505336
 30
0.0
 10
20.717974619
 20
199.1883431688
 30
0.0
 10
20.3353878195
 20
199.1041223248
 30
0.0
 10
19.7587390368
 20
199.0337584998
 30
0.0
 10
19.1905828898
 20
199.021849969
 30
0.0
 10
18.8170425656
 20
199.0532753506
 30
0.0
 10
18.633744036
 20
199.0788721648
 30
0.0
  0
SPLINE
  5
3D1
100
AcDbEntity
  8
0
100
AcDbSpline
 62
7
  6
CONTINUOUS
 70
0
 71
3
 72
25
 73
21
 74
0
 42
0.0000001
 43
0.0000001
 44
0.0000000001
 40
0.0
 40
0.0
 40
0.0
 40
0.0
 40
0.0601934796
 40
0.1229750702
 40
0.1879989517
 40
0.2548855042
 40
0.3916381859
 40
0.4603930961
 40
0.5283942396
 40
0.5949971465
 40
0.6596548096
 40
0.7219720905
 40
0.7817416611
 40
0.8106956875
 40
0.8390446466
 40
0.8940685306
 40
0.9209390921
 40
0.9474814189
 40
0.9737978416
 40
1.0
 40
1.0
 40
1.0
 40
1.0
 10
20.9090073273
 20
203.238656102
 30
0.0
 10
21.0687756677
 20
203.2814828816
 30
0.0
 10
21.3883631973
 20
203.3961648293
 30
0.0
 10
21.8451091005
 20
203.6409770641
 30
0.0
 10
22.2790284141
 20
203.9567910206
 30
0.0
 10
22.8165828493
 20
204.4650202616
 30
0.0
 10
23.2626487502
 20
205.0767613631
 30
0.0
 10
23.593111655
 20
205.7532033375
 30
0.0
 10
23.7775622243
 20
206.2822495505
 30
0.0
 10
23.8931958364
 20
206.8189217858
 30
0.0
 10
23.9372314993
 20
207.350648136
 30
0.0
 10
23.9085667873
 20
207.8647325474
 30
0.0
 10
23.8232202168
 20
208.2728346154
 30
0.0
 10
23.7188091723
 20
208.5775140796
 30
0.0
 10
23.5939712127
 20
208.8601115487
 30
0.0
 10
23.4349792905
 20
209.1204177892
 30
0.0
 10
23.2441072822
 20
209.3497429127
 30
0.0
 10
23.0878119014
 20
209.5038237446
 30
0.0
 10
22.9182662259
 20
209.6402355547
 30
0.0
 10
22.7968872495
 20
209.7188609271
 30
0.0
 10
22.7345320523
 20
209.7548630704
 30
0.0
  0
SPLINE
  5
3D2
100
AcDbEntity
  8
0
100
AcDbSpline
 62
7
  6
CONTINUOUS
 70
0
 71
3
 72
14
 73
10
 74
0
 42
0.0000001
 43
0.0000001
 44
0.0000000001
 40
0.0
 40
0.0
 40
0.0
 40
0.0
 40
0.1196731055
 40
0.2399048393
 40
0.361246136
 40
0.4842301089
 40
0.6093371775
 40
0.7369594654
 40
1.0
 40
1.0
 40
1.0
 40
1.0
 10
8.7529037345
 20
189.172740839
 30
0.0
 10
8.8179713431
 20
189.1351726254
 30
0.0
 10
8.9525460101
 20
189.0667803721
 30
0.0
 10
9.1648768147
 20
188.9859225726
 30
0.0
 10
9.386565969
 20
188.9273309877
 30
0.0
 10
9.6160786402
 20
188.8912768743
 30
0.0
 10
9.8519926828
 20
188.8780029481
 30
0.0
 10
10.1759032075
 20
188.8910630098
 30
0.0
 10
10.4189152516
 20
188.9350467394
 30
0.0
 10
10.5784284595
 20
188.9778051294
 30
0.0
  0
SPLINE
  5
3D3
100
AcDbEntity
  8
0
100
AcDbSpline
 62
7
  6
CONTINUOUS
 70
0
 71
3
 72
11
 73
7
 74
0
 42
0.0000001
 43
0.0000001
 44
0.0000000001
 40
0.0
 40
0.0
 40
0.0
 40
0.0
 40
0.2584974258
 40
0.5111536587
 40
0.7581013159
 40
1.0
 40
1.0
 40
1.0
 40
1.0
 10
31.2395861952
 20
190.5170361705
 30
0.0
 10
31.0485534868
 20
190.4658288057
 30
0.0
 10
30.6659666874
 20
190.3816079617
 30
0.0
 10
30.0893179047
 20
190.3112441367
 30
0.0
 10
29.5211617577
 20
190.2993356059
 30
0.0
 10
29.1476214334
 20
190.3307609875
 30
0.0
 10
28.9643229038
 20
190.3563578017
 30
0.0
  0
SPLINE
  5
3D4
100
AcDbEntity
  8
0
100
AcDbSpline
 62
7
  6
CONTINUOUS
 70
0
 71
3
 72
25
 73
21
 74
0
 42
0.0000001
 43
0.0000001
 44
0.0000000001
 40
0.0
 40
0.0
 40
0.0
 40
0.0
 40
0.0601934796
 40
0.1229750702
 40
0.1879989517
 40
0.2548855042
 40
0.3916381859
 40
0.4603930961
 40
0.5283942396
 40
0.5949971465
 40
0.6596548096
 40
0.7219720905
 40
0.7817416611
 40
0.8106956875
 40
0.8390446466
 40
0.8940685306
 40
0.9209390921
 40
0.9474814189
 40
0.9737978416
 40
1.0
 40
1.0
 40
1.0
 40
1.0
 10
31.2395861952
 20
194.5161417389
 30
0.0
 10
31.3993545355
 20
194.5589685185
 30
0.0
 10
31.7189420652
 20
194.6736504662
 30
0.0
 10
32.1756879684
 20
194.918462701
 30
0.0
 10
32.6096072819
 20
195.2342766574
 30
0.0
 10
33.1471617171
 20
195.7425058985
 30
0.0
 10
33.5932276181
 20
196.354247
 30
0.0
 10
33.9236905228
 20
197.0306889744
 30
0.0
 10
34.1081410922
 20
197.5597351873
 30
0.0
 10
34.2237747042
 20
198.0964074227
 30
0.0
 10
34.2678103672
 20
198.6281337729
 30
0.0
 10
34.2391456551
 20
199.1422181843
 30
0.0
 10
34.1537990846
 20
199.5503202523
 30
0.0
 10
34.0493880401
 20
199.8549997165
 30
0.0
 10
33.9245500806
 20
200.1375971855
 30
0.0
 10
33.7655581584
 20
200.3979034261
 30
0.0
 10
33.57468615
 20
200.6272285496
 30
0.0
 10
33.4183907693
 20
200.7813093815
 30
0.0
 10
33.2488450938
 20
200.9177211916
 30
0.0
 10
33.1274661174
 20
200.996346564
 30
0.0
 10
33.0651109202
 20
201.0323487073
 30
0.0
  0
SPLINE
  5
3D5
100
AcDbEntity
  8
0
100
AcDbSpline
 62
7
  6
CONTINUOUS
 70
0
 71
3
 72
18
 73
14
 74
0
 42
0.0000001
 43
0.0000001
 44
0.0000000001
 40
0.0
 40
0.0
 40
0.0
 40
0.0
 40
0.1146769824
 40
0.2353004408
 40
0.3608628062
 40
0.4898297561
 40
0.555031312
 40
0.6203356698
 40
0.6854740723
 40
0.7501767937
 40
0.8772620135
 40
0.9393151177
 40
1.0
 40
1.0
 40
1.0
 40
1.0
 10
22.8758458097
 20
178.1999467704
 30
0.0
 10
23.1338473063
 20
178.2691054859
 30
0.0
 10
23.6493784955
 20
178.4667936306
 30
0.0
 10
24.3699728125
 20
178.9071501969
 30
0.0
 10
25.0328713926
 20
179.4821860247
 30
0.0
 10
25.5152762017
 20
180.0536041059
 30
0.0
 10
25.851461271
 20
180.5563937776
 30
0.0
 10
26.0759855892
 20
180.9534447856
 30
0.0
 10
26.2698897656
 20
181.365052499
 30
0.0
 10
26.4836426894
 20
181.924440199
 30
0.0
 10
26.6312838037
 20
182.500017586
 30
0.0
 10
26.7059804418
 20
183.0775950682
 30
0.0
 10
26.7188211515
 20
183.3636338401
 30
0.0
 10
26.7188211516
 20
183.5049833304
 30
0.0
  0
SPLINE
  5
3D6
100
AcDbEntity
  8
0
100
AcDbSpline
 62
7
  6
CONTINUOUS
 70
0
 71
3
 72
15
 73
11
 74
0
 42
0.0000001
 43
0.0000001
 44
0.0000000001
 40
0.0
 40
0.0
 40
0.0
 40
0.0
 40
0.1377706741
 40
0.2715922931
 40
0.4011469167
 40
0.5266418378
 40
0.6485391341
 40
0.7674753238
 40
0.8842882782
 40
1.0
 40
1.0
 40
1.0
 40
1.0
 10
26.7188211516
 20
183.5049833304
 30
0.0
 10
26.7188211517
 20
183.6664794231
 30
0.0
 10
26.7024875786
 20
183.9851243907
 30
0.0
 10
26.6273780288
 20
184.4502868532
 30
0.0
 10
26.5023329534
 20
184.8897996292
 30
0.0
 10
26.3291894183
 20
185.297645121
 30
0.0
 10
26.1098896642
 20
185.6683759908
 30
0.0
 10
25.8474048987
 20
185.9971397189
 30
0.0
 10
25.5449830363
 20
186.2790412424
 30
0.0
 10
25.3190038153
 20
186.4336375847
 30
0.0
 10
25.2015398501
 20
186.5014607874
 30
0.0
  0
SPLINE
  5
3D7
100
AcDbEntity
  8
0
100
AcDbSpline
 62
7
  6
CONTINUOUS
 70
0
 71
3
 72
28
 73
24
 74
0
 42
0.0000001
 43
0.0000001
 44
0.0000000001
 40
0.0
 40
0.0
 40
0.0
 40
0.0
 40
0.0266331869
 40
0.0536796733
 40
0.0811889055
 40
0.1092013455
 40
0.1668001536
 40
0.1964465399
 40
0.2266431448
 40
0.2885912287
 40
0.352460915
 40
0.3850283956
 40
0.4179421933
 40
0.4845579733
 40
0.5518450063
 40
0.5855886407
 40
0.6193021663
 40
0.7523140535
 40
0.7849203367
 40
0.8171329618
 40
0.8801696147
 40
0.9411968655
 40
1.0
 40
1.0
 40
1.0
 40
1.0
 10
15.9592466856
 20
198.0493341256
 30
0.0
 10
16.0475241587
 20
197.9354769965
 30
0.0
 10
16.215712565
 20
197.6982720307
 30
0.0
 10
16.4396272309
 20
197.3199328984
 30
0.0
 10
16.6360968974
 20
196.9182788547
 30
0.0
 10
16.8620464616
 20
196.3490943734
 30
0.0
 10
17.0265642391
 20
195.7450844864
 30
0.0
 10
17.1302282771
 20
195.1179657423
 30
0.0
 10
17.194613878
 20
194.461850593
 30
0.0
 10
17.1958398113
 20
193.6155990974
 30
0.0
 10
17.095071487
 20
192.7627559685
 30
0.0
 10
16.9547943263
 20
192.0769346048
 30
0.0
 10
16.773205379
 20
191.3854900393
 30
0.0
 10
16.4731045834
 20
190.5325246715
 30
0.0
 10
16.0834352396
 20
189.7117429811
 30
0.0
 10
15.7203137287
 20
189.0793387858
 30
0.0
 10
15.1323212324
 20
188.1681142233
 30
0.0
 10
14.4291954494
 20
187.3363518248
 30
0.0
 10
13.6319290009
 20
186.6221671545
 30
0.0
 10
13.0914265901
 20
186.1901042179
 30
0.0
 10
12.3863703905
 20
185.7197726546
 30
0.0
 10
11.5002912982
 20
185.2745317881
 30
0.0
 10
10.8856736924
 20
185.0610583302
 30
0.0
 10
10.5784284595
 20
184.978699561
 30
0.0
  0
SPLINE
  5
3D8
100
AcDbEntity
  8
0
100
AcDbSpline
 62
7
  6
CONTINUOUS
 70
0
 71
3
 72
29
 73
25
 74
0
 42
0.0000001
 43
0.0000001
 44
0.0000000001
 40
0.0
 40
0.0
 40
0.0
 40
0.0
 40
0.0601996645
 40
0.1229467885
 40
0.1879606463
 40
0.254838105
 40
0.3915667146
 40
0.4603112714
 40
0.5283001493
 40
0.594890731
 40
0.6275036789
 40
0.6595745009
 40
0.6910572493
 40
0.7219206578
 40
0.7521448132
 40
0.7817251927
 40
0.8106740988
 40
0.8390180692
 40
0.8668032278
 40
0.894090458
 40
0.9209569949
 40
0.9474944579
 40
0.9738047493
 40
1.0
 40
1.0
 40
1.0
 40
1.0
 10
24.0055927942
 20
197.4510202769
 30
0.0
 10
24.3558712013
 20
197.5449143243
 30
0.0
 10
25.0563638996
 20
197.7961171792
 30
0.0
 10
26.057334862
 20
198.3328887868
 30
0.0
 10
27.0082827607
 20
199.0250227719
 30
0.0
 10
28.1867026582
 20
200.1387973886
 30
0.0
 10
29.1642065164
 20
201.4797751201
 30
0.0
 10
29.888652759
 20
202.9623746249
 30
0.0
 10
30.2928211056
 20
204.1218873636
 30
0.0
 10
30.505603189
 20
205.1093067494
 30
0.0
 10
30.5957596627
 20
205.8954495346
 30
0.0
 10
30.6231693482
 20
206.4745757634
 30
0.0
 10
30.6104422465
 20
207.0436768278
 30
0.0
 10
30.5577902339
 20
207.5993375718
 30
0.0
 10
30.4654725351
 20
208.1382128779
 30
0.0
 10
30.3339133391
 20
208.6570181644
 30
0.0
 10
30.1640713436
 20
209.152665331
 30
0.0
 10
29.9567171593
 20
209.6220749885
 30
0.0
 10
29.7132195375
 20
210.0624300401
 30
0.0
 10
29.4349877457
 20
210.4710358955
 30
0.0
 10
29.1235885123
 20
210.8452749593
 30
0.0
 10
28.7810652963
 20
211.1829852286
 30
0.0
 10
28.4093885711
 20
211.4818640239
 30
0.0
 10
28.1434228784
 20
211.6542535993
 30
0.0
 10
28.0067820626
 20
211.7331866593
 30
0.0
  0
SPLINE
  5
3D9
100
AcDbEntity
  8
0
100
AcDbSpline
 62
7
  6
CONTINUOUS
 70
0
 71
3
 72
31
 73
27
 74
0
 42
0.0000001
 43
0.0000001
 44
0.0000000001
 40
0.0
 40
0.0
 40
0.0
 40
0.0
 40
0.026140351
 40
0.0523872708
 40
0.0788437215
 40
0.1056056101
 40
0.1327588659
 40
0.1603773204
 40
0.188520831
 40
0.2172348101
 40
0.2465493145
 40
0.2764798827
 40
0.3070273679
 40
0.3381795116
 40
0.4021519585
 40
0.4681072812
 40
0.5355759154
 40
0.6039880536
 40
0.6727142649
 40
0.7411058324
 40
0.8085342197
 40
0.874433263
 40
0.9066752101
 40
0.9383687317
 40
0.9694834057
 40
1.0
 40
1.0
 40
1.0
 40
1.0
 10
12.5021567549
 20
173.397452923
 30
0.0
 10
12.1241827095
 20
173.6157774102
 30
0.0
 10
11.3877599321
 20
174.0910128597
 30
0.0
 10
10.3555401097
 20
174.9114373043
 30
0.0
 10
9.4001743641
 20
175.8353070423
 30
0.0
 10
8.5273372331
 20
176.8573582773
 30
0.0
 10
7.7417209492
 20
177.9716128966
 30
0.0
 10
7.0478475756
 20
179.1718065611
 30
0.0
 10
6.4493604806
 20
180.4510229287
 30
0.0
 10
5.9496967037
 20
181.8021054176
 30
0.0
 10
5.5513846802
 20
183.2173866052
 30
0.0
 10
5.2567488906
 20
184.6889549876
 30
0.0
 10
5.0671824632
 20
186.2086064489
 30
0.0
 10
4.9550915565
 20
188.3055665583
 30
0.0
 10
5.0881389493
 20
191.000581636
 30
0.0
 10
5.6670329023
 20
194.2537014088
 30
0.0
 10
6.6530054072
 20
197.4847784237
 30
0.0
 10
8.0239887387
 20
200.6223514075
 30
0.0
 10
9.7495690043
 20
203.597487277
 30
0.0
 10
11.7918224942
 20
206.3446308962
 30
0.0
 10
14.1055559645
 20
208.8029536777
 30
0.0
 10
16.2343537092
 20
210.5791772253
 30
0.0
 10
18.0255472802
 20
211.8028852785
 30
0.0
 10
19.3931807832
 20
212.6107454057
 30
0.0
 10
20.786834154
 20
213.3106545153
 30
0.0
 10
21.7379221532
 20
213.7065709501
 30
0.0
 10
22.215322096
 20
213.8847668874
 30
0.0
  0
SPLINE
  5
3DA
100
AcDbEntity
  8
0
100
AcDbSpline
 62
7
  6
CONTINUOUS
 70
0
 71
3
 72
14
 73
10
 74
0
 42
0.0000001
 43
0.0000001
 44
0.0000000001
 40
0.0
 40
0.0
 40
0.0
 40
0.0
 40
0.1196666507
 40
0.239911446
 40
0.361271807
 40
0.4842494938
 40
0.6093142524
 40
0.7368751532
 40
1.0
 40
1.0
 40
1.0
 40
1.0
 10
9.6738246579
 20
183.6173567367
 30
0.0
 10
9.8164133882
 20
183.5349877553
 30
0.0
 10
10.1113809151
 20
183.3850614466
 30
0.0
 10
10.5768775068
 20
183.2080435401
 30
0.0
 10
11.0627721109
 20
183.0794966807
 30
0.0
 10
11.5657906511
 20
183.0005288287
 30
0.0
 10
12.0827063247
 20
182.9714513841
 30
0.0
 10
12.7926385907
 20
182.9998311551
 30
0.0
 10
13.3252819556
 20
183.096421732
 30
0.0
 10
13.6750139263
 20
183.1901693042
 30
0.0
  0
SPLINE
  5
3DB
100
AcDbEntity
  8
0
100
AcDbSpline
 62
7
  6
CONTINUOUS
 70
0
 71
3
 72
26
 73
22
 74
0
 42
0.0000001
 43
0.0000001
 44
0.0000000001
 40
0.0
 40
0.0
 40
0.0
 40
0.0
 40
0.0641424544
 40
0.1301556792
 40
0.1975312706
 40
0.2658230327
 40
0.3345005949
 40
0.4029981947
 40
0.4707715929
 40
0.5373161509
 40
0.6021879273
 40
0.6650478932
 40
0.6956676548
 40
0.7257183295
 40
0.7840725214
 40
0.8402701719
 40
0.8946204551
 40
0.921276496
 40
0.9476681343
 40
0.9738799785
 40
1.0
 40
1.0
 40
1.0
 40
1.0
 10
30.3718094993
 20
164.4115393744
 30
0.0
 10
30.3718094993
 20
164.1525101283
 30
0.0
 10
30.3383932366
 20
163.6264384382
 30
0.0
 10
30.1953003504
 20
162.8400312792
 30
0.0
 10
29.9607117631
 20
162.0583602068
 30
0.0
 10
29.6393896604
 20
161.2965980648
 30
0.0
 10
29.2376205418
 20
160.5688593007
 30
0.0
 10
28.7627419563
 20
159.889106449
 30
0.0
 10
28.2238901187
 20
159.2701882563
 30
0.0
 10
27.6312361244
 20
158.723785115
 30
0.0
 10
26.995862251
 20
158.260551087
 30
0.0
 10
26.4357318058
 20
157.9481970411
 30
0.0
 10
25.9778979805
 20
157.7492315775
 30
0.0
 10
25.5248947284
 20
157.5876418889
 30
0.0
 10
24.9552311389
 20
157.4494079643
 30
0.0
 10
24.2730158605
 20
157.3901592
 30
0.0
 10
23.7176906752
 20
157.4331464694
 30
0.0
 10
23.292854528
 20
157.5227572523
 30
0.0
 10
22.9863438357
 20
157.6165088465
 30
0.0
 10
22.6915556399
 20
157.7366258967
 30
0.0
 10
22.5035868181
 20
157.8339762225
 30
0.0
 10
22.4122409715
 20
157.8867237979
 30
0.0
  0
SPLINE
  5
3DC
100
AcDbEntity
  8
0
100
AcDbSpline
 62
7
  6
CONTINUOUS
 70
0
 71
3
 72
15
 73
11
 74
0
 42
0.0000001
 43
0.0000001
 44
0.0000000001
 40
0.0
 40
0.0
 40
0.0
 40
0.0
 40
0.1296575969
 40
0.2576055486
 40
0.3839520309
 40
0.5088930516
 40
0.6326902901
 40
0.7556200938
 40
0.8779605932
 40
1.0
 40
1.0
 40
1.0
 40
1.0
 10
20.4547705448
 20
161.8155695154
 30
0.0
 10
19.9482131252
 20
161.785656371
 30
0.0
 10
18.9394576868
 20
161.7595845028
 30
0.0
 10
17.4369981778
 20
161.8236051503
 30
0.0
 10
15.9609916835
 20
161.9911458918
 30
0.0
 10
14.5168511935
 20
162.2616847668
 30
0.0
 10
13.1093889743
 20
162.6342116098
 30
0.0
 10
11.7433052917
 20
163.1076536399
 30
0.0
 10
10.4232442895
 20
163.680138753
 30
0.0
 10
9.5764005733
 20
164.1270388413
 30
0.0
 10
9.1628117204
 20
164.3659311495
 30
0.0
  0
SPLINE
  5
3DD
100
AcDbEntity
  8
0
100
AcDbSpline
 62
7
  6
CONTINUOUS
 70
0
 71
3
 72
21
 73
17
 74
0
 42
0.0000001
 43
0.0000001
 44
0.0000000001
 40
0.0
 40
0.0
 40
0.0
 40
0.0
 40
0.059955153
 40
0.1210689572
 40
0.1831762966
 40
0.2461413981
 40
0.373878787
 40
0.438339396
 40
0.5029041587
 40
0.5673685474
 40
0.6315301771
 40
0.758100496
 40
0.820224447
 40
0.8509214744
 40
0.8813519852
 40
1.0
 40
1.0
 40
1.0
 40
1.0
 10
52.2651301428
 20
199.6988716367
 30
0.0
 10
52.2651301428
 20
198.8285322776
 30
0.0
 10
52.1959664429
 20
197.0703646746
 30
0.0
 10
51.893449764
 20
194.4263168795
 30
0.0
 10
51.3929212634
 20
191.7678138616
 30
0.0
 10
50.4628699437
 20
188.2153721367
 30
0.0
 10
49.1578050414
 20
184.734540712
 30
0.0
 10
47.510580135
 20
181.3888114878
 30
0.0
 10
46.1061321175
 20
178.9538899902
 30
0.0
 10
44.5470339016
 20
176.6201682706
 30
0.0
 10
42.2889847755
 20
173.6808853132
 30
0.0
 10
39.7643772419
 20
170.9975827496
 30
0.0
 10
37.3486336827
 20
168.9188062811
 30
0.0
 10
35.9306812869
 20
167.826838765
 30
0.0
 10
33.8061748621
 20
166.3114081799
 30
0.0
 10
31.926014209
 20
165.2153999323
 30
0.0
 10
30.3714927407
 20
164.4738012702
 30
0.0
  0
SPLINE
  5
3DE
100
AcDbEntity
  8
0
100
AcDbSpline
 62
7
  6
CONTINUOUS
 70
0
 71
3
 72
15
 73
11
 74
0
 42
0.0000001
 43
0.0000001
 44
0.0000000001
 40
0.0
 40
0.0
 40
0.0
 40
0.0
 40
0.1377457205
 40
0.2715860988
 40
0.4011644645
 40
0.5266600016
 40
0.648547155
 40
0.7674841024
 40
0.884294805
 40
1.0
 40
1.0
 40
1.0
 40
1.0
 10
22.5205695597
 20
162.3069714627
 30
0.0
 10
22.5205695597
 20
162.1854377558
 30
0.0
 10
22.5328855365
 20
161.9456053343
 30
0.0
 10
22.5894029155
 20
161.5954671372
 30
0.0
 10
22.6835247274
 20
161.2646127524
 30
0.0
 10
22.8138500302
 20
160.957620057
 30
0.0
 10
22.9789362126
 20
160.6785974528
 30
0.0
 10
23.1765066226
 20
160.4311608909
 30
0.0
 10
23.4041123121
 20
160.2189582022
 30
0.0
 10
23.5742199746
 20
160.1026380841
 30
0.0
 10
23.6626153346
 20
160.0515688554
 30
0.0
  0
SPLINE
  5
3DF
100
AcDbEntity
  8
0
100
AcDbSpline
 62
7
  6
CONTINUOUS
 70
0
 71
3
 72
22
 73
18
 74
0
 42
0.0000001
 43
0.0000001
 44
0.0000000001
 40
0.0
 40
0.0
 40
0.0
 40
0.0
 40
0.1377839032
 40
0.2051830236
 40
0.2715174051
 40
0.3367971365
 40
0.4010438322
 40
0.4642867922
 40
0.5265657206
 40
0.5879380802
 40
0.6484783687
 40
0.7082739174
 40
0.7674265999
 40
0.8260486245
 40
0.8842632235
 40
0.9422015474
 40
1.0
 40
1.0
 40
1.0
 40
1.0
 10
1.0329655146
 20
185.9658090186
 30
0.0
 10
1.0329655146
 20
184.9406632675
 30
0.0
 10
1.1109399541
 20
183.4122020684
 30
0.0
 10
1.3802488195
 20
181.4093151155
 30
0.0
 10
1.6604819174
 20
179.9544808878
 30
0.0
 10
2.0192717872
 20
178.5412209175
 30
0.0
 10
2.4556798204
 20
177.174030517
 30
0.0
 10
2.9680820412
 20
175.8573594896
 30
0.0
 10
3.5549400341
 20
174.5956363815
 30
0.0
 10
4.2143919429
 20
173.3931296835
 30
0.0
 10
4.9441006413
 20
172.253740343
 30
0.0
 10
5.7418996592
 20
171.1814096408
 30
0.0
 10
6.6049729293
 20
170.1795987255
 30
0.0
 10
7.5305480178
 20
169.2517272671
 30
0.0
 10
8.5156194918
 20
168.4009773139
 30
0.0
 10
9.556678091
 20
167.6300842691
 30
0.0
 10
10.2863340919
 20
167.1709611845
 30
0.0
 10
10.6587218198
 20
166.9558865693
 30
0.0
  0
SPLINE
  5
3E0
100
AcDbEntity
  8
0
100
AcDbSpline
 62
7
  6
CONTINUOUS
 70
0
 71
3
 72
15
 73
11
 74
0
 42
0.0000001
 43
0.0000001
 44
0.0000000001
 40
0.0
 40
0.0
 40
0.0
 40
0.0
 40
0.0943934144
 40
0.1951512723
 40
0.3045066207
 40
0.4237087755
 40
0.5532748963
 40
0.6931009339
 40
0.8425104011
 40
1.0
 40
1.0
 40
1.0
 40
1.0
 10
7.7553523565
 20
225.8230613291
 30
0.0
 10
7.7950279001
 20
225.8433608774
 30
0.0
 10
7.8722958076
 20
225.895166348
 30
0.0
 10
7.9730947531
 20
225.9988579932
 30
0.0
 10
8.0604145328
 20
226.1283487378
 30
0.0
 10
8.1333473895
 20
226.2814694742
 30
0.0
 10
8.190962741
 20
226.4560899819
 30
0.0
 10
8.2326162992
 20
226.6497213468
 30
0.0
 10
8.2576034899
 20
226.8594119137
 30
0.0
 10
8.2629573044
 20
227.0043849146
 30
0.0
 10
8.2629573044
 20
227.0787422645
 30
0.0
  0
SPLINE
  5
3E1
100
AcDbEntity
  8
0
100
AcDbSpline
 62
7
  6
CONTINUOUS
 70
0
 71
3
 72
21
 73
17
 74
0
 42
0.0000001
 43
0.0000001
 44
0.0000000001
 40
0.0
 40
0.0
 40
0.0
 40
0.0
 40
0.1186480148
 40
0.1490785256
 40
0.179775553
 40
0.241899504
 40
0.3684698229
 40
0.4326314526
 40
0.4970958413
 40
0.561660604
 40
0.626121213
 40
0.7538586019
 40
0.8168237034
 40
0.8789310428
 40
0.940044847
 40
1.0
 40
1.0
 40
1.0
 40
1.0
 10
-8.2590219659
 20
237.1128444556
 30
0.0
 10
-9.8135434342
 20
236.3712457934
 30
0.0
 10
-11.6937040873
 20
235.2752375458
 30
0.0
 10
-13.8182105122
 20
233.7598069608
 30
0.0
 10
-15.236162908
 20
232.6678394447
 30
0.0
 10
-17.6519064671
 20
230.5890629762
 30
0.0
 10
-20.1765140007
 20
227.9057604126
 30
0.0
 10
-22.4345631268
 20
224.9664774551
 30
0.0
 10
-23.9936613427
 20
222.6327557356
 30
0.0
 10
-25.3981093603
 20
220.197834238
 30
0.0
 10
-27.0453342666
 20
216.8521050138
 30
0.0
 10
-28.3503991689
 20
213.3712735891
 30
0.0
 10
-29.2804504886
 20
209.8188318642
 30
0.0
 10
-29.7809789893
 20
207.1603288463
 30
0.0
 10
-30.0834956682
 20
204.5162810511
 30
0.0
 10
-30.152659368
 20
202.7581134482
 30
0.0
 10
-30.152659368
 20
201.887774089
 30
0.0
  0
SPLINE
  5
3E2
100
AcDbEntity
  8
0
100
AcDbSpline
 62
7
  6
CONTINUOUS
 70
0
 71
3
 72
22
 73
18
 74
0
 42
0.0000001
 43
0.0000001
 44
0.0000000001
 40
0.0
 40
0.0
 40
0.0
 40
0.0
 40
0.13778714
 40
0.2051828684
 40
0.2715157534
 40
0.3367960096
 40
0.4010439597
 40
0.464287198
 40
0.5265654728
 40
0.5879378605
 40
0.6484779793
 40
0.708273829
 40
0.767426583
 40
0.82604851
 40
0.8842632062
 40
0.9422012728
 40
1.0
 40
1.0
 40
1.0
 40
1.0
 10
-30.152659368
 20
201.887774089
 30
0.0
 10
-30.152659368
 20
200.7586651013
 30
0.0
 10
-30.0668099894
 20
199.0752354866
 30
0.0
 10
-29.7701524408
 20
196.8693010538
 30
0.0
 10
-29.4615333244
 20
195.2669969119
 30
0.0
 10
-29.0663481622
 20
193.7104522029
 30
0.0
 10
-28.5857036694
 20
192.2046268559
 30
0.0
 10
-28.0213814291
 20
190.7544401682
 30
0.0
 10
-27.3749604461
 20
189.364828041
 30
0.0
 10
-26.6487127757
 20
188.040375087
 30
0.0
 10
-25.8449728436
 20
186.7854934436
 30
0.0
 10
-24.9663032527
 20
185.6044319046
 30
0.0
 10
-24.0157580416
 20
184.5010143973
 30
0.0
 10
-22.9962717683
 20
183.4791402561
 30
0.0
 10
-21.9114041945
 20
182.542048939
 30
0.0
 10
-20.7647381366
 20
181.693068289
 30
0.0
 10
-19.9611164928
 20
181.1873821799
 30
0.0
 10
-19.5509807903
 20
180.9504844395
 30
0.0
  0
SPLINE
  5
3E3
100
AcDbEntity
  8
0
100
AcDbSpline
 62
7
  6
CONTINUOUS
 70
0
 71
3
 72
21
 73
17
 74
0
 42
0.0000001
 43
0.0000001
 44
0.0000000001
 40
0.0
 40
0.0
 40
0.0
 40
0.0
 40
0.1214668681
 40
0.1835512735
 40
0.246349473
 40
0.3734577748
 40
0.4375178446
 40
0.501681803
 40
0.5657854015
 40
0.6296673043
 40
0.6931692402
 40
0.7561364893
 40
0.8184226102
 40
0.8799086056
 40
0.9404832327
 40
1.0
 40
1.0
 40
1.0
 40
1.0
 10
17.5696007573
 20
216.0770338493
 30
0.0
 10
16.3549426258
 20
215.2923660778
 30
0.0
 10
14.5988831505
 20
213.9780338605
 30
0.0
 10
12.4271086828
 20
212.0051980184
 30
0.0
 10
10.3350853125
 20
209.8527277107
 30
0.0
 10
8.4297769034
 20
207.4939851313
 30
0.0
 10
6.7359930969
 20
204.9683348416
 30
0.0
 10
5.5743100177
 20
202.9936027271
 30
0.0
 10
4.5321915251
 20
200.9557614887
 30
0.0
 10
3.6156249026
 20
198.8670015161
 30
0.0
 10
2.8304029955
 20
196.739804051
 30
0.0
 10
2.1809525052
 20
194.5870992379
 30
0.0
 10
1.6714336442
 20
192.4216592324
 30
0.0
 10
1.3047239125
 20
190.2563070183
 30
0.0
 10
1.0834714217
 20
188.1044812428
 30
0.0
 10
1.0329655146
 20
186.674356049
 30
0.0
 10
1.0329655146
 20
185.9658090186
 30
0.0
  0
SPLINE
  5
3E4
100
AcDbEntity
  8
0
100
AcDbSpline
 62
7
  6
CONTINUOUS
 70
0
 71
3
 72
11
 73
7
 74
0
 42
0.0000001
 43
0.0000001
 44
0.0000000001
 40
0.0
 40
0.0
 40
0.0
 40
0.0
 40
0.2429255569
 40
0.4906330573
 40
0.7430971431
 40
1.0
 40
1.0
 40
1.0
 40
1.0
 10
51.2158816813
 20
207.6859285942
 30
0.0
 10
51.3912693455
 20
207.055691841
 30
0.0
 10
51.6985552016
 20
205.7692912275
 30
0.0
 10
52.0258369868
 20
203.7935730787
 30
0.0
 10
52.2221641084
 20
201.7628219782
 30
0.0
 10
52.2651301428
 20
200.3906976841
 30
0.0
 10
52.2651301428
 20
199.6988716367
 30
0.0
  0
SPLINE
  5
3E5
100
AcDbEntity
  8
0
100
AcDbSpline
 62
7
  6
CONTINUOUS
 70
0
 71
3
 72
11
 73
7
 74
0
 42
0.0000001
 43
0.0000001
 44
0.0000000001
 40
0.0
 40
0.0
 40
0.0
 40
0.0
 40
0.2411150984
 40
0.4880421544
 40
0.7410607104
 40
1.0
 40
1.0
 40
1.0
 40
1.0
 10
1.0060391636
 20
239.7233147352
 30
0.0
 10
0.2314638784
 20
239.6557098029
 30
0.0
 10
-1.3304737144
 20
239.4408120957
 30
0.0
 10
-3.6600563415
 20
238.894099858
 30
0.0
 10
-5.9859263807
 20
238.1235634373
 30
0.0
 10
-7.5053901292
 20
237.4723714053
 30
0.0
 10
-8.2590219659
 20
237.1128444556
 30
0.0
  0
SPLINE
  5
3E6
100
AcDbEntity
  8
0
100
AcDbSpline
 62
7
  6
CONTINUOUS
 70
0
 71
3
 72
9
 73
5
 74
0
 42
0.0000001
 43
0.0000001
 44
0.0000000001
 40
0.0
 40
0.0
 40
0.0
 40
0.0
 40
0.2566978458
 40
1.0
 40
1.0
 40
1.0
 40
1.0
 10
10.9261893078
 20
232.8488345511
 30
0.0
 10
10.90014442
 20
232.8743078155
 30
0.0
 10
10.7974902894
 20
232.9723097681
 30
0.0
 10
10.6899636145
 20
233.0652506652
 30
0.0
 10
10.607273373
 20
233.1307538193
 30
0.0
  0
SPLINE
  5
3E7
100
AcDbEntity
  8
0
100
AcDbSpline
 62
7
  6
CONTINUOUS
 70
0
 71
3
 72
11
 73
7
 74
0
 42
0.0000001
 43
0.0000001
 44
0.0000000001
 40
0.0
 40
0.0
 40
0.0
 40
0.0
 40
0.2539977004
 40
0.5046173413
 40
0.7529006218
 40
1.0
 40
1.0
 40
1.0
 40
1.0
 10
-9.5577521994
 20
228.3657844542
 30
0.0
 10
-8.9366422354
 20
228.7699271088
 30
0.0
 10
-7.6721896583
 20
229.5271709906
 30
0.0
 10
-5.7040933297
 20
230.5074524118
 30
0.0
 10
-3.6831175437
 20
231.3211602868
 30
0.0
 10
-2.3016569753
 20
231.7520136352
 30
0.0
 10
-1.60534526
 20
231.9386614502
 30
0.0
  0
SPLINE
  5
3E8
100
AcDbEntity
  8
0
100
AcDbSpline
 62
7
  6
CONTINUOUS
 70
0
 71
3
 72
17
 73
13
 74
0
 42
0.0000001
 43
0.0000001
 44
0.0000000001
 40
0.0
 40
0.0
 40
0.0
 40
0.0
 40
0.0646834745
 40
0.1312949354
 40
0.2680854199
 40
0.4064724669
 40
0.5426946161
 40
0.6729881052
 40
0.7940529164
 40
0.9034798802
 40
0.9534117872
 40
1.0
 40
1.0
 40
1.0
 40
1.0
 10
8.2629573044
 20
227.0787422645
 30
0.0
 10
8.2629573044
 20
227.1405745985
 30
0.0
 10
8.2590985903
 20
227.2661100305
 30
0.0
 10
8.23691144
 20
227.5215184547
 30
0.0
 10
8.1823173703
 20
227.8443116993
 30
0.0
 10
8.0777694964
 20
228.2240898197
 30
0.0
 10
7.9376291635
 20
228.5856287811
 30
0.0
 10
7.7670047273
 20
228.9154125959
 30
0.0
 10
7.5724013452
 20
229.2012202526
 30
0.0
 10
7.3905395213
 20
229.4000017005
 30
0.0
 10
7.2384748051
 20
229.5254576491
 30
0.0
 10
7.161415142
 20
229.5766251522
 30
0.0
 10
7.1228508371
 20
229.5988991785
 30
0.0
  0
SPLINE
  5
3E9
100
AcDbEntity
  8
0
100
AcDbSpline
 62
7
  6
CONTINUOUS
 70
0
 71
3
 72
11
 73
7
 74
0
 42
0.0000001
 43
0.0000001
 44
0.0000000001
 40
0.0
 40
0.0
 40
0.0
 40
0.0
 40
0.2714279912
 40
0.5270285193
 40
0.7688435019
 40
1.0
 40
1.0
 40
1.0
 40
1.0
 10
7.1228508371
 20
229.5988991785
 30
0.0
 10
7.0895221704
 20
229.6181491974
 30
0.0
 10
7.022702832
 20
229.6520657821
 30
0.0
 10
6.9197819307
 20
229.6889707807
 30
0.0
 10
6.8182267808
 20
229.7098626027
 30
0.0
 10
6.7508615775
 20
229.7128029764
 30
0.0
 10
6.7181132981
 20
229.7114077985
 30
0.0
  0
SPLINE
  5
3EA
100
AcDbEntity
  8
0
100
AcDbSpline
 62
7
  6
CONTINUOUS
 70
0
 71
3
 72
23
 73
19
 74
0
 42
0.0000001
 43
0.0000001
 44
0.0000000001
 40
0.0
 40
0.0
 40
0.0
 40
0.0
 40
0.0261299612
 40
0.0523525845
 40
0.105370924
 40
0.159745971
 40
0.2159663786
 40
0.2743473054
 40
0.3350075262
 40
0.3661990221
 40
0.397925055
 40
0.4628248971
 40
0.5969953947
 40
0.734046943
 40
0.802367319
 40
0.8697818264
 40
0.9358375328
 40
1.0
 40
1.0
 40
1.0
 40
1.0
 10
23.6626153346
 20
160.0515688554
 30
0.0
 10
23.7158899155
 20
160.0207901837
 30
0.0
 10
23.825531177
 20
159.9639831246
 30
0.0
 10
24.0555672385
 20
159.8703030407
 30
0.0
 10
24.3620788117
 20
159.791651147
 30
0.0
 10
24.7479747966
 20
159.7619953824
 30
0.0
 10
25.1460309557
 20
159.7964091478
 30
0.0
 10
25.5484466244
 20
159.8941578282
 30
0.0
 10
25.8782318559
 20
160.0252850814
 30
0.0
 10
26.1370881907
 20
160.1585239691
 30
0.0
 10
26.3957013293
 20
160.3128398937
 30
0.0
 10
26.8357501661
 20
160.6338005607
 30
0.0
 10
27.3902437854
 20
161.2080419487
 30
0.0
 10
27.8158231511
 20
161.8921862255
 30
0.0
 10
28.0658461131
 20
162.4849351254
 30
0.0
 10
28.2027455354
 20
162.940979853
 30
0.0
 10
28.2861669899
 20
163.3997445312
 30
0.0
 10
28.3056937257
 20
163.7066266263
 30
0.0
 10
28.3056937257
 20
163.8577057134
 30
0.0
  0
SPLINE
  5
3EB
100
AcDbEntity
  8
0
100
AcDbSpline
 62
7
  6
CONTINUOUS
 70
0
 71
3
 72
16
 73
12
 74
0
 42
0.0000001
 43
0.0000001
 44
0.0000000001
 40
0.0
 40
0.0
 40
0.0
 40
0.0
 40
0.1212214713
 40
0.2428335761
 40
0.3652124957
 40
0.4887085315
 40
0.5509943964
 40
0.6136845564
 40
0.7404052705
 40
0.8691410833
 40
1.0
 40
1.0
 40
1.0
 40
1.0
 10
10.6587218198
 20
166.9558865693
 30
0.0
 10
11.0882940429
 20
166.7077847291
 30
0.0
 10
11.9710249319
 20
166.2481347725
 30
0.0
 10
13.3534229893
 20
165.6753879636
 30
0.0
 10
14.7889604524
 20
165.2211655214
 30
0.0
 10
16.0208052616
 20
164.9438037649
 30
0.0
 10
17.0250116414
 20
164.7826133012
 30
0.0
 10
18.0480953171
 20
164.6611987944
 30
0.0
 10
19.3494541453
 20
164.5868687613
 30
0.0
 10
20.9314537045
 20
164.6213302933
 30
0.0
 10
21.989882938
 20
164.7251475611
 30
0.0
 10
22.5205695597
 20
164.7968632852
 30
0.0
  0
SPLINE
  5
3EC
100
AcDbEntity
  8
0
100
AcDbSpline
 62
7
  6
CONTINUOUS
 70
0
 71
3
 72
22
 73
18
 74
0
 42
0.0000001
 43
0.0000001
 44
0.0000000001
 40
0.0
 40
0.0
 40
0.0
 40
0.0
 40
0.0577987272
 40
0.1157367938
 40
0.17395149
 40
0.232573417
 40
0.291726171
 40
0.3515220207
 40
0.4120621395
 40
0.4734345272
 40
0.535712802
 40
0.5989560403
 40
0.6632039904
 40
0.7284842466
 40
0.7948171316
 40
0.86221286
 40
1.0
 40
1.0
 40
1.0
 40
1.0
 10
9.1628117204
 20
164.3659311495
 30
0.0
 10
8.7526760179
 20
164.6028288899
 30
0.0
 10
7.9490543741
 20
165.108514999
 30
0.0
 10
6.8023883162
 20
165.957495649
 30
0.0
 10
5.7175207424
 20
166.8945869661
 30
0.0
 10
4.6980344691
 20
167.9164611073
 30
0.0
 10
3.7474892581
 20
169.0198786146
 30
0.0
 10
2.8688196671
 20
170.2009401536
 30
0.0
 10
2.065079735
 20
171.455821797
 30
0.0
 10
1.3388320646
 20
172.780274751
 30
0.0
 10
0.6924110816
 20
174.1698868782
 30
0.0
 10
0.1280888413
 20
175.6200735659
 30
0.0
 10
-0.3525556515
 20
177.1258989129
 30
0.0
 10
-0.7477408137
 20
178.6824436219
 30
0.0
 10
-1.05635993
 20
180.2847477638
 30
0.0
 10
-1.3530174787
 20
182.4906821966
 30
0.0
 10
-1.4388668573
 20
184.1741118113
 30
0.0
 10
-1.4388668573
 20
185.303220799
 30
0.0
  0
SPLINE
  5
3ED
100
AcDbEntity
  8
0
100
AcDbSpline
 62
7
  6
CONTINUOUS
 70
0
 71
3
 72
15
 73
11
 74
0
 42
0.0000001
 43
0.0000001
 44
0.0000000001
 40
0.0
 40
0.0
 40
0.0
 40
0.0
 40
0.0939073652
 40
0.1932741619
 40
0.3011343912
 40
0.4193085819
 40
0.5486285009
 40
0.6891171621
 40
0.8401242027
 40
1.0
 40
1.0
 40
1.0
 40
1.0
 10
6.5522325965
 20
229.6785219141
 30
0.0
 10
6.508627426
 20
229.662535309
 30
0.0
 10
6.4228525207
 20
229.6178264416
 30
0.0
 10
6.3096044057
 20
229.5193747207
 30
0.0
 10
6.2113632848
 20
229.3907339717
 30
0.0
 10
6.1291580861
 20
229.2346393318
 30
0.0
 10
6.0641304193
 20
229.053557396
 30
0.0
 10
6.0170381272
 20
228.8504163876
 30
0.0
 10
5.9887788441
 20
228.6286612345
 30
0.0
 10
5.9827443697
 20
228.4748199312
 30
0.0
 10
5.9827443697
 20
228.3957509081
 30
0.0
  0
SPLINE
  5
3EE
100
AcDbEntity
  8
0
100
AcDbSpline
 62
7
  6
CONTINUOUS
 70
0
 71
3
 72
11
 73
7
 74
0
 42
0.0000001
 43
0.0000001
 44
0.0000000001
 40
0.0
 40
0.0
 40
0.0
 40
0.0
 40
0.2476396104
 40
0.4962457331
 40
0.7467498493
 40
1.0
 40
1.0
 40
1.0
 40
1.0
 10
-1.60534526
 20
231.9386614502
 30
0.0
 10
-0.978961187
 20
232.1065650141
 30
0.0
 10
0.2889595797
 20
232.3974960766
 30
0.0
 10
2.2232147758
 20
232.6960130317
 30
0.0
 10
4.1884871192
 20
232.8565541868
 30
0.0
 10
5.5088323684
 20
232.8714691815
 30
0.0
 10
6.17185082
 20
232.8564036468
 30
0.0
  0
SPLINE
  5
3EF
100
AcDbEntity
  8
0
100
AcDbSpline
 62
7
  6
CONTINUOUS
 70
0
 71
3
 72
22
 73
18
 74
0
 42
0.0000001
 43
0.0000001
 44
0.0000000001
 40
0.0
 40
0.0
 40
0.0
 40
0.0
 40
0.0593841605
 40
0.1197785567
 40
0.1810512712
 40
0.2431030177
 40
0.3058273643
 40
0.3690930246
 40
0.4327611175
 40
0.4966891629
 40
0.5607312459
 40
0.6247379801
 40
0.68856124
 40
0.7520553883
 40
0.8150803578
 40
0.8775027144
 40
1.0
 40
1.0
 40
1.0
 40
1.0
 10
-1.4388668573
 20
185.303220799
 30
0.0
 10
-1.4388668573
 20
186.0479251157
 30
0.0
 10
-1.388243194
 20
187.5504244089
 30
0.0
 10
-1.1661492142
 20
189.8114429757
 30
0.0
 10
-0.7979045519
 20
192.0872401115
 30
0.0
 10
-0.2859275228
 20
194.364937456
 30
0.0
 10
0.3671387362
 20
196.6322426154
 30
0.0
 10
1.1574914892
 20
198.8768811519
 30
0.0
 10
2.0810516258
 20
201.0864187772
 30
0.0
 10
3.1325302055
 20
203.2488380936
 30
0.0
 10
4.3063247572
 20
205.3522372301
 30
0.0
 10
5.5958760053
 20
207.3851661375
 30
0.0
 10
6.9942378735
 20
209.3364247434
 30
0.0
 10
8.4936337182
 20
211.1953308922
 30
0.0
 10
10.0860802734
 20
212.9518197061
 30
0.0
 10
12.306738228
 20
215.129783607
 30
0.0
 10
14.1064256765
 20
216.6044477936
 30
0.0
 10
15.3545910996
 20
217.4999398808
 30
0.0
  0
SPLINE
  5
3F0
100
AcDbEntity
  8
0
100
AcDbSpline
 62
7
  6
CONTINUOUS
 70
0
 71
3
 72
21
 73
17
 74
0
 42
0.0000001
 43
0.0000001
 44
0.0000000001
 40
0.0
 40
0.0
 40
0.0
 40
0.0
 40
0.1172355194
 40
0.1473968984
 40
0.1778591524
 40
0.2396178834
 40
0.3658607833
 40
0.4300512977
 40
0.4946507991
 40
0.5594384461
 40
0.6241889755
 40
0.7526123931
 40
0.8159359929
 40
0.8783820547
 40
0.9397980705
 40
1.0
 40
1.0
 40
1.0
 40
1.0
 10
28.3056937257
 20
166.3475975359
 30
0.0
 10
29.8035340668
 20
166.9481915967
 30
0.0
 10
31.6231911319
 20
167.8754582071
 30
0.0
 10
33.6843644737
 20
169.1964022873
 30
0.0
 10
35.0663255965
 20
170.1607464707
 30
0.0
 10
37.4300537912
 20
172.0236964004
 30
0.0
 10
39.9088427806
 20
174.4748180932
 30
0.0
 10
42.1327837814
 20
177.1937132339
 30
0.0
 10
43.6736678874
 20
179.3704086115
 30
0.0
 10
45.0646169567
 20
181.654822595
 30
0.0
 10
46.6994214052
 20
184.8092850897
 30
0.0
 10
47.9972066408
 20
188.1077921235
 30
0.0
 10
48.9234681744
 20
191.4843982368
 30
0.0
 10
49.4224433921
 20
194.0148471875
 30
0.0
 10
49.7241987135
 20
196.5328091172
 30
0.0
 10
49.7932977708
 20
198.2075943475
 30
0.0
 10
49.7932977708
 20
199.0362834171
 30
0.0
  0
SPLINE
  5
3F1
100
AcDbEntity
  8
0
100
AcDbSpline
 62
7
  6
CONTINUOUS
 70
0
 71
3
 72
16
 73
12
 74
0
 42
0.0000001
 43
0.0000001
 44
0.0000000001
 40
0.0
 40
0.0
 40
0.0
 40
0.0
 40
0.1156972183
 40
0.1739339709
 40
0.2325785695
 40
0.3515051303
 40
0.473393187
 40
0.5988800926
 40
0.7284276429
 40
0.8622408974
 40
1.0
 40
1.0
 40
1.0
 40
1.0
 10
22.4122409715
 20
157.8867237979
 30
0.0
 10
22.260685169
 20
157.9742395571
 30
0.0
 10
22.0424566004
 20
158.1235510271
 30
0.0
 10
21.7760511265
 20
158.3536728601
 30
0.0
 10
21.5238667444
 20
158.6063591439
 30
0.0
 10
21.2401785871
 20
158.9616659557
 30
0.0
 10
20.9572242774
 20
159.4399957087
 30
0.0
 10
20.7338029269
 20
159.9662635287
 30
0.0
 10
20.5724478617
 20
160.5333831297
 30
0.0
 10
20.4755315591
 20
161.133600362
 30
0.0
 10
20.4544537862
 20
161.5447569025
 30
0.0
 10
20.4544537862
 20
161.7531378018
 30
0.0
  0
SPLINE
  5
3F2
100
AcDbEntity
  8
0
100
AcDbSpline
 62
7
  6
CONTINUOUS
 70
0
 71
3
 72
11
 73
7
 74
0
 42
0.0000001
 43
0.0000001
 44
0.0000000001
 40
0.0
 40
0.0
 40
0.0
 40
0.0
 40
0.2581806237
 40
0.5110765576
 40
0.7583321971
 40
1.0
 40
1.0
 40
1.0
 40
1.0
 10
49.7932977708
 20
199.0362834171
 30
0.0
 10
49.7932977708
 20
199.7701420243
 30
0.0
 10
49.7401460764
 20
201.2234658439
 30
0.0
 10
49.4964971363
 20
203.3673187017
 30
0.0
 10
49.0906036042
 20
205.4387521801
 30
0.0
 10
48.709437369
 20
206.7772958581
 30
0.0
 10
48.4921195193
 20
207.4289361233
 30
0.0
  0
SPLINE
  5
3F3
100
AcDbEntity
  8
0
100
AcDbSpline
 62
7
  6
CONTINUOUS
 70
0
 71
3
 72
11
 73
7
 74
0
 42
0.0000001
 43
0.0000001
 44
0.0000000001
 40
0.0
 40
0.0
 40
0.0
 40
0.0
 40
0.2320563478
 40
0.4744748014
 40
0.7298333983
 40
1.0
 40
1.0
 40
1.0
 40
1.0
 10
6.17185082
 20
232.8564036468
 30
0.0
 10
6.2495572612
 20
232.8546379508
 30
0.0
 10
6.4083592678
 20
232.8389010509
 30
0.0
 10
6.6466126683
 20
232.7812547514
 30
0.0
 10
6.8876329452
 20
232.689722025
 30
0.0
 10
7.0444908291
 20
232.6090125922
 30
0.0
 10
7.1228508371
 20
232.5637533068
 30
0.0
  0
SPLINE
  5
3F4
100
AcDbEntity
  8
0
100
AcDbSpline
 62
7
  6
CONTINUOUS
 70
0
 71
3
 72
17
 73
13
 74
0
 42
0.0000001
 43
0.0000001
 44
0.0000000001
 40
0.0
 40
0.0
 40
0.0
 40
0.0
 40
0.0477584265
 40
0.0979031867
 40
0.2052168541
 40
0.2623367578
 40
0.3216475005
 40
0.44636347
 40
0.5781662095
 40
0.7155415473
 40
0.8568490636
 40
1.0
 40
1.0
 40
1.0
 40
1.0
 10
7.1228508371
 20
232.5637533068
 30
0.0
 10
7.1915421533
 20
232.5240784782
 30
0.0
 10
7.3289192404
 20
232.4366720674
 30
0.0
 10
7.6020925119
 20
232.2324052281
 30
0.0
 10
7.8644731634
 20
231.9894899646
 30
0.0
 10
8.114897601
 20
231.7147592198
 30
0.0
 10
8.3686513118
 20
231.404616481
 30
0.0
 10
8.6696604373
 20
230.9739621559
 30
0.0
 10
8.9968277363
 20
230.4065660498
 30
0.0
 10
9.2897531095
 20
229.7901314201
 30
0.0
 10
9.5429185094
 20
229.136189257
 30
0.0
 10
9.6820020251
 20
228.6841591085
 30
0.0
 10
9.7438870577
 20
228.4545827896
 30
0.0
  0
SPLINE
  5
3F5
100
AcDbEntity
  8
0
100
AcDbSpline
 62
7
  6
CONTINUOUS
 70
0
 71
3
 72
17
 73
13
 74
0
 42
0.0000001
 43
0.0000001
 44
0.0000000001
 40
0.0
 40
0.0
 40
0.0
 40
0.0
 40
0.0645626853
 40
0.1310412717
 40
0.2675600883
 40
0.405708838
 40
0.5417818849
 40
0.6720626184
 40
0.7932803501
 40
0.9030235884
 40
0.9531686879
 40
1.0
 40
1.0
 40
1.0
 40
1.0
 10
5.9827443697
 20
228.3957509081
 30
0.0
 10
5.9827443697
 20
228.334312632
 30
0.0
 10
5.9865540168
 20
228.2095856129
 30
0.0
 10
6.0084654712
 20
227.9558180596
 30
0.0
 10
6.0623929833
 20
227.6350402381
 30
0.0
 10
6.1657064488
 20
227.2574267215
 30
0.0
 10
6.304264554
 20
226.8975726103
 30
0.0
 10
6.4730780346
 20
226.5687676286
 30
0.0
 10
6.6657837693
 20
226.2830577336
 30
0.0
 10
6.8459703389
 20
226.0835715169
 30
0.0
 10
6.9968125274
 20
225.9569016527
 30
0.0
 10
7.0733281544
 20
225.9049095769
 30
0.0
 10
7.111646789
 20
225.8821561133
 30
0.0
  0
SPLINE
  5
3F6
100
AcDbEntity
  8
0
100
AcDbSpline
 62
7
  6
CONTINUOUS
 70
0
 71
3
 72
11
 73
7
 74
0
 42
0.0000001
 43
0.0000001
 44
0.0000000001
 40
0.0
 40
0.0
 40
0.0
 40
0.0
 40
0.2756786993
 40
0.5307645126
 40
0.7697684013
 40
1.0
 40
1.0
 40
1.0
 40
1.0
 10
7.1228508371
 20
225.8755939941
 30
0.0
 10
7.1663030451
 20
225.8504968057
 30
0.0
 10
7.2535642982
 20
225.8079704081
 30
0.0
 10
7.3888957574
 20
225.7687065868
 30
0.0
 10
7.5212758646
 20
225.7579993346
 30
0.0
 10
7.6066734252
 20
225.7704560458
 30
0.0
 10
7.6471518722
 20
225.7813045793
 30
0.0
  0
SPLINE
  5
3F7
100
AcDbEntity
  8
0
100
AcDbSpline
 62
7
  6
CONTINUOUS
 70
0
 71
3
 72
10
 73
6
 74
0
 42
0.0000001
 43
0.0000001
 44
0.0000000001
 40
0.0
 40
0.0
 40
0.0
 40
0.0
 40
0.2405485185
 40
0.4865776611
 40
1.0
 40
1.0
 40
1.0
 40
1.0
 10
-33.4404273581
 20
256.0624008038
 30
0.0
 10
-34.2032007924
 20
256.2947001529
 30
0.0
 10
-35.7852939911
 20
256.6454579596
 30
0.0
 10
-39.1001707774
 20
256.8804533737
 30
0.0
 10
-41.6309228473
 20
256.5172398138
 30
0.0
 10
-43.2747641672
 20
256.0765991353
 30
0.0
  0
SPLINE
  5
3F8
100
AcDbEntity
  8
0
100
AcDbSpline
 62
7
  6
CONTINUOUS
 70
0
 71
3
 72
9
 73
5
 74
0
 42
0.0000001
 43
0.0000001
 44
0.0000000001
 40
0.0
 40
0.0
 40
0.0
 40
0.0
 40
0.4990689588
 40
1.0
 40
1.0
 40
1.0
 40
1.0
 10
2.4369125983
 20
240.4787000361
 30
0.0
 10
0.2396850347
 20
241.0383254521
 30
0.0
 10
-4.3330345278
 20
241.569064574
 30
0.0
 10
-8.8820770447
 20
240.916958039
 30
0.0
 10
-11.0803063004
 20
240.3277106365
 30
0.0
  0
SPLINE
  5
3F9
100
AcDbEntity
  8
0
100
AcDbSpline
 62
7
  6
CONTINUOUS
 70
0
 71
3
 72
9
 73
5
 74
0
 42
0.0000001
 43
0.0000001
 44
0.0000000001
 40
0.0
 40
0.0
 40
0.0
 40
0.0
 40
0.5017503482
 40
1.0
 40
1.0
 40
1.0
 40
1.0
 10
-32.0403399745
 20
222.1133568297
 30
0.0
 10
-32.8564188483
 20
220.3627828029
 30
0.0
 10
-34.1990757944
 20
216.7340172564
 30
0.0
 10
-34.9128237679
 20
212.9292222395
 30
0.0
 10
-35.0984542733
 20
211.020253413
 30
0.0
  0
SPLINE
  5
3FA
100
AcDbEntity
  8
0
100
AcDbSpline
 62
7
  6
CONTINUOUS
 70
0
 71
3
 72
13
 73
9
 74
0
 42
0.0000001
 43
0.0000001
 44
0.0000000001
 40
0.0
 40
0.0
 40
0.0
 40
0.0
 40
0.2522828252
 40
0.5023059475
 40
0.6269804435
 40
0.7514330048
 40
0.8757516769
 40
1.0
 40
1.0
 40
1.0
 40
1.0
 10
-35.1392626619
 20
210.5676666341
 30
0.0
 10
-35.3254594551
 20
208.3267561908
 30
0.0
 10
-35.2291356169
 20
203.8104162898
 30
0.0
 10
-33.8456719802
 20
198.3398997068
 30
0.0
 10
-31.9896973357
 20
194.2857160642
 30
0.0
 10
-30.2342680721
 20
191.4468033164
 30
0.0
 10
-28.1340218145
 20
188.8581258305
 30
0.0
 10
-26.5209782125
 20
187.3284083163
 30
0.0
 10
-25.6690172898
 20
186.6208827064
 30
0.0
  0
SPLINE
  5
3FB
100
AcDbEntity
  8
0
100
AcDbSpline
 62
7
  6
CONTINUOUS
 70
0
 71
3
 72
20
 73
16
 74
0
 42
0.0000001
 43
0.0000001
 44
0.0000000001
 40
0.0
 40
0.0
 40
0.0
 40
0.0
 40
0.1227236171
 40
0.1878064471
 40
0.2547478163
 40
0.3916133936
 40
0.4604255551
 40
0.528481433
 40
0.6595702491
 40
0.721937457
 40
0.781755041
 40
0.8390517072
 40
0.8941186821
 40
0.9475100412
 40
1.0
 40
1.0
 40
1.0
 40
1.0
 10
-43.2747641672
 20
256.0765991353
 30
0.0
 10
-45.5932482868
 20
255.4551167556
 30
0.0
 10
-48.9985000922
 20
253.8995923533
 30
0.0
 10
-53.0322660711
 20
250.9618860962
 30
0.0
 10
-56.8640485214
 20
247.340921877
 30
0.0
 10
-60.0400721243
 20
242.9836906271
 30
0.0
 10
-62.3949679266
 20
238.1640179565
 30
0.0
 10
-64.1233978568
 20
233.2070082212
 30
0.0
 10
-64.9188954356
 20
228.0841796673
 30
0.0
 10
-64.6412994518
 20
223.1235823722
 30
0.0
 10
-63.9203428095
 20
219.6727810849
 30
0.0
 10
-62.6971528388
 20
216.517630209
 30
0.0
 10
-60.9967724132
 20
213.7351059133
 30
0.0
 10
-58.8586989391
 20
211.3979058571
 30
0.0
 10
-57.1676456812
 20
210.173024769
 30
0.0
 10
-56.2786566232
 20
209.6595105543
 30
0.0
  0
SPLINE
  5
3FC
100
AcDbEntity
  8
0
100
AcDbSpline
 62
7
  6
CONTINUOUS
 70
0
 71
3
 72
11
 73
7
 74
0
 42
0.0000001
 43
0.0000001
 44
0.0000000001
 40
0.0
 40
0.0
 40
0.0
 40
0.0
 40
0.247020644
 40
0.4960238735
 40
0.7471595752
 40
1.0
 40
1.0
 40
1.0
 40
1.0
 10
-11.0808399666
 20
240.3275675788
 30
0.0
 10
-12.8648669835
 20
239.8493122955
 30
0.0
 10
-16.3616613989
 20
238.5369620552
 30
0.0
 10
-21.1717067004
 20
235.640868933
 30
0.0
 10
-25.4455411314
 20
231.9361685436
 30
0.0
 10
-27.8610891616
 20
229.0184827533
 30
0.0
 10
-28.9461813903
 20
227.4703557461
 30
0.0
  0
SPLINE
  5
3FD
100
AcDbEntity
  8
0
100
AcDbSpline
 62
7
  6
CONTINUOUS
 70
0
 71
3
 72
9
 73
5
 74
0
 42
0.0000001
 43
0.0000001
 44
0.0000000001
 40
0.0
 40
0.0
 40
0.0
 40
0.0
 40
0.5086591576
 40
1.0
 40
1.0
 40
1.0
 40
1.0
 10
-27.095516282
 20
246.2793805816
 30
0.0
 10
-27.5091674778
 20
247.7441358919
 30
0.0
 10
-28.4733789503
 20
250.5833306455
 30
0.0
 10
-29.7401311238
 20
253.3025155947
 30
0.0
 10
-30.4421962304
 20
254.5942809953
 30
0.0
  0
SPLINE
  5
3FE
100
AcDbEntity
  8
0
100
AcDbSpline
 62
7
  6
CONTINUOUS
 70
0
 71
3
 72
9
 73
5
 74
0
 42
0.0000001
 43
0.0000001
 44
0.0000000001
 40
0.0
 40
0.0
 40
0.0
 40
0.0
 40
0.2540444235
 40
1.0
 40
1.0
 40
1.0
 40
1.0
 10
-30.4421962304
 20
254.5942809953
 30
0.0
 10
-30.5397905117
 20
254.7738496917
 30
0.0
 10
-30.9300912352
 20
255.4773280378
 30
0.0
 10
-31.3451109462
 20
256.1671541456
 30
0.0
 10
-31.6692546603
 20
256.6721955546
 30
0.0
  0
SPLINE
  5
3FF
100
AcDbEntity
  8
0
100
AcDbSpline
 62
7
  6
CONTINUOUS
 70
0
 71
3
 72
11
 73
7
 74
0
 42
0.0000001
 43
0.0000001
 44
0.0000000001
 40
0.0
 40
0.0
 40
0.0
 40
0.0
 40
0.2599438633
 40
0.5166476998
 40
0.7649142681
 40
1.0
 40
1.0
 40
1.0
 40
1.0
 10
-21.1523271506
 20
245.5305391702
 30
0.0
 10
-21.4679608128
 20
246.8970341574
 30
0.0
 10
-22.2140257211
 20
249.5870873542
 30
0.0
 10
-23.6607894237
 20
253.457758401
 30
0.0
 10
-25.3954446168
 20
257.0602680956
 30
0.0
 10
-26.7574166687
 20
259.2911021942
 30
0.0
 10
-27.4806441528
 20
260.3330577751
 30
0.0
  0
SPLINE
  5
400
100
AcDbEntity
  8
0
100
AcDbSpline
 62
7
  6
CONTINUOUS
 70
0
 71
3
 72
15
 73
11
 74
0
 42
0.0000001
 43
0.0000001
 44
0.0000000001
 40
0.0
 40
0.0
 40
0.0
 40
0.0
 40
0.1150933787
 40
0.2374946055
 40
0.365780053
 40
0.4974792167
 40
0.6295700804
 40
0.758969556
 40
0.8830199529
 40
1.0
 40
1.0
 40
1.0
 40
1.0
 10
-34.6636842083
 20
202.2619264878
 30
0.0
 10
-35.2326385687
 20
203.9560862589
 30
0.0
 10
-35.9480586722
 20
207.6165218167
 30
0.0
 10
-35.7788811834
 20
213.3323024468
 30
0.0
 10
-34.4301490961
 20
219.1523133656
 30
0.0
 10
-31.9791140732
 20
224.7612531423
 30
0.0
 10
-28.5603284321
 20
229.859125515
 30
0.0
 10
-24.3557328854
 20
234.1706375687
 30
0.0
 10
-19.5918123453
 20
237.4595247602
 30
0.0
 10
-16.0910935528
 20
238.8921457123
 30
0.0
 10
-14.33659336
 20
239.3624491083
 30
0.0
  0
SPLINE
  5
401
100
AcDbEntity
  8
0
100
AcDbSpline
 62
7
  6
CONTINUOUS
 70
0
 71
3
 72
18
 73
14
 74
0
 42
0.0000001
 43
0.0000001
 44
0.0000000001
 40
0.0
 40
0.0
 40
0.0
 40
0.0
 40
0.1204784006
 40
0.1840972241
 40
0.249502586
 40
0.3836509553
 40
0.5189457872
 40
0.6509014907
 40
0.7757821053
 40
0.8350205426
 40
0.8919759046
 40
0.9468392472
 40
1.0
 40
1.0
 40
1.0
 40
1.0
 10
-6.6787541045
 20
239.5360964407
 30
0.0
 10
-9.1857199056
 20
238.8640654307
 30
0.0
 10
-12.8764756451
 20
237.245758917
 30
0.0
 10
-17.3217782104
 20
234.2116728203
 30
0.0
 10
-21.6044309308
 20
230.4772506361
 30
0.0
 10
-26.1997965913
 20
224.8360426013
 30
0.0
 10
-30.1511375809
 20
217.0717543893
 30
0.0
 10
-32.2977668398
 20
208.8310482948
 30
0.0
 10
-32.4328738172
 20
201.94215131
 30
0.0
 10
-31.46756175
 20
196.823337264
 30
0.0
 10
-30.2574834325
 20
193.3268391468
 30
0.0
 10
-28.5712893271
 20
190.1809116838
 30
0.0
 10
-27.1302306261
 20
188.3354360877
 30
0.0
 10
-26.346055768
 20
187.5007740965
 30
0.0
  0
SPLINE
  5
402
100
AcDbEntity
  8
0
100
AcDbSpline
 62
7
  6
CONTINUOUS
 70
0
 71
3
 72
11
 73
7
 74
0
 42
0.0000001
 43
0.0000001
 44
0.0000000001
 40
0.0
 40
0.0
 40
0.0
 40
0.0
 40
0.2350857319
 40
0.4833523002
 40
0.7400561367
 40
1.0
 40
1.0
 40
1.0
 40
1.0
 10
-31.6128757
 20
259.2253904532
 30
0.0
 10
-30.8896482158
 20
258.1834348723
 30
0.0
 10
-29.527676164
 20
255.9526007738
 30
0.0
 10
-27.7930209708
 20
252.3500910792
 30
0.0
 10
-26.3462572682
 20
248.4794200323
 30
0.0
 10
-25.6001923599
 20
245.7893668356
 30
0.0
 10
-25.2845586977
 20
244.4228718483
 30
0.0
  0
SPLINE
  5
403
100
AcDbEntity
  8
0
100
AcDbSpline
 62
7
  6
CONTINUOUS
 70
0
 71
3
 72
9
 73
5
 74
0
 42
0.0000001
 43
0.0000001
 44
0.0000000001
 40
0.0
 40
0.0
 40
0.0
 40
0.0
 40
0.4890167311
 40
1.0
 40
1.0
 40
1.0
 40
1.0
 10
1.8983082172
 20
240.1906473906
 30
0.0
 10
0.5007532949
 20
240.3684299745
 30
0.0
 10
-2.4024616785
 20
240.4243422297
 30
0.0
 10
-5.2568489788
 20
239.9172364602
 30
0.0
 10
-6.6787541046
 20
239.5360964407
 30
0.0
  0
ELLIPSE
  5
404
100
AcDbEntity
  8
0
100
AcDbEllipse
 62
7
  6
CONTINUOUS
 10
26.2779437095
 20
192.0015468291
 30
0.0
 11
13.0623422305
 21
29.8324278079
 31
0.0
 40
0.7879852971
 41
0.9489282393
 42
1.0772394968
  0
ELLIPSE
  5
405
100
AcDbEntity
  8
0
100
AcDbEllipse
 62
7
  6
CONTINUOUS
 10
-17.3322531218
 20
217.189986603
 30
0.0
 11
-3.2577115587
 21
27.7169013922
 31
0.0
 40
0.7940586883
 41
6.302239546
 42
6.4948448101
  0
ELLIPSE
  5
406
100
AcDbEntity
  8
0
100
AcDbEllipse
 62
7
  6
CONTINUOUS
 10
-28.2863854764
 20
223.5168900141
 30
0.0
 11
10.221295777
 21
23.9842587936
 31
0.0
 40
0.7898593978
 41
6.7562446302
 42
6.933802089
  0
ENDSEC
  0
SECTION
  2
OBJECTS
  0
DICTIONARY
  5
C
100
AcDbDictionary
280
0
281
1
  3
ACAD_GROUP
350
D
  3
ACAD_MLINESTYLE
350
17
  3
ACAD_LAYOUT
350
1A
  3
ACAD_PLOTSETTINGS
350
19
  3
ACAD_PLOTSTYLENAME
350
E
  0
DICTIONARY
  5
D
102
{ACAD_REACTORS
330
C
102
}
100
AcDbDictionary
280
0
281
1
  0
ACDBDICTIONARYWDFLT
  5
E
102
{ACAD_REACTORS
330
C
102
}
100
AcDbDictionary
281
1
  3
Normal
350
F
100
AcDbDictionaryWithDefault
340
F
  0
DICTIONARY
  5
17
102
{ACAD_REACTORS
330
C
102
}
100
AcDbDictionary
280
0
281
1
  3
Standard
350
18
  0
DICTIONARY
  5
19
102
{ACAD_REACTORS
330
C
102
}
100
AcDbDictionary
281
1
  0
DICTIONARY
  5
1A
102
{ACAD_REACTORS
330
C
102
}
100
AcDbDictionary
281
1
  3
Model
350
407
  3
Layout1
350
408
  0
ACDBPLACEHOLDER
  5
F
102
{ACAD_REACTORS
330
E
102
}
  0
MLINESTYLE
  5
18
102
{ACAD_REACTORS
330
17
102
}
100
AcDbMlineStyle
  2
STANDARD
 70
0
  3

 62
256
 51
90.0
 52
90.0
 71
2
 49
0.5
 62
256
  6
BYLAYER
 49
-0.5
 62
256
  6
BYLAYER
  0
LAYOUT
  5
407
102
{ACAD_REACTORS
330
1A
102
}
100
AcDbPlotSettings
  1

  2
none_device
  4
ANSI_C_(22.00_x_17.00_Inches)
  6

 40
0.0
 41
0.0
 42
0.0
 43
0.0
 44
558.8
 45
431.8
 46
0.0
 47
0.0
 48
0.0
 49
0.0
140
0.0
141
0.0
142
1.0
143
1.0
 70
1024
 72
1
 73
0
 74
0
  7

 75
0
147
1.0
148
0.0
149
0.0
100
AcDbLayout
  1
Model
 70
0
 71
0
 10
0.0
 20
0.0
 11
558.8
 21
431.8
 12
0.0
 22
0.0
 32
0.0
 14
0.0
 24
0.0
 34
0.0
 15
0.0
 25
0.0
 35
0.0
146
0.0
 13
0.0
 23
0.0
 33
0.0
 16
1.0
 26
0.0
 36
0.0
 17
0.0
 27
1.0
 37
0.0
 76
0
330
1FF
345
0
346
0
  0
LAYOUT
  5
408
102
{ACAD_REACTORS
330
1A
102
}
100
AcDbPlotSettings
  1

  2
none_device
  4
ANSI_C_(22.00_x_17.00_Inches)
  6

 40
0.0
 41
0.0
 42
0.0
 43
0.0
 44
558.8
 45
431.8
 46
0.0
 47
0.0
 48
0.0
 49
0.0
140
0.0
141
0.0
142
1.0
143
1.0
 70
0
 72
1
 73
0
 74
0
  7

 75
0
147
1.0
148
0.0
149
0.0
100
AcDbLayout
  1
Layout1
 70
0
 71
1
 10
0.0
 20
0.0
 11
558.8
 21
431.8
 12
0.0
 22
0.0
 32
0.0
 14
0.0
 24
0.0
 34
0.0
 15
0.0
 25
0.0
 35
0.0
146
0.0
 13
0.0
 23
0.0
 33
0.0
 16
1.0
 26
0.0
 36
0.0
 17
0.0
 27
1.0
 37
0.0
 76
0
330
200
345
0
346
0
  0
ENDSEC
  0
EOF
