999
DXF file: Y:\3D PRATIKA-KAEDRA_OLGA\TRAVAIL_PHASE_2\CAD3D\PKF32M435_3D-Simplified\2D-Views\pkf32m435_2d-isometric.dxf
999
Pro/ENGINEER 2018260 by Parametric Technology Corporation
  0
SECTION
  2
HEADER
  9
$ACADVER
  1
AC1027
  9
$DWGCODEPAGE
  3
ANSI_1252
  9
$EXTMAX
 10
558.8
 20
431.8
 30
0.0
  9
$EXTMIN
 10
0.0
 20
0.0
 30
0.0
  9
$LIMMIN
 10
0.0
 20
0.0
  9
$LIMMAX
 10
558.8
 20
431.8
  9
$VIEWCTR
 10
279.4
 20
215.9
  9
$VIEWSIZE
 40
431.8
  9
$CLAYER
  8
0
  9
$LTSCALE
 40
30.734
  9
$CELTYPE
  6
BYLAYER
  9
$DIMSCALE
 40
1.0
  9
$DIMASZ
 40
0.1875
  9
$DIMEXO
 40
0.0625
  9
$DIMDLI
 40
21.2344
  9
$DIMEXE
 40
0.125
  9
$DIMCEN
 40
5.0292
  9
$DIMLFAC
 40
1.0
  9
$DIMBLK
  1
_CLOSED
  9
$DIMALT
 70
0
  9
$DIMALTF
 40
0.0393700787
  9
$DIMTXT
 40
0.15625
  9
$DIMTOL
 70
0
  9
$DIMLIM
 70
0
  9
$DIMTFAC
 40
1.0
  9
$DIMGAP
 40
0.625
  9
$DIMDSEP
 70
46
  9
$AUNITS
 70
0
  9
$PDMODE
 70
3
  9
$PDSIZE
 40
0.3125
  9
$HANDSEED
  5
3EB
  9
$TILEMODE
 70
1
  9
$MEASUREMENT
 70
1
  9
$INSUNITS
 70
4
  0
ENDSEC
  0
SECTION
  2
CLASSES
  0
CLASS
  1
ACDBDICTIONARYWDFLT
  2
AcDbDictionaryWithDefault
  3
AutoCAD 2000
 90
0
 91
1
280
0
281
0
  0
CLASS
  1
ACDBPLACEHOLDER
  2
AcDbPlaceHolder
  3
AutoCAD 2000
 90
0
 91
1
280
0
281
0
  0
CLASS
  1
LAYOUT
  2
AcDbLayout
  3
AutoCAD 2000
 90
0
 91
0
280
0
281
0
  0
ENDSEC
  0
SECTION
  2
TABLES
  0
TABLE
  2
VPORT
  5
8
100
AcDbSymbolTable
 70
2
  0
VPORT
  5
1F4
100
AcDbSymbolTableRecord
100
AcDbViewportTableRecord
  2
*ACTIVE
 70
0
 10
0.0
 20
0.0
 11
1.0
 21
1.0
 12
279.4
 22
215.9
 13
0.0
 23
0.0
 14
1.0
 24
1.0
 15
0.0
 25
0.0
 16
0.0
 26
0.0
 36
1.0
 17
0.0
 27
0.0
 37
0.0
 40
431.8
 41
1.2941176471
 42
50.0
 43
0.0
 44
0.0
 50
0.0
 51
0.0
 71
0
 72
100
 73
1
 74
1
 75
0
 76
0
 77
0
 78
0
  0
ENDTAB
  0
TABLE
  2
LTYPE
  5
5
100
AcDbSymbolTable
 70
6
  0
LTYPE
  5
14
100
AcDbSymbolTableRecord
100
AcDbLinetypeTableRecord
  2
BYBLOCK
 70
0
  3

 72
65
 73
0
 40
0.0
  0
LTYPE
  5
15
100
AcDbSymbolTableRecord
100
AcDbLinetypeTableRecord
  2
BYLAYER
 70
0
  3

 72
65
 73
0
 40
0.0
  0
LTYPE
  5
16
100
AcDbSymbolTableRecord
100
AcDbLinetypeTableRecord
  2
CONTINUOUS
 70
64
  3
Solid line
 72
65
 73
0
 40
0.0
  0
LTYPE
  5
1F5
100
AcDbSymbolTableRecord
100
AcDbLinetypeTableRecord
  2
CENTER
 70
64
  3
____ _ ____ _ ____ _ ____ _ ____ _ ____ _ ____
 72
65
 73
4
 40
0.6
 49
0.375
 74
0
 49
-0.075
 74
0
 49
0.075
 74
0
 49
-0.075
 74
0
  0
LTYPE
  5
1F6
100
AcDbSymbolTableRecord
100
AcDbLinetypeTableRecord
  2
HIDDEN
 70
64
  3
- - - - - - - - - - - - - - - - - - - -
 72
65
 73
2
 40
0.2
 49
0.1
 74
0
 49
-0.1
 74
0
  0
LTYPE
  5
1F7
100
AcDbSymbolTableRecord
100
AcDbLinetypeTableRecord
  2
PHANTOM
 70
64
  3
_____ _ _ _____ _ _ _____ _ _ _____
 72
65
 73
6
 40
0.8
 49
0.45
 74
0
 49
-0.05
 74
0
 49
0.1
 74
0
 49
-0.05
 74
0
 49
0.1
 74
0
 49
-0.05
 74
0
  0
LTYPE
  5
1F8
100
AcDbSymbolTableRecord
100
AcDbLinetypeTableRecord
  2
DOT
 70
64
  3
. . . . . . . . . . . . . . . . . . . .
 72
65
 73
2
 40
0.2
 49
0.1
 74
0
 49
-0.1
 74
0
  0
LTYPE
  5
1F9
100
AcDbSymbolTableRecord
100
AcDbLinetypeTableRecord
  2
DASHED
 70
64
  3
- - - - - - - - - - - - - - - - - - - -
 72
65
 73
2
 40
0.2
 49
0.1
 74
0
 49
-0.1
 74
0
  0
ENDTAB
  0
TABLE
  2
LAYER
  5
2
100
AcDbSymbolTable
 70
36
  0
LAYER
  5
10
100
AcDbSymbolTableRecord
100
AcDbLayerTableRecord
  2
0
 70
0
 62
7
  6
CONTINUOUS
370
-3
390
F
  0
LAYER
  5
1FA
100
AcDbSymbolTableRecord
100
AcDbLayerTableRecord
  2
DEFAULT_1
 70
0
 62
7
  6
CENTER
370
-3
390
F
  0
LAYER
  5
1FB
100
AcDbSymbolTableRecord
100
AcDbLayerTableRecord
  2
DEFAULT_2
 70
0
 62
8
  6
HIDDEN
370
-3
390
F
  0
LAYER
  5
1FC
100
AcDbSymbolTableRecord
100
AcDbLayerTableRecord
  2
DEFAULT_3
 70
0
 62
7
  6
PHANTOM
370
-3
390
F
  0
LAYER
  5
1FD
100
AcDbSymbolTableRecord
100
AcDbLayerTableRecord
  2
01_ALL_DTM_PLN
 70
0
 62
7
  6
CONTINUOUS
370
-3
390
F
  0
LAYER
  5
1FE
100
AcDbSymbolTableRecord
100
AcDbLayerTableRecord
  2
01__ASM_ALL_DTM_PLN
 70
0
 62
7
  6
CONTINUOUS
370
-3
390
F
  0
LAYER
  5
1FF
100
AcDbSymbolTableRecord
100
AcDbLayerTableRecord
  2
01__ASM_DEF_DTM_PLN
 70
0
 62
7
  6
CONTINUOUS
370
-3
390
F
  0
LAYER
  5
200
100
AcDbSymbolTableRecord
100
AcDbLayerTableRecord
  2
01___PRT_ALL_DTM_PLN
 70
0
 62
7
  6
CONTINUOUS
370
-3
390
F
  0
LAYER
  5
201
100
AcDbSymbolTableRecord
100
AcDbLayerTableRecord
  2
01___PRT_DEF_DTM_PLN
 70
0
 62
7
  6
CONTINUOUS
370
-3
390
F
  0
LAYER
  5
202
100
AcDbSymbolTableRecord
100
AcDbLayerTableRecord
  2
02_ALL_AXES
 70
0
 62
7
  6
CONTINUOUS
370
-3
390
F
  0
LAYER
  5
203
100
AcDbSymbolTableRecord
100
AcDbLayerTableRecord
  2
02__ASM_ALL_AXES
 70
0
 62
7
  6
CONTINUOUS
370
-3
390
F
  0
LAYER
  5
204
100
AcDbSymbolTableRecord
100
AcDbLayerTableRecord
  2
02___PRT_ALL_AXES
 70
0
 62
7
  6
CONTINUOUS
370
-3
390
F
  0
LAYER
  5
205
100
AcDbSymbolTableRecord
100
AcDbLayerTableRecord
  2
03_ALL_CURVES
 70
0
 62
7
  6
CONTINUOUS
370
-3
390
F
  0
LAYER
  5
206
100
AcDbSymbolTableRecord
100
AcDbLayerTableRecord
  2
03__ASM_ALL_CURVES
 70
0
 62
7
  6
CONTINUOUS
370
-3
390
F
  0
LAYER
  5
207
100
AcDbSymbolTableRecord
100
AcDbLayerTableRecord
  2
03___PRT_ALL_CURVES
 70
0
 62
7
  6
CONTINUOUS
370
-3
390
F
  0
LAYER
  5
208
100
AcDbSymbolTableRecord
100
AcDbLayerTableRecord
  2
04_ALL_DTM_PNT
 70
0
 62
7
  6
CONTINUOUS
370
-3
390
F
  0
LAYER
  5
209
100
AcDbSymbolTableRecord
100
AcDbLayerTableRecord
  2
04__ASM_ALL_DTM_PNT
 70
0
 62
7
  6
CONTINUOUS
370
-3
390
F
  0
LAYER
  5
20A
100
AcDbSymbolTableRecord
100
AcDbLayerTableRecord
  2
04___PRT_ALL_DTM_PNT
 70
0
 62
7
  6
CONTINUOUS
370
-3
390
F
  0
LAYER
  5
20B
100
AcDbSymbolTableRecord
100
AcDbLayerTableRecord
  2
05_ALL_DTM_CSYS
 70
0
 62
7
  6
CONTINUOUS
370
-3
390
F
  0
LAYER
  5
20C
100
AcDbSymbolTableRecord
100
AcDbLayerTableRecord
  2
05__ASM_ALL_DTM_CSYS
 70
0
 62
7
  6
CONTINUOUS
370
-3
390
F
  0
LAYER
  5
20D
100
AcDbSymbolTableRecord
100
AcDbLayerTableRecord
  2
05__ASM_DEF_DTM_CSYS
 70
0
 62
7
  6
CONTINUOUS
370
-3
390
F
  0
LAYER
  5
20E
100
AcDbSymbolTableRecord
100
AcDbLayerTableRecord
  2
05___PRT_ALL_DTM_CSYS
 70
0
 62
7
  6
CONTINUOUS
370
-3
390
F
  0
LAYER
  5
20F
100
AcDbSymbolTableRecord
100
AcDbLayerTableRecord
  2
05___PRT_DEF_DTM_CSYS
 70
0
 62
7
  6
CONTINUOUS
370
-3
390
F
  0
LAYER
  5
210
100
AcDbSymbolTableRecord
100
AcDbLayerTableRecord
  2
06_ALL_SURFS
 70
0
 62
7
  6
CONTINUOUS
370
-3
390
F
  0
LAYER
  5
211
100
AcDbSymbolTableRecord
100
AcDbLayerTableRecord
  2
06__ASM_ALL_SURFS
 70
0
 62
7
  6
CONTINUOUS
370
-3
390
F
  0
LAYER
  5
212
100
AcDbSymbolTableRecord
100
AcDbLayerTableRecord
  2
06___PRT_ALL_SURFS
 70
0
 62
7
  6
CONTINUOUS
370
-3
390
F
  0
LAYER
  5
213
100
AcDbSymbolTableRecord
100
AcDbLayerTableRecord
  2
07__ASM_ALL_SKELETONS
 70
0
 62
7
  6
CONTINUOUS
370
-3
390
F
  0
ENDTAB
  0
TABLE
  2
STYLE
  5
3
100
AcDbSymbolTable
 70
1
  0
STYLE
  5
11
100
AcDbSymbolTableRecord
100
AcDbTextStyleTableRecord
  2
STANDARD
 70
0
 40
0.0
 41
0.8
 50
0.0
 71
0
 42
0.2
  3
txt
  4

  0
STYLE
  5
214
100
AcDbSymbolTableRecord
100
AcDbTextStyleTableRecord
  2
TEXTSTYLE_1
 70
0
 40
0.0
 41
0.8
 50
0.0
 71
0
 42
0.2
  3
gdt
  4

  0
ENDTAB
  0
TABLE
  2
VIEW
  5
6
100
AcDbSymbolTable
 70
0
  0
ENDTAB
  0
TABLE
  2
UCS
  5
7
100
AcDbSymbolTable
 70
0
  0
ENDTAB
  0
TABLE
  2
APPID
  5
9
100
AcDbSymbolTable
 70
1
  0
APPID
  5
215
100
AcDbSymbolTableRecord
100
AcDbRegAppTableRecord
  2
ACAD
 70
0
  0
ENDTAB
  0
TABLE
  2
BLOCK_RECORD
  5
1
100
AcDbSymbolTable
 70
0
  0
BLOCK_RECORD
  5
216
100
AcDbSymbolTableRecord
100
AcDbBlockTableRecord
  2
*Model_Space
  0
BLOCK_RECORD
  5
217
100
AcDbSymbolTableRecord
100
AcDbBlockTableRecord
  2
*Paper_Space
  0
BLOCK_RECORD
  5
218
100
AcDbSymbolTableRecord
100
AcDbBlockTableRecord
  2
_CLOSED
  0
ENDTAB
  0
TABLE
  2
DIMSTYLE
  5
A
100
AcDbSymbolTable
 70
1
100
AcDbDimStyleTable
 71
0
  0
DIMSTYLE
105
219
100
AcDbSymbolTableRecord
100
AcDbDimStyleTableRecord
  2
STANDARD
 70
0
  3

  4

 40
1.0
 41
0.1875
 42
0.0625
 43
0.38
 44
0.125
 45
0.0
 46
0.0
 47
0.01
 48
0.01
140
0.15625
141
0.09
142
0.0
143
25.4
144
1.0
145
0.0
146
1.0
147
0.625
 71
0.0
 72
0.0
 73
1
 74
1
 75
0
 76
0
 77
0
 78
8
 79
2
170
0
171
1
172
0
173
0
174
0
175
0
176
0
177
0
178
0
270
2
179
2
271
2
272
2
273
2
274
2
275
0
280
0
281
0
282
0
283
1
284
8
285
0
286
0
287
3
288
0
340
11
278
46
341
218
342
218
343
218
344
218
  0
ENDTAB
  0
ENDSEC
  0
SECTION
  2
BLOCKS
  0
BLOCK
  5
20
100
AcDbEntity
  8
0
100
AcDbBlockBegin
  2
*Model_Space
 70
0
 10
0.0
 20
0.0
 30
0.0
  3
*Model_Space
  1

  0
ENDBLK
  5
21
100
AcDbEntity
  8
0
100
AcDbBlockEnd
  0
BLOCK
  5
1C
100
AcDbEntity
  8
0
100
AcDbBlockBegin
  2
*Paper_Space
 70
0
 10
0.0
 20
0.0
 30
0.0
  3
*Paper_Space
  1

  0
ENDBLK
  5
1D
100
AcDbEntity
  8
0
100
AcDbBlockEnd
  0
BLOCK
  5
21A
100
AcDbEntity
  8
0
100
AcDbBlockBegin
  2
_CLOSED
 70
64
 10
0.0
 20
0.0
  3
_CLOSED
  1

  0
LINE
  5
21B
100
AcDbEntity
  8
0
  6
BYBLOCK
 62
0
100
AcDbLine
 10
0.0
 20
0.0
 11
-1.0
 21
0.1666666667
  0
LINE
  5
21C
100
AcDbEntity
  8
0
  6
BYBLOCK
 62
0
100
AcDbLine
 10
-1.0
 20
0.1666666667
 11
-1.0
 21
-0.1666666667
  0
LINE
  5
21D
100
AcDbEntity
  8
0
  6
BYBLOCK
 62
0
100
AcDbLine
 10
-1.0
 20
-0.1666666667
 11
0.0
 21
0.0
  0
LINE
  5
21E
100
AcDbEntity
  8
0
  6
BYBLOCK
 62
0
100
AcDbLine
 10
-1.0
 20
0.0
 11
0.0
 21
0.0
  0
ENDBLK
  5
21F
100
AcDbEntity
  8
0
  6
BYBLOCK
 62
0
100
AcDbBlockEnd
  0
ENDSEC
  0
SECTION
  2
ENTITIES
  0
LINE
  5
220
100
AcDbEntity
  8
0
100
AcDbLine
 62
7
  6
CONTINUOUS
 10
-122.7280670662
 20
268.0558205042
 11
-122.72804726
 21
268.0559082294
  0
LWPOLYLINE
  5
221
100
AcDbEntity
  8
0
100
AcDbPolyline
 62
7
  6
CONTINUOUS
 90
5
 70
0
 10
-124.5022474959
 20
254.8816183907
 10
-124.6592606683
 20
254.646918478
 10
-124.7601334291
 20
254.3641460781
 10
-124.7918019584
 20
254.0552984734
 10
-124.7542711393
 20
253.7752440691
  0
LINE
  5
222
100
AcDbEntity
  8
0
100
AcDbLine
 62
7
  6
CONTINUOUS
 10
-103.1339795113
 20
288.9277467387
 11
-103.1340678018
 21
288.927696815
  0
LWPOLYLINE
  5
223
100
AcDbEntity
  8
0
100
AcDbPolyline
 62
7
  6
CONTINUOUS
 90
6
 70
0
 10
-120.5445027782
 20
243.0655529481
 10
-120.5993087997
 20
242.9145773076
 10
-120.6370942895
 20
242.5974939953
 10
-120.5754218618
 20
242.2766019684
 10
-120.4151604061
 20
241.9894192621
 10
-120.2819264604
 20
241.8519936561
  0
LINE
  5
224
100
AcDbEntity
  8
0
100
AcDbLine
 62
7
  6
CONTINUOUS
 10
-120.5444677694
 20
243.0655563904
 11
-120.2423647329
 21
243.7318273521
  0
LINE
  5
225
100
AcDbEntity
  8
0
100
AcDbLine
 62
7
  6
CONTINUOUS
 10
-119.8974952222
 20
243.5425463155
 11
-120.2040570174
 21
242.8664418166
  0
LINE
  5
226
100
AcDbEntity
  8
0
100
AcDbLine
 62
7
  6
CONTINUOUS
 10
-124.4232449524
 20
254.9623990584
 11
-124.5022474959
 21
254.8816183907
  0
LINE
  5
227
100
AcDbEntity
  8
0
100
AcDbLine
 62
7
  6
CONTINUOUS
 10
-124.4232332229
 20
254.9623672605
 11
-123.8943965475
 21
255.4456401303
  0
LINE
  5
228
100
AcDbEntity
  8
0
100
AcDbLine
 62
7
  6
CONTINUOUS
 10
-123.5483078969
 20
255.2534973517
 11
-124.0806663157
 21
254.7670061668
  0
LWPOLYLINE
  5
229
100
AcDbEntity
  8
0
100
AcDbPolyline
 62
7
  6
CONTINUOUS
 90
6
 70
0
 10
-121.9222177386
 20
269.003938394
 10
-122.1296353755
 20
268.917914733
 10
-122.3458296657
 20
268.7543776708
 10
-122.5323765869
 20
268.5244645089
 10
-122.6723481645
 20
268.2428856131
 10
-122.7280802371
 20
268.0558500945
  0
LWPOLYLINE
  5
22A
100
AcDbEntity
  8
0
100
AcDbPolyline
 62
7
  6
CONTINUOUS
 90
6
 70
0
 10
-111.3718978936
 20
236.4617036347
 10
-111.3641302933
 20
236.3451072768
 10
-111.2906666966
 20
236.0910529511
 10
-111.1413204112
 20
235.8675102304
 10
-110.9237622134
 20
235.6955857029
 10
-110.724457976
 20
235.6120934174
  0
LINE
  5
22B
100
AcDbEntity
  8
0
100
AcDbLine
 62
7
  6
CONTINUOUS
 10
-111.3718646993
 20
236.4616625865
 11
-111.3720690244
 21
236.556774446
  0
LINE
  5
22C
100
AcDbEntity
  8
0
100
AcDbLine
 62
7
  6
CONTINUOUS
 10
-111.030654282
 20
236.3776504282
 11
-111.0304348735
 21
236.2754377829
  0
LINE
  5
22D
100
AcDbEntity
  8
0
100
AcDbLine
 62
7
  6
CONTINUOUS
 10
-124.7542344081
 20
253.7751907347
 11
-124.7542765832
 21
253.775354974
  0
LINE
  5
22E
100
AcDbEntity
  8
0
100
AcDbLine
 62
7
  6
CONTINUOUS
 10
-89.8393853388
 20
288.4079205609
 11
-89.840077654
 21
288.4049582165
  0
LINE
  5
22F
100
AcDbEntity
  8
0
100
AcDbLine
 62
7
  6
CONTINUOUS
 10
-89.8415467363
 20
289.0893381617
 11
-89.8408704493
 21
289.0997691802
  0
LINE
  5
230
100
AcDbEntity
  8
0
100
AcDbLine
 62
7
  6
CONTINUOUS
 10
-89.937535531
 20
288.0736846687
 11
-89.9376265107
 21
288.0964533611
  0
LINE
  5
231
100
AcDbEntity
  8
0
100
AcDbLine
 62
7
  6
CONTINUOUS
 10
-89.8408735333
 20
289.1003150051
 11
-89.840077654
 21
288.4049582165
  0
LINE
  5
232
100
AcDbEntity
  8
0
100
AcDbLine
 62
7
  6
CONTINUOUS
 10
-120.2687957454
 20
243.6834700577
 11
-120.2825897929
 21
243.7033220017
  0
LINE
  5
233
100
AcDbEntity
  8
0
100
AcDbLine
 62
7
  6
CONTINUOUS
 10
-120.2605967278
 20
243.6916177303
 11
-120.2735483886
 21
243.7122911264
  0
LINE
  5
234
100
AcDbEntity
  8
0
100
AcDbLine
 62
7
  6
CONTINUOUS
 10
-101.5558800164
 20
288.1661317566
 11
-101.5448063093
 21
288.0952074357
  0
LWPOLYLINE
  5
235
100
AcDbEntity
  8
0
100
AcDbPolyline
 62
7
  6
CONTINUOUS
 90
7
 70
0
 10
-89.8408383454
 20
289.1000212345
 10
-89.8593150047
 20
289.2798826266
 10
-89.945395914
 20
289.5172229814
 10
-90.0985790209
 20
289.7222754807
 10
-90.3123035328
 20
289.8787147292
 10
-90.5752119156
 20
289.970408262
 10
-90.7348606216
 20
289.9881246178
  0
LINE
  5
236
100
AcDbEntity
  8
0
100
AcDbLine
 62
7
  6
CONTINUOUS
 10
-68.7048726884
 20
240.3799383778
 11
-68.7024881641
 21
240.38505419
  0
LINE
  5
237
100
AcDbEntity
  8
0
100
AcDbLine
 62
7
  6
CONTINUOUS
 10
-65.2689977651
 20
246.3309168439
 11
-65.2616152003
 21
246.3414508763
  0
LINE
  5
238
100
AcDbEntity
  8
0
100
AcDbLine
 62
7
  6
CONTINUOUS
 10
-101.8538671618
 20
288.6045687044
 11
-101.881261241
 21
288.7023905292
  0
LWPOLYLINE
  5
239
100
AcDbEntity
  8
0
100
AcDbPolyline
 62
7
  6
CONTINUOUS
 90
3
 70
0
 10
-89.7408915992
 20
286.4589202623
 10
-89.9005961575
 20
287.4427369402
 10
-89.9375285361
 20
288.0731749555
  0
LINE
  5
23A
100
AcDbEntity
  8
0
100
AcDbLine
 62
7
  6
CONTINUOUS
 10
-120.2818986343
 20
241.8520030804
 11
-120.2827772481
 21
241.852751621
  0
LINE
  5
23B
100
AcDbEntity
  8
0
100
AcDbLine
 62
7
  6
CONTINUOUS
 10
-64.4954904579
 20
266.6843485334
 11
-65.3206975221
 21
281.9426698678
  0
LINE
  5
23C
100
AcDbEntity
  8
0
100
AcDbLine
 62
7
  6
CONTINUOUS
 10
-54.4548905173
 20
195.1390747278
 11
-25.7410980066
 21
178.5545214379
  0
LINE
  5
23D
100
AcDbEntity
  8
0
100
AcDbLine
 62
7
  6
CONTINUOUS
 10
-19.160625419
 20
176.2073053515
 11
-10.9324421175
 21
171.454859488
  0
LINE
  5
23E
100
AcDbEntity
  8
0
100
AcDbLine
 62
7
  6
CONTINUOUS
 10
-120.2525664074
 20
241.831218572
 11
-120.2818986343
 21
241.8520030804
  0
LINE
  5
23F
100
AcDbEntity
  8
0
100
AcDbLine
 62
7
  6
CONTINUOUS
 10
-63.7717473742
 20
278.6112740001
 11
-63.0825750396
 21
265.8682748281
  0
LINE
  5
240
100
AcDbEntity
  8
0
100
AcDbLine
 62
7
  6
CONTINUOUS
 10
-58.9503552596
 20
266.9869088381
 11
-59.0316773374
 21
268.4905779759
  0
LINE
  5
241
100
AcDbEntity
  8
0
100
AcDbLine
 62
7
  6
CONTINUOUS
 10
-116.7955831401
 20
239.4038800877
 11
-116.6977619529
 21
239.3480624467
  0
LINE
  5
242
100
AcDbEntity
  8
0
100
AcDbLine
 62
7
  6
CONTINUOUS
 10
-95.1236696444
 20
226.1244220249
 11
-69.2372074242
 21
211.1728822023
  0
LINE
  5
243
100
AcDbEntity
  8
0
100
AcDbLine
 62
7
  6
CONTINUOUS
 10
-32.8625544092
 20
191.5488607239
 11
-10.819138699
 21
178.8169931936
  0
LINE
  5
244
100
AcDbEntity
  8
0
100
AcDbLine
 62
7
  6
CONTINUOUS
 10
-116.6737432667
 20
239.5053655132
 11
-116.7069481712
 21
239.5255287767
  0
LINE
  5
245
100
AcDbEntity
  8
0
100
AcDbLine
 62
7
  6
CONTINUOUS
 10
-116.6670218173
 20
239.5318714671
 11
-116.6999528719
 21
239.5529913099
  0
LINE
  5
246
100
AcDbEntity
  8
0
100
AcDbLine
 62
7
  6
CONTINUOUS
 10
-101.5448063093
 20
288.0952074357
 11
-101.8538671618
 21
288.6045687044
  0
LINE
  5
247
100
AcDbEntity
  8
0
100
AcDbLine
 62
7
  6
CONTINUOUS
 10
-101.881261241
 20
288.7023905292
 11
-101.5558951242
 21
288.1661566558
  0
LINE
  5
248
100
AcDbEntity
  8
0
100
AcDbLine
 62
7
  6
CONTINUOUS
 10
-33.7141870309
 20
193.8311897184
 11
-22.5267910779
 21
187.369557585
  0
LINE
  5
249
100
AcDbEntity
  8
0
100
AcDbLine
 62
7
  6
CONTINUOUS
 10
-20.8669775164
 20
186.6014554479
 11
-5.0277413428
 21
177.4530067957
  0
LINE
  5
24A
100
AcDbEntity
  8
0
100
AcDbLine
 62
7
  6
CONTINUOUS
 10
-5.0340310069
 20
180.3830808076
 11
-13.6472013512
 21
185.3578880372
  0
LINE
  5
24B
100
AcDbEntity
  8
0
100
AcDbLine
 62
7
  6
CONTINUOUS
 10
-104.3842961905
 20
238.5175663575
 11
-103.6926127807
 21
238.1180628657
  0
LINE
  5
24C
100
AcDbEntity
  8
0
100
AcDbLine
 62
7
  6
CONTINUOUS
 10
-101.8814082698
 20
288.7027054386
 11
-101.9314522945
 21
288.7753873263
  0
LINE
  5
24D
100
AcDbEntity
  8
0
100
AcDbLine
 62
7
  6
CONTINUOUS
 10
-101.881261241
 20
288.7023905292
 11
-101.8815469356
 21
288.7028597654
  0
LINE
  5
24E
100
AcDbEntity
  8
0
100
AcDbLine
 62
7
  6
CONTINUOUS
 10
-57.6560012268
 20
262.7339865745
 11
-57.8982975012
 21
264.1445527884
  0
LINE
  5
24F
100
AcDbEntity
  8
0
100
AcDbLine
 62
7
  6
CONTINUOUS
 10
-56.2985937852
 20
262.6448737874
 11
-56.1924138438
 21
261.8886456834
  0
LINE
  5
250
100
AcDbEntity
  8
0
100
AcDbLine
 62
7
  6
CONTINUOUS
 10
29.0520117308
 20
228.2355116756
 11
25.7462359067
 21
227.3406044676
  0
LINE
  5
251
100
AcDbEntity
  8
0
100
AcDbLine
 62
7
  6
CONTINUOUS
 10
-101.5250178102
 20
232.4507114304
 11
-101.3091904481
 21
232.3748302014
  0
LINE
  5
252
100
AcDbEntity
  8
0
100
AcDbLine
 62
7
  6
CONTINUOUS
 10
-101.5460682996
 20
232.3930135596
 11
-101.3303468416
 21
232.3165721881
  0
LINE
  5
253
100
AcDbEntity
  8
0
100
AcDbLine
 62
7
  6
CONTINUOUS
 10
-52.0601940637
 20
263.0072796934
 11
-52.1663740051
 21
263.7635077973
  0
LINE
  5
254
100
AcDbEntity
  8
0
100
AcDbLine
 62
7
  6
CONTINUOUS
 10
-34.7966292366
 20
254.6497969969
 11
-34.8005741269
 21
256.4875454365
  0
LINE
  5
255
100
AcDbEntity
  8
0
100
AcDbLine
 62
7
  6
CONTINUOUS
 10
-33.6495088408
 20
253.4484983922
 11
-33.6535579959
 21
255.334819191
  0
LINE
  5
256
100
AcDbEntity
  8
0
100
AcDbLine
 62
7
  6
CONTINUOUS
 10
-34.7960106276
 20
256.5956092039
 11
-34.8005711402
 21
256.4861540658
  0
LINE
  5
257
100
AcDbEntity
  8
0
100
AcDbLine
 62
7
  6
CONTINUOUS
 10
-110.7245957611
 20
235.6121374437
 11
-107.126564105
 21
234.6470499979
  0
LINE
  5
258
100
AcDbEntity
  8
0
100
AcDbLine
 62
7
  6
CONTINUOUS
 10
-110.7245688745
 20
235.6121255991
 11
-110.724457976
 21
235.6120934174
  0
LINE
  5
259
100
AcDbEntity
  8
0
100
AcDbLine
 62
7
  6
CONTINUOUS
 10
-24.6554316873
 20
245.3566180443
 11
-24.6342453946
 21
250.1321899377
  0
LINE
  5
25A
100
AcDbEntity
  8
0
100
AcDbLine
 62
7
  6
CONTINUOUS
 10
-25.9943480096
 20
253.6203790288
 11
-25.9941440393
 21
253.653831816
  0
LWPOLYLINE
  5
25B
100
AcDbEntity
  8
0
100
AcDbPolyline
 62
7
  6
CONTINUOUS
 90
6
 70
0
 10
-101.9314522945
 20
288.7753873263
 10
-102.1111740383
 20
288.9427912496
 10
-102.3481402957
 20
289.0502508074
 10
-102.6326694327
 20
289.0796740027
 10
-102.9393199083
 20
289.0169712156
 10
-103.1340477884
 20
288.927731833
  0
LWPOLYLINE
  5
25C
100
AcDbEntity
  8
0
100
AcDbPolyline
 62
7
  6
CONTINUOUS
 90
4
 70
0
 10
-77.5096179525
 20
280.5939195712
 10
-78.9191521501
 20
282.3178957746
 10
-79.9607039343
 20
283.3705516632
 10
-80.2868616358
 20
283.6154197929
  0
LINE
  5
25D
100
AcDbEntity
  8
0
100
AcDbLine
 62
7
  6
CONTINUOUS
 10
-77.1020689272
 20
280.0711575759
 11
-77.5096179525
 21
280.5939195712
  0
LINE
  5
25E
100
AcDbEntity
  8
0
100
AcDbLine
 62
7
  6
CONTINUOUS
 10
-63.2947994055
 20
277.8699809063
 11
-63.7717473742
 21
278.6112740001
  0
LINE
  5
25F
100
AcDbEntity
  8
0
100
AcDbLine
 62
7
  6
CONTINUOUS
 10
-10.819138699
 20
178.8169931936
 11
-10.8128490349
 21
175.8869191817
  0
LINE
  5
260
100
AcDbEntity
  8
0
100
AcDbLine
 62
7
  6
CONTINUOUS
 10
-25.7318402905
 20
245.7829240942
 11
-25.8417677192
 21
245.7531656188
  0
LINE
  5
261
100
AcDbEntity
  8
0
100
AcDbLine
 62
7
  6
CONTINUOUS
 10
-43.7429055557
 20
247.7918182509
 11
-21.6945462572
 21
235.0570953958
  0
LINE
  5
262
100
AcDbEntity
  8
0
100
AcDbLine
 62
7
  6
CONTINUOUS
 10
-63.9077821038
 20
281.1265961624
 11
-63.2464291122
 21
280.4255071358
  0
LINE
  5
263
100
AcDbEntity
  8
0
100
AcDbLine
 62
7
  6
CONTINUOUS
 10
-5.0277413428
 20
177.4530067957
 11
-5.0340310069
 21
180.3830808076
  0
LINE
  5
264
100
AcDbEntity
  8
0
100
AcDbLine
 62
7
  6
CONTINUOUS
 10
-26.7725211453
 20
249.6451780296
 11
-26.8869866548
 21
249.6141910495
  0
LINE
  5
265
100
AcDbEntity
  8
0
100
AcDbLine
 62
7
  6
CONTINUOUS
 10
-24.3973830008
 20
253.5937592477
 11
-27.3285296804
 21
252.8002679673
  0
LINE
  5
266
100
AcDbEntity
  8
0
100
AcDbLine
 62
7
  6
CONTINUOUS
 10
-26.3781986455
 20
253.6613142828
 11
-26.6499899799
 21
253.5877375985
  0
LINE
  5
267
100
AcDbEntity
  8
0
100
AcDbLine
 62
7
  6
CONTINUOUS
 10
-35.0941936758
 20
251.8670535809
 11
-29.1022438187
 21
253.4891354771
  0
LINE
  5
268
100
AcDbEntity
  8
0
100
AcDbLine
 62
7
  6
CONTINUOUS
 10
1.5553250471
 20
264.833830452
 11
-1.635153787
 21
263.9701353143
  0
LINE
  5
269
100
AcDbEntity
  8
0
100
AcDbLine
 62
7
  6
CONTINUOUS
 10
-14.8970924454
 20
260.3799933539
 11
-24.8908815453
 21
257.6745727879
  0
LINE
  5
26A
100
AcDbEntity
  8
0
100
AcDbLine
 62
7
  6
CONTINUOUS
 10
-112.952418303
 20
280.9760901919
 11
-113.4862589014
 21
281.1739588705
  0
LINE
  5
26B
100
AcDbEntity
  8
0
100
AcDbLine
 62
7
  6
CONTINUOUS
 10
-113.6468652554
 20
281.3800775477
 11
-113.0769472563
 21
281.1688368511
  0
LINE
  5
26C
100
AcDbEntity
  8
0
100
AcDbLine
 62
7
  6
CONTINUOUS
 10
-64.4954904579
 20
266.6843485334
 11
-63.0825750396
 21
265.8682748281
  0
LINE
  5
26D
100
AcDbEntity
  8
0
100
AcDbLine
 62
7
  6
CONTINUOUS
 10
-57.6560012268
 20
262.7339865745
 11
-56.1924138438
 21
261.8886456834
  0
LINE
  5
26E
100
AcDbEntity
  8
0
100
AcDbLine
 62
7
  6
CONTINUOUS
 10
-81.4831054909
 20
278.1808429195
 11
-80.8549614925
 21
277.8180386118
  0
LINE
  5
26F
100
AcDbEntity
  8
0
100
AcDbLine
 62
7
  6
CONTINUOUS
 10
-84.2701292346
 20
286.0726399229
 11
-80.3078596169
 21
283.6293122265
  0
LINE
  5
270
100
AcDbEntity
  8
0
100
AcDbLine
 62
7
  6
CONTINUOUS
 10
-80.2844496037
 20
283.6138305392
 11
-80.3078596169
 21
283.6293122265
  0
LINE
  5
271
100
AcDbEntity
  8
0
100
AcDbLine
 62
7
  6
CONTINUOUS
 10
-59.1142093322
 20
281.5441411458
 11
-59.7755623237
 21
282.2452301724
  0
LINE
  5
272
100
AcDbEntity
  8
0
100
AcDbLine
 62
7
  6
CONTINUOUS
 10
-27.288872796
 20
257.4959429739
 11
-9.4530077512
 21
262.3242934246
  0
LINE
  5
273
100
AcDbEntity
  8
0
100
AcDbLine
 62
7
  6
CONTINUOUS
 10
-8.1410214149
 20
262.6794614976
 11
-0.8426662037
 21
264.655200638
  0
LINE
  5
274
100
AcDbEntity
  8
0
100
AcDbLine
 62
7
  6
CONTINUOUS
 10
-26.3112058675
 20
253.6655486973
 11
-31.9478805381
 21
253.3092712309
  0
LWPOLYLINE
  5
275
100
AcDbEntity
  8
0
100
AcDbPolyline
 62
7
  6
CONTINUOUS
 90
7
 70
0
 10
-113.6469107783
 20
281.3801367135
 10
-113.6967651948
 20
281.3966126641
 10
-113.9404245399
 20
281.4269797514
 10
-114.1966140854
 20
281.3802652146
 10
-114.4471827376
 20
281.2583514582
 10
-114.6827189207
 20
281.0631235014
 10
-114.8188690823
 20
280.900695377
  0
LINE
  5
276
100
AcDbEntity
  8
0
100
AcDbLine
 62
7
  6
CONTINUOUS
 10
-66.1149627019
 20
276.3488674825
 11
-64.9828059195
 21
275.694954751
  0
LINE
  5
277
100
AcDbEntity
  8
0
100
AcDbLine
 62
7
  6
CONTINUOUS
 10
-53.3815013179
 20
268.9942566692
 11
-40.2346616587
 21
261.4008862414
  0
LINE
  5
278
100
AcDbEntity
  8
0
100
AcDbLine
 62
7
  6
CONTINUOUS
 10
-63.9077821038
 20
281.1265961624
 11
-65.3206975221
 21
281.9426698678
  0
LINE
  5
279
100
AcDbEntity
  8
0
100
AcDbLine
 62
7
  6
CONTINUOUS
 10
-84.206757969
 20
286.0355074358
 11
-84.3077896049
 21
286.0945572505
  0
LINE
  5
27A
100
AcDbEntity
  8
0
100
AcDbLine
 62
7
  6
CONTINUOUS
 10
15.4540757908
 20
230.8757214048
 11
19.1707987098
 21
228.6478014494
  0
LINE
  5
27B
100
AcDbEntity
  8
0
100
AcDbLine
 62
7
  6
CONTINUOUS
 10
25.7462359067
 20
227.3406044676
 11
24.8266124861
 21
227.8918555064
  0
LINE
  5
27C
100
AcDbEntity
  8
0
100
AcDbLine
 62
7
  6
CONTINUOUS
 10
15.4763761898
 20
234.533167904
 11
15.4540757908
 21
230.8757214048
  0
LINE
  5
27D
100
AcDbEntity
  8
0
100
AcDbLine
 62
7
  6
CONTINUOUS
 10
-52.1663740051
 20
263.7635077973
 11
-56.2985937852
 21
262.6448737874
  0
LINE
  5
27E
100
AcDbEntity
  8
0
100
AcDbLine
 62
7
  6
CONTINUOUS
 10
-8.6442510321
 20
262.7174177053
 11
-8.7842520896
 21
262.7401754611
  0
LINE
  5
27F
100
AcDbEntity
  8
0
100
AcDbLine
 62
7
  6
CONTINUOUS
 10
-89.8395584914
 20
288.4885865348
 11
-89.8141461284
 21
288.4796119867
  0
LINE
  5
280
100
AcDbEntity
  8
0
100
AcDbLine
 62
7
  6
CONTINUOUS
 10
-89.0612283276
 20
288.2137139669
 11
-89.0273485136
 21
288.2017490811
  0
LINE
  5
281
100
AcDbEntity
  8
0
100
AcDbLine
 62
7
  6
CONTINUOUS
 10
-89.8327581187
 20
288.5525917076
 11
-89.8004024008
 21
288.5410201821
  0
LINE
  5
282
100
AcDbEntity
  8
0
100
AcDbLine
 62
7
  6
CONTINUOUS
 10
-89.0511841883
 20
288.2351763497
 11
-89.0178425338
 21
288.2219939382
  0
LINE
  5
283
100
AcDbEntity
  8
0
100
AcDbLine
 62
7
  6
CONTINUOUS
 10
-86.7464193212
 20
287.3248983858
 11
-86.8104491633
 21
287.3524876821
  0
LINE
  5
284
100
AcDbEntity
  8
0
100
AcDbLine
 62
7
  6
CONTINUOUS
 10
-86.7636132979
 20
287.2901813412
 11
-86.8273928066
 21
287.3181252258
  0
LINE
  5
285
100
AcDbEntity
  8
0
100
AcDbLine
 62
7
  6
CONTINUOUS
 10
-59.7755623237
 20
282.2452301724
 11
-61.188477742
 21
283.0613038778
  0
LINE
  5
286
100
AcDbEntity
  8
0
100
AcDbLine
 62
7
  6
CONTINUOUS
 10
19.1707987098
 20
228.6478014494
 11
19.1786489874
 21
229.9353107154
  0
LINE
  5
287
100
AcDbEntity
  8
0
100
AcDbLine
 62
7
  6
CONTINUOUS
 10
-89.8396590682
 20
288.5354407433
 11
-89.8064099844
 21
288.526149584
  0
LINE
  5
288
100
AcDbEntity
  8
0
100
AcDbLine
 62
7
  6
CONTINUOUS
 10
-90.6445278063
 20
289.9617561299
 11
-90.7348724681
 21
289.98810082
  0
LINE
  5
289
100
AcDbEntity
  8
0
100
AcDbLine
 62
7
  6
CONTINUOUS
 10
-88.867680695
 20
288.1226941084
 11
-88.8778659308
 21
288.1259412702
  0
LINE
  5
28A
100
AcDbEntity
  8
0
100
AcDbLine
 62
7
  6
CONTINUOUS
 10
-89.8266102162
 20
288.518523863
 11
-89.8010245653
 21
288.5098697724
  0
LINE
  5
28B
100
AcDbEntity
  8
0
100
AcDbLine
 62
7
  6
CONTINUOUS
 10
25.7462359067
 20
227.3406044676
 11
25.758795581
 21
229.4004930278
  0
LINE
  5
28C
100
AcDbEntity
  8
0
100
AcDbLine
 62
7
  6
CONTINUOUS
 10
29.0520117308
 20
228.2355116756
 11
29.0625957897
 21
229.9713832676
  0
LINE
  5
28D
100
AcDbEntity
  8
0
100
AcDbLine
 62
7
  6
CONTINUOUS
 10
24.8266124861
 20
227.8918555064
 11
24.6310928796
 21
229.2441298212
  0
LINE
  5
28E
100
AcDbEntity
  8
0
100
AcDbLine
 62
7
  6
CONTINUOUS
 10
-121.0061919721
 20
268.9556020888
 11
-121.6219073579
 21
268.7886909359
  0
LINE
  5
28F
100
AcDbEntity
  8
0
100
AcDbLine
 62
7
  6
CONTINUOUS
 10
-63.2464291122
 20
280.4255071358
 11
-59.1142093322
 21
281.5441411458
  0
LINE
  5
290
100
AcDbEntity
  8
0
100
AcDbLine
 62
7
  6
CONTINUOUS
 10
-63.9077821038
 20
281.1265961624
 11
-59.7755623237
 21
282.2452301724
  0
LINE
  5
291
100
AcDbEntity
  8
0
100
AcDbLine
 62
7
  6
CONTINUOUS
 10
-65.3206975221
 20
281.9426698678
 11
-61.188477742
 21
283.0613038778
  0
LINE
  5
292
100
AcDbEntity
  8
0
100
AcDbLine
 62
7
  6
CONTINUOUS
 10
-121.922165872
 20
269.0039157709
 11
-121.288487842
 21
269.175458888
  0
LINE
  5
293
100
AcDbEntity
  8
0
100
AcDbLine
 62
7
  6
CONTINUOUS
 10
45.6248555797
 20
237.0945683796
 11
45.6170053021
 21
235.8070591135
  0
LINE
  5
294
100
AcDbEntity
  8
0
100
AcDbLine
 62
7
  6
CONTINUOUS
 10
46.3273859579
 20
244.9238174124
 11
46.3643678494
 21
249.6896188974
  0
LINE
  5
295
100
AcDbEntity
  8
0
100
AcDbLine
 62
7
  6
CONTINUOUS
 10
46.364434874
 20
249.6992925873
 11
46.3643678494
 21
249.6896188974
  0
ARC
  5
296
100
AcDbEntity
  8
0
100
AcDbCircle
 62
7
  6
CONTINUOUS
 10
-233.7864981041
 20
160.6202287521
 40
196.9237717602
100
AcDbArc
 50
37.3216033799
 51
37.499504568
  0
ARC
  5
297
100
AcDbEntity
  8
0
100
AcDbCircle
 62
7
  6
CONTINUOUS
 10
-130.2853099711
 20
211.8442555484
 40
86.9466370294
100
AcDbArc
 50
50.1641343727
 51
53.202534519
  0
ARC
  5
298
100
AcDbEntity
  8
0
100
AcDbCircle
 62
7
  6
CONTINUOUS
 10
5.2994197035
 20
210.8750914129
 40
53.5103117749
100
AcDbArc
 50
105.1474537592
 51
105.2927694075
  0
ARC
  5
299
100
AcDbEntity
  8
0
100
AcDbCircle
 62
7
  6
CONTINUOUS
 10
-78.4783012493
 20
247.3475597065
 40
48.3160606883
100
AcDbArc
 50
132.9476034909
 51
134.2992920361
  0
ARC
  5
29A
100
AcDbEntity
  8
0
100
AcDbCircle
 62
7
  6
CONTINUOUS
 10
-78.8457199073
 20
247.7349581568
 40
47.7827637155
100
AcDbArc
 50
131.9877475751
 51
132.4052977069
  0
ARC
  5
29B
100
AcDbEntity
  8
0
100
AcDbCircle
 62
7
  6
CONTINUOUS
 10
-33.0242621159
 20
223.7466295542
 40
39.3671560167
100
AcDbArc
 50
144.9925110994
 51
154.9981615164
  0
ARC
  5
29C
100
AcDbEntity
  8
0
100
AcDbCircle
 62
7
  6
CONTINUOUS
 10
-24.8337973702
 20
224.7658919964
 40
28.8796773575
100
AcDbArc
 50
88.8007497089
 51
91.3061411656
  0
ARC
  5
29D
100
AcDbEntity
  8
0
100
AcDbCircle
 62
7
  6
CONTINUOUS
 10
-24.8420385678
 20
225.2912696756
 40
28.3542485785
100
AcDbArc
 50
91.3136918799
 51
92.3298377712
  0
ARC
  5
29E
100
AcDbEntity
  8
0
100
AcDbCircle
 62
7
  6
CONTINUOUS
 10
-24.8501430747
 20
225.5026544528
 40
28.1427090792
100
AcDbArc
 50
92.3308464281
 51
92.970938094
  0
ARC
  5
29F
100
AcDbEntity
  8
0
100
AcDbCircle
 62
7
  6
CONTINUOUS
 10
-24.8579818571
 20
225.6561770337
 40
27.9889865607
100
AcDbArc
 50
92.9712016343
 51
93.6709003397
  0
ARC
  5
2A0
100
AcDbEntity
  8
0
100
AcDbCircle
 62
7
  6
CONTINUOUS
 10
-81.7722377857
 20
248.9476405633
 40
26.5516166571
100
AcDbArc
 50
179.704822528
 51
180.0553962914
  0
ARC
  5
2A1
100
AcDbEntity
  8
0
100
AcDbCircle
 62
7
  6
CONTINUOUS
 10
-81.2980190337
 20
248.9190442252
 40
25.7288572255
100
AcDbArc
 50
179.7750714326
 51
180.1228485048
  0
ARC
  5
2A2
100
AcDbEntity
  8
0
100
AcDbCircle
 62
7
  6
CONTINUOUS
 10
-42.7725407918
 20
236.8271994047
 40
23.532678107
100
AcDbArc
 50
102.3655317316
 51
105.151336583
  0
ARC
  5
2A3
100
AcDbEntity
  8
0
100
AcDbCircle
 62
7
  6
CONTINUOUS
 10
-6.5905885016
 20
175.3348808224
 40
6.3069655812
100
AcDbArc
 50
175.7223392997
 51
180.1118241347
  0
ARC
  5
2A4
100
AcDbEntity
  8
0
100
AcDbCircle
 62
7
  6
CONTINUOUS
 10
-8.8648222197
 20
178.0084514784
 40
5.9217806054
100
AcDbArc
 50
0.0861400976
 51
4.6647155551
  0
ARC
  5
2A5
100
AcDbEntity
  8
0
100
AcDbCircle
 62
7
  6
CONTINUOUS
 10
-28.0878273542
 20
247.0257745549
 40
2.8494782321
100
AcDbArc
 50
356.4048915365
 51
359.9148285346
  0
ARC
  5
2A6
100
AcDbEntity
  8
0
100
AcDbCircle
 62
7
  6
CONTINUOUS
 10
-25.8214593326
 20
246.7561207177
 40
1.0774802352
100
AcDbArc
 50
239.2971925962
 51
239.9887109836
  0
ARC
  5
2A7
100
AcDbEntity
  8
0
100
AcDbCircle
 62
7
  6
CONTINUOUS
 10
-26.8928878976
 20
248.6130949207
 40
1.0487987232
100
AcDbArc
 50
59.9894798281
 51
60.4959159162
  0
ARC
  5
2A8
100
AcDbEntity
  8
0
100
AcDbCircle
 62
7
  6
CONTINUOUS
 10
-26.749930082
 20
249.1049989531
 40
0.552309023
100
AcDbArc
 50
92.5941112442
 51
105.0687024594
  0
ARC
  5
2A9
100
AcDbEntity
  8
0
100
AcDbCircle
 62
7
  6
CONTINUOUS
 10
-25.9804068635
 20
246.2612461731
 40
0.5516998207
100
AcDbArc
 50
290.1562528637
 51
297.2501622945
  0
ARC
  5
2AA
100
AcDbEntity
  8
0
100
AcDbCircle
 62
7
  6
CONTINUOUS
 10
-25.9765804041
 20
246.2511354098
 40
0.5408897605
100
AcDbArc
 50
285.148234955
 51
290.1447986962
  0
ARC
  5
2AB
100
AcDbEntity
  8
0
100
AcDbCircle
 62
7
  6
CONTINUOUS
 10
-26.7521739699
 20
249.1162212586
 40
0.5408897605
100
AcDbArc
 50
105.1482349549
 51
110.1447986963
  0
ARC
  5
2AC
100
AcDbEntity
  8
0
100
AcDbCircle
 62
7
  6
CONTINUOUS
 10
-25.9817456013
 20
246.2699221855
 40
0.5353669658
100
AcDbArc
 50
278.7658060774
 51
285.1564381244
  0
ARC
  5
2AD
100
AcDbEntity
  8
0
100
AcDbCircle
 62
7
  6
CONTINUOUS
 10
-26.7470087728
 20
249.0974344829
 40
0.5353669658
100
AcDbArc
 50
98.7658060773
 51
105.1564381246
  0
ARC
  5
2AE
100
AcDbEntity
  8
0
100
AcDbCircle
 62
7
  6
CONTINUOUS
 10
-110.6268852565
 20
235.9494057713
 40
0.3511288295
100
AcDbArc
 50
248.2471145664
 51
253.8457395214
  0
ARC
  5
2AF
100
AcDbEntity
  8
0
100
AcDbCircle
 62
7
  6
CONTINUOUS
 10
-111.1976357793
 20
255.457161982
 40
41.9320959738
100
AcDbArc
 50
38.7224151717
 51
39.3768730026
  0
ARC
  5
2B0
100
AcDbEntity
  8
0
100
AcDbCircle
 62
7
  6
CONTINUOUS
 10
-105.1017738189
 20
259.7632174083
 40
23.4786666596
100
AcDbArc
 50
229.7180338908
 51
240.1281975684
  0
ARC
  5
2B1
100
AcDbEntity
  8
0
100
AcDbCircle
 62
7
  6
CONTINUOUS
 10
-105.1888377468
 20
259.6093573843
 40
23.3018913565
100
AcDbArc
 50
229.7248090412
 51
240.1254045131
  0
ARC
  5
2B2
100
AcDbEntity
  8
0
100
AcDbCircle
 62
7
  6
CONTINUOUS
 10
-104.7154684461
 20
255.3335091462
 40
19.5766584878
100
AcDbArc
 50
212.8606718256
 51
216.7831303239
  0
ARC
  5
2B3
100
AcDbEntity
  8
0
100
AcDbCircle
 62
7
  6
CONTINUOUS
 10
-104.2322830666
 20
254.755810434
 40
19.4898998439
100
AcDbArc
 50
204.8102724724
 51
210.6083376724
  0
ARC
  5
2B4
100
AcDbEntity
  8
0
100
AcDbCircle
 62
7
  6
CONTINUOUS
 10
-104.9038426199
 20
255.194527298
 40
19.3425675802
100
AcDbArc
 50
216.7875277272
 51
217.0064132682
  0
ARC
  5
2B5
100
AcDbEntity
  8
0
100
AcDbCircle
 62
7
  6
CONTINUOUS
 10
-105.0520860017
 20
254.2682627682
 40
18.53607885
100
AcDbArc
 50
210.6015363943
 51
214.747877619
  0
ARC
  5
2B6
100
AcDbEntity
  8
0
100
AcDbCircle
 62
7
  6
CONTINUOUS
 10
-87.4151164528
 20
255.161418374
 40
36.8325980467
100
AcDbArc
 50
149.1563907345
 51
152.0760714522
  0
ARC
  5
2B7
100
AcDbEntity
  8
0
100
AcDbCircle
 62
7
  6
CONTINUOUS
 10
-87.7028966203
 20
255.3069918452
 40
36.5101527124
100
AcDbArc
 50
152.0664315615
 51
157.5588346547
  0
ARC
  5
2B8
100
AcDbEntity
  8
0
100
AcDbCircle
 62
7
  6
CONTINUOUS
 10
-88.0626166513
 20
255.4589754929
 40
36.1196562879
100
AcDbArc
 50
157.56384201
 51
157.7676761943
  0
ARC
  5
2B9
100
AcDbEntity
  8
0
100
AcDbCircle
 62
7
  6
CONTINUOUS
 10
-89.5117168245
 20
256.9430714451
 40
34.0757659054
100
AcDbArc
 50
134.1929231319
 51
134.413730228
  0
ARC
  5
2BA
100
AcDbEntity
  8
0
100
AcDbCircle
 62
7
  6
CONTINUOUS
 10
-90.5150110344
 20
256.4069355652
 40
33.6640469395
100
AcDbArc
 50
105.8182480585
 51
107.5398762657
  0
ARC
  5
2BB
100
AcDbEntity
  8
0
100
AcDbCircle
 62
7
  6
CONTINUOUS
 10
-90.0471272786
 20
257.5038742518
 40
33.3004508085
100
AcDbArc
 50
128.8807402646
 51
134.2050272601
  0
ARC
  5
2BC
100
AcDbEntity
  8
0
100
AcDbCircle
 62
7
  6
CONTINUOUS
 10
-93.204946694
 20
261.7407274737
 40
32.4829283593
100
AcDbArc
 50
194.3778350692
 51
198.8542435369
  0
ARC
  5
2BD
100
AcDbEntity
  8
0
100
AcDbCircle
 62
7
  6
CONTINUOUS
 10
-93.3886286733
 20
261.7997625181
 40
32.3758395295
100
AcDbArc
 50
194.3504244326
 51
199.5908676418
  0
ARC
  5
2BE
100
AcDbEntity
  8
0
100
AcDbCircle
 62
7
  6
CONTINUOUS
 10
-91.1127680837
 20
258.7946774981
 40
31.6267212624
100
AcDbArc
 50
125.6125959399
 51
128.8457513901
  0
ARC
  5
2BF
100
AcDbEntity
  8
0
100
AcDbCircle
 62
7
  6
CONTINUOUS
 10
-96.0293609841
 20
256.733650908
 40
27.9989981339
100
AcDbArc
 50
180.1170582577
 51
182.6477177261
  0
ARC
  5
2C0
100
AcDbEntity
  8
0
100
AcDbCircle
 62
7
  6
CONTINUOUS
 10
-96.4924697393
 20
256.7141425432
 40
27.5354826514
100
AcDbArc
 50
182.6516831979
 51
182.8293103153
  0
ARC
  5
2C1
100
AcDbEntity
  8
0
100
AcDbCircle
 62
7
  6
CONTINUOUS
 10
-97.2776888583
 20
257.6039460475
 40
27.4448595897
100
AcDbArc
 50
180.0805576961
 51
185.5667403057
  0
ARC
  5
2C2
100
AcDbEntity
  8
0
100
AcDbCircle
 62
7
  6
CONTINUOUS
 10
-97.940946546
 20
259.7596432434
 40
27.3377068163
100
AcDbArc
 50
211.6475998996
 51
211.9969404461
  0
ARC
  5
2C3
100
AcDbEntity
  8
0
100
AcDbCircle
 62
7
  6
CONTINUOUS
 10
-98.239407934
 20
259.5817303133
 40
26.9906305269
100
AcDbArc
 50
210.8978485772
 51
211.2282910662
  0
ARC
  5
2C4
100
AcDbEntity
  8
0
100
AcDbCircle
 62
7
  6
CONTINUOUS
 10
-97.173546029
 20
262.6886127579
 40
26.7577660723
100
AcDbArc
 50
69.7360725477
 51
70.4740237171
  0
ARC
  5
2C5
100
AcDbEntity
  8
0
100
AcDbCircle
 62
7
  6
CONTINUOUS
 10
-98.0931083377
 20
257.5316375072
 40
26.6262723813
100
AcDbArc
 50
185.5820881162
 51
185.8676999629
  0
ARC
  5
2C6
100
AcDbEntity
  8
0
100
AcDbCircle
 62
7
  6
CONTINUOUS
 10
-98.5583971749
 20
259.3858390216
 40
26.6159943222
100
AcDbArc
 50
212.0188041327
 51
212.6893828537
  0
ARC
  5
2C7
100
AcDbEntity
  8
0
100
AcDbCircle
 62
7
  6
CONTINUOUS
 10
-98.7613443544
 20
259.2550914643
 40
26.3745770593
100
AcDbArc
 50
212.6884488024
 51
214.0375135298
  0
ARC
  5
2C8
100
AcDbEntity
  8
0
100
AcDbCircle
 62
7
  6
CONTINUOUS
 10
-96.2600775
 20
265.3366298616
 40
23.9605352924
100
AcDbArc
 50
72.015677627
 51
72.4484005841
  0
ARC
  5
2C9
100
AcDbEntity
  8
0
100
AcDbCircle
 62
7
  6
CONTINUOUS
 10
-95.7638956269
 20
265.8910204083
 40
23.7912051588
100
AcDbArc
 50
104.9816718704
 51
105.2021748278
  0
ARC
  5
2CA
100
AcDbEntity
  8
0
100
AcDbCircle
 62
7
  6
CONTINUOUS
 10
-96.1647405552
 20
265.4841744589
 40
23.7858442885
100
AcDbArc
 50
72.1600133564
 51
72.6784414868
  0
ARC
  5
2CB
100
AcDbEntity
  8
0
100
AcDbCircle
 62
7
  6
CONTINUOUS
 10
-96.1271146691
 20
265.5997627862
 40
23.664286687
100
AcDbArc
 50
70.5060930679
 51
72.1351174705
  0
ARC
  5
2CC
100
AcDbEntity
  8
0
100
AcDbCircle
 62
7
  6
CONTINUOUS
 10
-96.162436772
 20
265.6200199828
 40
23.6608446949
100
AcDbArc
 50
66.717914152
 51
72.0286849289
  0
ARC
  5
2CD
100
AcDbEntity
  8
0
100
AcDbCircle
 62
7
  6
CONTINUOUS
 10
-96.0668794955
 20
265.7714797515
 40
23.4824242797
100
AcDbArc
 50
69.3095677519
 51
69.6445627716
  0
ARC
  5
2CE
100
AcDbEntity
  8
0
100
AcDbCircle
 62
7
  6
CONTINUOUS
 10
-96.0366571693
 20
265.850123583
 40
23.3981746301
100
AcDbArc
 50
66.7768559593
 51
69.3107596642
  0
ARC
  5
2CF
100
AcDbEntity
  8
0
100
AcDbCircle
 62
7
  6
CONTINUOUS
 10
-96.050235995
 20
265.8811369703
 40
23.3766421714
100
AcDbArc
 50
59.8466986293
 51
66.7175602462
  0
ARC
  5
2D0
100
AcDbEntity
  8
0
100
AcDbCircle
 62
7
  6
CONTINUOUS
 10
-95.9672761782
 20
266.0108607782
 40
23.2231005749
100
AcDbArc
 50
63.3534599485
 51
66.6057757967
  0
ARC
  5
2D1
100
AcDbEntity
  8
0
100
AcDbCircle
 62
7
  6
CONTINUOUS
 10
-94.9103133686
 20
266.3611419266
 40
23.109975138
100
AcDbArc
 50
102.212936396
 51
107.138917102
  0
ARC
  5
2D2
100
AcDbEntity
  8
0
100
AcDbCircle
 62
7
  6
CONTINUOUS
 10
-95.910770438
 20
266.1254696942
 40
23.0953222715
100
AcDbArc
 50
59.8413945926
 51
63.3512367981
  0
ARC
  5
2D3
100
AcDbEntity
  8
0
100
AcDbCircle
 62
7
  6
CONTINUOUS
 10
-95.2322542863
 20
267.7922783083
 40
21.6431261414
100
AcDbArc
 50
97.6338236397
 51
102.1814219778
  0
ARC
  5
2D4
100
AcDbEntity
  8
0
100
AcDbCircle
 62
7
  6
CONTINUOUS
 10
-95.894083848
 20
271.5521373657
 40
18.048686737
100
AcDbArc
 50
67.5776841138
 51
70.2677794952
  0
ARC
  5
2D5
100
AcDbEntity
  8
0
100
AcDbCircle
 62
7
  6
CONTINUOUS
 10
-95.8760016864
 20
271.5970036316
 40
18.0003153885
100
AcDbArc
 50
67.0033872226
 51
67.5764164542
  0
ARC
  5
2D6
100
AcDbEntity
  8
0
100
AcDbCircle
 62
7
  6
CONTINUOUS
 10
-95.0961874094
 20
272.8946963376
 40
16.4885533308
100
AcDbArc
 50
68.492798472
 51
71.2680129619
  0
ARC
  5
2D7
100
AcDbEntity
  8
0
100
AcDbCircle
 62
7
  6
CONTINUOUS
 10
-95.0375404624
 20
273.0442579326
 40
16.3279035214
100
AcDbArc
 50
66.1963888305
 51
68.3660451412
  0
ARC
  5
2D8
100
AcDbEntity
  8
0
100
AcDbCircle
 62
7
  6
CONTINUOUS
 10
-89.792833779
 20
287.4805124461
 40
13.278669884
100
AcDbArc
 50
173.8216323663
 51
175.5145825444
  0
ARC
  5
2D9
100
AcDbEntity
  8
0
100
AcDbCircle
 62
7
  6
CONTINUOUS
 10
-90.7128291293
 20
289.0919492341
 40
0.87131807
100
AcDbArc
 50
359.8282689917
 51
15.1740512352
  0
ARC
  5
2DA
100
AcDbEntity
  8
0
100
AcDbCircle
 62
7
  6
CONTINUOUS
 10
-90.6854057638
 20
289.0981730948
 40
0.8432225213
100
AcDbArc
 50
15.2536365178
 51
18.2315672978
  0
ARC
  5
2DB
100
AcDbEntity
  8
0
100
AcDbCircle
 62
7
  6
CONTINUOUS
 10
-59.041655765
 20
283.7264982038
 40
73.0275846815
100
AcDbArc
 50
211.4891782788
 51
211.6417765871
  0
ARC
  5
2DC
100
AcDbEntity
  8
0
100
AcDbCircle
 62
7
  6
CONTINUOUS
 10
-78.2092444716
 20
290.7165577829
 40
59.6153977565
100
AcDbArc
 50
238.1433419949
 51
242.6524239917
  0
ARC
  5
2DD
100
AcDbEntity
  8
0
100
AcDbCircle
 62
7
  6
CONTINUOUS
 10
-72.0683714937
 20
249.9469147523
 40
52.6629627342
100
AcDbArc
 50
144.0625013314
 51
154.8813136929
  0
ARC
  5
2DE
100
AcDbEntity
  8
0
100
AcDbCircle
 62
7
  6
CONTINUOUS
 10
-72.4370564468
 20
250.1464646941
 40
52.3644801942
100
AcDbArc
 50
144.0336073771
 51
154.9033382234
  0
ARC
  5
2DF
100
AcDbEntity
  8
0
100
AcDbCircle
 62
7
  6
CONTINUOUS
 10
-72.3913144105
 20
250.095431179
 40
52.3075160223
100
AcDbArc
 50
154.878447912
 51
155.5923975033
  0
ARC
  5
2E0
100
AcDbEntity
  8
0
100
AcDbCircle
 62
7
  6
CONTINUOUS
 10
-72.8547583297
 20
250.3087600492
 40
51.7967393693
100
AcDbArc
 50
156.1043453579
 51
157.3941667094
  0
ARC
  5
2E1
100
AcDbEntity
  8
0
100
AcDbCircle
 62
7
  6
CONTINUOUS
 10
-79.4048169659
 20
286.2875777029
 40
47.3067694115
100
AcDbArc
 50
226.4374006207
 51
232.0185690995
  0
ARC
  5
2E2
100
AcDbEntity
  8
0
100
AcDbCircle
 62
7
  6
CONTINUOUS
 10
-82.6926768458
 20
252.9940522778
 40
41.256324851
100
AcDbArc
 50
119.4802720338
 51
121.9502137813
  0
ARC
  5
2E3
100
AcDbEntity
  8
0
100
AcDbCircle
 62
7
  6
CONTINUOUS
 10
-82.8487642736
 20
253.0070982797
 40
41.2526719493
100
AcDbArc
 50
119.4544149951
 51
122.268791347
  0
ARC
  5
2E4
100
AcDbEntity
  8
0
100
AcDbCircle
 62
7
  6
CONTINUOUS
 10
-82.7881826215
 20
258.0852688538
 40
40.9878061123
100
AcDbArc
 50
179.8132212521
 51
180.1048412193
  0
ARC
  5
2E5
100
AcDbEntity
  8
0
100
AcDbCircle
 62
7
  6
CONTINUOUS
 10
-82.5869834525
 20
279.8241245819
 40
40.0913295217
100
AcDbArc
 50
204.4052224405
 51
205.2225021014
  0
ARC
  5
2E6
100
AcDbEntity
  8
0
100
AcDbCircle
 62
7
  6
CONTINUOUS
 10
-83.6905225363
 20
258.0800447441
 40
40.0849083844
100
AcDbArc
 50
180.7056161281
 51
182.2363419376
  0
ARC
  5
2E7
100
AcDbEntity
  8
0
100
AcDbCircle
 62
7
  6
CONTINUOUS
 10
-81.3620386073
 20
261.8585517086
 40
16.3651261999
100
AcDbArc
 50
83.9054485451
 51
87.4541716962
  0
ARC
  5
2E8
100
AcDbEntity
  8
0
100
AcDbCircle
 62
7
  6
CONTINUOUS
 10
-84.1958757629
 20
288.1104674794
 40
5.7415977256
100
AcDbArc
 50
176.9660943089
 51
180.1397226804
  0
ARC
  5
2E9
100
AcDbEntity
  8
0
100
AcDbCircle
 62
7
  6
CONTINUOUS
 10
-84.8844624404
 20
288.1414486714
 40
5.0523394414
100
AcDbArc
 50
175.7396025988
 51
176.9036425642
  0
ARC
  5
2EA
100
AcDbEntity
  8
0
100
AcDbCircle
 62
7
  6
CONTINUOUS
 10
-85.0913719264
 20
288.1564711162
 40
4.8448857106
100
AcDbArc
 50
175.2248896118
 51
175.7349873684
  0
ARC
  5
2EB
100
AcDbEntity
  8
0
100
AcDbCircle
 62
7
  6
CONTINUOUS
 10
-81.1546638476
 20
337.6591529101
 40
105.6939839224
100
AcDbArc
 50
253.5807944132
 51
253.8477857688
  0
ARC
  5
2EC
100
AcDbEntity
  8
0
100
AcDbCircle
 62
7
  6
CONTINUOUS
 10
-69.5137668206
 20
322.0436458003
 40
95.2098102598
100
AcDbArc
 50
240.2478149186
 51
241.4369331113
  0
ARC
  5
2ED
100
AcDbEntity
  8
0
100
AcDbCircle
 62
7
  6
CONTINUOUS
 10
-69.884937693
 20
321.344713672
 40
94.418478192
100
AcDbArc
 50
241.4319684585
 51
250.1062404054
  0
ARC
  5
2EE
100
AcDbEntity
  8
0
100
AcDbCircle
 62
7
  6
CONTINUOUS
 10
-70.0228207485
 20
321.0106647413
 40
94.0574464736
100
AcDbArc
 50
250.1159782096
 51
250.4184086758
  0
ARC
  5
2EF
100
AcDbEntity
  8
0
100
AcDbCircle
 62
7
  6
CONTINUOUS
 10
-70.5771226354
 20
319.341993167
 40
92.298762013
100
AcDbArc
 50
250.3974542735
 51
250.5867493101
  0
ARC
  5
2F0
100
AcDbEntity
  8
0
100
AcDbCircle
 62
7
  6
CONTINUOUS
 10
-70.6785225153
 20
319.0575874943
 40
91.9968207756
100
AcDbArc
 50
250.0868311412
 51
250.3975207685
  0
ARC
  5
2F1
100
AcDbEntity
  8
0
100
AcDbCircle
 62
7
  6
CONTINUOUS
 10
-70.7371118779
 20
318.8949235839
 40
91.8239272798
100
AcDbArc
 50
249.151813865
 51
250.0866337629
  0
ARC
  5
2F2
100
AcDbEntity
  8
0
100
AcDbCircle
 62
7
  6
CONTINUOUS
 10
-71.5406527382
 20
316.7805955914
 40
89.5620567421
100
AcDbArc
 50
247.7481064147
 51
249.1508259825
  0
ARC
  5
2F3
100
AcDbEntity
  8
0
100
AcDbCircle
 62
7
  6
CONTINUOUS
 10
-72.6019201315
 20
314.1830108626
 40
86.7560394888
100
AcDbArc
 50
245.4590617288
 51
247.7471695074
  0
ARC
  5
2F4
100
AcDbEntity
  8
0
100
AcDbCircle
 62
7
  6
CONTINUOUS
 10
-78.5369675656
 20
302.3673616987
 40
73.525806526
100
AcDbArc
 50
238.7558758755
 51
240.2854629281
  0
ARC
  5
2F5
100
AcDbEntity
  8
0
100
AcDbCircle
 62
7
  6
CONTINUOUS
 10
-75.2587022325
 20
300.3152376536
 40
72.7374249627
100
AcDbArc
 50
248.8424563142
 51
248.9931893162
  0
ARC
  5
2F6
100
AcDbEntity
  8
0
100
AcDbCircle
 62
7
  6
CONTINUOUS
 10
-75.4385416661
 20
299.851509768
 40
72.2400461773
100
AcDbArc
 50
248.450586948
 51
248.8427273634
  0
ARC
  5
2F7
100
AcDbEntity
  8
0
100
AcDbCircle
 62
7
  6
CONTINUOUS
 10
-83.5162903528
 20
294.7871437782
 40
63.5747621859
100
AcDbArc
 50
234.7545247703
 51
235.9290045387
  0
SPLINE
  5
2F8
100
AcDbEntity
  8
0
100
AcDbSpline
 62
7
  6
CONTINUOUS
 70
0
 71
3
 72
37
 73
33
 74
0
 42
0.0000001
 43
0.0000001
 44
0.0000000001
 40
0.0
 40
0.0
 40
0.0
 40
0.0
 40
0.025623504
 40
0.0528024975
 40
0.0815186071
 40
0.1117309775
 40
0.1433796963
 40
0.1763812089
 40
0.2106146799
 40
0.2459408641
 40
0.2822060069
 40
0.3192416902
 40
0.3568725366
 40
0.3949118578
 40
0.4714299793
 40
0.547266996
 40
0.5844641896
 40
0.6209311996
 40
0.6564979393
 40
0.6910082319
 40
0.7243174588
 40
0.7563058172
 40
0.7868720321
 40
0.8159436092
 40
0.8434840892
 40
0.8694899162
 40
0.8940108472
 40
0.9171455514
 40
0.9390545305
 40
0.9599661226
 40
0.980167628
 40
1.0
 40
1.0
 40
1.0
 40
1.0
 10
-26.3604326012
 20
245.846071711
 30
0.0
 10
-26.3925631401
 20
245.8646297136
 30
0.0
 10
-26.4567967325
 20
245.9063667352
 30
0.0
 10
-26.5497242491
 20
245.979373887
 30
0.0
 10
-26.6413566548
 20
246.0641217691
 30
0.0
 10
-26.7310129617
 20
246.1599984561
 30
0.0
 10
-26.8181302065
 20
246.2663256523
 30
0.0
 10
-26.902097437
 20
246.3824119083
 30
0.0
 10
-26.9823848669
 20
246.5074405463
 30
0.0
 10
-27.0584142645
 20
246.6405675954
 30
0.0
 10
-27.1296549824
 20
246.7808781622
 30
0.0
 10
-27.1956469638
 20
246.9273960653
 30
0.0
 10
-27.2558989171
 20
247.0791342587
 30
0.0
 10
-27.3282053769
 20
247.2873774637
 30
0.0
 10
-27.4016979097
 20
247.5534795
 30
0.0
 10
-27.4519755461
 20
247.8237024914
 30
0.0
 10
-27.4771817085
 20
248.0387844746
 30
0.0
 10
-27.4883073334
 20
248.1966290689
 30
0.0
 10
-27.4916824676
 20
248.3509391444
 30
0.0
 10
-27.4873227157
 20
248.5006567813
 30
0.0
 10
-27.4752090644
 20
248.6447555718
 30
0.0
 10
-27.4554624806
 20
248.7822498293
 30
0.0
 10
-27.4282021956
 20
248.9122035908
 30
0.0
 10
-27.393586892
 20
249.0337261713
 30
0.0
 10
-27.3518878558
 20
249.146006695
 30
0.0
 10
-27.3033104715
 20
249.2482650111
 30
0.0
 10
-27.2482004336
 20
249.3398183197
 30
0.0
 10
-27.1868771353
 20
249.4200307593
 30
0.0
 10
-27.1196873381
 20
249.4882912702
 30
0.0
 10
-27.0470813214
 20
249.5441122604
 30
0.0
 10
-26.9695271997
 20
249.5869379661
 30
0.0
 10
-26.9147030712
 20
249.6066697015
 30
0.0
 10
-26.8869833584
 20
249.6141790072
 30
0.0
  0
SPLINE
  5
2F9
100
AcDbEntity
  8
0
100
AcDbSpline
 62
7
  6
CONTINUOUS
 70
0
 71
3
 72
13
 73
9
 74
0
 42
0.0000001
 43
0.0000001
 44
0.0000000001
 40
0.0
 40
0.0
 40
0.0
 40
0.0
 40
0.1142127748
 40
0.2301889029
 40
0.348708655
 40
0.4704864227
 40
0.7259294038
 40
1.0
 40
1.0
 40
1.0
 40
1.0
 10
-25.9001577969
 20
245.7408085699
 30
0.0
 10
-25.9182577555
 20
245.7380148544
 30
0.0
 10
-25.9550498287
 20
245.7342438819
 30
0.0
 10
-26.011048731
 20
245.7340640435
 30
0.0
 10
-26.0680214865
 20
245.739317399
 30
0.0
 10
-26.1462849136
 20
245.7537788697
 30
0.0
 10
-26.2460957162
 20
245.7861262629
 30
0.0
 10
-26.3223764302
 20
245.8240911735
 30
0.0
 10
-26.3604326012
 20
245.846071711
 30
0.0
  0
SPLINE
  5
2FA
100
AcDbEntity
  8
0
100
AcDbSpline
 62
7
  6
CONTINUOUS
 70
0
 71
3
 72
13
 73
9
 74
0
 42
0.0000001
 43
0.0000001
 44
0.0000000001
 40
0.0
 40
0.0
 40
0.0
 40
0.0
 40
0.1144641421
 40
0.2306521658
 40
0.3493213442
 40
0.4711664118
 40
0.7264659595
 40
1.0
 40
1.0
 40
1.0
 40
1.0
 10
-26.8285965771
 20
249.6265480985
 30
0.0
 10
-26.8108058403
 20
249.6292940858
 30
0.0
 10
-26.7746547733
 20
249.6330312829
 30
0.0
 10
-26.7196401512
 20
249.6333460542
 30
0.0
 10
-26.6636788176
 20
249.6284111152
 30
0.0
 10
-26.5868382971
 20
249.6146348141
 30
0.0
 10
-26.4888312217
 20
249.583627467
 30
0.0
 10
-26.4138091478
 20
249.5470713214
 30
0.0
 10
-26.3763696307
 20
249.5258860479
 30
0.0
  0
SPLINE
  5
2FB
100
AcDbEntity
  8
0
100
AcDbSpline
 62
7
  6
CONTINUOUS
 70
0
 71
3
 72
20
 73
16
 74
0
 42
0.0000001
 43
0.0000001
 44
0.0000000001
 40
0.0
 40
0.0
 40
0.0
 40
0.0
 40
0.046610165
 40
0.0965511522
 40
0.1497584073
 40
0.2061064871
 40
0.2654055883
 40
0.3273664065
 40
0.391634636
 40
0.4578110638
 40
0.5254612036
 40
0.5941235661
 40
0.7324951211
 40
0.8690505003
 40
1.0
 40
1.0
 40
1.0
 40
1.0
 10
-26.3683217729
 20
249.5212849573
 30
0.0
 10
-26.3300464744
 20
249.4991778558
 30
0.0
 10
-26.2535756755
 20
249.4484055397
 30
0.0
 10
-26.1438813273
 20
249.3578811053
 30
0.0
 10
-26.0363924504
 20
249.2511976914
 30
0.0
 10
-25.9321244122
 20
249.1294679524
 30
0.0
 10
-25.8320659799
 20
248.9938157361
 30
0.0
 10
-25.73711873
 20
248.8455572725
 30
0.0
 10
-25.6482303946
 20
248.6860913945
 30
0.0
 10
-25.5662404481
 20
248.5169664815
 30
0.0
 10
-25.4919420605
 20
248.3397973102
 30
0.0
 10
-25.4038844827
 20
248.0945466928
 30
0.0
 10
-25.317414853
 20
247.7797546319
 30
0.0
 10
-25.2533849453
 20
247.3995952726
 30
0.0
 10
-25.2381313956
 20
247.1457193977
 30
0.0
 10
-25.2383522705
 20
247.0215387429
 30
0.0
  0
SPLINE
  5
2FC
100
AcDbEntity
  8
0
100
AcDbSpline
 62
7
  6
CONTINUOUS
 70
0
 71
3
 72
15
 73
11
 74
0
 42
0.0000001
 43
0.0000001
 44
0.0000000001
 40
0.0
 40
0.0
 40
0.0
 40
0.0
 40
0.1544222771
 40
0.3008480701
 40
0.4386274307
 40
0.5674285187
 40
0.6872437651
 40
0.7985362233
 40
0.9022628018
 40
1.0
 40
1.0
 40
1.0
 40
1.0
 10
-25.2439566519
 20
246.8470971266
 30
0.0
 10
-25.2477734426
 20
246.7872615403
 30
0.0
 10
-25.2591571662
 20
246.6708885297
 30
0.0
 10
-25.2885698584
 20
246.5029631971
 30
0.0
 10
-25.3296777687
 20
246.3477368814
 30
0.0
 10
-25.3819969822
 20
246.2068426228
 30
0.0
 10
-25.4451139241
 20
246.081796678
 30
0.0
 10
-25.5183940771
 20
245.9738921287
 30
0.0
 10
-25.6012371013
 20
245.884436011
 30
0.0
 10
-25.6638365276
 20
245.8366776847
 30
0.0
 10
-25.6961110018
 20
245.8167171083
 30
0.0
  0
SPLINE
  5
2FD
100
AcDbEntity
  8
0
100
AcDbSpline
 62
7
  6
CONTINUOUS
 70
0
 71
3
 72
9
 73
5
 74
0
 42
0.0000001
 43
0.0000001
 44
0.0000000001
 40
0.0
 40
0.0
 40
0.0
 40
0.0
 40
0.503901035
 40
1.0
 40
1.0
 40
1.0
 40
1.0
 10
-25.6961110018
 20
245.8167171083
 30
0.0
 10
-25.7188725649
 20
245.8026399179
 30
0.0
 10
-25.7660398657
 20
245.7777877949
 30
0.0
 10
-25.8163391071
 20
245.7600671977
 30
0.0
 10
-25.8417710157
 20
245.7531776612
 30
0.0
  0
SPLINE
  5
2FE
100
AcDbEntity
  8
0
100
AcDbSpline
 62
7
  6
CONTINUOUS
 70
0
 71
3
 72
23
 73
19
 74
0
 42
0.0000001
 43
0.0000001
 44
0.0000000001
 40
0.0
 40
0.0
 40
0.0
 40
0.0
 40
0.0739883141
 40
0.1472920018
 40
0.2196904086
 40
0.2909905395
 40
0.3609961977
 40
0.4295187966
 40
0.4963793225
 40
0.5614080783
 40
0.6244469904
 40
0.6853507901
 40
0.7439891043
 40
0.8002493555
 40
0.8540375655
 40
0.9052821362
 40
0.9539437947
 40
1.0
 40
1.0
 40
1.0
 40
1.0
 10
15.4763761898
 20
234.5331679041
 30
0.0
 10
16.1594732981
 20
234.5659719452
 30
0.0
 10
17.5186248242
 20
234.6475417068
 30
0.0
 10
19.5422372915
 20
234.8185425937
 30
0.0
 10
21.5362835887
 20
235.0371847888
 30
0.0
 10
23.4938797797
 20
235.302694707
 30
0.0
 10
25.4084165777
 20
235.6141717215
 30
0.0
 10
27.2733595459
 20
235.9705472423
 30
0.0
 10
29.0823560669
 20
236.3706058157
 30
0.0
 10
30.8292557437
 20
236.8129805862
 30
0.0
 10
32.5081217628
 20
237.2961543681
 30
0.0
 10
34.1132513235
 20
237.8184858965
 30
0.0
 10
35.6392034857
 20
238.3781997802
 30
0.0
 10
37.0808159464
 20
238.9733934784
 30
0.0
 10
38.4332072887
 20
239.6020508703
 30
0.0
 10
39.691875553
 20
240.2620888133
 30
0.0
 10
40.852473997
 20
240.9512654233
 30
0.0
 10
41.57823799
 20
241.4421247349
 30
0.0
 10
41.9225827821
 20
241.6924255682
 30
0.0
  0
SPLINE
  5
2FF
100
AcDbEntity
  8
0
100
AcDbSpline
 62
7
  6
CONTINUOUS
 70
0
 71
3
 72
11
 73
7
 74
0
 42
0.0000001
 43
0.0000001
 44
0.0000000001
 40
0.0
 40
0.0
 40
0.0
 40
0.0
 40
0.2685283678
 40
0.5249033875
 40
0.7687348027
 40
1.0
 40
1.0
 40
1.0
 40
1.0
 10
45.3023658786
 20
238.1008180358
 30
0.0
 10
45.0436538916
 20
238.4602143901
 30
0.0
 10
44.5164274453
 20
239.1476109878
 30
0.0
 10
43.6796992575
 20
240.1012544177
 30
0.0
 10
42.8213656325
 20
240.9502562317
 30
0.0
 10
42.2234151517
 20
241.4580124765
 30
0.0
 10
41.9225827821
 20
241.6924255681
 30
0.0
  0
SPLINE
  5
300
100
AcDbEntity
  8
0
100
AcDbSpline
 62
7
  6
CONTINUOUS
 70
0
 71
3
 72
15
 73
11
 74
0
 42
0.0000001
 43
0.0000001
 44
0.0000000001
 40
0.0
 40
0.0
 40
0.0
 40
0.0
 40
0.1220302164
 40
0.2488862418
 40
0.378367418
 40
0.5084771368
 40
0.6372704469
 40
0.7630427906
 40
0.8844056059
 40
1.0
 40
1.0
 40
1.0
 40
1.0
 10
45.6248555797
 20
237.0945683796
 30
0.0
 10
45.6251215906
 20
237.1381963243
 30
0.0
 10
45.621405159
 20
237.2272411202
 30
0.0
 10
45.6044314435
 20
237.3615860968
 30
0.0
 10
45.5763950416
 20
237.4970162212
 30
0.0
 10
45.5381383052
 20
237.6306283324
 30
0.0
 10
45.4907377137
 20
237.7598608123
 30
0.0
 10
45.4352968238
 20
237.8824360606
 30
0.0
 10
45.3729879081
 20
237.9963093512
 30
0.0
 10
45.3265106221
 20
238.0672767497
 30
0.0
 10
45.3023658786
 20
238.1008180358
 30
0.0
  0
SPLINE
  5
301
100
AcDbEntity
  8
0
100
AcDbSpline
 62
7
  6
CONTINUOUS
 70
0
 71
3
 72
23
 73
19
 74
0
 42
0.0000001
 43
0.0000001
 44
0.0000000001
 40
0.0
 40
0.0
 40
0.0
 40
0.0
 40
0.0726757946
 40
0.1445921852
 40
0.2155910142
 40
0.2855389522
 40
0.3543015316
 40
0.4217464985
 40
0.4877490726
 40
0.5521905819
 40
0.6149587362
 40
0.6759495622
 40
0.7350678338
 40
0.7922282274
 40
0.8473557166
 40
0.9003887885
 40
0.9512839795
 40
1.0
 40
1.0
 40
1.0
 40
1.0
 10
19.1707987098
 20
228.6478014494
 30
0.0
 10
19.8381083017
 20
228.6997905264
 30
0.0
 10
21.1647302098
 20
228.8169366116
 30
0.0
 10
23.1386046626
 20
229.0333314184
 30
0.0
 10
25.082442946
 20
229.2890954319
 30
0.0
 10
26.9914129308
 20
229.5835827492
 30
0.0
 10
28.8609076734
 20
229.9160641731
 30
0.0
 10
30.68635501
 20
230.2857431504
 30
0.0
 10
32.4632910946
 20
230.6917049265
 30
0.0
 10
34.1873844643
 20
231.132949958
 30
0.0
 10
35.8544269584
 20
231.6084133008
 30
0.0
 10
37.4603581962
 20
232.1169180875
 30
0.0
 10
39.00126836
 20
232.6572285297
 30
0.0
 10
40.4734006773
 20
233.2280360943
 30
0.0
 10
41.8731804922
 20
233.827927908
 30
0.0
 10
43.1972489179
 20
234.4554860914
 30
0.0
 10
44.4423076681
 20
235.1091639327
 30
0.0
 10
45.235161421
 20
235.5714817894
 30
0.0
 10
45.6170053021
 20
235.8070591135
 30
0.0
  0
SPLINE
  5
302
100
AcDbEntity
  8
0
100
AcDbSpline
 62
7
  6
CONTINUOUS
 70
0
 71
3
 72
23
 73
19
 74
0
 42
0.0000001
 43
0.0000001
 44
0.0000000001
 40
0.0
 40
0.0
 40
0.0
 40
0.0
 40
0.0487160126
 40
0.0996111865
 40
0.152644247
 40
0.2077717307
 40
0.264932121
 40
0.3240503933
 40
0.3850412244
 40
0.447809387
 40
0.5122509072
 40
0.5782534932
 40
0.6456984717
 40
0.7144610605
 40
0.7844090067
 40
0.8554078354
 40
0.927324212
 40
1.0
 40
1.0
 40
1.0
 40
1.0
 10
45.6248555797
 20
237.0945683796
 30
0.0
 10
45.2430117573
 20
236.8589910917
 30
0.0
 10
44.4501582394
 20
236.396673278
 30
0.0
 10
43.2050998454
 20
235.7429954559
 30
0.0
 10
41.8810317963
 20
235.1154371836
 30
0.0
 10
40.4812522299
 20
234.5155452282
 30
0.0
 10
39.0091200392
 20
233.9447375052
 30
0.0
 10
37.4682098924
 20
233.4044268982
 30
0.0
 10
35.8622785415
 20
232.8959219864
 30
0.0
 10
34.1952358279
 20
232.4204585413
 30
0.0
 10
32.4711421556
 20
231.9792134741
 30
0.0
 10
30.6942057284
 20
231.5732517033
 30
0.0
 10
28.8687580504
 20
231.2035728036
 30
0.0
 10
26.999262999
 20
230.8710914891
 30
0.0
 10
25.0902928131
 20
230.5766043242
 30
0.0
 10
23.1464545467
 20
230.3208404926
 30
0.0
 10
21.1725802584
 20
230.1044458071
 30
0.0
 10
19.8459585244
 20
229.9872997882
 30
0.0
 10
19.1786489874
 20
229.9353107155
 30
0.0
  0
SPLINE
  5
303
100
AcDbEntity
  8
0
100
AcDbSpline
 62
7
  6
CONTINUOUS
 70
0
 71
3
 72
23
 73
19
 74
0
 42
0.0000001
 43
0.0000001
 44
0.0000000001
 40
0.0
 40
0.0
 40
0.0
 40
0.0
 40
0.0727822479
 40
0.1448085637
 40
0.2159160222
 40
0.285967218
 40
0.3548235836
 40
0.4223488619
 40
0.4884145288
 40
0.5528984099
 40
0.6156849762
 40
0.6766673715
 40
0.735747869
 40
0.7928390992
 40
0.8478645112
 40
0.9007616948
 40
0.9514871215
 40
1.0
 40
1.0
 40
1.0
 40
1.0
 10
18.8561592863
 20
230.9415603717
 30
0.0
 10
19.5247302085
 20
230.9921054811
 30
0.0
 10
20.8539219843
 20
231.1065729345
 30
0.0
 10
22.8316800489
 20
231.3195478526
 30
0.0
 10
24.7793698833
 20
231.5725123137
 30
0.0
 10
26.6920152239
 20
231.8648095543
 30
0.0
 10
28.5648717734
 20
232.1956952733
 30
0.0
 10
30.3932317154
 20
232.5643549687
 30
0.0
 10
32.1724998048
 20
232.9698508886
 30
0.0
 10
33.8982184065
 20
233.4111566696
 30
0.0
 10
35.5660584125
 20
233.88717781
 30
0.0
 10
37.1718448989
 20
234.3967030587
 30
0.0
 10
38.7115601168
 20
234.9384598537
 30
0.0
 10
40.1813464488
 20
235.5110999906
 30
0.0
 10
41.5775366422
 20
236.1131666869
 30
0.0
 10
42.8966883473
 20
236.7431983195
 30
0.0
 10
44.1354246063
 20
237.3995996087
 30
0.0
 10
44.9232975272
 20
237.8641059848
 30
0.0
 10
45.3023658786
 20
238.1008180358
 30
0.0
  0
SPLINE
  5
304
100
AcDbEntity
  8
0
100
AcDbSpline
 62
7
  6
CONTINUOUS
 70
0
 71
3
 72
11
 73
7
 74
0
 42
0.0000001
 43
0.0000001
 44
0.0000000001
 40
0.0
 40
0.0
 40
0.0
 40
0.0
 40
0.2312652385
 40
0.4750966592
 40
0.7314716246
 40
1.0
 40
1.0
 40
1.0
 40
1.0
 10
15.4763761898
 20
234.533167904
 30
0.0
 10
15.7772086137
 20
234.2987547701
 30
0.0
 10
16.3751590113
 20
233.7909983084
 30
0.0
 10
17.2334928532
 20
232.9419967452
 30
0.0
 10
18.0702211378
 20
231.9883534638
 30
0.0
 10
18.5974472913
 20
231.3009567371
 30
0.0
 10
18.8561592863
 20
230.9415603718
 30
0.0
  0
SPLINE
  5
305
100
AcDbEntity
  8
0
100
AcDbSpline
 62
7
  6
CONTINUOUS
 70
0
 71
3
 72
15
 73
11
 74
0
 42
0.0000001
 43
0.0000001
 44
0.0000000001
 40
0.0
 40
0.0
 40
0.0
 40
0.0
 40
0.1155907483
 40
0.2369451701
 40
0.3627108989
 40
0.4915117401
 40
0.6216341016
 40
0.7511209551
 40
0.8779730143
 40
1.0
 40
1.0
 40
1.0
 40
1.0
 10
18.8561592863
 20
230.9415603718
 30
0.0
 10
18.880303328
 20
230.9080200605
 30
0.0
 10
18.9267729262
 20
230.8370522389
 30
0.0
 10
18.989074899
 20
230.7231832584
 30
0.0
 10
19.0445395978
 20
230.6006215114
 30
0.0
 10
19.0919450739
 20
230.4713844756
 30
0.0
 10
19.1301947799
 20
230.3377605025
 30
0.0
 10
19.1582343028
 20
230.2023256332
 30
0.0
 10
19.175205737
 20
230.0679802151
 30
0.0
 10
19.1789149919
 20
229.9789376131
 30
0.0
 10
19.1786489874
 20
229.9353107154
 30
0.0
  0
SPLINE
  5
306
100
AcDbEntity
  8
0
100
AcDbSpline
 62
7
  6
CONTINUOUS
 70
0
 71
3
 72
9
 73
5
 74
0
 42
0.0000001
 43
0.0000001
 44
0.0000000001
 40
0.0
 40
0.0
 40
0.0
 40
0.0
 40
0.254883143
 40
1.0
 40
1.0
 40
1.0
 40
1.0
 10
-122.72804726
 20
268.0559082294
 30
0.0
 10
-122.9146655381
 20
267.2350531768
 30
0.0
 10
-123.5618154714
 20
263.9961081163
 30
0.0
 10
-123.8620888823
 20
260.685423384
 30
0.0
 10
-123.8635265142
 20
258.2245300843
 30
0.0
  0
SPLINE
  5
307
100
AcDbEntity
  8
0
100
AcDbSpline
 62
7
  6
CONTINUOUS
 70
0
 71
3
 72
9
 73
5
 74
0
 42
0.0000001
 43
0.0000001
 44
0.0000000001
 40
0.0
 40
0.0
 40
0.0
 40
0.0
 40
0.5063324434
 40
1.0
 40
1.0
 40
1.0
 40
1.0
 10
-123.8902602611
 20
250.9440978345
 30
0.0
 10
-123.5072596464
 20
249.8707098228
 30
0.0
 10
-122.6332683397
 20
247.7905444279
 30
0.0
 10
-121.5198354373
 20
245.8271662158
 30
0.0
 10
-120.9122793741
 20
244.8968096983
 30
0.0
  0
SPLINE
  5
308
100
AcDbEntity
  8
0
100
AcDbSpline
 62
7
  6
CONTINUOUS
 70
0
 71
3
 72
9
 73
5
 74
0
 42
0.0000001
 43
0.0000001
 44
0.0000000001
 40
0.0
 40
0.0
 40
0.0
 40
0.0
 40
0.2546562687
 40
1.0
 40
1.0
 40
1.0
 40
1.0
 10
-105.3952468542
 20
240.4750017513
 30
0.0
 10
-105.2666955993
 20
240.1665456389
 30
0.0
 10
-104.7295219957
 20
238.9691443629
 30
0.0
 10
-104.0601855341
 20
237.8301079957
 30
0.0
 10
-103.4902122359
 20
237.0352753582
 30
0.0
  0
SPLINE
  5
309
100
AcDbEntity
  8
0
100
AcDbSpline
 62
7
  6
CONTINUOUS
 70
0
 71
3
 72
11
 73
7
 74
0
 42
0.0000001
 43
0.0000001
 44
0.0000000001
 40
0.0
 40
0.0
 40
0.0
 40
0.0
 40
0.2661154845
 40
0.5229055537
 40
0.7678516359
 40
1.0
 40
1.0
 40
1.0
 40
1.0
 10
-105.4331359981
 20
258.1258641594
 30
0.0
 10
-105.9424787327
 20
256.6121756154
 30
0.0
 10
-106.7204001986
 20
253.5564066915
 30
0.0
 10
-107.1258079006
 20
248.9447016241
 30
0.0
 10
-106.7379251338
 20
244.5337088228
 30
0.0
 10
-105.9312046929
 20
241.7610216463
 30
0.0
 10
-105.3952468542
 20
240.4750017513
 30
0.0
  0
SPLINE
  5
30A
100
AcDbEntity
  8
0
100
AcDbSpline
 62
7
  6
CONTINUOUS
 70
0
 71
3
 72
14
 73
10
 74
0
 42
0.0000001
 43
0.0000001
 44
0.0000000001
 40
0.0
 40
0.0
 40
0.0
 40
0.0
 40
0.1091517976
 40
0.2238162708
 40
0.3442983718
 40
0.4701526381
 40
0.6003252422
 40
0.7333218689
 40
1.0
 40
1.0
 40
1.0
 40
1.0
 10
-80.6351247919
 20
278.2075257389
 30
0.0
 10
-81.8707351319
 20
278.2627632802
 30
0.0
 10
-84.4231957642
 20
278.0923120159
 30
0.0
 10
-88.2087875163
 20
277.0629975498
 30
0.0
 10
-91.9206517095
 20
275.2962637587
 30
0.0
 10
-95.4392023253
 20
272.8536574179
 30
0.0
 10
-98.6552135389
 20
269.8141403978
 30
0.0
 10
-102.3998401864
 20
265.1046109594
 30
0.0
 10
-104.469410275
 20
260.9899093049
 30
0.0
 10
-105.4331359981
 20
258.1258641594
 30
0.0
  0
SPLINE
  5
30B
100
AcDbEntity
  8
0
100
AcDbSpline
 62
7
  6
CONTINUOUS
 70
0
 71
3
 72
9
 73
5
 74
0
 42
0.0000001
 43
0.0000001
 44
0.0000000001
 40
0.0
 40
0.0
 40
0.0
 40
0.0
 40
0.4942735875
 40
1.0
 40
1.0
 40
1.0
 40
1.0
 10
-121.1597148485
 20
244.7112533686
 30
0.0
 10
-121.7704986679
 20
245.6563301082
 30
0.0
 10
-122.8450962427
 20
247.6765250374
 30
0.0
 10
-123.5876052873
 20
249.8389026539
 30
0.0
 10
-123.8818435524
 20
250.9520109784
 30
0.0
  0
SPLINE
  5
30C
100
AcDbEntity
  8
0
100
AcDbSpline
 62
7
  6
CONTINUOUS
 70
0
 71
3
 72
9
 73
5
 74
0
 42
0.0000001
 43
0.0000001
 44
0.0000000001
 40
0.0
 40
0.0
 40
0.0
 40
0.0
 40
0.2464648478
 40
1.0
 40
1.0
 40
1.0
 40
1.0
 10
-90.7349253396
 20
289.9881024945
 30
0.0
 10
-91.1655691196
 20
290.001678
 30
0.0
 10
-92.9140077671
 20
290.0148635242
 30
0.0
 10
-94.6629941191
 20
289.8622827018
 30
0.0
 10
-95.9650788852
 20
289.6626927011
 30
0.0
  0
SPLINE
  5
30D
100
AcDbEntity
  8
0
100
AcDbSpline
 62
7
  6
CONTINUOUS
 70
0
 71
3
 72
9
 73
5
 74
0
 42
0.0000001
 43
0.0000001
 44
0.0000000001
 40
0.0
 40
0.0
 40
0.0
 40
0.0
 40
0.2471728802
 40
1.0
 40
1.0
 40
1.0
 40
1.0
 10
-95.9650788852
 20
289.6626927011
 30
0.0
 10
-96.2829355299
 20
289.6139700606
 30
0.0
 10
-97.5657208486
 20
289.3964721005
 30
0.0
 10
-98.8346641618
 20
289.0984254073
 30
0.0
 10
-99.7773826488
 20
288.8328224369
 30
0.0
  0
SPLINE
  5
30E
100
AcDbEntity
  8
0
100
AcDbSpline
 62
7
  6
CONTINUOUS
 70
0
 71
3
 72
9
 73
5
 74
0
 42
0.0000001
 43
0.0000001
 44
0.0000000001
 40
0.0
 40
0.0
 40
0.0
 40
0.0
 40
0.2464168977
 40
1.0
 40
1.0
 40
1.0
 40
1.0
 10
-104.8732300844
 20
287.8884091596
 30
0.0
 10
-105.3974137048
 20
287.5576164861
 30
0.0
 10
-107.4949380851
 20
286.1685302919
 30
0.0
 10
-109.4713804014
 20
284.5980602381
 30
0.0
 10
-110.8823429872
 20
283.3322443444
 30
0.0
  0
SPLINE
  5
30F
100
AcDbEntity
  8
0
100
AcDbSpline
 62
7
  6
CONTINUOUS
 70
0
 71
3
 72
9
 73
5
 74
0
 42
0.0000001
 43
0.0000001
 44
0.0000000001
 40
0.0
 40
0.0
 40
0.0
 40
0.0
 40
0.4931260347
 40
1.0
 40
1.0
 40
1.0
 40
1.0
 10
-124.7225213211
 20
257.565358669
 30
0.0
 10
-124.7263087017
 20
259.3297303937
 30
0.0
 10
-124.401681029
 20
262.9139822107
 30
0.0
 10
-123.4827186944
 20
266.3899774739
 30
0.0
 10
-122.8830151656
 20
268.1015188695
 30
0.0
  0
SPLINE
  5
310
100
AcDbEntity
  8
0
100
AcDbSpline
 62
7
  6
CONTINUOUS
 70
0
 71
3
 72
9
 73
5
 74
0
 42
0.0000001
 43
0.0000001
 44
0.0000000001
 40
0.0
 40
0.0
 40
0.0
 40
0.0
 40
0.5009325022
 40
1.0
 40
1.0
 40
1.0
 40
1.0
 10
-122.8830151656
 20
268.1015188695
 30
0.0
 10
-122.0412847883
 20
270.5037998556
 30
0.0
 10
-119.8256307954
 20
275.1260123532
 30
0.0
 10
-116.6788639501
 20
279.1735517077
 30
0.0
 10
-114.9078109678
 20
280.9886765459
 30
0.0
  0
SPLINE
  5
311
100
AcDbEntity
  8
0
100
AcDbSpline
 62
7
  6
CONTINUOUS
 70
0
 71
3
 72
9
 73
5
 74
0
 42
0.0000001
 43
0.0000001
 44
0.0000000001
 40
0.0
 40
0.0
 40
0.0
 40
0.0
 40
0.5093423739
 40
1.0
 40
1.0
 40
1.0
 40
1.0
 10
-114.9078109678
 20
280.9886765459
 30
0.0
 10
-113.4563110272
 20
282.4762964089
 30
0.0
 10
-110.328466731
 20
285.1405743671
 30
0.0
 10
-106.7202271509
 20
287.1226514401
 30
0.0
 10
-104.8661235775
 20
287.8783218759
 30
0.0
  0
SPLINE
  5
312
100
AcDbEntity
  8
0
100
AcDbSpline
 62
7
  6
CONTINUOUS
 70
0
 71
3
 72
9
 73
5
 74
0
 42
0.0000001
 43
0.0000001
 44
0.0000000001
 40
0.0
 40
0.0
 40
0.0
 40
0.0
 40
0.5051124912
 40
1.0
 40
1.0
 40
1.0
 40
1.0
 10
-101.9141611555
 20
288.8735284707
 30
0.0
 10
-100.936467698
 20
289.1351646625
 30
0.0
 10
-98.9653788795
 20
289.5300866405
 30
0.0
 10
-96.9575898893
 20
289.6505338542
 30
0.0
 10
-95.9660726775
 20
289.6371153836
 30
0.0
  0
SPLINE
  5
313
100
AcDbEntity
  8
0
100
AcDbSpline
 62
7
  6
CONTINUOUS
 70
0
 71
3
 72
9
 73
5
 74
0
 42
0.0000001
 43
0.0000001
 44
0.0000000001
 40
0.0
 40
0.0
 40
0.0
 40
0.0
 40
0.7473009096
 40
1.0
 40
1.0
 40
1.0
 40
1.0
 10
-101.8538381926
 20
288.604578582
 30
0.0
 10
-101.8920749559
 20
288.672754602
 30
0.0
 10
-101.9605761123
 20
288.7555616524
 30
0.0
 10
-102.0435062215
 20
288.8193946703
 30
0.0
 10
-102.0652651262
 20
288.8344012995
 30
0.0
  0
SPLINE
  5
314
100
AcDbEntity
  8
0
100
AcDbSpline
 62
7
  6
CONTINUOUS
 70
0
 71
3
 72
9
 73
5
 74
0
 42
0.0000001
 43
0.0000001
 44
0.0000000001
 40
0.0
 40
0.0
 40
0.0
 40
0.0
 40
0.480229996
 40
1.0
 40
1.0
 40
1.0
 40
1.0
 10
-102.0652651262
 20
288.8344012995
 30
0.0
 10
-102.1915685001
 20
288.9215099068
 30
0.0
 10
-102.5139418566
 20
289.0202713076
 30
0.0
 10
-102.8383843192
 20
288.9645194924
 30
0.0
 10
-102.9945110034
 20
288.9079427556
 30
0.0
  0
SPLINE
  5
315
100
AcDbEntity
  8
0
100
AcDbSpline
 62
7
  6
CONTINUOUS
 70
0
 71
3
 72
9
 73
5
 74
0
 42
0.0000001
 43
0.0000001
 44
0.0000000001
 40
0.0
 40
0.0
 40
0.0
 40
0.0
 40
0.5654205596
 40
1.0
 40
1.0
 40
1.0
 40
1.0
 10
-102.9959040237
 20
288.908743006
 30
0.0
 10
-103.0194562862
 20
288.9222025046
 30
0.0
 10
-103.0639359801
 20
288.9426891306
 30
0.0
 10
-103.1157826632
 20
288.937923712
 30
0.0
 10
-103.1339060783
 20
288.9276161041
 30
0.0
  0
SPLINE
  5
316
100
AcDbEntity
  8
0
100
AcDbSpline
 62
7
  6
CONTINUOUS
 70
0
 71
3
 72
25
 73
21
 74
0
 42
0.0000001
 43
0.0000001
 44
0.0000000001
 40
0.0
 40
0.0
 40
0.0
 40
0.0
 40
0.1255186121
 40
0.2510436881
 40
0.3765723675
 40
0.5021006515
 40
0.5648630937
 40
0.6276221675
 40
0.6903749944
 40
0.7531159215
 40
0.8158322183
 40
0.8471726145
 40
0.8784900795
 40
0.9097651877
 40
0.9409483917
 40
0.9564646177
 40
0.9718612696
 40
0.9869351661
 40
0.9941072325
 40
1.0
 40
1.0
 40
1.0
 40
1.0
 10
-119.8580126474
 20
272.3566931329
 30
0.0
 10
-119.8987347241
 20
272.2697394958
 30
0.0
 10
-119.9792093499
 20
272.0953706781
 30
0.0
 10
-120.0968813991
 20
271.8324308257
 30
0.0
 10
-120.2113229309
 20
271.5680599015
 30
0.0
 10
-120.3037468329
 20
271.3464957053
 30
0.0
 10
-120.3756443358
 20
271.1684169755
 30
0.0
 10
-120.4284307693
 20
271.0344146762
 30
0.0
 10
-120.4799215985
 20
270.8999260942
 30
0.0
 10
-120.5298626123
 20
270.7648883488
 30
0.0
 10
-120.5698531087
 20
270.6518006393
 30
0.0
 10
-120.6004456704
 20
270.5609015805
 30
0.0
 10
-120.6224810761
 20
270.4925086174
 30
0.0
 10
-120.6432751203
 20
270.423838513
 30
0.0
 10
-120.6590936138
 20
270.3663478443
 30
0.0
 10
-120.670050971
 20
270.3200476048
 30
0.0
 10
-120.676867604
 20
270.2857442453
 30
0.0
 10
-120.6805845012
 20
270.2564837751
 30
0.0
 10
-120.6805810814
 20
270.2360905135
 30
0.0
 10
-120.6781931051
 20
270.2241782311
 30
0.0
 10
-120.6741602089
 20
270.222164424
 30
0.0
  0
SPLINE
  5
317
100
AcDbEntity
  8
0
100
AcDbSpline
 62
7
  6
CONTINUOUS
 70
0
 71
3
 72
9
 73
5
 74
0
 42
0.0000001
 43
0.0000001
 44
0.0000000001
 40
0.0
 40
0.0
 40
0.0
 40
0.0
 40
0.2407078095
 40
1.0
 40
1.0
 40
1.0
 40
1.0
 10
-100.6615128929
 20
288.505561182
 30
0.0
 10
-99.4998590331
 20
287.8290123052
 30
0.0
 10
-94.7370308454
 20
284.9103267079
 30
0.0
 10
-90.2255325521
 20
281.5892280175
 30
0.0
 10
-86.9431683739
 20
278.9044737585
 30
0.0
  0
SPLINE
  5
318
100
AcDbEntity
  8
0
100
AcDbSpline
 62
7
  6
CONTINUOUS
 70
0
 71
3
 72
11
 73
7
 74
0
 42
0.0000001
 43
0.0000001
 44
0.0000000001
 40
0.0
 40
0.0
 40
0.0
 40
0.0
 40
0.1859610023
 40
0.3944245979
 40
0.6676256125
 40
1.0
 40
1.0
 40
1.0
 40
1.0
 10
-123.8944031615
 20
255.4455608815
 30
0.0
 10
-123.8737584542
 20
255.4644152198
 30
0.0
 10
-123.8147969965
 20
255.4921026278
 30
0.0
 10
-123.7131410409
 20
255.4587357046
 30
0.0
 10
-123.6228042646
 20
255.3739479708
 30
0.0
 10
-123.5722738506
 20
255.2973469857
 30
0.0
 10
-123.5483078969
 20
255.2534973517
 30
0.0
  0
SPLINE
  5
319
100
AcDbEntity
  8
0
100
AcDbSpline
 62
7
  6
CONTINUOUS
 70
0
 71
3
 72
9
 73
5
 74
0
 42
0.0000001
 43
0.0000001
 44
0.0000000001
 40
0.0
 40
0.0
 40
0.0
 40
0.0
 40
0.2461264548
 40
1.0
 40
1.0
 40
1.0
 40
1.0
 10
-104.5247882296
 20
288.000383887
 30
0.0
 10
-105.0737024431
 20
287.6581943546
 30
0.0
 10
-107.2717072566
 20
286.2166614768
 30
0.0
 10
-109.3384033377
 20
284.5766959915
 30
0.0
 10
-110.8110352972
 20
283.2513081988
 30
0.0
  0
SPLINE
  5
31A
100
AcDbEntity
  8
0
100
AcDbSpline
 62
7
  6
CONTINUOUS
 70
0
 71
3
 72
8
 73
4
 74
0
 42
0.0000001
 43
0.0000001
 44
0.0000000001
 40
0.0
 40
0.0
 40
0.0
 40
0.0
 40
1.0
 40
1.0
 40
1.0
 40
1.0
 10
-111.0690140054
 20
283.0174159191
 30
0.0
 10
-111.0717006217
 20
283.0154411689
 30
0.0
 10
-111.0739731148
 20
283.0129573636
 30
0.0
 10
-111.076473412
 20
283.0107514489
 30
0.0
  0
SPLINE
  5
31B
100
AcDbEntity
  8
0
100
AcDbSpline
 62
7
  6
CONTINUOUS
 70
0
 71
3
 72
8
 73
4
 74
0
 42
0.0000001
 43
0.0000001
 44
0.0000000001
 40
0.0
 40
0.0
 40
0.0
 40
0.0
 40
1.0
 40
1.0
 40
1.0
 40
1.0
 10
-111.0764360431
 20
283.0107279842
 30
0.0
 10
-111.1833442117
 20
282.9116517136
 30
0.0
 10
-111.2906798092
 20
282.8130367425
 30
0.0
 10
-111.3974470355
 20
282.7138086049
 30
0.0
  0
SPLINE
  5
31C
100
AcDbEntity
  8
0
100
AcDbSpline
 62
7
  6
CONTINUOUS
 70
0
 71
3
 72
43
 73
39
 74
0
 42
0.0000001
 43
0.0000001
 44
0.0000000001
 40
0.0
 40
0.0
 40
0.0
 40
0.0
 40
0.1070759829
 40
0.2199248289
 40
0.3381791725
 40
0.3992299954
 40
0.4615015377
 40
0.5249524097
 40
0.5895422539
 40
0.6552317293
 40
0.7219824212
 40
0.7897562491
 40
0.8240152113
 40
0.8585151865
 40
0.8758539155
 40
0.8932508508
 40
0.9107052634
 40
0.9282164453
 40
0.9369931618
 40
0.9457839539
 40
0.9545889731
 40
0.9634087321
 40
0.9678245951
 40
0.9722449517
 40
0.9766706684
 40
0.981103652
 40
0.9855489627
 40
0.9877812383
 40
0.9900281302
 40
0.9911641666
 40
0.9923202972
 40
0.9935345793
 40
0.9942250375
 40
0.995003096
 40
0.9963718035
 40
0.9976190068
 40
0.998826551
 40
1.0
 40
1.0
 40
1.0
 40
1.0
 10
-101.7682017309
 20
284.7968097888
 30
0.0
 10
-101.7301376093
 20
284.337655719
 30
0.0
 10
-101.620741576
 20
283.3969085153
 30
0.0
 10
-101.3588931378
 20
281.9645782424
 30
0.0
 10
-101.0545533346
 20
280.7439617564
 30
0.0
 10
-100.7573833453
 20
279.7477551373
 30
0.0
 10
-100.504570662
 20
278.9847711199
 30
0.0
 10
-100.2244135074
 20
278.2151884387
 30
0.0
 10
-99.9172246645
 20
277.4401521965
 30
0.0
 10
-99.5835010028
 20
276.6607043642
 30
0.0
 10
-99.223934378
 20
275.8777455168
 30
0.0
 10
-98.9050512167
 20
275.2251811121
 30
0.0
 10
-98.6390509168
 20
274.7013683717
 30
0.0
 10
-98.4684215182
 20
274.3725345604
 30
0.0
 10
-98.3299591904
 20
274.1087583474
 30
0.0
 10
-98.2251547473
 20
273.9101496541
 30
0.0
 10
-98.1198477706
 20
273.7109675056
 30
0.0
 10
-98.0320982634
 20
273.5444585255
 30
0.0
 10
-97.9622407538
 20
273.4106597449
 30
0.0
 10
-97.9101379219
 20
273.3098515096
 30
0.0
 10
-97.8585963985
 20
273.2085468996
 30
0.0
 10
-97.8164304468
 20
273.123595903
 30
0.0
 10
-97.7834959608
 20
273.0551340334
 30
0.0
 10
-97.7593304728
 20
273.0034382679
 30
0.0
 10
-97.7359231202
 20
272.9513111264
 30
0.0
 10
-97.7136517953
 20
272.8985724575
 30
0.0
 10
-97.6965971744
 20
272.8538838692
 30
0.0
 10
-97.6847942072
 20
272.8173328254
 30
0.0
 10
-97.6786592677
 20
272.7939369082
 30
0.0
 10
-97.6752615108
 20
272.7746793026
 30
0.0
 10
-97.674025532
 20
272.7596380588
 30
0.0
 10
-97.6751207784
 20
272.7463123642
 30
0.0
 10
-97.6805300564
 20
272.7356465786
 30
0.0
 10
-97.6921145439
 20
272.7295851236
 30
0.0
 10
-97.7072438124
 20
272.7328718885
 30
0.0
 10
-97.7221481969
 20
272.7394106809
 30
0.0
 10
-97.7360697383
 20
272.7467052268
 30
0.0
 10
-97.7441208836
 20
272.7530787704
 30
0.0
 10
-97.7483023259
 20
272.7559088592
 30
0.0
  0
SPLINE
  5
31D
100
AcDbEntity
  8
0
100
AcDbSpline
 62
7
  6
CONTINUOUS
 70
0
 71
3
 72
9
 73
5
 74
0
 42
0.0000001
 43
0.0000001
 44
0.0000000001
 40
0.0
 40
0.0
 40
0.0
 40
0.0
 40
0.2542085037
 40
1.0
 40
1.0
 40
1.0
 40
1.0
 10
-97.7488473557
 20
272.7562340558
 30
0.0
 10
-97.9349563941
 20
273.0197628311
 30
0.0
 10
-98.65398536
 20
274.0655706773
 30
0.0
 10
-99.3185220916
 20
275.1491079089
 30
0.0
 10
-99.7777601037
 20
275.9767294011
 30
0.0
  0
SPLINE
  5
31E
100
AcDbEntity
  8
0
100
AcDbSpline
 62
7
  6
CONTINUOUS
 70
0
 71
3
 72
11
 73
7
 74
0
 42
0.0000001
 43
0.0000001
 44
0.0000000001
 40
0.0
 40
0.0
 40
0.0
 40
0.0
 40
0.2713238322
 40
0.5288531636
 40
0.7718708227
 40
1.0
 40
1.0
 40
1.0
 40
1.0
 10
-99.7777601037
 20
275.9767294011
 30
0.0
 10
-100.3487524456
 20
277.0174349047
 30
0.0
 10
-101.3734982597
 20
279.0979993416
 30
0.0
 10
-102.4637866326
 20
282.3060613526
 30
0.0
 10
-103.0480550627
 20
285.4501122381
 30
0.0
 10
-103.1090120414
 20
287.5239656119
 30
0.0
 10
-103.0308346868
 20
288.5189756625
 30
0.0
  0
SPLINE
  5
31F
100
AcDbEntity
  8
0
100
AcDbSpline
 62
7
  6
CONTINUOUS
 70
0
 71
3
 72
9
 73
5
 74
0
 42
0.0000001
 43
0.0000001
 44
0.0000000001
 40
0.0
 40
0.0
 40
0.0
 40
0.0
 40
0.2463518395
 40
1.0
 40
1.0
 40
1.0
 40
1.0
 10
-90.6445278063
 20
289.9617561299
 30
0.0
 10
-91.0655827464
 20
289.9749050207
 30
0.0
 10
-92.7758473956
 20
289.9879840201
 30
0.0
 10
-94.4866582522
 20
289.8414505532
 30
0.0
 10
-95.761036028
 20
289.6496265938
 30
0.0
  0
SPLINE
  5
320
100
AcDbEntity
  8
0
100
AcDbSpline
 62
7
  6
CONTINUOUS
 70
0
 71
3
 72
9
 73
5
 74
0
 42
0.0000001
 43
0.0000001
 44
0.0000000001
 40
0.0
 40
0.0
 40
0.0
 40
0.0
 40
0.2472597855
 40
1.0
 40
1.0
 40
1.0
 40
1.0
 10
-95.761036028
 20
289.6496265938
 30
0.0
 10
-96.0567463972
 20
289.6051151978
 30
0.0
 10
-97.2499791105
 20
289.4073773167
 30
0.0
 10
-98.4314848038
 20
289.1397022186
 30
0.0
 10
-99.3103148403
 20
288.9021067408
 30
0.0
  0
LINE
  5
321
100
AcDbEntity
  8
0
100
AcDbLine
 62
7
  6
CONTINUOUS
 10
-99.3103148403
 20
288.9021067408
 11
-99.3189238228
 21
288.8998630928
  0
SPLINE
  5
322
100
AcDbEntity
  8
0
100
AcDbSpline
 62
7
  6
CONTINUOUS
 70
0
 71
3
 72
12
 73
8
 74
0
 42
0.0000001
 43
0.0000001
 44
0.0000000001
 40
0.0
 40
0.0
 40
0.0
 40
0.0
 40
0.2691308828
 40
0.5243960673
 40
0.7668009572
 40
0.8843188283
 40
1.0
 40
1.0
 40
1.0
 40
1.0
 10
-108.3237918589
 20
248.9200182529
 30
0.0
 10
-108.3205625143
 20
247.4113614383
 30
0.0
 10
-108.0643028844
 20
244.4636303431
 30
0.0
 10
-106.875290648
 20
240.304443634
 30
0.0
 10
-105.2271457894
 20
237.2378202745
 30
0.0
 10
-103.563501586
 20
235.1476515967
 30
0.0
 10
-102.627816059
 20
234.228905651
 30
0.0
 10
-102.1373216503
 20
233.8047241504
 30
0.0
  0
SPLINE
  5
323
100
AcDbEntity
  8
0
100
AcDbSpline
 62
7
  6
CONTINUOUS
 70
0
 71
3
 72
8
 73
4
 74
0
 42
0.0000001
 43
0.0000001
 44
0.0000000001
 40
0.0
 40
0.0
 40
0.0
 40
0.0
 40
1.0
 40
1.0
 40
1.0
 40
1.0
 10
-99.3188865175
 20
288.8998405355
 30
0.0
 10
-99.4430917919
 20
288.8654267753
 30
0.0
 10
-99.5673553039
 20
288.831217811
 30
0.0
 10
-99.6913821208
 20
288.7961663376
 30
0.0
  0
SPLINE
  5
324
100
AcDbEntity
  8
0
100
AcDbSpline
 62
7
  6
CONTINUOUS
 70
0
 71
3
 72
9
 73
5
 74
0
 42
0.0000001
 43
0.0000001
 44
0.0000000001
 40
0.0
 40
0.0
 40
0.0
 40
0.0
 40
0.4910535599
 40
1.0
 40
1.0
 40
1.0
 40
1.0
 10
-120.6172404971
 20
244.4923365629
 30
0.0
 10
-118.275954905
 20
243.1530933492
 30
0.0
 10
-113.3642726945
 20
240.6714628151
 30
0.0
 10
-108.2406604034
 20
238.6684483998
 30
0.0
 10
-105.5954986317
 20
237.7639307917
 30
0.0
  0
SPLINE
  5
325
100
AcDbEntity
  8
0
100
AcDbSpline
 62
7
  6
CONTINUOUS
 70
0
 71
3
 72
9
 73
5
 74
0
 42
0.0000001
 43
0.0000001
 44
0.0000000001
 40
0.0
 40
0.0
 40
0.0
 40
0.0
 40
0.2471727501
 40
1.0
 40
1.0
 40
1.0
 40
1.0
 10
-124.0283006832
 20
256.6764475383
 30
0.0
 10
-124.0289376786
 20
256.9670611672
 30
0.0
 10
-124.0136205737
 20
258.1427999972
 30
0.0
 10
-123.9275148278
 20
259.3174821024
 30
0.0
 10
-123.8254115943
 20
260.1967130211
 30
0.0
  0
SPLINE
  5
326
100
AcDbEntity
  8
0
100
AcDbSpline
 62
7
  6
CONTINUOUS
 70
0
 71
3
 72
9
 73
5
 74
0
 42
0.0000001
 43
0.0000001
 44
0.0000000001
 40
0.0
 40
0.0
 40
0.0
 40
0.0
 40
0.4847187388
 40
1.0
 40
1.0
 40
1.0
 40
1.0
 10
-123.7449263214
 20
256.5145556986
 30
0.0
 10
-121.3645295472
 20
255.1483866573
 30
0.0
 10
-116.3567639324
 20
252.4967639539
 30
0.0
 10
-111.2031967427
 20
250.1436963119
 30
0.0
 10
-108.5189504504
 20
249.0002887616
 30
0.0
  0
SPLINE
  5
327
100
AcDbEntity
  8
0
100
AcDbSpline
 62
7
  6
CONTINUOUS
 70
0
 71
3
 72
11
 73
7
 74
0
 42
0.0000001
 43
0.0000001
 44
0.0000000001
 40
0.0
 40
0.0
 40
0.0
 40
0.0
 40
0.2354134864
 40
0.4799707908
 40
0.7347822613
 40
1.0
 40
1.0
 40
1.0
 40
1.0
 10
-103.4362511478
 20
236.8938685677
 30
0.0
 10
-104.0235737813
 20
237.6981260341
 30
0.0
 10
-105.0706485509
 20
239.452374443
 30
0.0
 10
-106.1935168173
 20
242.3649075002
 30
0.0
 10
-106.8754098593
 20
245.5388466484
 30
0.0
 10
-107.0244087315
 20
247.7419185426
 30
0.0
 10
-107.0268171187
 20
248.8638787445
 30
0.0
  0
SPLINE
  5
328
100
AcDbEntity
  8
0
100
AcDbSpline
 62
7
  6
CONTINUOUS
 70
0
 71
3
 72
17
 73
13
 74
0
 42
0.0000001
 43
0.0000001
 44
0.0000000001
 40
0.0
 40
0.0
 40
0.0
 40
0.0
 40
0.1264636723
 40
0.2579523795
 40
0.3248024867
 40
0.3918282586
 40
0.5246827731
 40
0.6536551465
 40
0.7763826256
 40
0.8916306977
 40
0.9466098787
 40
1.0
 40
1.0
 40
1.0
 40
1.0
 10
-107.0266779997
 20
249.0200488748
 30
0.0
 10
-107.0193199164
 20
250.8955303827
 30
0.0
 10
-106.5872691304
 20
254.7272231928
 30
0.0
 10
-105.1371044506
 20
259.3499575459
 30
0.0
 10
-103.4620141491
 20
262.9163140109
 30
0.0
 10
-101.4628064694
 20
266.3348529441
 30
0.0
 10
-98.4416539124
 20
270.2003318914
 30
0.0
 10
-94.1340847557
 20
273.9910903811
 30
0.0
 10
-89.3793594463
 20
276.7183654857
 30
0.0
 10
-85.1750894609
 20
277.9910818493
 30
0.0
 10
-81.8658001736
 20
278.3116590809
 30
0.0
 10
-80.2534575641
 20
278.2444606691
 30
0.0
 10
-79.4669519491
 20
278.1531157872
 30
0.0
  0
SPLINE
  5
329
100
AcDbEntity
  8
0
100
AcDbSpline
 62
7
  6
CONTINUOUS
 70
0
 71
3
 72
9
 73
5
 74
0
 42
0.0000001
 43
0.0000001
 44
0.0000000001
 40
0.0
 40
0.0
 40
0.0
 40
0.0
 40
0.4972570897
 40
1.0
 40
1.0
 40
1.0
 40
1.0
 10
-113.0769450518
 20
281.168815505
 30
0.0
 10
-113.0391858463
 20
281.1548783736
 30
0.0
 10
-112.9677317889
 20
281.1026388725
 30
0.0
 10
-112.9511470109
 20
281.016763604
 30
0.0
 10
-112.952418303
 20
280.9760901919
 30
0.0
  0
SPLINE
  5
32A
100
AcDbEntity
  8
0
100
AcDbSpline
 62
7
  6
CONTINUOUS
 70
0
 71
3
 72
14
 73
10
 74
0
 42
0.0000001
 43
0.0000001
 44
0.0000000001
 40
0.0
 40
0.0
 40
0.0
 40
0.0
 40
0.2419950064
 40
0.4872046756
 40
0.6117788238
 40
0.7385564675
 40
0.8691661187
 40
0.9368754681
 40
1.0
 40
1.0
 40
1.0
 40
1.0
 10
-120.9122853711
 20
244.8968076138
 30
0.0
 10
-120.8901628522
 20
244.8629327109
 30
0.0
 10
-120.8452472661
 20
244.7949745792
 30
0.0
 10
-120.7876630084
 20
244.7104485045
 30
0.0
 10
-120.7398910767
 20
244.6425223296
 30
0.0
 10
-120.7023026404
 20
244.5909748958
 30
0.0
 10
-120.6695078091
 20
244.5473608759
 30
0.0
 10
-120.6411334022
 20
244.5145856616
 30
0.0
 10
-120.626524513
 20
244.4973552947
 30
0.0
 10
-120.6172404971
 20
244.4923365629
 30
0.0
  0
SPLINE
  5
32B
100
AcDbEntity
  8
0
100
AcDbSpline
 62
7
  6
CONTINUOUS
 70
0
 71
3
 72
11
 73
7
 74
0
 42
0.0000001
 43
0.0000001
 44
0.0000000001
 40
0.0
 40
0.0
 40
0.0
 40
0.0
 40
0.235197598
 40
0.4627647635
 40
0.7131212921
 40
1.0
 40
1.0
 40
1.0
 40
1.0
 10
-121.2885254746
 20
269.1754444912
 30
0.0
 10
-121.2579662157
 20
269.1837398199
 30
0.0
 10
-121.1932473822
 20
269.1889934695
 30
0.0
 10
-121.1024168918
 20
269.1467488006
 30
0.0
 10
-121.0379937643
 20
269.0627431234
 30
0.0
 10
-121.0144807427
 20
268.9933252612
 30
0.0
 10
-121.0061919721
 20
268.9556020888
 30
0.0
  0
SPLINE
  5
32C
100
AcDbEntity
  8
0
100
AcDbSpline
 62
7
  6
CONTINUOUS
 70
0
 71
3
 72
9
 73
5
 74
0
 42
0.0000001
 43
0.0000001
 44
0.0000000001
 40
0.0
 40
0.0
 40
0.0
 40
0.0
 40
0.4459188125
 40
1.0
 40
1.0
 40
1.0
 40
1.0
 10
-89.8400776511
 20
288.4049582493
 30
0.0
 10
-89.8693329227
 20
288.3439188437
 30
0.0
 10
-89.9130061042
 20
288.1967499877
 30
0.0
 10
-89.9293528823
 20
288.0454129884
 30
0.0
 10
-89.9337849755
 20
287.9614232646
 30
0.0
  0
SPLINE
  5
32D
100
AcDbEntity
  8
0
100
AcDbSpline
 62
7
  6
CONTINUOUS
 70
0
 71
3
 72
9
 73
5
 74
0
 42
0.0000001
 43
0.0000001
 44
0.0000000001
 40
0.0
 40
0.0
 40
0.0
 40
0.0
 40
0.4956635953
 40
1.0
 40
1.0
 40
1.0
 40
1.0
 10
-89.0828970025
 20
288.1913190286
 30
0.0
 10
-86.7794128676
 20
286.8469942785
 30
0.0
 10
-82.2788877928
 20
283.8759280061
 30
0.0
 10
-78.1215206023
 20
280.4426999269
 30
0.0
 10
-76.1191884799
 20
278.6110290186
 30
0.0
  0
SPLINE
  5
32E
100
AcDbEntity
  8
0
100
AcDbSpline
 62
7
  6
CONTINUOUS
 70
0
 71
3
 72
9
 73
5
 74
0
 42
0.0000001
 43
0.0000001
 44
0.0000000001
 40
0.0
 40
0.0
 40
0.0
 40
0.0
 40
0.2596936589
 40
1.0
 40
1.0
 40
1.0
 40
1.0
 10
-86.9418579167
 20
278.9034561561
 30
0.0
 10
-87.0851506095
 20
279.1311595698
 30
0.0
 10
-87.6289667072
 20
280.0129311114
 30
0.0
 10
-88.1394042992
 20
280.9155012863
 30
0.0
 10
-88.4936491508
 20
281.5957332527
 30
0.0
  0
SPLINE
  5
32F
100
AcDbEntity
  8
0
100
AcDbSpline
 62
7
  6
CONTINUOUS
 70
0
 71
3
 72
12
 73
8
 74
0
 42
0.0000001
 43
0.0000001
 44
0.0000000001
 40
0.0
 40
0.0
 40
0.0
 40
0.0
 40
0.3012167702
 40
0.5698096624
 40
0.8030523034
 40
0.9061043971
 40
1.0
 40
1.0
 40
1.0
 40
1.0
 10
-88.4936491508
 20
281.5957332527
 30
0.0
 10
-88.8430770091
 20
282.2769456857
 30
0.0
 10
-89.4714276573
 20
283.5835010549
 30
0.0
 10
-90.1902825295
 20
285.4972077657
 30
0.0
 10
-90.5677070935
 20
286.992398321
 30
0.0
 10
-90.7208986043
 20
288.0758517799
 30
0.0
 10
-90.7521026286
 20
288.5762305632
 30
0.0
 10
-90.7549808918
 20
288.8148682231
 30
0.0
  0
SPLINE
  5
330
100
AcDbEntity
  8
0
100
AcDbSpline
 62
7
  6
CONTINUOUS
 70
0
 71
3
 72
9
 73
5
 74
0
 42
0.0000001
 43
0.0000001
 44
0.0000000001
 40
0.0
 40
0.0
 40
0.0
 40
0.0
 40
0.2701721266
 40
1.0
 40
1.0
 40
1.0
 40
1.0
 10
-90.7549808918
 20
288.8148682231
 30
0.0
 10
-90.7562341459
 20
288.9187758968
 30
0.0
 10
-90.7520941385
 20
289.3031682768
 30
0.0
 10
-90.7097357378
 20
289.6890809194
 30
0.0
 10
-90.6429922431
 20
289.961741617
 30
0.0
  0
SPLINE
  5
331
100
AcDbEntity
  8
0
100
AcDbSpline
 62
7
  6
CONTINUOUS
 70
0
 71
3
 72
11
 73
7
 74
0
 42
0.0000001
 43
0.0000001
 44
0.0000000001
 40
0.0
 40
0.0
 40
0.0
 40
0.0
 40
0.2499855235
 40
0.4974998231
 40
0.7463109702
 40
1.0
 40
1.0
 40
1.0
 40
1.0
 10
-89.8845131604
 20
289.3619822267
 30
0.0
 10
-89.9110254111
 20
289.4424666198
 30
0.0
 10
-89.9886417464
 20
289.5956186126
 30
0.0
 10
-90.1669904317
 20
289.7799324352
 30
0.0
 10
-90.3906837085
 20
289.9072408284
 30
0.0
 10
-90.5578328111
 20
289.9500347069
 30
0.0
 10
-90.6431274653
 20
289.9609798225
 30
0.0
  0
SPLINE
  5
332
100
AcDbEntity
  8
0
100
AcDbSpline
 62
7
  6
CONTINUOUS
 70
0
 71
3
 72
20
 73
16
 74
0
 42
0.0000001
 43
0.0000001
 44
0.0000000001
 40
0.0
 40
0.0
 40
0.0
 40
0.0
 40
0.2422445933
 40
0.3674172431
 40
0.4949617459
 40
0.6244381321
 40
0.6896677133
 40
0.7550065391
 40
0.8201572197
 40
0.8845526102
 40
0.9161078316
 40
0.9468080613
 40
0.9758241326
 40
0.9890116416
 40
1.0
 40
1.0
 40
1.0
 40
1.0
 10
-77.1020463228
 20
280.0711448844
 30
0.0
 10
-77.0113126107
 20
279.9542194089
 30
0.0
 10
-76.8751990186
 20
279.7757029754
 30
0.0
 10
-76.69468427
 20
279.5330899249
 30
0.0
 10
-76.5568618561
 20
279.3445956425
 30
0.0
 10
-76.4421416157
 20
279.1845869873
 30
0.0
 10
-76.3507372011
 20
279.0546363269
 30
0.0
 10
-76.2826758624
 20
278.9563201775
 30
0.0
 10
-76.2158671906
 20
278.8577562994
 30
0.0
 10
-76.1618262187
 20
278.775501508
 30
0.0
 10
-76.1205678897
 20
278.7100042325
 30
0.0
 10
-76.0919581501
 20
278.6622244357
 30
0.0
 10
-76.0700549327
 20
278.6231706083
 30
0.0
 10
-76.0568947297
 20
278.5937908709
 30
0.0
 10
-76.0514819032
 20
278.579445354
 30
0.0
 10
-76.0516656198
 20
278.5727344739
 30
0.0
  0
SPLINE
  5
333
100
AcDbEntity
  8
0
100
AcDbSpline
 62
7
  6
CONTINUOUS
 70
0
 71
3
 72
14
 73
10
 74
0
 42
0.0000001
 43
0.0000001
 44
0.0000000001
 40
0.0
 40
0.0
 40
0.0
 40
0.0
 40
0.328663432
 40
0.4821650206
 40
0.6248582244
 40
0.7515150321
 40
0.8514993045
 40
0.8998358486
 40
1.0
 40
1.0
 40
1.0
 40
1.0
 10
-89.0344311824
 20
288.18170187
 30
0.0
 10
-89.0408392885
 20
288.1837286752
 30
0.0
 10
-89.0502393708
 20
288.1866569916
 30
0.0
 10
-89.0625455945
 20
288.1902367529
 30
0.0
 10
-89.0707632954
 20
288.1925887668
 30
0.0
 10
-89.0784459612
 20
288.1942959458
 30
0.0
 10
-89.083089588
 20
288.1957342475
 30
0.0
 10
-89.090225967
 20
288.1953818516
 30
0.0
 10
-89.0846737671
 20
288.1923381741
 30
0.0
 10
-89.0828970025
 20
288.1913190286
 30
0.0
  0
LINE
  5
334
100
AcDbEntity
  8
0
100
AcDbLine
 62
7
  6
CONTINUOUS
 10
-87.8986836463
 20
287.7874927107
 11
-87.9061624649
 21
287.7902866961
  0
SPLINE
  5
335
100
AcDbEntity
  8
0
100
AcDbSpline
 62
7
  6
CONTINUOUS
 70
0
 71
3
 72
38
 73
34
 74
0
 42
0.0000001
 43
0.0000001
 44
0.0000000001
 40
0.0
 40
0.0
 40
0.0
 40
0.0
 40
0.09047358
 40
0.1917957456
 40
0.3035712899
 40
0.4253405189
 40
0.4898118939
 40
0.5565791473
 40
0.6255662517
 40
0.6966826869
 40
0.769807348
 40
0.8070699282
 40
0.84475571
 40
0.8637412454
 40
0.8828090255
 40
0.9019443338
 40
0.9211245407
 40
0.9307204962
 40
0.9403111064
 40
0.9498854225
 40
0.9594261364
 40
0.9689027581
 40
0.9735999929
 40
0.9782522639
 40
0.9828334648
 40
0.9850840473
 40
0.9872973112
 40
0.989502787
 40
0.9909211364
 40
0.9930197258
 40
0.9948876202
 40
0.9966121822
 40
1.0
 40
1.0
 40
1.0
 40
1.0
 10
-89.7409788848
 20
286.4587797408
 30
0.0
 10
-89.6893164439
 20
286.216441055
 30
0.0
 10
-89.5682066318
 20
285.7051317707
 30
0.0
 10
-89.3441237844
 20
284.9042739718
 30
0.0
 10
-89.0617012303
 20
284.0314747528
 30
0.0
 10
-88.7808225526
 20
283.2649242672
 30
0.0
 10
-88.5254231436
 20
282.6207565528
 30
0.0
 10
-88.3146094134
 20
282.1145008168
 30
0.0
 10
-88.0883244844
 20
281.5950598082
 30
0.0
 10
-87.8470758393
 20
281.063221036
 30
0.0
 10
-87.635884285
 20
280.6132099792
 30
0.0
 10
-87.4610917094
 20
280.2472780338
 30
0.0
 10
-87.3495413935
 20
280.0154592393
 30
0.0
 10
-87.2595952699
 20
279.8285448493
 30
0.0
 10
-87.1918454598
 20
279.6873306435
 30
0.0
 10
-87.1242690728
 20
279.5454424713
 30
0.0
 10
-87.0684916313
 20
279.4266684097
 30
0.0
 10
-87.0245521872
 20
279.3312188479
 30
0.0
 10
-86.9921230469
 20
279.2594345325
 30
0.0
 10
-86.9604708845
 20
279.1874676551
 30
0.0
 10
-86.9300067169
 20
279.1153291976
 30
0.0
 10
-86.9061119248
 20
279.0549196733
 30
0.0
 10
-86.8886896376
 20
279.0063916213
 30
0.0
 10
-86.876960971
 20
278.9700609459
 30
0.0
 10
-86.8688931337
 20
278.939683091
 30
0.0
 10
-86.864470442
 20
278.9151709824
 30
0.0
 10
-86.8632911508
 20
278.8972178117
 30
0.0
 10
-86.8646869648
 20
278.8801332303
 30
0.0
 10
-86.8785558378
 20
278.8695493309
 30
0.0
 10
-86.8941492925
 20
278.8740802348
 30
0.0
 10
-86.9077701851
 20
278.881012927
 30
0.0
 10
-86.9239504651
 20
278.8913856533
 30
0.0
 10
-86.9349566432
 20
278.9001545279
 30
0.0
 10
-86.9431683739
 20
278.9044737585
 30
0.0
  0
SPLINE
  5
336
100
AcDbEntity
  8
0
100
AcDbSpline
 62
7
  6
CONTINUOUS
 70
0
 71
3
 72
14
 73
10
 74
0
 42
0.0000001
 43
0.0000001
 44
0.0000000001
 40
0.0
 40
0.0
 40
0.0
 40
0.0
 40
0.0461586508
 40
0.1040608995
 40
0.188435318
 40
0.3027729171
 40
0.4462342947
 40
0.614381513
 40
1.0
 40
1.0
 40
1.0
 40
1.0
 10
-120.2423455075
 20
243.7317526109
 30
0.0
 10
-120.2396842668
 20
243.7375887894
 30
0.0
 10
-120.2281748974
 20
243.7487690114
 30
0.0
 10
-120.2005771865
 20
243.7492549425
 30
0.0
 10
-120.1664153418
 20
243.7391489503
 30
0.0
 10
-120.1234358949
 20
243.7182333315
 30
0.0
 10
-120.0732985358
 20
243.6867145621
 30
0.0
 10
-119.9950430143
 20
243.6294745973
 30
0.0
 10
-119.9367730951
 20
243.5789981869
 30
0.0
 10
-119.8974952222
 20
243.5425463155
 30
0.0
  0
SPLINE
  5
337
100
AcDbEntity
  8
0
100
AcDbSpline
 62
7
  6
CONTINUOUS
 70
0
 71
3
 72
9
 73
5
 74
0
 42
0.0000001
 43
0.0000001
 44
0.0000000001
 40
0.0
 40
0.0
 40
0.0
 40
0.0
 40
0.2610812413
 40
1.0
 40
1.0
 40
1.0
 40
1.0
 10
-89.9194415976
 20
288.5597834009
 30
0.0
 10
-89.9155616172
 20
288.6062203201
 30
0.0
 10
-89.8981007973
 20
288.7838435546
 30
0.0
 10
-89.8698621894
 20
288.9605133354
 30
0.0
 10
-89.8415149831
 20
289.0893157642
 30
0.0
  0
SPLINE
  5
338
100
AcDbEntity
  8
0
100
AcDbSpline
 62
7
  6
CONTINUOUS
 70
0
 71
3
 72
20
 73
16
 74
0
 42
0.0000001
 43
0.0000001
 44
0.0000000001
 40
0.0
 40
0.0
 40
0.0
 40
0.0
 40
0.2628394322
 40
0.3935843756
 40
0.5235790066
 40
0.6523862769
 40
0.7791049206
 40
0.8410534157
 40
0.9013044389
 40
0.9301662196
 40
0.9575445468
 40
0.9707887069
 40
0.9824180186
 40
0.9913172082
 40
1.0
 40
1.0
 40
1.0
 40
1.0
 10
-99.7775727967
 20
288.8328432314
 30
0.0
 10
-99.8581722367
 20
288.8101430183
 30
0.0
 10
-99.9785493142
 20
288.7750078068
 30
0.0
 10
-100.1378529595
 20
288.7255507665
 30
0.0
 10
-100.2558878738
 20
288.6872080964
 30
0.0
 10
-100.3720728169
 20
288.647375527
 30
0.0
 10
-100.4670460703
 20
288.6125494496
 30
0.0
 10
-100.5406885278
 20
288.5831149033
 30
0.0
 10
-100.5848926991
 20
288.5640720407
 30
0.0
 10
-100.6183560678
 20
288.5479712807
 30
0.0
 10
-100.6375956283
 20
288.5370241596
 30
0.0
 10
-100.6519573551
 20
288.5285659838
 30
0.0
 10
-100.660714915
 20
288.5223510351
 30
0.0
 10
-100.6658082377
 20
288.5135365917
 30
0.0
 10
-100.663244938
 20
288.5077179463
 30
0.0
 10
-100.6615128929
 20
288.505561182
 30
0.0
  0
SPLINE
  5
339
100
AcDbEntity
  8
0
100
AcDbSpline
 62
7
  6
CONTINUOUS
 70
0
 71
3
 72
9
 73
5
 74
0
 42
0.0000001
 43
0.0000001
 44
0.0000000001
 40
0.0
 40
0.0
 40
0.0
 40
0.0
 40
0.4820173772
 40
1.0
 40
1.0
 40
1.0
 40
1.0
 10
-120.6741602089
 20
270.222164424
 30
0.0
 10
-118.2757298391
 20
268.8422846366
 30
0.0
 10
-113.2845570716
 20
266.0060707797
 30
0.0
 10
-108.2554737256
 20
263.2377001571
 30
0.0
 10
-105.6452042815
 20
261.8135423703
 30
0.0
  0
SPLINE
  5
33A
100
AcDbEntity
  8
0
100
AcDbSpline
 62
7
  6
CONTINUOUS
 70
0
 71
3
 72
21
 73
17
 74
0
 42
0.0000001
 43
0.0000001
 44
0.0000000001
 40
0.0
 40
0.0
 40
0.0
 40
0.0
 40
0.1268838585
 40
0.2538248101
 40
0.3807805019
 40
0.5076810001
 40
0.6343999554
 40
0.6976197437
 40
0.7606730683
 40
0.8234522849
 40
0.8857304904
 40
0.9165206407
 40
0.9468494604
 40
0.9761278003
 40
0.9896539337
 40
1.0
 40
1.0
 40
1.0
 40
1.0
 10
-110.8823732675
 20
283.3322720755
 30
0.0
 10
-110.9438964499
 20
283.277076779
 30
0.0
 10
-111.066346474
 20
283.1659632892
 30
0.0
 10
-111.2480639135
 20
282.9971205001
 30
0.0
 10
-111.427661459
 20
282.8260067085
 30
0.0
 10
-111.6047853006
 20
282.6525385239
 30
0.0
 10
-111.7499455038
 20
282.5058032987
 30
0.0
 10
-111.8640518947
 20
282.3868869032
 30
0.0
 10
-111.9482244061
 20
282.2969950424
 30
0.0
 10
-112.0305450491
 20
282.206186144
 30
0.0
 10
-112.097076252
 20
282.1295879688
 30
0.0
 10
-112.147878483
 20
282.0670673392
 30
0.0
 10
-112.1836771481
 20
282.0209383879
 30
0.0
 10
-112.2102813652
 20
281.9794321227
 30
0.0
 10
-112.2263268579
 20
281.952053406
 30
0.0
 10
-112.2285085185
 20
281.9305553726
 30
0.0
 10
-112.2225051428
 20
281.9274925315
 30
0.0
  0
SPLINE
  5
33B
100
AcDbEntity
  8
0
100
AcDbSpline
 62
7
  6
CONTINUOUS
 70
0
 71
3
 72
18
 73
14
 74
0
 42
0.0000001
 43
0.0000001
 44
0.0000000001
 40
0.0
 40
0.0
 40
0.0
 40
0.0
 40
0.2485617707
 40
0.3729240055
 40
0.4974248394
 40
0.6221835682
 40
0.684723938
 40
0.7474300282
 40
0.8103781232
 40
0.8737237089
 40
0.9055711963
 40
0.937753052
 40
1.0
 40
1.0
 40
1.0
 40
1.0
 10
-123.8636782319
 20
258.2240185515
 30
0.0
 10
-123.8637613706
 20
258.0816124721
 30
0.0
 10
-123.8617814752
 20
257.8679450126
 30
0.0
 10
-123.8543747222
 20
257.5830516584
 30
0.0
 10
-123.8461602646
 20
257.3691469585
 30
0.0
 10
-123.8367321661
 20
257.1907529728
 30
0.0
 10
-123.8272267118
 20
257.047828908
 30
0.0
 10
-123.8188173409
 20
256.9403475252
 30
0.0
 10
-123.8090881907
 20
256.832450742
 30
0.0
 10
-123.7984470705
 20
256.7426046475
 30
0.0
 10
-123.7894595642
 20
256.6699042256
 30
0.0
 10
-123.7757062294
 20
256.5998752815
 30
0.0
 10
-123.768028283
 20
256.5417239978
 30
0.0
 10
-123.7449263214
 20
256.5145556986
 30
0.0
  0
SPLINE
  5
33C
100
AcDbEntity
  8
0
100
AcDbSpline
 62
7
  6
CONTINUOUS
 70
0
 71
3
 72
9
 73
5
 74
0
 42
0.0000001
 43
0.0000001
 44
0.0000000001
 40
0.0
 40
0.0
 40
0.0
 40
0.0
 40
0.4829304592
 40
1.0
 40
1.0
 40
1.0
 40
1.0
 10
-112.2225051428
 20
281.9274925315
 30
0.0
 10
-109.8359188727
 20
280.5434763204
 30
0.0
 10
-104.9561292536
 20
277.5698514344
 30
0.0
 10
-100.1875618095
 20
274.4218775597
 30
0.0
 10
-97.7483023259
 20
272.7559088592
 30
0.0
  0
SPLINE
  5
33D
100
AcDbEntity
  8
0
100
AcDbSpline
 62
7
  6
CONTINUOUS
 70
0
 71
3
 72
9
 73
5
 74
0
 42
0.0000001
 43
0.0000001
 44
0.0000000001
 40
0.0
 40
0.0
 40
0.0
 40
0.0
 40
0.4787910396
 40
1.0
 40
1.0
 40
1.0
 40
1.0
 10
-101.5448063276
 20
288.0952074674
 30
0.0
 10
-101.6756186637
 20
287.5822036069
 30
0.0
 10
-101.8361519489
 20
286.480859231
 30
0.0
 10
-101.8158113915
 20
285.3711569924
 30
0.0
 10
-101.7682030119
 20
284.7968041502
 30
0.0
  0
SPLINE
  5
33E
100
AcDbEntity
  8
0
100
AcDbSpline
 62
7
  6
CONTINUOUS
 70
0
 71
3
 72
9
 73
5
 74
0
 42
0.0000001
 43
0.0000001
 44
0.0000000001
 40
0.0
 40
0.0
 40
0.0
 40
0.0
 40
0.2586351338
 40
1.0
 40
1.0
 40
1.0
 40
1.0
 10
-101.768183071
 20
284.7968166401
 30
0.0
 10
-101.81238828
 20
285.1226051609
 30
0.0
 10
-101.9500619793
 20
286.3862711356
 30
0.0
 10
-101.9496333809
 20
287.6670414939
 30
0.0
 10
-101.8538353467
 20
288.604573943
 30
0.0
  0
SPLINE
  5
33F
100
AcDbEntity
  8
0
100
AcDbSpline
 62
7
  6
CONTINUOUS
 70
0
 71
3
 72
19
 73
15
 74
0
 42
0.0000001
 43
0.0000001
 44
0.0000000001
 40
0.0
 40
0.0
 40
0.0
 40
0.0
 40
0.0524552159
 40
0.1061452713
 40
0.1615042004
 40
0.2188215355
 40
0.3395002889
 40
0.4029454164
 40
0.4680850805
 40
0.6018344606
 40
0.6697512738
 40
0.7376766593
 40
0.8714909825
 40
1.0
 40
1.0
 40
1.0
 40
1.0
 10
-76.2560967569
 20
278.5805873128
 30
0.0
 10
-77.0775449611
 20
278.8671340832
 30
0.0
 10
-78.7922189915
 20
279.3063827041
 30
0.0
 10
-81.4708823619
 20
279.5434316246
 30
0.0
 10
-84.2348557628
 20
279.3629402719
 30
0.0
 10
-88.0316913003
 20
278.5593822879
 30
0.0
 10
-91.7474324124
 20
276.9379990931
 30
0.0
 10
-95.2043545897
 20
274.6605664271
 30
0.0
 10
-98.5608483691
 20
271.8801762053
 30
0.0
 10
-101.5068666522
 20
268.5302613957
 30
0.0
 10
-103.9393827862
 20
264.7721628697
 30
0.0
 10
-105.9932071957
 20
260.7919160945
 30
0.0
 10
-107.7789228404
 20
255.5746071655
 30
0.0
 10
-108.3149555052
 20
251.2157886639
 30
0.0
 10
-108.3235020872
 20
249.0844290751
 30
0.0
  0
SPLINE
  5
340
100
AcDbEntity
  8
0
100
AcDbSpline
 62
7
  6
CONTINUOUS
 70
0
 71
3
 72
9
 73
5
 74
0
 42
0.0000001
 43
0.0000001
 44
0.0000000001
 40
0.0
 40
0.0
 40
0.0
 40
0.0
 40
0.2617076996
 40
1.0
 40
1.0
 40
1.0
 40
1.0
 10
-76.1192432658
 20
278.6110943217
 30
0.0
 10
-76.2120176557
 20
278.7334489545
 30
0.0
 10
-76.5665784719
 20
279.2009237868
 30
0.0
 10
-76.9212152458
 20
279.6683424722
 30
0.0
 10
-77.1838657701
 20
280.0128057004
 30
0.0
  0
SPLINE
  5
341
100
AcDbEntity
  8
0
100
AcDbSpline
 62
7
  6
CONTINUOUS
 70
0
 71
3
 72
9
 73
5
 74
0
 42
0.0000001
 43
0.0000001
 44
0.0000000001
 40
0.0
 40
0.0
 40
0.0
 40
0.0
 40
0.2651393341
 40
1.0
 40
1.0
 40
1.0
 40
1.0
 10
-77.5553294119
 20
280.4984745407
 30
0.0
 10
-77.6360877821
 20
280.6045145381
 30
0.0
 10
-77.9417351122
 20
281.0036449885
 30
0.0
 10
-78.2516854346
 20
281.3995001945
 30
0.0
 10
-78.4828124062
 20
281.6876977071
 30
0.0
  0
SPLINE
  5
342
100
AcDbEntity
  8
0
100
AcDbSpline
 62
7
  6
CONTINUOUS
 70
0
 71
3
 72
11
 73
7
 74
0
 42
0.0000001
 43
0.0000001
 44
0.0000000001
 40
0.0
 40
0.0
 40
0.0
 40
0.0
 40
0.3183525012
 40
0.590855012
 40
0.8176007565
 40
1.0
 40
1.0
 40
1.0
 40
1.0
 10
-78.7845568801
 20
282.0596616584
 30
0.0
 10
-78.9305155293
 20
282.2373714428
 30
0.0
 10
-79.2043420833
 20
282.5648067471
 30
0.0
 10
-79.5984304511
 20
283.0050402387
 30
0.0
 10
-79.9473112517
 20
283.3528052505
 30
0.0
 10
-80.1765180217
 20
283.5411953498
 30
0.0
 10
-80.2858620084
 20
283.614709191
 30
0.0
  0
SPLINE
  5
343
100
AcDbEntity
  8
0
100
AcDbSpline
 62
7
  6
CONTINUOUS
 70
0
 71
3
 72
11
 73
7
 74
0
 42
0.0000001
 43
0.0000001
 44
0.0000000001
 40
0.0
 40
0.0
 40
0.0
 40
0.0
 40
0.4036152643
 40
0.7136270435
 40
0.9108902956
 40
1.0
 40
1.0
 40
1.0
 40
1.0
 10
-114.7073596236
 20
280.8549450893
 30
0.0
 10
-114.7216317545
 20
280.8631689825
 30
0.0
 10
-114.7467704336
 20
280.8772820031
 30
0.0
 10
-114.7812670239
 20
280.8937123368
 30
0.0
 10
-114.8020773077
 20
280.9020769477
 30
0.0
 10
-114.8165341982
 20
280.9035047108
 30
0.0
 10
-114.8187375083
 20
280.9006114854
 30
0.0
  0
SPLINE
  5
344
100
AcDbEntity
  8
0
100
AcDbSpline
 62
7
  6
CONTINUOUS
 70
0
 71
3
 72
10
 73
6
 74
0
 42
0.0000001
 43
0.0000001
 44
0.0000000001
 40
0.0
 40
0.0
 40
0.0
 40
0.0
 40
0.4681042831
 40
0.7319588164
 40
1.0
 40
1.0
 40
1.0
 40
1.0
 10
-113.4862364603
 20
281.1739708603
 30
0.0
 10
-113.6728066841
 20
281.2598354391
 30
0.0
 10
-114.0277095246
 20
281.2486612618
 30
0.0
 10
-114.4296105243
 20
281.0748296327
 30
0.0
 10
-114.6200186317
 20
280.9344115785
 30
0.0
 10
-114.7059687771
 20
280.8541431027
 30
0.0
  0
SPLINE
  5
345
100
AcDbEntity
  8
0
100
AcDbSpline
 62
7
  6
CONTINUOUS
 70
0
 71
3
 72
11
 73
7
 74
0
 42
0.0000001
 43
0.0000001
 44
0.0000000001
 40
0.0
 40
0.0
 40
0.0
 40
0.0
 40
0.2534693056
 40
0.5048107293
 40
0.7537740011
 40
1.0
 40
1.0
 40
1.0
 40
1.0
 10
-108.3840155149
 20
265.1469566538
 30
0.0
 10
-109.2335873895
 20
266.3175349202
 30
0.0
 10
-110.8142208312
 20
268.7343573823
 30
0.0
 10
-112.6991702837
 20
272.6145734392
 30
0.0
 10
-114.0447824628
 20
276.6681477362
 30
0.0
 10
-114.5664439095
 20
279.4584167789
 30
0.0
 10
-114.7062451873
 20
280.8564953252
 30
0.0
  0
SPLINE
  5
346
100
AcDbEntity
  8
0
100
AcDbSpline
 62
7
  6
CONTINUOUS
 70
0
 71
3
 72
9
 73
5
 74
0
 42
0.0000001
 43
0.0000001
 44
0.0000000001
 40
0.0
 40
0.0
 40
0.0
 40
0.0
 40
0.250697954
 40
1.0
 40
1.0
 40
1.0
 40
1.0
 10
-105.6474879439
 20
261.8145606023
 30
0.0
 10
-105.8912312289
 20
262.080093077
 30
0.0
 10
-106.8492586844
 20
263.1522217753
 30
0.0
 10
-107.7483757133
 20
264.2771509538
 30
0.0
 10
-108.3840155149
 20
265.1469566538
 30
0.0
  0
SPLINE
  5
347
100
AcDbEntity
  8
0
100
AcDbSpline
 62
7
  6
CONTINUOUS
 70
0
 71
3
 72
40
 73
36
 74
0
 42
0.0000001
 43
0.0000001
 44
0.0000000001
 40
0.0
 40
0.0
 40
0.0
 40
0.0
 40
0.1187575333
 40
0.2396982215
 40
0.3625308504
 40
0.48701436
 40
0.549820288
 40
0.6129718124
 40
0.6764534761
 40
0.7402547177
 40
0.772275415
 40
0.8043776408
 40
0.8365650442
 40
0.8688445801
 40
0.8850227462
 40
0.9012299263
 40
0.9174703919
 40
0.9337510976
 40
0.9419100869
 40
0.9500845926
 40
0.9582784181
 40
0.9664978075
 40
0.9706203609
 40
0.9747544104
 40
0.9789037218
 40
0.983074858
 40
0.9872812453
 40
0.9915601847
 40
0.9937735577
 40
0.9949403546
 40
0.995566435
 40
0.9961676409
 40
0.997148407
 40
0.9980989631
 40
1.0
 40
1.0
 40
1.0
 40
1.0
 10
-112.4668612765
 20
276.0650684501
 30
0.0
 10
-112.3296004613
 20
275.4454757806
 30
0.0
 10
-112.0146109349
 20
274.2029636609
 30
0.0
 10
-111.424743863
 20
272.3564509994
 30
0.0
 10
-110.7126126848
 20
270.5206573098
 30
0.0
 10
-110.0212345689
 20
269.0133844125
 30
0.0
 10
-109.4106631542
 20
267.8223125345
 30
0.0
 10
-108.9232792347
 20
266.934877902
 30
0.0
 10
-108.4087010432
 20
266.0567817301
 30
0.0
 10
-107.9585716248
 20
265.3341135986
 30
0.0
 10
-107.5861476577
 20
264.7608538825
 30
0.0
 10
-107.3005487363
 20
264.3326917683
 30
0.0
 10
-107.0093407314
 20
263.9066517121
 30
0.0
 10
-106.7625515175
 20
263.5533549824
 30
0.0
 10
-106.5629364598
 20
263.2712867016
 30
0.0
 10
-106.4121378893
 20
263.0596742278
 30
0.0
 10
-106.260564138
 20
262.8479425154
 30
0.0
 10
-106.1339456565
 20
262.6712381084
 30
0.0
 10
-106.0327086994
 20
262.5293728541
 30
0.0
 10
-105.9568480526
 20
262.4224886374
 30
0.0
 10
-105.8812690898
 20
262.3150099904
 30
0.0
 10
-105.8187894058
 20
262.2247919039
 30
0.0
 10
-105.7693336014
 20
262.15194946
 30
0.0
 10
-105.7325569357
 20
262.0967899066
 30
0.0
 10
-105.6962854574
 20
262.0409856063
 30
0.0
 10
-105.660761634
 20
261.9842432157
 30
0.0
 10
-105.6264712792
 20
261.9259291662
 30
0.0
 10
-105.5999646232
 20
261.8752344122
 30
0.0
 10
-105.5848685765
 20
261.837007726
 30
0.0
 10
-105.5807008533
 20
261.8159105927
 30
0.0
 10
-105.5815155326
 20
261.8028432404
 30
0.0
 10
-105.5895037688
 20
261.7926493449
 30
0.0
 10
-105.6046500719
 20
261.7932851462
 30
0.0
 10
-105.623594468
 20
261.7991917023
 30
0.0
 10
-105.6387221369
 20
261.8057205047
 30
0.0
 10
-105.6452042815
 20
261.8135423703
 30
0.0
  0
SPLINE
  5
348
100
AcDbEntity
  8
0
100
AcDbSpline
 62
7
  6
CONTINUOUS
 70
0
 71
3
 72
9
 73
5
 74
0
 42
0.0000001
 43
0.0000001
 44
0.0000000001
 40
0.0
 40
0.0
 40
0.0
 40
0.0
 40
0.2516276056
 40
1.0
 40
1.0
 40
1.0
 40
1.0
 10
-112.4667751588
 20
276.0651628541
 30
0.0
 10
-112.591497739
 20
276.4843114133
 30
0.0
 10
-113.0498851626
 20
278.1608289432
 30
0.0
 10
-113.3551852967
 20
279.8799757383
 30
0.0
 10
-113.4862376563
 20
281.1739758323
 30
0.0
  0
SPLINE
  5
349
100
AcDbEntity
  8
0
100
AcDbSpline
 62
7
  6
CONTINUOUS
 70
0
 71
3
 72
9
 73
5
 74
0
 42
0.0000001
 43
0.0000001
 44
0.0000000001
 40
0.0
 40
0.0
 40
0.0
 40
0.0
 40
0.2461503033
 40
1.0
 40
1.0
 40
1.0
 40
1.0
 10
-112.9524184988
 20
280.9760902645
 30
0.0
 10
-112.9650872031
 20
280.5707729368
 30
0.0
 10
-112.9594382296
 20
278.9225358176
 30
0.0
 10
-112.7354102692
 20
277.2776697855
 30
0.0
 10
-112.4667995281
 20
276.0651520761
 30
0.0
  0
SPLINE
  5
34A
100
AcDbEntity
  8
0
100
AcDbSpline
 62
7
  6
CONTINUOUS
 70
0
 71
3
 72
9
 73
5
 74
0
 42
0.0000001
 43
0.0000001
 44
0.0000000001
 40
0.0
 40
0.0
 40
0.0
 40
0.0
 40
0.5014499628
 40
1.0
 40
1.0
 40
1.0
 40
1.0
 10
-113.4862375633
 20
281.1739755779
 30
0.0
 10
-113.4969907996
 20
281.2176444269
 30
0.0
 10
-113.5310748857
 20
281.302974345
 30
0.0
 10
-113.6047426138
 20
281.3644575562
 30
0.0
 10
-113.6466546483
 20
281.3800349677
 30
0.0
  0
SPLINE
  5
34B
100
AcDbEntity
  8
0
100
AcDbSpline
 62
7
  6
CONTINUOUS
 70
0
 71
3
 72
10
 73
6
 74
0
 42
0.0000001
 43
0.0000001
 44
0.0000000001
 40
0.0
 40
0.0
 40
0.0
 40
0.0
 40
0.3015463262
 40
0.5929710494
 40
1.0
 40
1.0
 40
1.0
 40
1.0
 10
-111.0304449545
 20
236.2754259435
 30
0.0
 10
-111.0708758947
 20
236.2806884374
 30
0.0
 10
-111.151109775
 20
236.2963253909
 30
0.0
 10
-111.2738519389
 20
236.3355591485
 30
0.0
 10
-111.3716737241
 20
236.4066287803
 30
0.0
 10
-111.3718619813
 20
236.4616627162
 30
0.0
  0
SPLINE
  5
34C
100
AcDbEntity
  8
0
100
AcDbSpline
 62
7
  6
CONTINUOUS
 70
0
 71
3
 72
8
 73
4
 74
0
 42
0.0000001
 43
0.0000001
 44
0.0000000001
 40
0.0
 40
0.0
 40
0.0
 40
0.0
 40
1.0
 40
1.0
 40
1.0
 40
1.0
 10
-120.0283473355
 20
271.7009105284
 30
0.0
 10
-120.0892984869
 20
271.5639232528
 30
0.0
 10
-120.1508885061
 20
271.4272205748
 30
0.0
 10
-120.2117235504
 20
271.2901816974
 30
0.0
  0
SPLINE
  5
34D
100
AcDbEntity
  8
0
100
AcDbSpline
 62
7
  6
CONTINUOUS
 70
0
 71
3
 72
8
 73
4
 74
0
 42
0.0000001
 43
0.0000001
 44
0.0000000001
 40
0.0
 40
0.0
 40
0.0
 40
0.0
 40
1.0
 40
1.0
 40
1.0
 40
1.0
 10
-120.0240469728
 20
271.7102182717
 30
0.0
 10
-120.0257992578
 20
271.7072862371
 30
0.0
 10
-120.0269192366
 20
271.7040198148
 30
0.0
 10
-120.0283851749
 20
271.7009346317
 30
0.0
  0
SPLINE
  5
34E
100
AcDbEntity
  8
0
100
AcDbSpline
 62
7
  6
CONTINUOUS
 70
0
 71
3
 72
11
 73
7
 74
0
 42
0.0000001
 43
0.0000001
 44
0.0000000001
 40
0.0
 40
0.0
 40
0.0
 40
0.0
 40
0.3073483361
 40
0.5724940352
 40
0.7979608825
 40
1.0
 40
1.0
 40
1.0
 40
1.0
 10
-111.030445087
 20
236.2754258765
 30
0.0
 10
-111.0374348179
 20
236.1986067155
 30
0.0
 10
-111.0364995254
 20
236.0536152495
 30
0.0
 10
-110.9881606108
 20
235.8569364088
 30
0.0
 10
-110.8954976376
 20
235.7055308918
 30
0.0
 10
-110.8041069361
 20
235.6420825568
 30
0.0
 10
-110.7570150797
 20
235.6232805132
 30
0.0
  0
SPLINE
  5
34F
100
AcDbEntity
  8
0
100
AcDbSpline
 62
7
  6
CONTINUOUS
 70
0
 71
3
 72
10
 73
6
 74
0
 42
0.0000001
 43
0.0000001
 44
0.0000000001
 40
0.0
 40
0.0
 40
0.0
 40
0.0
 40
0.35207683
 40
0.6377042109
 40
1.0
 40
1.0
 40
1.0
 40
1.0
 10
-122.6408148338
 20
267.9583947041
 30
0.0
 10
-122.65456233
 20
267.9663869209
 30
0.0
 10
-122.6790410615
 20
267.982355048
 30
0.0
 10
-122.712965721
 20
268.0100220058
 30
0.0
 10
-122.7314384117
 20
268.0398060874
 30
0.0
 10
-122.7279127765
 20
268.0557851692
 30
0.0
  0
SPLINE
  5
350
100
AcDbEntity
  8
0
100
AcDbSpline
 62
7
  6
CONTINUOUS
 70
0
 71
3
 72
10
 73
6
 74
0
 42
0.0000001
 43
0.0000001
 44
0.0000000001
 40
0.0
 40
0.0
 40
0.0
 40
0.0
 40
0.2420237175
 40
0.5008828934
 40
1.0
 40
1.0
 40
1.0
 40
1.0
 10
-121.6218974715
 20
268.7887095537
 30
0.0
 10
-121.7294280609
 20
268.7698927548
 30
0.0
 10
-121.9454449097
 20
268.6911687797
 30
0.0
 10
-122.3223430751
 20
268.4406227126
 30
0.0
 10
-122.5458458851
 20
268.1623454193
 30
0.0
 10
-122.639425336
 20
267.9575901461
 30
0.0
  0
SPLINE
  5
351
100
AcDbEntity
  8
0
100
AcDbSpline
 62
7
  6
CONTINUOUS
 70
0
 71
3
 72
11
 73
7
 74
0
 42
0.0000001
 43
0.0000001
 44
0.0000000001
 40
0.0
 40
0.0
 40
0.0
 40
0.0
 40
0.2450355579
 40
0.4936330482
 40
0.7454570182
 40
1.0
 40
1.0
 40
1.0
 40
1.0
 10
-112.006120215
 20
252.0080581816
 30
0.0
 10
-113.1463246285
 20
253.1000723397
 30
0.0
 10
-115.3447972591
 20
255.4072435892
 30
0.0
 10
-118.2586167346
 20
259.2386030377
 30
0.0
 10
-120.7478726
 20
263.4290240621
 30
0.0
 10
-122.0792873304
 20
266.4191436953
 30
0.0
 10
-122.6404119973
 20
267.9602070316
 30
0.0
  0
SPLINE
  5
352
100
AcDbEntity
  8
0
100
AcDbSpline
 62
7
  6
CONTINUOUS
 70
0
 71
3
 72
8
 73
4
 74
0
 42
0.0000001
 43
0.0000001
 44
0.0000000001
 40
0.0
 40
0.0
 40
0.0
 40
0.0
 40
1.0
 40
1.0
 40
1.0
 40
1.0
 10
-108.5060430267
 20
248.9959057766
 30
0.0
 10
-108.5105867686
 20
248.9959200379
 30
0.0
 10
-108.5147930941
 20
248.9984551362
 30
0.0
 10
-108.5189504504
 20
249.0002887616
 30
0.0
  0
SPLINE
  5
353
100
AcDbEntity
  8
0
100
AcDbSpline
 62
7
  6
CONTINUOUS
 70
0
 71
3
 72
41
 73
37
 74
0
 42
0.0000001
 43
0.0000001
 44
0.0000000001
 40
0.0
 40
0.0
 40
0.0
 40
0.0
 40
0.124908242
 40
0.2500639621
 40
0.3752765194
 40
0.4378620067
 40
0.5004082537
 40
0.5629030281
 40
0.625337156
 40
0.6877052416
 40
0.750008388
 40
0.7811405057
 40
0.8122644802
 40
0.8433872921
 40
0.8745206428
 40
0.9056856812
 40
0.9369263742
 40
0.9526056775
 40
0.9604718919
 40
0.9683654303
 40
0.9723264606
 40
0.976300471
 40
0.9802917355
 40
0.9843073119
 40
0.9883604903
 40
0.9904095622
 40
0.9924832171
 40
0.9935341208
 40
0.9945994248
 40
0.9956867806
 40
0.996805836
 40
0.9973469176
 40
0.9977367898
 40
0.9984501327
 40
0.9992268725
 40
1.0
 40
1.0
 40
1.0
 40
1.0
 10
-118.8561493831
 20
262.7392539499
 30
0.0
 10
-118.5475318798
 20
262.0843761304
 30
0.0
 10
-117.8937651824
 20
260.7898902113
 30
0.0
 10
-116.8072660583
 20
258.9044587577
 30
0.0
 10
-115.816547116
 20
257.3839096738
 30
0.0
 10
-114.9760329534
 20
256.2010135089
 30
0.0
 10
-114.3227192156
 20
255.3315044936
 30
0.0
 10
-113.6473927184
 20
254.4801156581
 30
0.0
 10
-112.951012892
 20
253.6472066884
 30
0.0
 10
-112.2345753621
 20
252.832976691
 30
0.0
 10
-111.6215023017
 20
252.1698366022
 30
0.0
 10
-111.1221795932
 20
251.6484155343
 30
0.0
 10
-110.7434692404
 20
251.2617589812
 30
0.0
 10
-110.3606465807
 20
250.8791664706
 30
0.0
 10
-109.9739133988
 20
250.500189642
 30
0.0
 10
-109.5835230271
 20
250.1239997446
 30
0.0
 10
-109.2557864982
 20
249.8118929337
 30
0.0
 10
-109.025952935
 20
249.5927922797
 30
0.0
 10
-108.8945180387
 20
249.4665857501
 30
0.0
 10
-108.8124232655
 20
249.3870558825
 30
0.0
 10
-108.7469120755
 20
249.3228320726
 30
0.0
 10
-108.6978174661
 20
249.2741716259
 30
0.0
 10
-108.6488711768
 20
249.2249142934
 30
0.0
 10
-108.6001606588
 20
249.1747815847
 30
0.0
 10
-108.5600261356
 20
249.1320164839
 30
0.0
 10
-108.5284490604
 20
249.0966795028
 30
0.0
 10
-108.5090271066
 20
249.0738290599
 30
0.0
 10
-108.4939121579
 20
249.0548106932
 30
0.0
 10
-108.4828434711
 20
249.0399229844
 30
0.0
 10
-108.4723232962
 20
249.0240308559
 30
0.0
 10
-108.4650427725
 20
249.0101041839
 30
0.0
 10
-108.4621076755
 20
248.9978037599
 30
0.0
 10
-108.4681897205
 20
248.9890513619
 30
0.0
 10
-108.4805584959
 20
248.989705631
 30
0.0
 10
-108.4926219907
 20
248.9936515751
 30
0.0
 10
-108.5018667318
 20
248.9942817169
 30
0.0
 10
-108.5060430267
 20
248.9959057766
 30
0.0
  0
SPLINE
  5
354
100
AcDbEntity
  8
0
100
AcDbSpline
 62
7
  6
CONTINUOUS
 70
0
 71
3
 72
9
 73
5
 74
0
 42
0.0000001
 43
0.0000001
 44
0.0000000001
 40
0.0
 40
0.0
 40
0.0
 40
0.0
 40
0.2489069182
 40
1.0
 40
1.0
 40
1.0
 40
1.0
 10
-119.0960135839
 20
263.2587319929
 30
0.0
 10
-119.3413536943
 20
263.6998106962
 30
0.0
 10
-120.2927598189
 20
265.4906572634
 30
0.0
 10
-121.1033315034
 20
267.3567960759
 30
0.0
 10
-121.6219080833
 20
268.788817601
 30
0.0
  0
SPLINE
  5
355
100
AcDbEntity
  8
0
100
AcDbSpline
 62
7
  6
CONTINUOUS
 70
0
 71
3
 72
9
 73
5
 74
0
 42
0.0000001
 43
0.0000001
 44
0.0000000001
 40
0.0
 40
0.0
 40
0.0
 40
0.0
 40
0.2505649357
 40
1.0
 40
1.0
 40
1.0
 40
1.0
 10
-121.0061650665
 20
268.9554941216
 30
0.0
 10
-120.8987061653
 20
268.4647465092
 30
0.0
 10
-120.4145029057
 20
266.5185050106
 30
0.0
 10
-119.7170819286
 20
264.6269521387
 30
0.0
 10
-119.0960121634
 20
263.2587190157
 30
0.0
  0
SPLINE
  5
356
100
AcDbEntity
  8
0
100
AcDbSpline
 62
7
  6
CONTINUOUS
 70
0
 71
3
 72
14
 73
10
 74
0
 42
0.0000001
 43
0.0000001
 44
0.0000000001
 40
0.0
 40
0.0
 40
0.0
 40
0.0
 40
0.3413031488
 40
0.5095333552
 40
0.6659155478
 40
0.8009643294
 40
0.9048568033
 40
0.9712696187
 40
1.0
 40
1.0
 40
1.0
 40
1.0
 10
-120.2040643025
 20
242.8664423624
 30
0.0
 10
-120.244903934
 20
242.8858747912
 30
0.0
 10
-120.3055513159
 20
242.9156373401
 30
0.0
 10
-120.3837755487
 20
242.9563411116
 30
0.0
 10
-120.4372966584
 20
242.9858034018
 30
0.0
 10
-120.4820711644
 20
243.0119828793
 30
0.0
 10
-120.5168604003
 20
243.0352315301
 30
0.0
 10
-120.5357320931
 20
243.0496703979
 30
0.0
 10
-120.5460223262
 20
243.0620798574
 30
0.0
 10
-120.5444800291
 20
243.0655606232
 30
0.0
  0
SPLINE
  5
357
100
AcDbEntity
  8
0
100
AcDbSpline
 62
7
  6
CONTINUOUS
 70
0
 71
3
 72
9
 73
5
 74
0
 42
0.0000001
 43
0.0000001
 44
0.0000000001
 40
0.0
 40
0.0
 40
0.0
 40
0.0
 40
0.2526195242
 40
1.0
 40
1.0
 40
1.0
 40
1.0
 10
-119.897495745
 20
243.5425451987
 30
0.0
 10
-119.4797131346
 20
243.1547700024
 30
0.0
 10
-117.7950674987
 20
241.6531087615
 30
0.0
 10
-115.9972624134
 20
240.280108957
 30
0.0
 10
-114.609113037
 20
239.3225350662
 30
0.0
  0
SPLINE
  5
358
100
AcDbEntity
  8
0
100
AcDbSpline
 62
7
  6
CONTINUOUS
 70
0
 71
3
 72
9
 73
5
 74
0
 42
0.0000001
 43
0.0000001
 44
0.0000000001
 40
0.0
 40
0.0
 40
0.0
 40
0.0
 40
0.2477900675
 40
1.0
 40
1.0
 40
1.0
 40
1.0
 10
-114.6091192543
 20
239.3225389922
 30
0.0
 10
-114.9913962064
 20
239.5395161271
 30
0.0
 10
-116.5260214999
 20
240.4293596163
 30
0.0
 10
-118.026829594
 20
241.3778038089
 30
0.0
 10
-119.1321269778
 20
242.125368566
 30
0.0
  0
SPLINE
  5
359
100
AcDbEntity
  8
0
100
AcDbSpline
 62
7
  6
CONTINUOUS
 70
0
 71
3
 72
9
 73
5
 74
0
 42
0.0000001
 43
0.0000001
 44
0.0000000001
 40
0.0
 40
0.0
 40
0.0
 40
0.0
 40
0.5096658841
 40
1.0
 40
1.0
 40
1.0
 40
1.0
 10
-114.609045683
 20
239.3225014504
 30
0.0
 10
-112.6081634194
 20
237.942253244
 30
0.0
 10
-108.5014859151
 20
235.4891343892
 30
0.0
 10
-104.14766047
 20
233.5199353838
 30
0.0
 10
-101.9725635732
 20
232.660960186
 30
0.0
  0
SPLINE
  5
35A
100
AcDbEntity
  8
0
100
AcDbSpline
 62
7
  6
CONTINUOUS
 70
0
 71
3
 72
9
 73
5
 74
0
 42
0.0000001
 43
0.0000001
 44
0.0000000001
 40
0.0
 40
0.0
 40
0.0
 40
0.0
 40
0.24595998
 40
1.0
 40
1.0
 40
1.0
 40
1.0
 10
-108.6354608228
 20
235.2641010055
 30
0.0
 10
-109.1671406883
 20
235.5070248267
 30
0.0
 10
-111.3184110671
 20
236.5171616635
 30
0.0
 10
-113.4258000796
 20
237.621432142
 30
0.0
 10
-114.9821688677
 20
238.5097738383
 30
0.0
  0
SPLINE
  5
35B
100
AcDbEntity
  8
0
100
AcDbSpline
 62
7
  6
CONTINUOUS
 70
0
 71
3
 72
9
 73
5
 74
0
 42
0.0000001
 43
0.0000001
 44
0.0000000001
 40
0.0
 40
0.0
 40
0.0
 40
0.0
 40
0.2484918922
 40
1.0
 40
1.0
 40
1.0
 40
1.0
 10
-116.7069481712
 20
239.5255287767
 30
0.0
 10
-117.0064667637
 20
239.7075189363
 30
0.0
 10
-118.2064108306
 20
240.4487348852
 30
0.0
 10
-119.3839137247
 20
241.2264061559
 30
0.0
 10
-120.2537060599
 20
241.8321381474
 30
0.0
  0
SPLINE
  5
35C
100
AcDbEntity
  8
0
100
AcDbSpline
 62
7
  6
CONTINUOUS
 70
0
 71
3
 72
11
 73
7
 74
0
 42
0.0000001
 43
0.0000001
 44
0.0000000001
 40
0.0
 40
0.0
 40
0.0
 40
0.0
 40
0.310181959
 40
0.584888048
 40
0.8125797985
 40
1.0
 40
1.0
 40
1.0
 40
1.0
 10
-120.2040407697
 20
242.8664310659
 30
0.0
 10
-120.259805596
 20
242.7673838228
 30
0.0
 10
-120.3452106988
 20
242.5686545771
 30
0.0
 10
-120.4011874918
 20
242.2733877641
 30
0.0
 10
-120.3781309728
 20
242.0172852597
 30
0.0
 10
-120.3007384146
 20
241.8779492913
 30
0.0
 10
-120.2511903968
 20
241.8303890046
 30
0.0
  0
SPLINE
  5
35D
100
AcDbEntity
  8
0
100
AcDbSpline
 62
7
  6
CONTINUOUS
 70
0
 71
3
 72
9
 73
5
 74
0
 42
0.0000001
 43
0.0000001
 44
0.0000000001
 40
0.0
 40
0.0
 40
0.0
 40
0.0
 40
0.2548438934
 40
1.0
 40
1.0
 40
1.0
 40
1.0
 10
-123.9449625343
 20
251.2434868395
 30
0.0
 10
-123.7775842811
 20
250.754311099
 30
0.0
 10
-123.0735064727
 20
248.8514599525
 30
0.0
 10
-122.1759397615
 20
247.0190031299
 30
0.0
 10
-121.3996412212
 20
245.721797762
 30
0.0
  0
LINE
  5
35E
100
AcDbEntity
  8
0
100
AcDbLine
 62
7
  6
CONTINUOUS
 10
-121.3193219696
 20
245.5884567737
 11
-121.3151527388
 21
245.5814752299
  0
SPLINE
  5
35F
100
AcDbEntity
  8
0
100
AcDbSpline
 62
7
  6
CONTINUOUS
 70
0
 71
3
 72
11
 73
7
 74
0
 42
0.0000001
 43
0.0000001
 44
0.0000000001
 40
0.0
 40
0.0
 40
0.0
 40
0.0
 40
0.2754359474
 40
0.5452789984
 40
0.7886630683
 40
1.0
 40
1.0
 40
1.0
 40
1.0
 10
-121.6218965038
 20
268.7887079574
 30
0.0
 10
-121.6393254066
 20
268.8203080284
 30
0.0
 10
-121.6782758103
 20
268.8806048899
 30
0.0
 10
-121.7494795094
 20
268.9564587164
 30
0.0
 10
-121.8321936349
 20
269.0069639612
 30
0.0
 10
-121.8953908995
 20
269.011221295
 30
0.0
 10
-121.9221127217
 20
269.0039649898
 30
0.0
  0
SPLINE
  5
360
100
AcDbEntity
  8
0
100
AcDbSpline
 62
7
  6
CONTINUOUS
 70
0
 71
3
 72
8
 73
4
 74
0
 42
0.0000001
 43
0.0000001
 44
0.0000000001
 40
0.0
 40
0.0
 40
0.0
 40
0.0
 40
1.0
 40
1.0
 40
1.0
 40
1.0
 10
-123.7759634141
 20
258.0008440321
 30
0.0
 10
-123.7747488109
 20
257.8626957493
 30
0.0
 10
-123.7739995928
 20
257.7245428197
 30
0.0
 10
-123.7723911758
 20
257.5863985607
 30
0.0
  0
SPLINE
  5
361
100
AcDbEntity
  8
0
100
AcDbSpline
 62
7
  6
CONTINUOUS
 70
0
 71
3
 72
8
 73
4
 74
0
 42
0.0000001
 43
0.0000001
 44
0.0000000001
 40
0.0
 40
0.0
 40
0.0
 40
0.0
 40
1.0
 40
1.0
 40
1.0
 40
1.0
 10
-123.7759201149
 20
258.0102684051
 30
0.0
 10
-123.7762645563
 20
258.0071539187
 30
0.0
 10
-123.7759556221
 20
258.0040014684
 30
0.0
 10
-123.7760020095
 20
258.0008683367
 30
0.0
  0
SPLINE
  5
362
100
AcDbEntity
  8
0
100
AcDbSpline
 62
7
  6
CONTINUOUS
 70
0
 71
3
 72
12
 73
8
 74
0
 42
0.0000001
 43
0.0000001
 44
0.0000000001
 40
0.0
 40
0.0
 40
0.0
 40
0.0
 40
0.3209622257
 40
0.6279868177
 40
0.7593723519
 40
0.8661621188
 40
1.0
 40
1.0
 40
1.0
 40
1.0
 10
-124.0806659182
 20
254.767017283
 30
0.0
 10
-124.1121948609
 20
254.7973514327
 30
0.0
 10
-124.1761805623
 20
254.8544712291
 30
0.0
 10
-124.2589679226
 20
254.9164918048
 30
0.0
 10
-124.3248145268
 20
254.9528299931
 30
0.0
 10
-124.3700749916
 20
254.9714552211
 30
0.0
 10
-124.4097414865
 20
254.9746482608
 30
0.0
 10
-124.4232345112
 20
254.9623687688
 30
0.0
  0
SPLINE
  5
363
100
AcDbEntity
  8
0
100
AcDbSpline
 62
7
  6
CONTINUOUS
 70
0
 71
3
 72
9
 73
5
 74
0
 42
0.0000001
 43
0.0000001
 44
0.0000000001
 40
0.0
 40
0.0
 40
0.0
 40
0.0
 40
0.2521635154
 40
1.0
 40
1.0
 40
1.0
 40
1.0
 10
-123.5483079335
 20
255.2534973179
 30
0.0
 10
-123.2835430344
 20
254.769085516
 30
0.0
 10
-122.1864205842
 20
252.8740280025
 30
0.0
 10
-120.9120201029
 20
251.0830725106
 30
0.0
 10
-119.8811508392
 20
249.8111798678
 30
0.0
  0
SPLINE
  5
364
100
AcDbEntity
  8
0
100
AcDbSpline
 62
7
  6
CONTINUOUS
 70
0
 71
3
 72
9
 73
5
 74
0
 42
0.0000001
 43
0.0000001
 44
0.0000000001
 40
0.0
 40
0.0
 40
0.0
 40
0.0
 40
0.247929573
 40
1.0
 40
1.0
 40
1.0
 40
1.0
 10
-119.8811270273
 20
249.8112102343
 30
0.0
 10
-120.2545398659
 20
250.1972081667
 30
0.0
 10
-121.7357787143
 20
251.777910404
 30
0.0
 10
-123.1139343037
 20
253.4557419917
 30
0.0
 10
-124.0806833029
 20
254.7670046867
 30
0.0
  0
SPLINE
  5
365
100
AcDbEntity
  8
0
100
AcDbSpline
 62
7
  6
CONTINUOUS
 70
0
 71
3
 72
39
 73
35
 74
0
 42
0.0000001
 43
0.0000001
 44
0.0000000001
 40
0.0
 40
0.0
 40
0.0
 40
0.0
 40
0.1281291592
 40
0.2556332677
 40
0.3823063199
 40
0.4452833303
 40
0.5079928692
 40
0.5704211646
 40
0.6325572552
 40
0.6943938704
 40
0.7559302958
 40
0.7865905517
 40
0.8171841977
 40
0.8477190934
 40
0.8782086535
 40
0.9086774193
 40
0.9391768081
 40
0.9544738932
 40
0.9621481655
 40
0.9698508987
 40
0.9737176545
 40
0.9775987678
 40
0.9814992956
 40
0.9854276313
 40
0.9893997427
 40
0.9934544065
 40
0.9955476429
 40
0.9966215133
 40
0.9971322453
 40
0.9974445306
 40
0.9976489169
 40
0.9979146943
 40
0.998550284
 40
1.0
 40
1.0
 40
1.0
 40
1.0
 10
-119.880999273
 20
249.8108170514
 30
0.0
 10
-119.3732921643
 20
249.184402471
 30
0.0
 10
-118.3275906156
 20
247.9607915117
 30
0.0
 10
-116.6725519577
 20
246.2132986566
 30
0.0
 10
-115.2280470812
 20
244.8346920299
 30
0.0
 10
-114.0395338318
 20
243.7811528202
 30
0.0
 10
-113.1348894834
 20
243.0173915079
 30
0.0
 10
-112.2165814631
 20
242.2785488639
 30
0.0
 10
-111.2857763767
 20
241.5645070565
 30
0.0
 10
-110.343592742
 20
240.8750237365
 30
0.0
 10
-109.5488311116
 20
240.3199211877
 30
0.0
 10
-108.9083442208
 20
239.8875982122
 30
0.0
 10
-108.426251698
 20
239.5693853082
 30
0.0
 10
-107.9419163763
 20
239.2565749339
 30
0.0
 10
-107.4553102019
 20
238.9487784591
 30
0.0
 10
-106.9662571891
 20
238.6453113358
 30
0.0
 10
-106.5566273614
 20
238.3952098658
 30
0.0
 10
-106.2689668924
 20
238.220623265
 30
0.0
 10
-106.1040034731
 20
238.1203772392
 30
0.0
 10
-106.0006067536
 20
238.0573296169
 30
0.0
 10
-105.9177255296
 20
238.0064903646
 30
0.0
 10
-105.8553404708
 20
237.9679953467
 30
0.0
 10
-105.792782767
 20
237.9290577167
 30
0.0
 10
-105.7299557197
 20
237.8894153583
 30
0.0
 10
-105.6667900461
 20
237.8487057294
 30
0.0
 10
-105.6137398455
 20
237.8129445579
 30
0.0
 10
-105.5773807938
 20
237.7865309346
 30
0.0
 10
-105.559202735
 20
237.7709460071
 30
0.0
 10
-105.5516183455
 20
237.763177871
 30
0.0
 10
-105.5474917795
 20
237.755689152
 30
0.0
 10
-105.553033505
 20
237.7532806533
 30
0.0
 10
-105.5597647836
 20
237.7539238411
 30
0.0
 10
-105.5745046502
 20
237.756680691
 30
0.0
 10
-105.5868633453
 20
237.7609873216
 30
0.0
 10
-105.5954986317
 20
237.7639307917
 30
0.0
  0
SPLINE
  5
366
100
AcDbEntity
  8
0
100
AcDbSpline
 62
7
  6
CONTINUOUS
 70
0
 71
3
 72
11
 73
7
 74
0
 42
0.0000001
 43
0.0000001
 44
0.0000000001
 40
0.0
 40
0.0
 40
0.0
 40
0.0
 40
0.2408390331
 40
0.488379476
 40
0.7417710393
 40
1.0
 40
1.0
 40
1.0
 40
1.0
 10
-109.6740111591
 20
240.0809566018
 30
0.0
 10
-111.0604149702
 20
240.9454436909
 30
0.0
 10
-113.8063811426
 20
242.8069396872
 30
0.0
 10
-117.7129292333
 20
245.9898841243
 30
0.0
 10
-121.3926555459
 20
249.6032129397
 30
0.0
 10
-123.6250880189
 20
252.2709191119
 30
0.0
 10
-124.6709236274
 20
253.6763008816
 30
0.0
  0
SPLINE
  5
367
100
AcDbEntity
  8
0
100
AcDbSpline
 62
7
  6
CONTINUOUS
 70
0
 71
3
 72
11
 73
7
 74
0
 42
0.0000001
 43
0.0000001
 44
0.0000000001
 40
0.0
 40
0.0
 40
0.0
 40
0.0
 40
0.2740464698
 40
0.5432452024
 40
0.7885574646
 40
1.0
 40
1.0
 40
1.0
 40
1.0
 10
-124.0806645601
 20
254.7670158558
 30
0.0
 10
-124.1737920173
 20
254.696004401
 30
0.0
 10
-124.3410201975
 20
254.5317512185
 30
0.0
 10
-124.5312350119
 20
254.2509756513
 30
0.0
 10
-124.6485821493
 20
253.9612095809
 30
0.0
 10
-124.6741813654
 20
253.7641218178
 30
0.0
 10
-124.6691173075
 20
253.6739047969
 30
0.0
  0
SPLINE
  5
368
100
AcDbEntity
  8
0
100
AcDbSpline
 62
7
  6
CONTINUOUS
 70
0
 71
3
 72
9
 73
5
 74
0
 42
0.0000001
 43
0.0000001
 44
0.0000000001
 40
0.0
 40
0.0
 40
0.0
 40
0.0
 40
0.2735190849
 40
1.0
 40
1.0
 40
1.0
 40
1.0
 10
-124.6705066305
 20
253.6747120646
 30
0.0
 10
-124.6809383832
 20
253.680819712
 30
0.0
 10
-124.7173915374
 20
253.7055031362
 30
0.0
 10
-124.7463431716
 20
253.7440683296
 30
0.0
 10
-124.7542051274
 20
253.7751977949
 30
0.0
  0
SPLINE
  5
369
100
AcDbEntity
  8
0
100
AcDbSpline
 62
7
  6
CONTINUOUS
 70
0
 71
3
 72
9
 73
5
 74
0
 42
0.0000001
 43
0.0000001
 44
0.0000000001
 40
0.0
 40
0.0
 40
0.0
 40
0.0
 40
0.2549574446
 40
1.0
 40
1.0
 40
1.0
 40
1.0
 10
-122.640794852
 20
267.9583944231
 30
0.0
 10
-122.8253366208
 20
267.1448104001
 30
0.0
 10
-123.4660752764
 20
263.9357708124
 30
0.0
 10
-123.7678285324
 20
260.6567394277
 30
0.0
 10
-123.7757709458
 20
258.2188849354
 30
0.0
  0
SPLINE
  5
36A
100
AcDbEntity
  8
0
100
AcDbSpline
 62
7
  6
CONTINUOUS
 70
0
 71
3
 72
12
 73
8
 74
0
 42
0.0000001
 43
0.0000001
 44
0.0000000001
 40
0.0
 40
0.0
 40
0.0
 40
0.0
 40
0.1167813566
 40
0.2364296472
 40
0.483223316
 40
0.7383949794
 40
1.0
 40
1.0
 40
1.0
 40
1.0
 10
-8.8194129683
 20
262.5238729287
 30
0.0
 10
-8.3213572159
 20
262.6587016971
 30
0.0
 10
-7.3090815798
 20
262.9173337608
 30
0.0
 10
-5.2269652475
 20
263.3907155449
 30
0.0
 10
-2.5261639144
 20
263.8964600073
 30
0.0
 10
0.8164406629
 20
264.3614843041
 30
0.0
 10
3.0905019206
 20
264.5760007469
 30
0.0
 10
4.2432850699
 20
264.6603774592
 30
0.0
  0
SPLINE
  5
36B
100
AcDbEntity
  8
0
100
AcDbSpline
 62
7
  6
CONTINUOUS
 70
0
 71
3
 72
39
 73
35
 74
0
 42
0.0000001
 43
0.0000001
 44
0.0000000001
 40
0.0
 40
0.0
 40
0.0
 40
0.0
 40
0.0798274974
 40
0.160253845
 40
0.200443081
 40
0.2404800894
 40
0.2802648359
 40
0.3196992121
 40
0.3971256804
 40
0.4720247575
 40
0.5083142445
 40
0.5437222939
 40
0.5781759343
 40
0.6116109652
 40
0.6439676745
 40
0.6751973893
 40
0.7052613777
 40
0.734129314
 40
0.7617882547
 40
0.7882374656
 40
0.8134919123
 40
0.8375883455
 40
0.8605822909
 40
0.8825521534
 40
0.9036060098
 40
0.9138346113
 40
0.9238820926
 40
0.9434850399
 40
0.9530845133
 40
0.9625754869
 40
0.9719836386
 40
0.9813369657
 40
0.99066528
 40
1.0
 40
1.0
 40
1.0
 40
1.0
 10
4.2432850699
 20
264.6603774592
 30
0.0
 10
5.5192061878
 20
264.7537671216
 30
0.0
 10
8.0853171533
 20
264.8816201654
 30
0.0
 10
11.2987401395
 20
264.8972144589
 30
0.0
 10
13.8725175292
 20
264.8231784072
 30
0.0
 10
15.793480587
 20
264.7245535583
 30
0.0
 10
17.699636187
 20
264.5830310077
 30
0.0
 10
20.1984037854
 20
264.3393245669
 30
0.0
 10
23.2459365875
 20
263.9334918105
 30
0.0
 10
26.2201655292
 20
263.3856385046
 30
0.0
 10
28.5116057689
 20
262.8658450634
 30
0.0
 10
30.1595575354
 20
262.4425346364
 30
0.0
 10
31.7501544269
 20
261.9827500263
 30
0.0
 10
33.2788703171
 20
261.4878006757
 30
0.0
 10
34.7413659029
 20
260.9588591071
 30
0.0
 10
36.133566329
 20
260.3972179034
 30
0.0
 10
37.4516746542
 20
259.8042231978
 30
0.0
 10
38.6921281724
 20
259.1810546473
 30
0.0
 10
39.8516400315
 20
258.5289037347
 30
0.0
 10
40.9271801413
 20
257.8488474177
 30
0.0
 10
41.9158917454
 20
257.1417834811
 30
0.0
 10
42.8150166912
 20
256.4084311562
 30
0.0
 10
43.6219977995
 20
255.6494653883
 30
0.0
 10
44.3338314734
 20
254.8651120441
 30
0.0
 10
44.8498821383
 20
254.1836396809
 30
0.0
 10
45.2092947314
 20
253.626941921
 30
0.0
 10
45.5278006369
 20
253.072614996
 30
0.0
 10
45.7968347797
 20
252.5022326641
 30
0.0
 10
46.0102828163
 20
251.9196859194
 30
0.0
 10
46.140783407
 20
251.4816756271
 30
0.0
 10
46.2423325341
 20
251.040114369
 30
0.0
 10
46.3145598735
 20
250.5954393986
 30
0.0
 10
46.3570764577
 20
250.1481421243
 30
0.0
 10
46.3653470096
 20
249.8488902339
 30
0.0
 10
46.364434874
 20
249.6992925873
 30
0.0
  0
SPLINE
  5
36C
100
AcDbEntity
  8
0
100
AcDbSpline
 62
7
  6
CONTINUOUS
 70
0
 71
3
 72
26
 73
22
 74
0
 42
0.0000001
 43
0.0000001
 44
0.0000000001
 40
0.0
 40
0.0
 40
0.0
 40
0.0
 40
0.0231699629
 40
0.0463327489
 40
0.0695832658
 40
0.0930110098
 40
0.116698857
 40
0.1407182895
 40
0.1899616498
 40
0.2411566699
 40
0.2946989256
 40
0.3509501373
 40
0.4101712689
 40
0.4725478722
 40
0.5381966716
 40
0.6071589817
 40
0.6794298968
 40
0.7549631929
 40
0.8336808959
 40
0.9154385592
 40
1.0
 40
1.0
 40
1.0
 40
1.0
 10
-24.6342453946
 20
250.1321899377
 30
0.0
 10
-24.6332383054
 20
250.2973607377
 30
0.0
 10
-24.6189145945
 20
250.6277074607
 30
0.0
 10
-24.5607565042
 20
251.1207591687
 30
0.0
 10
-24.4664665992
 20
251.6100788343
 30
0.0
 10
-24.3365691392
 20
252.0950188006
 30
0.0
 10
-24.1715611523
 20
252.5749566389
 30
0.0
 10
-23.9036365809
 20
253.2125180525
 30
0.0
 10
-23.4816977994
 20
253.9957574558
 30
0.0
 10
-22.8519003158
 20
254.8973805243
 30
0.0
 10
-22.0998991908
 20
255.7667436556
 30
0.0
 10
-21.2309732277
 20
256.6035120388
 30
0.0
 10
-20.2492342843
 20
257.4076781321
 30
0.0
 10
-19.1581846522
 20
258.1784450734
 30
0.0
 10
-17.9615788371
 20
258.9149853604
 30
0.0
 10
-16.663290845
 20
259.6161418917
 30
0.0
 10
-15.267455214
 20
260.2805286324
 30
0.0
 10
-13.7784034431
 20
260.9066917494
 30
0.0
 10
-12.2008933018
 20
261.4929365461
 30
0.0
 10
-10.5407143862
 20
262.0374855431
 30
0.0
 10
-9.4012897809
 20
262.3663529451
 30
0.0
 10
-8.8194129683
 20
262.5238729287
 30
0.0
  0
SPLINE
  5
36D
100
AcDbEntity
  8
0
100
AcDbSpline
 62
7
  6
CONTINUOUS
 70
0
 71
3
 72
37
 73
33
 74
0
 42
0.0000001
 43
0.0000001
 44
0.0000000001
 40
0.0
 40
0.0
 40
0.0
 40
0.0
 40
0.0083832016
 40
0.016797341
 40
0.0338284087
 40
0.051328708
 40
0.0695022528
 40
0.0789010291
 40
0.0885312223
 40
0.1085463533
 40
0.1296681673
 40
0.1519815776
 40
0.1755454682
 40
0.200398946
 40
0.2265593464
 40
0.2540291009
 40
0.282797139
 40
0.3128379202
 40
0.3441178855
 40
0.3765926829
 40
0.4102095429
 40
0.4449104027
 40
0.4806285339
 40
0.5172930366
 40
0.5548282024
 40
0.5931526383
 40
0.6321827791
 40
0.6718307299
 40
0.752610562
 40
0.834749026
 40
0.9174734218
 40
1.0
 40
1.0
 40
1.0
 40
1.0
 10
-24.6553975955
 20
245.3566178475
 30
0.0
 10
-24.6559652701
 20
245.2290837152
 30
0.0
 10
-24.6486876017
 20
244.9734194094
 30
0.0
 10
-24.600367748
 20
244.4607610576
 30
0.0
 10
-24.4753064122
 20
243.8175002456
 30
0.0
 10
-24.2249691133
 20
243.0538108461
 30
0.0
 10
-23.9363816061
 20
242.4300944344
 30
0.0
 10
-23.6585815205
 20
241.9367659738
 30
0.0
 10
-23.3410199918
 20
241.4345197538
 30
0.0
 10
-22.8806675539
 20
240.8128765157
 30
0.0
 10
-22.2400525252
 20
240.0893974349
 30
0.0
 10
-21.506160476
 20
239.3807178439
 30
0.0
 10
-20.6811745556
 20
238.6886555995
 30
0.0
 10
-19.7672889905
 20
238.0151719923
 30
0.0
 10
-18.7671546481
 20
237.3619451127
 30
0.0
 10
-17.6835184396
 20
236.7307999602
 30
0.0
 10
-16.5193792421
 20
236.1235406142
 30
0.0
 10
-15.2780474407
 20
235.5417217122
 30
0.0
 10
-13.9629486412
 20
234.9870953764
 30
0.0
 10
-12.5777988798
 20
234.4611655673
 30
0.0
 10
-11.1265016507
 20
233.9653670486
 30
0.0
 10
-9.6131121541
 20
233.5012182197
 30
0.0
 10
-8.0419271805
 20
233.0699097532
 30
0.0
 10
-6.4173648691
 20
232.6727197191
 30
0.0
 10
-4.7440066655
 20
232.3108065014
 30
0.0
 10
-3.0265961281
 20
231.9850972433
 30
0.0
 10
-1.2699604596
 20
231.6966243246
 30
0.0
 10
1.1327094296
 20
231.360583949
 30
0.0
 10
4.1988519656
 20
231.0402242335
 30
0.0
 10
7.930314788
 20
230.8163132044
 30
0.0
 10
11.6944819043
 20
230.7531582313
 30
0.0
 10
14.2085442
 20
230.8190232058
 30
0.0
 10
15.4625867742
 20
230.8793767473
 30
0.0
  0
SPLINE
  5
36E
100
AcDbEntity
  8
0
100
AcDbSpline
 62
7
  6
CONTINUOUS
 70
0
 71
3
 72
11
 73
7
 74
0
 42
0.0000001
 43
0.0000001
 44
0.0000000001
 40
0.0
 40
0.0
 40
0.0
 40
0.0
 40
0.2453442114
 40
0.4926576534
 40
0.7436881986
 40
1.0
 40
1.0
 40
1.0
 40
1.0
 10
-31.3961629144
 20
255.4164595699
 30
0.0
 10
-31.2364872965
 20
255.459686056
 30
0.0
 10
-30.9201098359
 20
255.5631688769
 30
0.0
 10
-30.461308017
 20
255.7675444292
 30
0.0
 10
-30.0188486828
 20
256.0204208997
 30
0.0
 10
-29.7391131098
 20
256.2183367707
 30
0.0
 10
-29.6027250859
 20
256.3244706314
 30
0.0
  0
SPLINE
  5
36F
100
AcDbEntity
  8
0
100
AcDbSpline
 62
7
  6
CONTINUOUS
 70
0
 71
3
 72
11
 73
7
 74
0
 42
0.0000001
 43
0.0000001
 44
0.0000000001
 40
0.0
 40
0.0
 40
0.0
 40
0.0
 40
0.256342476
 40
0.5073751392
 40
0.7546648713
 40
1.0
 40
1.0
 40
1.0
 40
1.0
 10
-29.6027250859
 20
256.3244706314
 30
0.0
 10
-29.4267394015
 20
256.4614184337
 30
0.0
 10
-29.0658148375
 20
256.7167899057
 30
0.0
 10
-28.4949662925
 20
257.0430682871
 30
0.0
 10
-27.9030357483
 20
257.3066954661
 30
0.0
 10
-27.4948793697
 20
257.4401917663
 30
0.0
 10
-27.2888769815
 20
257.4959584562
 30
0.0
  0
SPLINE
  5
370
100
AcDbEntity
  8
0
100
AcDbSpline
 62
7
  6
CONTINUOUS
 70
0
 71
3
 72
9
 73
5
 74
0
 42
0.0000001
 43
0.0000001
 44
0.0000000001
 40
0.0
 40
0.0
 40
0.0
 40
0.0
 40
0.5081604427
 40
1.0
 40
1.0
 40
1.0
 40
1.0
 10
-23.697359685
 20
253.4766874687
 30
0.0
 10
-24.1334503417
 20
253.5645952719
 30
0.0
 10
-25.0030007572
 20
253.6863462453
 30
0.0
 10
-25.8814885918
 20
253.6927098502
 30
0.0
 10
-26.3112058675
 20
253.6655486973
 30
0.0
  0
SPLINE
  5
371
100
AcDbEntity
  8
0
100
AcDbSpline
 62
7
  6
CONTINUOUS
 70
0
 71
3
 72
9
 73
5
 74
0
 42
0.0000001
 43
0.0000001
 44
0.0000000001
 40
0.0
 40
0.0
 40
0.0
 40
0.0
 40
0.491083303
 40
1.0
 40
1.0
 40
1.0
 40
1.0
 10
-31.9478805381
 20
253.3092712309
 30
0.0
 10
-32.2274877635
 20
253.2915980886
 30
0.0
 10
-32.8002492066
 20
253.298689435
 30
0.0
 10
-33.3659469772
 20
253.3861322205
 30
0.0
 10
-33.6495088408
 20
253.4484983922
 30
0.0
  0
SPLINE
  5
372
100
AcDbEntity
  8
0
100
AcDbSpline
 62
7
  6
CONTINUOUS
 70
0
 71
3
 72
17
 73
13
 74
0
 42
0.0000001
 43
0.0000001
 44
0.0000000001
 40
0.0
 40
0.0
 40
0.0
 40
0.0
 40
0.1519773411
 40
0.2236859533
 40
0.2926684881
 40
0.4230016463
 40
0.5447719906
 40
0.660405406
 40
0.7168743437
 40
0.7729203369
 40
0.8851282331
 40
1.0
 40
1.0
 40
1.0
 40
1.0
 10
-33.6495088408
 20
253.4484983922
 30
0.0
 10
-33.7375021969
 20
253.471735038
 30
0.0
 10
-33.8655351552
 20
253.5123127383
 30
0.0
 10
-34.0272717318
 20
253.5800748685
 30
0.0
 10
-34.1727539935
 20
253.6522099507
 30
0.0
 10
-34.3361665102
 20
253.7549667456
 30
0.0
 10
-34.5023037807
 20
253.9010473017
 30
0.0
 10
-34.6124191982
 20
254.0397471865
 30
0.0
 10
-34.681083055
 20
254.158086731
 30
0.0
 10
-34.7370251082
 20
254.2806937052
 30
0.0
 10
-34.7842275462
 20
254.4447048764
 30
0.0
 10
-34.7964255458
 20
254.581022127
 30
0.0
 10
-34.7966015335
 20
254.6498114289
 30
0.0
  0
SPLINE
  5
373
100
AcDbEntity
  8
0
100
AcDbSpline
 62
7
  6
CONTINUOUS
 70
0
 71
3
 72
15
 73
11
 74
0
 42
0.0000001
 43
0.0000001
 44
0.0000000001
 40
0.0
 40
0.0
 40
0.0
 40
0.0
 40
0.1602475003
 40
0.3106675958
 40
0.4508229481
 40
0.580567039
 40
0.699928705
 40
0.8091519946
 40
0.9088215262
 40
1.0
 40
1.0
 40
1.0
 40
1.0
 10
-32.7485327146
 20
258.845438713
 30
0.0
 10
-32.8996790911
 20
258.7702436923
 30
0.0
 10
-33.1872115099
 20
258.6130025636
 30
0.0
 10
-33.5833516647
 20
258.3498984223
 30
0.0
 10
-33.9279516396
 20
258.0706718433
 30
0.0
 10
-34.2186380016
 20
257.7802468325
 30
0.0
 10
-34.4533047257
 20
257.4833305328
 30
0.0
 10
-34.6304041173
 20
257.1848897978
 30
0.0
 10
-34.7481497133
 20
256.890042398
 30
0.0
 10
-34.7878246566
 20
256.6913147211
 30
0.0
 10
-34.7960106276
 20
256.5956092039
 30
0.0
  0
SPLINE
  5
374
100
AcDbEntity
  8
0
100
AcDbSpline
 62
7
  6
CONTINUOUS
 70
0
 71
3
 72
11
 73
7
 74
0
 42
0.0000001
 43
0.0000001
 44
0.0000000001
 40
0.0
 40
0.0
 40
0.0
 40
0.0
 40
0.2571042454
 40
0.5088841022
 40
0.7562215352
 40
1.0
 40
1.0
 40
1.0
 40
1.0
 10
4.2526667916
 20
264.6528189943
 30
0.0
 10
4.0252412039
 20
264.7007517299
 30
0.0
 10
3.5717729155
 20
264.7806686535
 30
0.0
 10
2.8912710144
 20
264.851678691
 30
0.0
 10
2.2194154036
 20
264.8723025112
 30
0.0
 10
1.7753818257
 20
264.8523197654
 30
0.0
 10
1.5557840051
 20
264.8338231645
 30
0.0
  0
SPLINE
  5
375
100
AcDbEntity
  8
0
100
AcDbSpline
 62
7
  6
CONTINUOUS
 70
0
 71
3
 72
11
 73
7
 74
0
 42
0.0000001
 43
0.0000001
 44
0.0000000001
 40
0.0
 40
0.0
 40
0.0
 40
0.0
 40
0.2554979039
 40
0.5063877362
 40
0.7540454172
 40
1.0
 40
1.0
 40
1.0
 40
1.0
 10
1.5557840051
 20
264.8338231645
 30
0.0
 10
1.3509991244
 20
264.8556523078
 30
0.0
 10
0.9430134377
 20
264.8814814048
 30
0.0
 10
0.3346054072
 20
264.8649112036
 30
0.0
 10
-0.2619970408
 20
264.792574395
 30
0.0
 10
-0.6513051072
 20
264.707017913
 30
0.0
 10
-0.842669805
 20
264.6552139621
 30
0.0
  0
LINE
  5
376
100
AcDbEntity
  8
0
100
AcDbLine
 62
7
  6
CONTINUOUS
 10
-8.2354858458
 20
262.6503062991
 11
-8.6442510321
 21
262.7174177053
  0
SPLINE
  5
377
100
AcDbEntity
  8
0
100
AcDbSpline
 62
7
  6
CONTINUOUS
 70
0
 71
3
 72
9
 73
5
 74
0
 42
0.0000001
 43
0.0000001
 44
0.0000000001
 40
0.0
 40
0.0
 40
0.0
 40
0.0
 40
0.4795464117
 40
1.0
 40
1.0
 40
1.0
 40
1.0
 10
-8.7766331847
 20
262.7392288588
 30
0.0
 10
-9.1139905281
 20
262.7948025287
 30
0.0
 10
-9.8175823137
 20
262.9100924501
 30
0.0
 10
-10.5226602839
 20
263.0162475297
 30
0.0
 10
-10.8902018178
 20
263.0672970259
 30
0.0
  0
SPLINE
  5
378
100
AcDbEntity
  8
0
100
AcDbSpline
 62
7
  6
CONTINUOUS
 70
0
 71
3
 72
14
 73
10
 74
0
 42
0.0000001
 43
0.0000001
 44
0.0000000001
 40
0.0
 40
0.0
 40
0.0
 40
0.0
 40
0.2478217842
 40
0.3745292785
 40
0.5017883284
 40
0.6287416947
 40
0.7546045509
 40
0.8786284533
 40
1.0
 40
1.0
 40
1.0
 40
1.0
 10
-10.8902018178
 20
263.0672970259
 30
0.0
 10
-11.3401358648
 20
263.1297903886
 30
0.0
 10
-12.0215756156
 20
263.2146405827
 30
0.0
 10
-12.9375673093
 20
263.298753972
 30
0.0
 10
-13.6343678094
 20
263.3446945291
 30
0.0
 10
-14.3307170302
 20
263.3695005328
 30
0.0
 10
-15.0216205947
 20
263.3702636216
 30
0.0
 10
-15.7018102088
 20
263.3440663453
 30
0.0
 10
-16.1502850609
 20
263.3070262964
 30
0.0
 10
-16.3714735038
 20
263.2831621654
 30
0.0
  0
SPLINE
  5
379
100
AcDbEntity
  8
0
100
AcDbSpline
 62
7
  6
CONTINUOUS
 70
0
 71
3
 72
15
 73
11
 74
0
 42
0.0000001
 43
0.0000001
 44
0.0000000001
 40
0.0
 40
0.0
 40
0.0
 40
0.0
 40
0.1118305323
 40
0.2279765384
 40
0.3480589202
 40
0.4718332903
 40
0.5991007642
 40
0.7296967512
 40
0.8634213657
 40
1.0
 40
1.0
 40
1.0
 40
1.0
 10
-32.7485327146
 20
258.8454387129
 30
0.0
 10
-32.1785052312
 20
259.1271045062
 30
0.0
 10
-31.0023866287
 20
259.6732906409
 30
0.0
 10
-29.1686656116
 20
260.4193532233
 30
0.0
 10
-27.235839312
 20
261.0954484542
 30
0.0
 10
-25.2119345337
 20
261.6950806065
 30
0.0
 10
-23.1038776754
 20
262.2122969512
 30
0.0
 10
-20.9200501002
 20
262.6488971894
 30
0.0
 10
-18.6684973792
 20
263.0069053372
 30
0.0
 10
-17.1432609933
 20
263.197499661
 30
0.0
 10
-16.3714735038
 20
263.2831621654
 30
0.0
  0
SPLINE
  5
37A
100
AcDbEntity
  8
0
100
AcDbSpline
 62
7
  6
CONTINUOUS
 70
0
 71
3
 72
15
 73
11
 74
0
 42
0.0000001
 43
0.0000001
 44
0.0000000001
 40
0.0
 40
0.0
 40
0.0
 40
0.0
 40
0.1424255985
 40
0.2784468336
 40
0.4086089997
 40
0.5336002937
 40
0.6542380378
 40
0.7714625874
 40
0.8863352127
 40
1.0
 40
1.0
 40
1.0
 40
1.0
 10
43.9579249272
 20
239.8185377285
 30
0.0
 10
44.1469935848
 20
240.0164299876
 30
0.0
 10
44.5039313423
 20
240.4157708828
 30
0.0
 10
44.9825408583
 20
241.0392262209
 30
0.0
 10
45.3904183681
 20
241.6717506845
 30
0.0
 10
45.7266346728
 20
242.3120185641
 30
0.0
 10
45.990402901
 20
242.958730175
 30
0.0
 10
46.1808202486
 20
243.6106097671
 30
0.0
 10
46.2973640951
 20
244.2660434325
 30
0.0
 10
46.3256581152
 20
244.705398958
 30
0.0
 10
46.3273630561
 20
244.9238175687
 30
0.0
  0
SPLINE
  5
37B
100
AcDbEntity
  8
0
100
AcDbSpline
 62
7
  6
CONTINUOUS
 70
0
 71
3
 72
43
 73
39
 74
0
 42
0.0000001
 43
0.0000001
 44
0.0000000001
 40
0.0
 40
0.0
 40
0.0
 40
0.0
 40
0.0342617663
 40
0.0696431916
 40
0.1059993426
 40
0.1431994954
 40
0.1811149026
 40
0.2196047466
 40
0.2585219722
 40
0.2977178637
 40
0.337042523
 40
0.3763451263
 40
0.4154743216
 40
0.4542804259
 40
0.4926157891
 40
0.5303361801
 40
0.5673019236
 40
0.6033784372
 40
0.6384388265
 40
0.6723630421
 40
0.7050423192
 40
0.7363770561
 40
0.7662832188
 40
0.7946895591
 40
0.8215458336
 40
0.8468206413
 40
0.8705112604
 40
0.8926438458
 40
0.9031479508
 40
0.9132911278
 40
0.9325505175
 40
0.9505936273
 40
0.9592322478
 40
0.96765596
 40
0.975902525
 40
0.9840127841
 40
0.9920301324
 40
1.0
 40
1.0
 40
1.0
 40
1.0
 10
30.8512891043
 20
237.9353913073
 30
0.0
 10
30.1765501677
 20
237.7527326002
 30
0.0
 10
28.7978376309
 20
237.407562238
 30
0.0
 10
26.6825376041
 20
236.9556304278
 30
0.0
 10
24.4944753685
 20
236.5631101223
 30
0.0
 10
22.2440874615
 20
236.2317337318
 30
0.0
 10
19.9415344764
 20
235.9630980361
 30
0.0
 10
17.5972774545
 20
235.7582775998
 30
0.0
 10
15.2220912906
 20
235.6183693988
 30
0.0
 10
12.8269192532
 20
235.5439324461
 30
0.0
 10
10.4227460399
 20
235.5353687167
 30
0.0
 10
8.0206016398
 20
235.5926738967
 30
0.0
 10
5.6315096289
 20
235.7156011754
 30
0.0
 10
3.2664441949
 20
235.9035985859
 30
0.0
 10
0.9362533037
 20
236.1557551296
 30
0.0
 10
-1.3483647599
 20
236.4709773481
 30
0.0
 10
-3.5769434775
 20
236.8477134196
 30
0.0
 10
-5.7392520945
 20
237.2843511898
 30
0.0
 10
-7.8254075519
 20
237.778728183
 30
0.0
 10
-9.8258370385
 20
238.3287429418
 30
0.0
 10
-11.7314366361
 20
238.9316728621
 30
0.0
 10
-13.5334697277
 20
239.5849675879
 30
0.0
 10
-15.2237961613
 20
240.2854183806
 30
0.0
 10
-16.79468375
 20
241.0300816716
 30
0.0
 10
-18.2391149893
 20
241.8153698751
 30
0.0
 10
-19.5505280149
 20
242.6380459683
 30
0.0
 10
-20.7230669789
 20
243.4942624387
 30
0.0
 10
-21.5947906607
 20
244.2455844843
 30
0.0
 10
-22.2142567165
 20
244.8609232674
 30
0.0
 10
-22.7628129486
 20
245.462960642
 30
0.0
 10
-23.357846055
 20
246.2291983877
 30
0.0
 10
-23.8395797149
 20
247.0366691949
 30
0.0
 10
-24.1400386478
 20
247.6874427538
 30
0.0
 10
-24.3217716588
 20
248.171300299
 30
0.0
 10
-24.4629187161
 20
248.6573141985
 30
0.0
 10
-24.5633075144
 20
249.1449314615
 30
0.0
 10
-24.6227655017
 20
249.6335106967
 30
0.0
 10
-24.6350109339
 20
249.9599124859
 30
0.0
 10
-24.6342803929
 20
250.1225160568
 30
0.0
  0
SPLINE
  5
37C
100
AcDbEntity
  8
0
100
AcDbSpline
 62
7
  6
CONTINUOUS
 70
0
 71
3
 72
39
 73
35
 74
0
 42
0.0000001
 43
0.0000001
 44
0.0000000001
 40
0.0
 40
0.0
 40
0.0
 40
0.0
 40
0.0472654341
 40
0.0933013409
 40
0.1380258459
 40
0.1813661238
 40
0.2232750364
 40
0.2637150769
 40
0.302654606
 40
0.340070708
 40
0.3759485449
 40
0.4102835183
 40
0.4430893015
 40
0.4743948855
 40
0.5042448761
 40
0.5327069694
 40
0.5598712667
 40
0.585851011
 40
0.6107888508
 40
0.6348552326
 40
0.6582458911
 40
0.681181208
 40
0.7038985483
 40
0.7266435873
 40
0.7496613964
 40
0.7731854667
 40
0.797431359
 40
0.8225903967
 40
0.8488249687
 40
0.876271473
 40
0.9050397256
 40
0.9352121876
 40
0.9668512322
 40
1.0
 40
1.0
 40
1.0
 40
1.0
 10
-8.8139958207
 20
262.4906410902
 30
0.0
 10
-9.2492359155
 20
262.3716309058
 30
0.0
 10
-10.1054619937
 20
262.1257973307
 30
0.0
 10
-11.3618510596
 20
261.7281364664
 30
0.0
 10
-12.5710406815
 20
261.3071661417
 30
0.0
 10
-13.7301125285
 20
260.8637572082
 30
0.0
 10
-14.8365602684
 20
260.3989578749
 30
0.0
 10
-15.8881399691
 20
259.9137439851
 30
0.0
 10
-16.8826696144
 20
259.4090416318
 30
0.0
 10
-17.8181038161
 20
258.88597369
 30
0.0
 10
-18.692462302
 20
258.3456645233
 30
0.0
 10
-19.5038089825
 20
257.7891429549
 30
0.0
 10
-20.2504611631
 20
257.2176243631
 30
0.0
 10
-20.9308868392
 20
256.6323140261
 30
0.0
 10
-21.5435602165
 20
256.034295487
 30
0.0
 10
-22.0871975577
 20
255.4248103186
 30
0.0
 10
-22.5606637243
 20
254.8051085403
 30
0.0
 10
-22.9627501411
 20
254.1763273744
 30
0.0
 10
-23.2924913442
 20
253.5397633896
 30
0.0
 10
-23.5491079517
 20
252.896773074
 30
0.0
 10
-23.7317019538
 20
252.2487003982
 30
0.0
 10
-23.8396861206
 20
251.5970843281
 30
0.0
 10
-23.8728154229
 20
250.9435415866
 30
0.0
 10
-23.830826662
 20
250.2897191146
 30
0.0
 10
-23.7138757056
 20
249.6373048405
 30
0.0
 10
-23.5225243664
 20
248.9878570418
 30
0.0
 10
-23.2572690308
 20
248.3428903973
 30
0.0
 10
-22.9188655182
 20
247.7038296476
 30
0.0
 10
-22.5083379156
 20
247.0719158967
 30
0.0
 10
-22.0265936766
 20
246.4484522326
 30
0.0
 10
-21.4747040325
 20
245.8347149734
 30
0.0
 10
-20.8539801119
 20
245.2318246577
 30
0.0
 10
-20.1657252639
 20
244.6410472262
 30
0.0
 10
-19.6743153908
 20
244.2649119156
 30
0.0
 10
-19.418312627
 20
244.0788867522
 30
0.0
  0
SPLINE
  5
37D
100
AcDbEntity
  8
0
100
AcDbSpline
 62
7
  6
CONTINUOUS
 70
0
 71
3
 72
30
 73
26
 74
0
 42
0.0000001
 43
0.0000001
 44
0.0000000001
 40
0.0
 40
0.0
 40
0.0
 40
0.0
 40
0.021731336
 40
0.0445421936
 40
0.0684279645
 40
0.0933720937
 40
0.1193514122
 40
0.1463340061
 40
0.1742804849
 40
0.2031474106
 40
0.2328842908
 40
0.2634363421
 40
0.2947457661
 40
0.326749375
 40
0.3925702353
 40
0.4603472838
 40
0.5294905027
 40
0.5993867852
 40
0.6694104423
 40
0.7389353088
 40
0.8073416419
 40
0.8740240275
 40
0.9384285483
 40
0.969606785
 40
1.0
 40
1.0
 40
1.0
 40
1.0
 10
-19.418312627
 20
244.0788867522
 30
0.0
 10
-19.1174684407
 20
243.8602774369
 30
0.0
 10
-18.4876168407
 20
243.4301784446
 30
0.0
 10
-17.4873315667
 20
242.8205157062
 30
0.0
 10
-16.4112099161
 20
242.2322944007
 30
0.0
 10
-15.2622003828
 20
241.666969481
 30
0.0
 10
-14.0432860985
 20
241.1261367008
 30
0.0
 10
-12.7577260291
 20
240.611206737
 30
0.0
 10
-11.4089609124
 20
240.1234795986
 30
0.0
 10
-10.0005490193
 20
239.6643780276
 30
0.0
 10
-8.5362742319
 20
239.235046085
 30
0.0
 10
-7.0200490647
 20
238.8366246384
 30
0.0
 10
-5.4558973668
 20
238.4702722916
 30
0.0
 10
-3.2918891854
 20
238.0215624186
 30
0.0
 10
-0.4963780626
 20
237.549558157
 30
0.0
 10
2.9486163775
 20
237.1289855589
 30
0.0
 10
6.4781980676
 20
236.8536861672
 30
0.0
 10
10.0546403447
 20
236.7266467702
 30
0.0
 10
13.6397974852
 20
236.7491837931
 30
0.0
 10
17.1953937925
 20
236.9210654418
 30
0.0
 10
20.6834385817
 20
237.2404748171
 30
0.0
 10
24.0668922418
 20
237.7038840947
 30
0.0
 10
26.7982271761
 20
238.2113480872
 30
0.0
 10
28.9009360493
 20
238.6877517989
 30
0.0
 10
29.9220364344
 20
238.9483318687
 30
0.0
 10
30.4240779955
 20
239.0842396361
 30
0.0
  0
SPLINE
  5
37E
100
AcDbEntity
  8
0
100
AcDbSpline
 62
7
  6
CONTINUOUS
 70
0
 71
3
 72
17
 73
13
 74
0
 42
0.0000001
 43
0.0000001
 44
0.0000000001
 40
0.0
 40
0.0
 40
0.0
 40
0.0
 40
0.1161700288
 40
0.2289788136
 40
0.2850981573
 40
0.3415157245
 40
0.4567666682
 40
0.5779741093
 40
0.7077686279
 40
0.7765463724
 40
0.8481090177
 40
1.0
 40
1.0
 40
1.0
 40
1.0
 10
-34.8005465434
 20
256.4875287712
 30
0.0
 10
-34.8003714135
 20
256.4189896561
 30
0.0
 10
-34.7882468394
 20
256.283549268
 30
0.0
 10
-34.7409078316
 20
256.1209257939
 30
0.0
 10
-34.6847223832
 20
256.0002020952
 30
0.0
 10
-34.6159161953
 20
255.8845223198
 30
0.0
 10
-34.5055366311
 20
255.7500421219
 30
0.0
 10
-34.3390374404
 20
255.6106083572
 30
0.0
 10
-34.1755519795
 20
255.5148268342
 30
0.0
 10
-34.0302488933
 20
255.4491255012
 30
0.0
 10
-33.8687016782
 20
255.3885875754
 30
0.0
 10
-33.7411112227
 20
255.3539286986
 30
0.0
 10
-33.6535579959
 20
255.334819191
 30
0.0
  0
SPLINE
  5
37F
100
AcDbEntity
  8
0
100
AcDbSpline
 62
7
  6
CONTINUOUS
 70
0
 71
3
 72
25
 73
21
 74
0
 42
0.0000001
 43
0.0000001
 44
0.0000000001
 40
0.0
 40
0.0
 40
0.0
 40
0.0
 40
0.0210940249
 40
0.0422885575
 40
0.0636800406
 40
0.0853619493
 40
0.1299209862
 40
0.1766260272
 40
0.2260021797
 40
0.2784546728
 40
0.3342826099
 40
0.3936901446
 40
0.4567960561
 40
0.5236549709
 40
0.5942514642
 40
0.6685281219
 40
0.7463923956
 40
0.827723905
 40
0.9123440169
 40
1.0
 40
1.0
 40
1.0
 40
1.0
 10
46.3643507808
 20
249.6896190063
 30
0.0
 10
46.3632151941
 20
249.5443670205
 30
0.0
 10
46.3500114299
 20
249.2531393187
 30
0.0
 10
46.2975273261
 20
248.8174006904
 30
0.0
 10
46.212395464
 20
248.3826920333
 30
0.0
 10
46.0540693799
 20
247.7999268376
 30
0.0
 10
45.7711273444
 20
247.0726784269
 30
0.0
 10
45.3061759952
 20
246.2204779027
 30
0.0
 10
44.7147791606
 20
245.3834551321
 30
0.0
 10
43.9997432668
 20
244.5643256449
 30
0.0
 10
43.1637878583
 20
243.765714828
 30
0.0
 10
42.2100028889
 20
242.9902760451
 30
0.0
 10
41.1419037783
 20
242.240475682
 30
0.0
 10
39.9632336091
 20
241.519098069
 30
0.0
 10
38.6783908988
 20
240.8284562104
 30
0.0
 10
37.2919092036
 20
240.1711701475
 30
0.0
 10
35.8086991445
 20
239.5494746371
 30
0.0
 10
34.2340342778
 20
238.9656657321
 30
0.0
 10
32.5740334732
 20
238.4220037856
 30
0.0
 10
31.4339288836
 20
238.0931178338
 30
0.0
 10
30.8512891043
 20
237.9353913073
 30
0.0
  0
SPLINE
  5
380
100
AcDbEntity
  8
0
100
AcDbSpline
 62
7
  6
CONTINUOUS
 70
0
 71
3
 72
11
 73
7
 74
0
 42
0.0000001
 43
0.0000001
 44
0.0000000001
 40
0.0
 40
0.0
 40
0.0
 40
0.0
 40
0.2578421821
 40
0.5091385105
 40
0.7557849859
 40
1.0
 40
1.0
 40
1.0
 40
1.0
 10
-33.6535579959
 20
255.334819191
 30
0.0
 10
-33.4609410482
 20
255.3005517878
 30
0.0
 10
-33.0769162546
 20
255.2516899187
 30
0.0
 10
-32.5024654364
 20
255.2400750846
 30
0.0
 10
-31.9405278234
 20
255.2915087782
 30
0.0
 10
-31.5750262343
 20
255.368038697
 30
0.0
 10
-31.3961629144
 20
255.4164595699
 30
0.0
  0
SPLINE
  5
381
100
AcDbEntity
  8
0
100
AcDbSpline
 62
7
  6
CONTINUOUS
 70
0
 71
3
 72
11
 73
7
 74
0
 42
0.0000001
 43
0.0000001
 44
0.0000000001
 40
0.0
 40
0.0
 40
0.0
 40
0.0
 40
0.2386635883
 40
0.4835354246
 40
0.7367133111
 40
1.0
 40
1.0
 40
1.0
 40
1.0
 10
-24.8911777078
 20
257.6745679636
 30
0.0
 10
-24.545886994
 20
257.7036516062
 30
0.0
 10
-23.8420511397
 20
257.7195698044
 30
0.0
 10
-22.7749786531
 20
257.6188571126
 30
0.0
 10
-21.6905320365
 20
257.3945383895
 30
0.0
 10
-20.9741879836
 20
257.1682281503
 30
0.0
 10
-20.6153473177
 20
257.0364756645
 30
0.0
  0
SPLINE
  5
382
100
AcDbEntity
  8
0
100
AcDbSpline
 62
7
  6
CONTINUOUS
 70
0
 71
3
 72
11
 73
7
 74
0
 42
0.0000001
 43
0.0000001
 44
0.0000000001
 40
0.0
 40
0.0
 40
0.0
 40
0.0
 40
0.2459552716
 40
0.4936130592
 40
0.7445022816
 40
1.0
 40
1.0
 40
1.0
 40
1.0
 10
-27.2888769815
 20
257.4959584562
 30
0.0
 10
-27.0975716834
 20
257.5477465124
 30
0.0
 10
-26.7083863289
 20
257.6332814381
 30
0.0
 10
-26.1119731847
 20
257.7056163105
 30
0.0
 10
-25.503756601
 20
257.7222039348
 30
0.0
 10
-25.095898351
 20
257.6963902595
 30
0.0
 10
-24.8911777078
 20
257.6745679636
 30
0.0
  0
SPLINE
  5
383
100
AcDbEntity
  8
0
100
AcDbSpline
 62
7
  6
CONTINUOUS
 70
0
 71
3
 72
55
 73
51
 74
0
 42
0.0000001
 43
0.0000001
 44
0.0000000001
 40
0.0
 40
0.0
 40
0.0
 40
0.0
 40
0.0372263436
 40
0.075905024
 40
0.1158043263
 40
0.1567114845
 40
0.1983975441
 40
0.2406190693
 40
0.2831291401
 40
0.325678774
 40
0.3680175283
 40
0.4098976307
 40
0.4510757497
 40
0.491316995
 40
0.5303958891
 40
0.5681015356
 40
0.6042393384
 40
0.638635227
 40
0.6551343133
 40
0.6711447854
 40
0.686652367
 40
0.7016462422
 40
0.7161177981
 40
0.7300605153
 40
0.7434718779
 40
0.7563534094
 40
0.768709824
 40
0.7805504154
 40
0.7918907244
 40
0.8027514431
 40
0.8131591719
 40
0.8231485221
 40
0.8327616155
 40
0.8420478357
 40
0.8510647189
 40
0.8598773778
 40
0.8685565519
 40
0.8771773062
 40
0.8858167926
 40
0.894551325
 40
0.9034543636
 40
0.9125941222
 40
0.9220317086
 40
0.9318210758
 40
0.9420085443
 40
0.9526317385
 40
0.9637212675
 40
0.9753016826
 40
0.9873906104
 40
1.0
 40
1.0
 40
1.0
 40
1.0
 10
-8.6830413268
 20
262.5262700033
 30
0.0
 10
-7.8632744794
 20
262.748189244
 30
0.0
 10
-6.1808795557
 20
263.1612426241
 30
0.0
 10
-3.5900557773
 20
263.6819178339
 30
0.0
 10
-0.89767678
 20
264.1125339848
 30
0.0
 10
1.8770035848
 20
264.4500995991
 30
0.0
 10
4.7147714277
 20
264.6923590979
 30
0.0
 10
7.5957562851
 20
264.8374303129
 30
0.0
 10
10.4997008915
 20
264.8844286008
 30
0.0
 10
13.4062427707
 20
264.8329075332
 30
0.0
 10
16.2950051404
 20
264.683301996
 30
0.0
 10
19.1457198665
 20
264.4366644233
 30
0.0
 10
21.9383977432
 20
264.0946680031
 30
0.0
 10
24.6534811313
 20
263.6598582513
 30
0.0
 10
27.2719426382
 20
263.135158221
 30
0.0
 10
29.7755123019
 20
262.5243922637
 30
0.0
 10
32.1466476831
 20
261.831805055
 30
0.0
 10
34.0238301212
 20
261.1817739378
 30
0.0
 10
35.4443098425
 20
260.6226875771
 30
0.0
 10
36.4517142844
 20
260.1919647498
 30
0.0
 10
37.4141631722
 20
259.7447130213
 30
0.0
 10
38.3300082601
 20
259.2817637925
 30
0.0
 10
39.1976672554
 20
258.8039468171
 30
0.0
 10
40.015587246
 20
258.312031254
 30
0.0
 10
40.7823431485
 20
257.8068722332
 30
0.0
 10
41.4966450129
 20
257.2893917633
 30
0.0
 10
42.1572288011
 20
256.7604467011
 30
0.0
 10
42.7628883103
 20
256.2208777833
 30
0.0
 10
43.3126250186
 20
255.6716604332
 30
0.0
 10
43.8054822552
 20
255.1137133467
 30
0.0
 10
44.2404811984
 20
254.5478909014
 30
0.0
 10
44.6168480353
 20
253.9751658734
 30
0.0
 10
44.9339156904
 20
253.39652028
 30
0.0
 10
45.1909582821
 20
252.8128939505
 30
0.0
 10
45.3873445033
 20
252.2253030373
 30
0.0
 10
45.5227149019
 20
251.6348661061
 30
0.0
 10
45.5966997987
 20
251.042697924
 30
0.0
 10
45.6089550526
 20
250.4499806235
 30
0.0
 10
45.5595615187
 20
249.8579425758
 30
0.0
 10
45.448696784
 20
249.267763284
 30
0.0
 10
45.2765394925
 20
248.6806234046
 30
0.0
 10
45.0435438062
 20
248.0976388292
 30
0.0
 10
44.7503460597
 20
247.5198135179
 30
0.0
 10
44.3975158509
 20
246.9481542808
 30
0.0
 10
43.985694156
 20
246.3836702589
 30
0.0
 10
43.5157680078
 20
245.8272298726
 30
0.0
 10
42.9885924803
 20
245.2797449777
 30
0.0
 10
42.4050299763
 20
244.7421870954
 30
0.0
 10
41.7661697928
 20
244.2154276908
 30
0.0
 10
41.3137405745
 20
243.8791447107
 30
0.0
 10
41.0790280754
 20
243.7128231912
 30
0.0
  0
SPLINE
  5
384
100
AcDbEntity
  8
0
100
AcDbSpline
 62
7
  6
CONTINUOUS
 70
0
 71
3
 72
15
 73
11
 74
0
 42
0.0000001
 43
0.0000001
 44
0.0000000001
 40
0.0
 40
0.0
 40
0.0
 40
0.0
 40
0.1055946632
 40
0.2169587754
 40
0.3340421898
 40
0.456745978
 40
0.5849236081
 40
0.7183928626
 40
0.856875421
 40
1.0
 40
1.0
 40
1.0
 40
1.0
 10
41.0790280754
 20
243.7128231912
 30
0.0
 10
40.7437911555
 20
243.4752682501
 30
0.0
 10
40.0390412525
 20
243.0094240494
 30
0.0
 10
38.9155150457
 20
242.3547601954
 30
0.0
 10
37.701038705
 20
241.7275193839
 30
0.0
 10
36.3994651325
 20
241.1298784553
 30
0.0
 10
35.0148742976
 20
240.5635637745
 30
0.0
 10
33.5516584875
 20
240.0305255262
 30
0.0
 10
32.0149455974
 20
239.5325440223
 30
0.0
 10
30.9616317628
 20
239.2297609197
 30
0.0
 10
30.4240779955
 20
239.0842396361
 30
0.0
  0
SPLINE
  5
385
100
AcDbEntity
  8
0
100
AcDbSpline
 62
7
  6
CONTINUOUS
 70
0
 71
3
 72
17
 73
13
 74
0
 42
0.0000001
 43
0.0000001
 44
0.0000000001
 40
0.0
 40
0.0
 40
0.0
 40
0.0
 40
0.1331349836
 40
0.2634021121
 40
0.3908893912
 40
0.5159079101
 40
0.6388498853
 40
0.6996968596
 40
0.7601940732
 40
0.8803640406
 40
0.9402181171
 40
1.0
 40
1.0
 40
1.0
 40
1.0
 10
-9.3460777468
 20
185.9818619193
 30
0.0
 10
-9.9288213184
 20
185.8241072952
 30
0.0
 10
-11.095509001
 20
185.5601288603
 30
0.0
 10
-12.8543736168
 20
185.3224707755
 30
0.0
 10
-14.5912220738
 20
185.24990251
 30
0.0
 10
-16.2938667788
 20
185.3428071527
 30
0.0
 10
-17.6801113026
 20
185.55869111
 30
0.0
 10
-18.7586402623
 20
185.8134053209
 30
0.0
 10
-19.810290309
 20
186.1204839507
 30
0.0
 10
-20.8322035977
 20
186.5086044831
 30
0.0
 10
-21.8148614594
 20
186.9751938007
 30
0.0
 10
-22.292028071
 20
187.2340005234
 30
0.0
 10
-22.5267713183
 20
187.3695916884
 30
0.0
  0
SPLINE
  5
386
100
AcDbEntity
  8
0
100
AcDbSpline
 62
7
  6
CONTINUOUS
 70
0
 71
3
 72
33
 73
29
 74
0
 42
0.0000001
 43
0.0000001
 44
0.0000000001
 40
0.0
 40
0.0
 40
0.0
 40
0.0
 40
0.0602144333
 40
0.1229710663
 40
0.1879866429
 40
0.2548570918
 40
0.2888275855
 40
0.3230392603
 40
0.357409278
 40
0.391850861
 40
0.4605647412
 40
0.4946940334
 40
0.5285495655
 40
0.5951020271
 40
0.6276955121
 40
0.6597469932
 40
0.6912107482
 40
0.7220557053
 40
0.7522621936
 40
0.781825768
 40
0.8107588924
 40
0.8390881508
 40
0.8668596268
 40
0.8941341941
 40
0.9209889058
 40
0.94751529
 40
0.9738150318
 40
1.0
 40
1.0
 40
1.0
 40
1.0
 10
-21.3122181601
 20
209.92582988
 30
0.0
 10
-21.6621508387
 20
209.8310995373
 30
0.0
 10
-22.361785875
 20
209.5784048746
 30
0.0
 10
-23.3613031125
 20
209.03986087
 30
0.0
 10
-24.3103774797
 20
208.3466645287
 30
0.0
 10
-25.0370714717
 20
207.6577338108
 30
0.0
 10
-25.5739125483
 20
207.0465226492
 30
0.0
 10
-25.9530091821
 20
206.5586940912
 30
0.0
 10
-26.303923545
 20
206.0467741195
 30
0.0
 10
-26.7311756544
 20
205.3371161419
 30
0.0
 10
-27.0942753837
 20
204.592029514
 30
0.0
 10
-27.3873275059
 20
203.8225145161
 30
0.0
 10
-27.6292565509
 20
203.0490928935
 30
0.0
 10
-27.7978127699
 20
202.2636692543
 30
0.0
 10
-27.8871785101
 20
201.4783915515
 30
0.0
 10
-27.9140853332
 20
200.8999122242
 30
0.0
 10
-27.9009302153
 20
200.331487619
 30
0.0
 10
-27.8479248224
 20
199.776511494
 30
0.0
 10
-27.7553387262
 20
199.2383205702
 30
0.0
 10
-27.6235878567
 20
198.7201895027
 30
0.0
 10
-27.4536348106
 20
198.2251962822
 30
0.0
 10
-27.2462523406
 20
197.7564086753
 30
0.0
 10
-27.0027977435
 20
197.3166393761
 30
0.0
 10
-26.7246899613
 20
196.9085675609
 30
0.0
 10
-26.4134810017
 20
196.5348090789
 30
0.0
 10
-26.0712140873
 20
196.1975163086
 30
0.0
 10
-25.6998571952
 20
195.8989798076
 30
0.0
 10
-25.4341386222
 20
195.7267719475
 30
0.0
 10
-25.2976286062
 20
195.6479147461
 30
0.0
  0
SPLINE
  5
387
100
AcDbEntity
  8
0
100
AcDbSpline
 62
7
  6
CONTINUOUS
 70
0
 71
3
 72
33
 73
29
 74
0
 42
0.0000001
 43
0.0000001
 44
0.0000000001
 40
0.0
 40
0.0
 40
0.0
 40
0.0
 40
0.0602144333
 40
0.1229710663
 40
0.1879866429
 40
0.2548570918
 40
0.2888275855
 40
0.3230392603
 40
0.357409278
 40
0.391850861
 40
0.4605647412
 40
0.4946940334
 40
0.5285495655
 40
0.5951020271
 40
0.6276955121
 40
0.6597469932
 40
0.6912107482
 40
0.7220557053
 40
0.7522621936
 40
0.781825768
 40
0.8107588924
 40
0.8390881508
 40
0.8668596268
 40
0.8941341941
 40
0.9209889058
 40
0.94751529
 40
0.9738150318
 40
1.0
 40
1.0
 40
1.0
 40
1.0
 10
-16.7972416724
 20
226.7200116494
 30
0.0
 10
-17.147174351
 20
226.6252813068
 30
0.0
 10
-17.8468093873
 20
226.372586644
 30
0.0
 10
-18.8463266248
 20
225.8340426395
 30
0.0
 10
-19.7954009919
 20
225.1408462982
 30
0.0
 10
-20.522094984
 20
224.4519155803
 30
0.0
 10
-21.0589360605
 20
223.8407044187
 30
0.0
 10
-21.4380326944
 20
223.3528758607
 30
0.0
 10
-21.7889470573
 20
222.840955889
 30
0.0
 10
-22.2161991666
 20
222.1312979113
 30
0.0
 10
-22.579298896
 20
221.3862112835
 30
0.0
 10
-22.8723510182
 20
220.6166962855
 30
0.0
 10
-23.1142800632
 20
219.843274663
 30
0.0
 10
-23.2828362821
 20
219.0578510238
 30
0.0
 10
-23.3722020224
 20
218.272573321
 30
0.0
 10
-23.3991088455
 20
217.6940939937
 30
0.0
 10
-23.3859537276
 20
217.1256693885
 30
0.0
 10
-23.3329483347
 20
216.5706932635
 30
0.0
 10
-23.2403622385
 20
216.0325023397
 30
0.0
 10
-23.108611369
 20
215.5143712721
 30
0.0
 10
-22.9386583229
 20
215.0193780516
 30
0.0
 10
-22.7312758529
 20
214.5505904447
 30
0.0
 10
-22.4878212558
 20
214.1108211456
 30
0.0
 10
-22.2097134736
 20
213.7027493304
 30
0.0
 10
-21.8985045139
 20
213.3289908484
 30
0.0
 10
-21.5562375995
 20
212.9916980781
 30
0.0
 10
-21.1848807075
 20
212.6931615771
 30
0.0
 10
-20.9191621345
 20
212.520953717
 30
0.0
 10
-20.7826521185
 20
212.4420965156
 30
0.0
  0
SPLINE
  5
388
100
AcDbEntity
  8
0
100
AcDbSpline
 62
7
  6
CONTINUOUS
 70
0
 71
3
 72
33
 73
29
 74
0
 42
0.0000001
 43
0.0000001
 44
0.0000000001
 40
0.0
 40
0.0
 40
0.0
 40
0.0
 40
0.0602144333
 40
0.1229710663
 40
0.1879866429
 40
0.2548570918
 40
0.2888275855
 40
0.3230392603
 40
0.357409278
 40
0.391850861
 40
0.4605647412
 40
0.4946940334
 40
0.5285495655
 40
0.5951020271
 40
0.6276955121
 40
0.6597469932
 40
0.6912107482
 40
0.7220557053
 40
0.7522621936
 40
0.781825768
 40
0.8107588924
 40
0.8390881508
 40
0.8668596268
 40
0.8941341941
 40
0.9209889058
 40
0.94751529
 40
0.9738150318
 40
1.0
 40
1.0
 40
1.0
 40
1.0
 10
-2.0783631259
 20
230.7045620867
 30
0.0
 10
-2.4282958045
 20
230.609831744
 30
0.0
 10
-3.1279308408
 20
230.3571370813
 30
0.0
 10
-4.1274480784
 20
229.8185930767
 30
0.0
 10
-5.0765224455
 20
229.1253967354
 30
0.0
 10
-5.8032164375
 20
228.4364660175
 30
0.0
 10
-6.3400575141
 20
227.8252548559
 30
0.0
 10
-6.719154148
 20
227.3374262979
 30
0.0
 10
-7.0700685108
 20
226.8255063262
 30
0.0
 10
-7.4973206202
 20
226.1158483486
 30
0.0
 10
-7.8604203495
 20
225.3707617207
 30
0.0
 10
-8.1534724718
 20
224.6012467228
 30
0.0
 10
-8.3954015168
 20
223.8278251002
 30
0.0
 10
-8.5639577357
 20
223.042401461
 30
0.0
 10
-8.6533234759
 20
222.2571237582
 30
0.0
 10
-8.680230299
 20
221.6786444309
 30
0.0
 10
-8.6670751811
 20
221.1102198257
 30
0.0
 10
-8.6140697883
 20
220.5552437007
 30
0.0
 10
-8.5214836921
 20
220.0170527769
 30
0.0
 10
-8.3897328226
 20
219.4989217094
 30
0.0
 10
-8.2197797764
 20
219.0039284889
 30
0.0
 10
-8.0123973065
 20
218.535140882
 30
0.0
 10
-7.7689427094
 20
218.0953715828
 30
0.0
 10
-7.4908349271
 20
217.6872997676
 30
0.0
 10
-7.1796259675
 20
217.3135412856
 30
0.0
 10
-6.8373590531
 20
216.9762485153
 30
0.0
 10
-6.4660021611
 20
216.6777120143
 30
0.0
 10
-6.2002835881
 20
216.5055041542
 30
0.0
 10
-6.0637735721
 20
216.4266469528
 30
0.0
  0
SPLINE
  5
389
100
AcDbEntity
  8
0
100
AcDbSpline
 62
7
  6
CONTINUOUS
 70
0
 71
3
 72
33
 73
29
 74
0
 42
0.0000001
 43
0.0000001
 44
0.0000000001
 40
0.0
 40
0.0
 40
0.0
 40
0.0
 40
0.0602144333
 40
0.1229710663
 40
0.1879866429
 40
0.2548570918
 40
0.2888275855
 40
0.3230392603
 40
0.357409278
 40
0.391850861
 40
0.4605647412
 40
0.4946940334
 40
0.5285495655
 40
0.5951020271
 40
0.6276955121
 40
0.6597469932
 40
0.6912107482
 40
0.7220557053
 40
0.7522621936
 40
0.781825768
 40
0.8107588924
 40
0.8390881508
 40
0.8668596268
 40
0.8941341941
 40
0.9209889058
 40
0.94751529
 40
0.9738150318
 40
1.0
 40
1.0
 40
1.0
 40
1.0
 10
2.5034276043
 20
216.3729679173
 30
0.0
 10
2.1534949257
 20
216.2782375747
 30
0.0
 10
1.4538598894
 20
216.0255429119
 30
0.0
 10
0.4543426519
 20
215.4869989073
 30
0.0
 10
-0.4947317153
 20
214.793802566
 30
0.0
 10
-1.2214257073
 20
214.1048718482
 30
0.0
 10
-1.7582667839
 20
213.4936606865
 30
0.0
 10
-2.1373634177
 20
213.0058321285
 30
0.0
 10
-2.4882777806
 20
212.4939121568
 30
0.0
 10
-2.91552989
 20
211.7842541792
 30
0.0
 10
-3.2786296193
 20
211.0391675513
 30
0.0
 10
-3.5716817415
 20
210.2696525534
 30
0.0
 10
-3.8136107865
 20
209.4962309308
 30
0.0
 10
-3.9821670055
 20
208.7108072916
 30
0.0
 10
-4.0715327457
 20
207.9255295888
 30
0.0
 10
-4.0984395688
 20
207.3470502615
 30
0.0
 10
-4.0852844509
 20
206.7786256563
 30
0.0
 10
-4.032279058
 20
206.2236495313
 30
0.0
 10
-3.9396929618
 20
205.6854586076
 30
0.0
 10
-3.8079420923
 20
205.16732754
 30
0.0
 10
-3.6379890462
 20
204.6723343195
 30
0.0
 10
-3.4306065762
 20
204.2035467126
 30
0.0
 10
-3.1871519791
 20
203.7637774135
 30
0.0
 10
-2.9090441969
 20
203.3557055982
 30
0.0
 10
-2.5978352373
 20
202.9819471162
 30
0.0
 10
-2.2555683229
 20
202.6446543459
 30
0.0
 10
-1.8842114308
 20
202.3461178449
 30
0.0
 10
-1.6184928578
 20
202.1739099848
 30
0.0
 10
-1.4819828418
 20
202.0950527834
 30
0.0
  0
SPLINE
  5
38A
100
AcDbEntity
  8
0
100
AcDbSpline
 62
7
  6
CONTINUOUS
 70
0
 71
3
 72
14
 73
10
 74
0
 42
0.0000001
 43
0.0000001
 44
0.0000000001
 40
0.0
 40
0.0
 40
0.0
 40
0.0
 40
0.1196399645
 40
0.2398513098
 40
0.3611764719
 40
0.4841419148
 40
0.6092279452
 40
0.7368418997
 40
1.0
 40
1.0
 40
1.0
 40
1.0
 10
-8.1863231631
 20
200.8679683683
 30
0.0
 10
-8.2695211797
 20
200.9160072557
 30
0.0
 10
-8.4416454601
 20
201.0033947513
 30
0.0
 10
-8.713243423
 20
201.1065911507
 30
0.0
 10
-8.9968063734
 20
201.1812966732
 30
0.0
 10
-9.2903814869
 20
201.2269869396
 30
0.0
 10
-9.5921066458
 20
201.2434873377
 30
0.0
 10
-10.0064372996
 20
201.2260453475
 30
0.0
 10
-10.317214553
 20
201.169012654
 30
0.0
 10
-10.5211889363
 20
201.1137947097
 30
0.0
  0
SPLINE
  5
38B
100
AcDbEntity
  8
0
100
AcDbSpline
 62
7
  6
CONTINUOUS
 70
0
 71
3
 72
14
 73
10
 74
0
 42
0.0000001
 43
0.0000001
 44
0.0000000001
 40
0.0
 40
0.0
 40
0.0
 40
0.0
 40
0.1196402494
 40
0.2398433421
 40
0.3611631664
 40
0.4841359298
 40
0.6092444914
 40
0.736883343
 40
1.0
 40
1.0
 40
1.0
 40
1.0
 10
1.2481455531
 20
213.9717078437
 30
0.0
 10
1.1828385197
 20
214.0094137681
 30
0.0
 10
1.0477501127
 20
214.0780315474
 30
0.0
 10
0.8345791879
 20
214.1590667645
 30
0.0
 10
0.6119924641
 20
214.2176683174
 30
0.0
 10
0.3815424702
 20
214.2535601263
 30
0.0
 10
0.1446681819
 20
214.2665034593
 30
0.0
 10
-0.180558414
 20
214.2527691191
 30
0.0
 10
-0.4244952482
 20
214.2080399063
 30
0.0
 10
-0.5845783884
 20
214.1647037687
 30
0.0
  0
SPLINE
  5
38C
100
AcDbEntity
  8
0
100
AcDbSpline
 62
7
  6
CONTINUOUS
 70
0
 71
3
 72
15
 73
11
 74
0
 42
0.0000001
 43
0.0000001
 44
0.0000000001
 40
0.0
 40
0.0
 40
0.0
 40
0.0
 40
0.1196027475
 40
0.2397877029
 40
0.3610958866
 40
0.4840314622
 40
0.6090661522
 40
0.736610535
 40
0.8669097558
 40
1.0
 40
1.0
 40
1.0
 40
1.0
 10
6.5203947371
 20
215.9500300659
 30
0.0
 10
6.3772821428
 20
216.0327013526
 30
0.0
 10
6.0811930005
 20
216.1831282931
 30
0.0
 10
5.6138523018
 20
216.3605301657
 30
0.0
 10
5.1259925704
 20
216.4890968596
 30
0.0
 10
4.6209043301
 20
216.5677111875
 30
0.0
 10
4.1019365094
 20
216.5960682473
 30
0.0
 10
3.5725180775
 20
216.5738745219
 30
0.0
 10
3.0364740807
 20
216.5014214317
 30
0.0
 10
2.6809504909
 20
216.421025172
 30
0.0
 10
2.5034276043
 20
216.3729679173
 30
0.0
  0
SPLINE
  5
38D
100
AcDbEntity
  8
0
100
AcDbSpline
 62
7
  6
CONTINUOUS
 70
0
 71
3
 72
14
 73
10
 74
0
 42
0.0000001
 43
0.0000001
 44
0.0000000001
 40
0.0
 40
0.0
 40
0.0
 40
0.0
 40
0.1196402494
 40
0.2398433421
 40
0.3611631664
 40
0.4841359298
 40
0.6092444914
 40
0.736883343
 40
1.0
 40
1.0
 40
1.0
 40
1.0
 10
-3.3336451772
 20
228.3033020131
 30
0.0
 10
-3.3989522106
 20
228.3410079375
 30
0.0
 10
-3.5340406176
 20
228.4096257167
 30
0.0
 10
-3.7472115424
 20
228.4906609339
 30
0.0
 10
-3.9697982661
 20
228.5492624868
 30
0.0
 10
-4.20024826
 20
228.5851542957
 30
0.0
 10
-4.4371225483
 20
228.5980976287
 30
0.0
 10
-4.7623491443
 20
228.5843632885
 30
0.0
 10
-5.0062859785
 20
228.5396340757
 30
0.0
 10
-5.1663691186
 20
228.4962979381
 30
0.0
  0
SPLINE
  5
38E
100
AcDbEntity
  8
0
100
AcDbSpline
 62
7
  6
CONTINUOUS
 70
0
 71
3
 72
15
 73
11
 74
0
 42
0.0000001
 43
0.0000001
 44
0.0000000001
 40
0.0
 40
0.0
 40
0.0
 40
0.0
 40
0.1196027475
 40
0.2397877029
 40
0.3610958866
 40
0.4840314622
 40
0.6090661522
 40
0.736610535
 40
0.8669097558
 40
1.0
 40
1.0
 40
1.0
 40
1.0
 10
1.9386040068
 20
230.2816242353
 30
0.0
 10
1.7954914125
 20
230.364295522
 30
0.0
 10
1.4994022703
 20
230.5147224625
 30
0.0
 10
1.0320615716
 20
230.6921243351
 30
0.0
 10
0.5442018401
 20
230.820691029
 30
0.0
 10
0.0391135999
 20
230.8993053568
 30
0.0
 10
-0.4798542209
 20
230.9276624167
 30
0.0
 10
-1.0092726527
 20
230.9054686913
 30
0.0
 10
-1.5453166496
 20
230.8330156011
 30
0.0
 10
-1.9008402394
 20
230.7526193414
 30
0.0
 10
-2.0783631259
 20
230.7045620867
 30
0.0
  0
SPLINE
  5
38F
100
AcDbEntity
  8
0
100
AcDbSpline
 62
7
  6
CONTINUOUS
 70
0
 71
3
 72
14
 73
10
 74
0
 42
0.0000001
 43
0.0000001
 44
0.0000000001
 40
0.0
 40
0.0
 40
0.0
 40
0.0
 40
0.1196402494
 40
0.2398433421
 40
0.3611631664
 40
0.4841359298
 40
0.6092444914
 40
0.736883343
 40
1.0
 40
1.0
 40
1.0
 40
1.0
 10
-18.0525237236
 20
224.3187515759
 30
0.0
 10
-18.117830757
 20
224.3564575003
 30
0.0
 10
-18.252919164
 20
224.4250752795
 30
0.0
 10
-18.4660900888
 20
224.5061104966
 30
0.0
 10
-18.6886768125
 20
224.5647120496
 30
0.0
 10
-18.9191268065
 20
224.6006038584
 30
0.0
 10
-19.1560010948
 20
224.6135471915
 30
0.0
 10
-19.4812276907
 20
224.5998128512
 30
0.0
 10
-19.7251645249
 20
224.5550836385
 30
0.0
 10
-19.885247665
 20
224.5117475009
 30
0.0
  0
SPLINE
  5
390
100
AcDbEntity
  8
0
100
AcDbSpline
 62
7
  6
CONTINUOUS
 70
0
 71
3
 72
15
 73
11
 74
0
 42
0.0000001
 43
0.0000001
 44
0.0000000001
 40
0.0
 40
0.0
 40
0.0
 40
0.0
 40
0.1196027475
 40
0.2397877029
 40
0.3610958866
 40
0.4840314622
 40
0.6090661522
 40
0.736610535
 40
0.8669097558
 40
1.0
 40
1.0
 40
1.0
 40
1.0
 10
-12.7802745396
 20
226.2970737981
 30
0.0
 10
-12.9233871339
 20
226.3797450848
 30
0.0
 10
-13.2194762762
 20
226.5301720253
 30
0.0
 10
-13.6868169748
 20
226.7075738979
 30
0.0
 10
-14.1746767063
 20
226.8361405917
 30
0.0
 10
-14.6797649466
 20
226.9147549196
 30
0.0
 10
-15.1987327673
 20
226.9431119794
 30
0.0
 10
-15.7281511992
 20
226.9209182541
 30
0.0
 10
-16.264195196
 20
226.8484651639
 30
0.0
 10
-16.6197187858
 20
226.7680689041
 30
0.0
 10
-16.7972416724
 20
226.7200116494
 30
0.0
  0
SPLINE
  5
391
100
AcDbEntity
  8
0
100
AcDbSpline
 62
7
  6
CONTINUOUS
 70
0
 71
3
 72
14
 73
10
 74
0
 42
0.0000001
 43
0.0000001
 44
0.0000000001
 40
0.0
 40
0.0
 40
0.0
 40
0.0
 40
0.1196402494
 40
0.2398433421
 40
0.3611631664
 40
0.4841359298
 40
0.6092444914
 40
0.736883343
 40
1.0
 40
1.0
 40
1.0
 40
1.0
 10
-22.5675002113
 20
207.5245698064
 30
0.0
 10
-22.6328072447
 20
207.5622757308
 30
0.0
 10
-22.7678956517
 20
207.63089351
 30
0.0
 10
-22.9810665765
 20
207.7119287272
 30
0.0
 10
-23.2036533003
 20
207.7705302801
 30
0.0
 10
-23.4341032942
 20
207.806422089
 30
0.0
 10
-23.6709775825
 20
207.819365422
 30
0.0
 10
-23.9962041784
 20
207.8056310818
 30
0.0
 10
-24.2401410126
 20
207.760901869
 30
0.0
 10
-24.4002241528
 20
207.7175657314
 30
0.0
  0
SPLINE
  5
392
100
AcDbEntity
  8
0
100
AcDbSpline
 62
7
  6
CONTINUOUS
 70
0
 71
3
 72
15
 73
11
 74
0
 42
0.0000001
 43
0.0000001
 44
0.0000000001
 40
0.0
 40
0.0
 40
0.0
 40
0.0
 40
0.1196027475
 40
0.2397877029
 40
0.3610958866
 40
0.4840314622
 40
0.6090661522
 40
0.736610535
 40
0.8669097558
 40
1.0
 40
1.0
 40
1.0
 40
1.0
 10
-17.2952510273
 20
209.5028920286
 30
0.0
 10
-17.4383636216
 20
209.5855633153
 30
0.0
 10
-17.7344527639
 20
209.7359902558
 30
0.0
 10
-18.2017934626
 20
209.9133921284
 30
0.0
 10
-18.689653194
 20
210.0419588223
 30
0.0
 10
-19.1947414343
 20
210.1205731501
 30
0.0
 10
-19.713709255
 20
210.14893021
 30
0.0
 10
-20.2431276869
 20
210.1267364846
 30
0.0
 10
-20.7791716837
 20
210.0542833944
 30
0.0
 10
-21.1346952735
 20
209.9738871347
 30
0.0
 10
-21.3122181601
 20
209.92582988
 30
0.0
  0
SPLINE
  5
393
100
AcDbEntity
  8
0
100
AcDbSpline
 62
7
  6
CONTINUOUS
 70
0
 71
3
 72
38
 73
34
 74
0
 42
0.0000001
 43
0.0000001
 44
0.0000000001
 40
0.0
 40
0.0
 40
0.0
 40
0.0
 40
0.026233789
 40
0.05276726
 40
0.0796805127
 40
0.1070426993
 40
0.120913308
 40
0.1349160509
 40
0.1633317645
 40
0.1923249438
 40
0.2219113095
 40
0.2520933316
 40
0.2828610681
 40
0.346024655
 40
0.3783798999
 40
0.4111761164
 40
0.4778300661
 40
0.5115846655
 40
0.5455204473
 40
0.5795632097
 40
0.6136366991
 40
0.6476646489
 40
0.6815711708
 40
0.7152822879
 40
0.7487266701
 40
0.7818371716
 40
0.8145525639
 40
0.8468169321
 40
0.8785805642
 40
0.9098034359
 40
0.9404622774
 40
0.970537872
 40
1.0
 40
1.0
 40
1.0
 40
1.0
 10
6.257250335
 20
231.0033855289
 30
0.0
 10
6.6237852392
 20
230.6766111616
 30
0.0
 10
7.3303536661
 20
229.9840068
 30
0.0
 10
8.2955001061
 20
228.84430855
 30
0.0
 10
9.1663377742
 20
227.6051219434
 30
0.0
 10
9.8065674815
 20
226.4999058241
 30
0.0
 10
10.267585112
 20
225.5741914747
 30
0.0
 10
10.6980114559
 20
224.6121992305
 30
0.0
 10
11.1686994692
 20
223.359461278
 30
0.0
 10
11.6213425259
 20
221.7936315945
 30
0.0
 10
11.9621778905
 20
220.1659888602
 30
0.0
 10
12.1895787945
 20
218.485161781
 30
0.0
 10
12.3412035247
 20
216.1654847296
 30
0.0
 10
12.2572070786
 20
213.7952915175
 30
0.0
 10
11.950392967
 20
211.4120382607
 30
0.0
 10
11.4877804493
 20
208.9873404072
 30
0.0
 10
10.8031067343
 20
206.5829407219
 30
0.0
 10
9.9118842856
 20
204.2304656969
 30
0.0
 10
9.1381606859
 20
202.4893099671
 30
0.0
 10
8.2661598164
 20
200.7886470916
 30
0.0
 10
7.3005725978
 20
199.1372928241
 30
0.0
 10
6.2463908874
 20
197.5440989783
 30
0.0
 10
5.1093267071
 20
196.0173932324
 30
0.0
 10
3.8952438232
 20
194.5653805684
 30
0.0
 10
2.6107284924
 20
193.1956099744
 30
0.0
 10
1.2623920054
 20
191.9154913575
 30
0.0
 10
-0.1424948672
 20
190.731636492
 30
0.0
 10
-1.5966684384
 20
189.6505430587
 30
0.0
 10
-3.0922275471
 20
188.6776986889
 30
0.0
 10
-4.6215263221
 20
187.8184918174
 30
0.0
 10
-6.1765471071
 20
187.0772742839
 30
0.0
 10
-7.748808402
 20
186.4584517293
 30
0.0
 10
-8.8137602095
 20
186.1259657021
 30
0.0
 10
-9.3460777468
 20
185.9818619193
 30
0.0
  0
SPLINE
  5
394
100
AcDbEntity
  8
0
100
AcDbSpline
 62
7
  6
CONTINUOUS
 70
0
 71
3
 72
9
 73
5
 74
0
 42
0.0000001
 43
0.0000001
 44
0.0000000001
 40
0.0
 40
0.0
 40
0.0
 40
0.0
 40
0.4893612059
 40
1.0
 40
1.0
 40
1.0
 40
1.0
 10
-24.4002241528
 20
207.7175657314
 30
0.0
 10
-24.5624621003
 20
207.6736462654
 30
0.0
 10
-24.8868393995
 20
207.5559233566
 30
0.0
 10
-25.1898125415
 20
207.391401388
 30
0.0
 10
-25.3378698711
 20
207.2973846282
 30
0.0
  0
SPLINE
  5
395
100
AcDbEntity
  8
0
100
AcDbSpline
 62
7
  6
CONTINUOUS
 70
0
 71
3
 72
18
 73
14
 74
0
 42
0.0000001
 43
0.0000001
 44
0.0000000001
 40
0.0
 40
0.0
 40
0.0
 40
0.0
 40
0.1387979344
 40
0.2733147363
 40
0.4033744348
 40
0.5290561263
 40
0.6507398977
 40
0.7103195467
 40
0.7691704498
 40
0.8274211853
 40
0.885209595
 40
0.9426833476
 40
1.0
 40
1.0
 40
1.0
 40
1.0
 10
-27.40248055
 20
203.7864888101
 30
0.0
 10
-27.4108351876
 20
203.6483116387
 30
0.0
 10
-27.4129088216
 20
203.3750775354
 30
0.0
 10
-27.3700570868
 20
202.9741670343
 30
0.0
 10
-27.2817597709
 20
202.5940154262
 30
0.0
 10
-27.149217563
 20
202.2405139598
 30
0.0
 10
-27.002270702
 20
201.9706234902
 30
0.0
 10
-26.8648492924
 20
201.7742615461
 30
0.0
 10
-26.7529530129
 20
201.637900972
 30
0.0
 10
-26.632025855
 20
201.5119534752
 30
0.0
 10
-26.5025245052
 20
201.3968822524
 30
0.0
 10
-26.3649238577
 20
201.2931822574
 30
0.0
 10
-26.2680559844
 20
201.2318802453
 30
0.0
 10
-26.2185503559
 20
201.2032974819
 30
0.0
  0
SPLINE
  5
396
100
AcDbEntity
  8
0
100
AcDbSpline
 62
7
  6
CONTINUOUS
 70
0
 71
3
 72
9
 73
5
 74
0
 42
0.0000001
 43
0.0000001
 44
0.0000000001
 40
0.0
 40
0.0
 40
0.0
 40
0.0
 40
0.4893612059
 40
1.0
 40
1.0
 40
1.0
 40
1.0
 10
-19.885247665
 20
224.5117475009
 30
0.0
 10
-20.0474856126
 20
224.4678280349
 30
0.0
 10
-20.3718629118
 20
224.3501051261
 30
0.0
 10
-20.6748360537
 20
224.1855831575
 30
0.0
 10
-20.8228933834
 20
224.0915663976
 30
0.0
  0
SPLINE
  5
397
100
AcDbEntity
  8
0
100
AcDbSpline
 62
7
  6
CONTINUOUS
 70
0
 71
3
 72
18
 73
14
 74
0
 42
0.0000001
 43
0.0000001
 44
0.0000000001
 40
0.0
 40
0.0
 40
0.0
 40
0.0
 40
0.1387979344
 40
0.2733147363
 40
0.4033744348
 40
0.5290561263
 40
0.6507398977
 40
0.7103195467
 40
0.7691704498
 40
0.8274211853
 40
0.885209595
 40
0.9426833476
 40
1.0
 40
1.0
 40
1.0
 40
1.0
 10
-22.8875040623
 20
220.5806705796
 30
0.0
 10
-22.8958586999
 20
220.4424934082
 30
0.0
 10
-22.8979323339
 20
220.1692593048
 30
0.0
 10
-22.8550805991
 20
219.7683488037
 30
0.0
 10
-22.7667832832
 20
219.3881971957
 30
0.0
 10
-22.6342410753
 20
219.0346957293
 30
0.0
 10
-22.4872942143
 20
218.7648052597
 30
0.0
 10
-22.3498728047
 20
218.5684433155
 30
0.0
 10
-22.2379765252
 20
218.4320827415
 30
0.0
 10
-22.1170493673
 20
218.3061352447
 30
0.0
 10
-21.9875480175
 20
218.1910640218
 30
0.0
 10
-21.84994737
 20
218.0873640269
 30
0.0
 10
-21.7530794966
 20
218.0260620148
 30
0.0
 10
-21.7035738682
 20
217.9974792514
 30
0.0
  0
SPLINE
  5
398
100
AcDbEntity
  8
0
100
AcDbSpline
 62
7
  6
CONTINUOUS
 70
0
 71
3
 72
9
 73
5
 74
0
 42
0.0000001
 43
0.0000001
 44
0.0000000001
 40
0.0
 40
0.0
 40
0.0
 40
0.0
 40
0.4893612059
 40
1.0
 40
1.0
 40
1.0
 40
1.0
 10
-5.1663691186
 20
228.4962979381
 30
0.0
 10
-5.3286070662
 20
228.4523784721
 30
0.0
 10
-5.6529843654
 20
228.3346555633
 30
0.0
 10
-5.9559575073
 20
228.1701335947
 30
0.0
 10
-6.104014837
 20
228.0761168349
 30
0.0
  0
SPLINE
  5
399
100
AcDbEntity
  8
0
100
AcDbSpline
 62
7
  6
CONTINUOUS
 70
0
 71
3
 72
18
 73
14
 74
0
 42
0.0000001
 43
0.0000001
 44
0.0000000001
 40
0.0
 40
0.0
 40
0.0
 40
0.0
 40
0.1387979344
 40
0.2733147363
 40
0.4033744348
 40
0.5290561263
 40
0.6507398977
 40
0.7103195467
 40
0.7691704498
 40
0.8274211853
 40
0.885209595
 40
0.9426833476
 40
1.0
 40
1.0
 40
1.0
 40
1.0
 10
-8.1686255159
 20
224.5652210168
 30
0.0
 10
-8.1769801534
 20
224.4270438454
 30
0.0
 10
-8.1790537874
 20
224.1538097421
 30
0.0
 10
-8.1362020526
 20
223.752899241
 30
0.0
 10
-8.0479047367
 20
223.3727476329
 30
0.0
 10
-7.9153625289
 20
223.0192461665
 30
0.0
 10
-7.7684156679
 20
222.7493556969
 30
0.0
 10
-7.6309942583
 20
222.5529937528
 30
0.0
 10
-7.5190979787
 20
222.4166331787
 30
0.0
 10
-7.3981708209
 20
222.2906856819
 30
0.0
 10
-7.2686694711
 20
222.1756144591
 30
0.0
 10
-7.1310688236
 20
222.0719144641
 30
0.0
 10
-7.0342009502
 20
222.010612452
 30
0.0
 10
-6.9846953218
 20
221.9820296886
 30
0.0
  0
SPLINE
  5
39A
100
AcDbEntity
  8
0
100
AcDbSpline
 62
7
  6
CONTINUOUS
 70
0
 71
3
 72
9
 73
5
 74
0
 42
0.0000001
 43
0.0000001
 44
0.0000000001
 40
0.0
 40
0.0
 40
0.0
 40
0.0
 40
0.4893612059
 40
1.0
 40
1.0
 40
1.0
 40
1.0
 10
-0.5845783884
 20
214.1647037687
 30
0.0
 10
-0.7468163359
 20
214.1207843028
 30
0.0
 10
-1.0711936351
 20
214.0030613939
 30
0.0
 10
-1.3741667771
 20
213.8385394253
 30
0.0
 10
-1.5222241067
 20
213.7445226655
 30
0.0
  0
SPLINE
  5
39B
100
AcDbEntity
  8
0
100
AcDbSpline
 62
7
  6
CONTINUOUS
 70
0
 71
3
 72
18
 73
14
 74
0
 42
0.0000001
 43
0.0000001
 44
0.0000000001
 40
0.0
 40
0.0
 40
0.0
 40
0.0
 40
0.1387979344
 40
0.2733147363
 40
0.4033744348
 40
0.5290561263
 40
0.6507398977
 40
0.7103195467
 40
0.7691704498
 40
0.8274211853
 40
0.885209595
 40
0.9426833476
 40
1.0
 40
1.0
 40
1.0
 40
1.0
 10
-3.5868347856
 20
210.2336268475
 30
0.0
 10
-3.5951894232
 20
210.095449676
 30
0.0
 10
-3.5972630572
 20
209.8222155727
 30
0.0
 10
-3.5544113224
 20
209.4213050716
 30
0.0
 10
-3.4661140065
 20
209.0411534635
 30
0.0
 10
-3.3335717986
 20
208.6876519971
 30
0.0
 10
-3.1866249376
 20
208.4177615275
 30
0.0
 10
-3.049203528
 20
208.2213995834
 30
0.0
 10
-2.9373072485
 20
208.0850390093
 30
0.0
 10
-2.8163800906
 20
207.9590915125
 30
0.0
 10
-2.6868787408
 20
207.8440202897
 30
0.0
 10
-2.5492780933
 20
207.7403202947
 30
0.0
 10
-2.45241022
 20
207.6790182826
 30
0.0
 10
-2.4029045916
 20
207.6504355192
 30
0.0
  0
SPLINE
  5
39C
100
AcDbEntity
  8
0
100
AcDbSpline
 62
7
  6
CONTINUOUS
 70
0
 71
3
 72
21
 73
17
 74
0
 42
0.0000001
 43
0.0000001
 44
0.0000000001
 40
0.0
 40
0.0
 40
0.0
 40
0.0
 40
0.0566123704
 40
0.1148350071
 40
0.235474178
 40
0.2977702463
 40
0.3611359144
 40
0.4253490388
 40
0.4901714825
 40
0.5553506303
 40
0.6206260803
 40
0.6857292304
 40
0.7503906588
 40
0.8773771036
 40
0.9393742089
 40
1.0
 40
1.0
 40
1.0
 40
1.0
 10
-10.5211889363
 20
201.1137947097
 30
0.0
 10
-10.6485258369
 20
201.0793233129
 30
0.0
 10
-10.9033641169
 20
200.9959389559
 30
0.0
 10
-11.406742775
 20
200.7760037741
 30
0.0
 10
-11.8886044378
 20
200.4801997709
 30
0.0
 10
-12.3373554131
 20
200.121731742
 30
0.0
 10
-12.6601663368
 20
199.8184058852
 30
0.0
 10
-12.9623692002
 20
199.48663863
 30
0.0
 10
-13.2409597338
 20
199.1294327238
 30
0.0
 10
-13.49345309
 20
198.750358499
 30
0.0
 10
-13.7172388754
 20
198.3529225586
 30
0.0
 10
-13.9103771253
 20
197.9410041782
 30
0.0
 10
-14.1230434586
 20
197.3813663934
 30
0.0
 10
-14.2695442026
 20
196.8057030901
 30
0.0
 10
-14.3430497324
 20
196.2282223816
 30
0.0
 10
-14.355285423
 20
195.9423018732
 30
0.0
 10
-14.3549821697
 20
195.8010296815
 30
0.0
  0
SPLINE
  5
39D
100
AcDbEntity
  8
0
100
AcDbSpline
 62
7
  6
CONTINUOUS
 70
0
 71
3
 72
15
 73
11
 74
0
 42
0.0000001
 43
0.0000001
 44
0.0000000001
 40
0.0
 40
0.0
 40
0.0
 40
0.0
 40
0.1377341855
 40
0.2715261745
 40
0.4010620119
 40
0.5265505483
 40
0.6484548224
 40
0.7674109803
 40
0.884253483
 40
1.0
 40
1.0
 40
1.0
 40
1.0
 10
-14.3549821697
 20
195.8010296815
 30
0.0
 10
-14.3546366
 20
195.6400441743
 30
0.0
 10
-14.33769534
 20
195.3224355947
 30
0.0
 10
-14.2619327436
 20
194.8588649834
 30
0.0
 10
-14.1365112988
 20
194.4209061403
 30
0.0
 10
-13.9632667387
 20
194.0145256488
 30
0.0
 10
-13.7441296505
 20
193.6451263489
 30
0.0
 10
-13.4820618537
 20
193.3175123642
 30
0.0
 10
-13.1802828602
 20
193.036542219
 30
0.0
 10
-12.95487106
 20
192.8823981685
 30
0.0
 10
-12.8377123855
 20
192.8147502534
 30
0.0
  0
SPLINE
  5
39E
100
AcDbEntity
  8
0
100
AcDbSpline
 62
7
  6
CONTINUOUS
 70
0
 71
3
 72
33
 73
29
 74
0
 42
0.0000001
 43
0.0000001
 44
0.0000000001
 40
0.0
 40
0.0
 40
0.0
 40
0.0
 40
0.0602144333
 40
0.1229710663
 40
0.1879866429
 40
0.2548570918
 40
0.2888275855
 40
0.3230392603
 40
0.357409278
 40
0.391850861
 40
0.4605647412
 40
0.4946940334
 40
0.5285495655
 40
0.5951020271
 40
0.6276955121
 40
0.6597469932
 40
0.6912107482
 40
0.7220557053
 40
0.7522621936
 40
0.781825768
 40
0.8107588924
 40
0.8390881508
 40
0.8668596268
 40
0.8941341941
 40
0.9209889058
 40
0.94751529
 40
0.9738150318
 40
1.0
 40
1.0
 40
1.0
 40
1.0
 10
-2.0468064393
 20
216.0037091015
 30
0.0
 10
-1.6968737607
 20
216.0984394441
 30
0.0
 10
-0.9972387244
 20
216.3511341069
 30
0.0
 10
0.0022785131
 20
216.8896781115
 30
0.0
 10
0.9513528802
 20
217.5828744527
 30
0.0
 10
1.6780468723
 20
218.2718051706
 30
0.0
 10
2.2148879489
 20
218.8830163322
 30
0.0
 10
2.5939845827
 20
219.3708448902
 30
0.0
 10
2.9448989456
 20
219.8827648619
 30
0.0
 10
3.372151055
 20
220.5924228396
 30
0.0
 10
3.7352507843
 20
221.3375094674
 30
0.0
 10
4.0283029065
 20
222.1070244654
 30
0.0
 10
4.2702319515
 20
222.8804460879
 30
0.0
 10
4.4387881705
 20
223.6658697271
 30
0.0
 10
4.5281539107
 20
224.4511474299
 30
0.0
 10
4.5550607338
 20
225.0296267572
 30
0.0
 10
4.5419056159
 20
225.5980513624
 30
0.0
 10
4.488900223
 20
226.1530274874
 30
0.0
 10
4.3963141268
 20
226.6912184112
 30
0.0
 10
4.2645632573
 20
227.2093494788
 30
0.0
 10
4.0946102112
 20
227.7043426993
 30
0.0
 10
3.8872277412
 20
228.1731303062
 30
0.0
 10
3.6437731441
 20
228.6128996053
 30
0.0
 10
3.3656653619
 20
229.0209714205
 30
0.0
 10
3.0544564023
 20
229.3947299025
 30
0.0
 10
2.7121894879
 20
229.7320226728
 30
0.0
 10
2.3408325958
 20
230.0305591738
 30
0.0
 10
2.0751140228
 20
230.2027670339
 30
0.0
 10
1.9386040068
 20
230.2816242353
 30
0.0
  0
SPLINE
  5
39F
100
AcDbEntity
  8
0
100
AcDbSpline
 62
7
  6
CONTINUOUS
 70
0
 71
3
 72
28
 73
24
 74
0
 42
0.0000001
 43
0.0000001
 44
0.0000000001
 40
0.0
 40
0.0
 40
0.0
 40
0.0
 40
0.0266307792
 40
0.053674312
 40
0.0811799605
 40
0.1091881724
 40
0.1667763414
 40
0.1964164
 40
0.2266060458
 40
0.2885390296
 40
0.3523928266
 40
0.3849525032
 40
0.4178588165
 40
0.4844615096
 40
0.5517390221
 40
0.5854796421
 40
0.6191915425
 40
0.7522142797
 40
0.784827599
 40
0.8170490194
 40
0.8801084533
 40
0.9411644016
 40
1.0
 40
1.0
 40
1.0
 40
1.0
 10
-19.0121335818
 20
210.079798568
 30
0.0
 10
-18.9239563831
 20
209.9660646293
 30
0.0
 10
-18.7559525038
 20
209.7291262242
 30
0.0
 10
-18.532244376
 20
209.3512393067
 30
0.0
 10
-18.3359203715
 20
208.9500834123
 30
0.0
 10
-18.1100866797
 20
208.3816281879
 30
0.0
 10
-17.9455341429
 20
207.778408308
 30
0.0
 10
-17.8417095744
 20
207.1520996839
 30
0.0
 10
-17.7770608476
 20
206.496835812
 30
0.0
 10
-17.7753372496
 20
205.6516505502
 30
0.0
 10
-17.8753922968
 20
204.7998132111
 30
0.0
 10
-18.0149799288
 20
204.1147465652
 30
0.0
 10
-18.1957944808
 20
203.4240059349
 30
0.0
 10
-18.4948039929
 20
202.5718028845
 30
0.0
 10
-18.8832320618
 20
201.751607523
 30
0.0
 10
-19.2452888976
 20
201.1195326974
 30
0.0
 10
-19.831701912
 20
200.2085551239
 30
0.0
 10
-20.5331196427
 20
199.3767173653
 30
0.0
 10
-21.3286270612
 20
198.6619800278
 30
0.0
 10
-21.8680618585
 20
198.2293716556
 30
0.0
 10
-22.5718514148
 20
197.7581159547
 30
0.0
 10
-23.4565416279
 20
197.3113615759
 30
0.0
 10
-24.070347852
 20
197.0965878627
 30
0.0
 10
-24.3772469403
 20
197.0135071515
 30
0.0
  0
SPLINE
  5
3A0
100
AcDbEntity
  8
0
100
AcDbSpline
 62
7
  6
CONTINUOUS
 70
0
 71
3
 72
15
 73
11
 74
0
 42
0.0000001
 43
0.0000001
 44
0.0000000001
 40
0.0
 40
0.0
 40
0.0
 40
0.0
 40
0.1196027475
 40
0.2397877029
 40
0.3610958866
 40
0.4840314622
 40
0.6090661522
 40
0.736610535
 40
0.8669097558
 40
1.0
 40
1.0
 40
1.0
 40
1.0
 10
-25.2976286062
 20
195.6479147461
 30
0.0
 10
-25.1545160119
 20
195.5652434594
 30
0.0
 10
-24.8584268697
 20
195.4148165189
 30
0.0
 10
-24.391086171
 20
195.2374146463
 30
0.0
 10
-23.9032264395
 20
195.1088479525
 30
0.0
 10
-23.3981381993
 20
195.0302336246
 30
0.0
 10
-22.8791703785
 20
195.0018765648
 30
0.0
 10
-22.3497519467
 20
195.0240702901
 30
0.0
 10
-21.8137079499
 20
195.0965233804
 30
0.0
 10
-21.4581843601
 20
195.1769196401
 30
0.0
 10
-21.2806614735
 20
195.2249768948
 30
0.0
  0
SPLINE
  5
3A1
100
AcDbEntity
  8
0
100
AcDbSpline
 62
7
  6
CONTINUOUS
 70
0
 71
3
 72
14
 73
10
 74
0
 42
0.0000001
 43
0.0000001
 44
0.0000000001
 40
0.0
 40
0.0
 40
0.0
 40
0.0
 40
0.1196399645
 40
0.2398513099
 40
0.3611764719
 40
0.4841419149
 40
0.6092279452
 40
0.7368418998
 40
1.0
 40
1.0
 40
1.0
 40
1.0
 10
-12.8377123855
 20
192.8147502534
 30
0.0
 10
-12.7545143691
 20
192.7667113662
 30
0.0
 10
-12.5823900892
 20
192.6793238707
 30
0.0
 10
-12.3107921271
 20
192.5761274715
 30
0.0
 10
-12.0272291776
 20
192.5014219491
 30
0.0
 10
-11.7336540649
 20
192.4557316825
 30
0.0
 10
-11.4319289069
 20
192.4392312841
 30
0.0
 10
-11.0175982544
 20
192.4566732735
 30
0.0
 10
-10.7068210019
 20
192.5137059663
 30
0.0
 10
-10.5028466191
 20
192.5689239102
 30
0.0
  0
SPLINE
  5
3A2
100
AcDbEntity
  8
0
100
AcDbSpline
 62
7
  6
CONTINUOUS
 70
0
 71
3
 72
33
 73
29
 74
0
 42
0.0000001
 43
0.0000001
 44
0.0000000001
 40
0.0
 40
0.0
 40
0.0
 40
0.0
 40
0.0602144333
 40
0.1229710663
 40
0.1879866429
 40
0.2548570918
 40
0.2888275855
 40
0.3230392603
 40
0.357409278
 40
0.391850861
 40
0.4605647412
 40
0.4946940334
 40
0.5285495655
 40
0.5951020271
 40
0.6276955121
 40
0.6597469932
 40
0.6912107482
 40
0.7220557053
 40
0.7522621936
 40
0.781825768
 40
0.8107588924
 40
0.8390881508
 40
0.8668596268
 40
0.8941341941
 40
0.9209889058
 40
0.94751529
 40
0.9738150318
 40
1.0
 40
1.0
 40
1.0
 40
1.0
 10
2.5349842909
 20
201.6721149321
 30
0.0
 10
2.8849169695
 20
201.7668452747
 30
0.0
 10
3.5845520058
 20
202.0195399375
 30
0.0
 10
4.5840692434
 20
202.5580839421
 30
0.0
 10
5.5331436105
 20
203.2512802833
 30
0.0
 10
6.2598376025
 20
203.9402110012
 30
0.0
 10
6.7966786791
 20
204.5514221628
 30
0.0
 10
7.1757753129
 20
205.0392507208
 30
0.0
 10
7.5266896758
 20
205.5511706925
 30
0.0
 10
7.9539417852
 20
206.2608286702
 30
0.0
 10
8.3170415145
 20
207.005915298
 30
0.0
 10
8.6100936368
 20
207.775430296
 30
0.0
 10
8.8520226818
 20
208.5488519186
 30
0.0
 10
9.0205789007
 20
209.3342755577
 30
0.0
 10
9.1099446409
 20
210.1195532605
 30
0.0
 10
9.136851464
 20
210.6980325878
 30
0.0
 10
9.1236963461
 20
211.266457193
 30
0.0
 10
9.0706909533
 20
211.821433318
 30
0.0
 10
8.978104857
 20
212.3596242418
 30
0.0
 10
8.8463539876
 20
212.8777553094
 30
0.0
 10
8.6764009414
 20
213.3727485299
 30
0.0
 10
8.4690184715
 20
213.8415361368
 30
0.0
 10
8.2255638744
 20
214.2813054359
 30
0.0
 10
7.9474560921
 20
214.6893772511
 30
0.0
 10
7.6362471325
 20
215.0631357331
 30
0.0
 10
7.2939802181
 20
215.4004285035
 30
0.0
 10
6.9226233261
 20
215.6989650044
 30
0.0
 10
6.6569047531
 20
215.8711728645
 30
0.0
 10
6.5203947371
 20
215.9500300659
 30
0.0
  0
SPLINE
  5
3A3
100
AcDbEntity
  8
0
100
AcDbSpline
 62
7
  6
CONTINUOUS
 70
0
 71
3
 72
14
 73
10
 74
0
 42
0.0000001
 43
0.0000001
 44
0.0000000001
 40
0.0
 40
0.0
 40
0.0
 40
0.0
 40
0.1196402494
 40
0.2398433421
 40
0.3611631664
 40
0.4841359298
 40
0.6092444914
 40
0.736883343
 40
1.0
 40
1.0
 40
1.0
 40
1.0
 10
-2.4029045916
 20
207.6504355192
 30
0.0
 10
-2.3375975581
 20
207.6127295947
 30
0.0
 10
-2.2025091511
 20
207.5441118155
 30
0.0
 10
-1.9893382263
 20
207.4630765984
 30
0.0
 10
-1.7667515026
 20
207.4044750454
 30
0.0
 10
-1.5363015087
 20
207.3685832366
 30
0.0
 10
-1.2994272204
 20
207.3556399036
 30
0.0
 10
-0.9742006244
 20
207.3693742438
 30
0.0
 10
-0.7302637902
 20
207.4141034566
 30
0.0
 10
-0.5701806501
 20
207.4574395942
 30
0.0
  0
SPLINE
  5
3A4
100
AcDbEntity
  8
0
100
AcDbSpline
 62
7
  6
CONTINUOUS
 70
0
 71
3
 72
22
 73
18
 74
0
 42
0.0000001
 43
0.0000001
 44
0.0000000001
 40
0.0
 40
0.0
 40
0.0
 40
0.0
 40
0.114703657
 40
0.1743825444
 40
0.2354320073
 40
0.2977299543
 40
0.3610908125
 40
0.4252980732
 40
0.4901139826
 40
0.5552871611
 40
0.6205557323
 40
0.6856545664
 40
0.7503179139
 40
0.8142940757
 40
0.8773754441
 40
0.9393617758
 40
1.0
 40
1.0
 40
1.0
 40
1.0
 10
-9.3547913369
 20
190.0411349499
 30
0.0
 10
-8.9840175324
 20
190.1415071969
 30
0.0
 10
-8.4348145983
 20
190.3535583855
 30
0.0
 10
-7.7438121253
 20
190.7343545012
 30
0.0
 10
-7.2339962225
 20
191.0760966457
 30
0.0
 10
-6.7449698442
 20
191.4667693969
 30
0.0
 10
-6.2810442695
 20
191.9025398802
 30
0.0
 10
-5.8468910736
 20
192.379399059
 30
0.0
 10
-5.4464610185
 20
192.8926075023
 30
0.0
 10
-5.0837502369
 20
193.4373954469
 30
0.0
 10
-4.7620327875
 20
194.0084379036
 30
0.0
 10
-4.4846079176
 20
194.6003814817
 30
0.0
 10
-4.253893796
 20
195.2074307959
 30
0.0
 10
-4.0722984968
 20
195.8239159584
 30
0.0
 10
-3.941415477
 20
196.4440083657
 30
0.0
 10
-3.8627805759
 20
197.0615812741
 30
0.0
 10
-3.8452357876
 20
197.4724563997
 30
0.0
 10
-3.8456716841
 20
197.6755211688
 30
0.0
  0
SPLINE
  5
3A5
100
AcDbEntity
  8
0
100
AcDbSpline
 62
7
  6
CONTINUOUS
 70
0
 71
3
 72
28
 73
24
 74
0
 42
0.0000001
 43
0.0000001
 44
0.0000000001
 40
0.0
 40
0.0
 40
0.0
 40
0.0
 40
0.0266307792
 40
0.053674312
 40
0.0811799605
 40
0.1091881724
 40
0.1667763414
 40
0.1964164
 40
0.2266060458
 40
0.2885390296
 40
0.3523928266
 40
0.3849525032
 40
0.4178588165
 40
0.4844615096
 40
0.5517390221
 40
0.5854796421
 40
0.6191915425
 40
0.7522142797
 40
0.784827599
 40
0.8170490194
 40
0.8801084533
 40
0.9411644016
 40
1.0
 40
1.0
 40
1.0
 40
1.0
 10
4.8035121826
 20
216.5269366053
 30
0.0
 10
4.8916893813
 20
216.4132026666
 30
0.0
 10
5.0596932606
 20
216.1762642615
 30
0.0
 10
5.2834013884
 20
215.798377344
 30
0.0
 10
5.4797253929
 20
215.3972214497
 30
0.0
 10
5.7055590847
 20
214.8287662252
 30
0.0
 10
5.8701116215
 20
214.2255463453
 30
0.0
 10
5.97393619
 20
213.5992377213
 30
0.0
 10
6.0385849168
 20
212.9439738493
 30
0.0
 10
6.0403085148
 20
212.0987885875
 30
0.0
 10
5.9402534676
 20
211.2469512484
 30
0.0
 10
5.8006658356
 20
210.5618846025
 30
0.0
 10
5.6198512836
 20
209.8711439722
 30
0.0
 10
5.3208417715
 20
209.0189409218
 30
0.0
 10
4.9324137026
 20
208.1987455603
 30
0.0
 10
4.5703568667
 20
207.5666707347
 30
0.0
 10
3.9839438524
 20
206.6556931612
 30
0.0
 10
3.2825261217
 20
205.8238554026
 30
0.0
 10
2.4870187032
 20
205.1091180651
 30
0.0
 10
1.9475839059
 20
204.6765096929
 30
0.0
 10
1.2437943496
 20
204.205253992
 30
0.0
 10
0.3591041365
 20
203.7584996132
 30
0.0
 10
-0.2547020876
 20
203.5437259
 30
0.0
 10
-0.5616011759
 20
203.4606451888
 30
0.0
  0
SPLINE
  5
3A6
100
AcDbEntity
  8
0
100
AcDbSpline
 62
7
  6
CONTINUOUS
 70
0
 71
3
 72
15
 73
11
 74
0
 42
0.0000001
 43
0.0000001
 44
0.0000000001
 40
0.0
 40
0.0
 40
0.0
 40
0.0
 40
0.1196027475
 40
0.2397877029
 40
0.3610958866
 40
0.4840314622
 40
0.6090661522
 40
0.736610535
 40
0.8669097558
 40
1.0
 40
1.0
 40
1.0
 40
1.0
 10
-1.4819828418
 20
202.0950527834
 30
0.0
 10
-1.3388702475
 20
202.0123814968
 30
0.0
 10
-1.0427811053
 20
201.8619545562
 30
0.0
 10
-0.5754404066
 20
201.6845526836
 30
0.0
 10
-0.0875806751
 20
201.5559859898
 30
0.0
 10
0.4175075651
 20
201.4773716619
 30
0.0
 10
0.9364753859
 20
201.4490146021
 30
0.0
 10
1.4658938177
 20
201.4712083274
 30
0.0
 10
2.0019378145
 20
201.5436614177
 30
0.0
 10
2.3574614043
 20
201.6240576774
 30
0.0
 10
2.5349842909
 20
201.6721149321
 30
0.0
  0
SPLINE
  5
3A7
100
AcDbEntity
  8
0
100
AcDbSpline
 62
7
  6
CONTINUOUS
 70
0
 71
3
 72
23
 73
19
 74
0
 42
0.0000001
 43
0.0000001
 44
0.0000000001
 40
0.0
 40
0.0
 40
0.0
 40
0.0
 40
0.0699762298
 40
0.1382468452
 40
0.2046735536
 40
0.269299245
 40
0.3322529931
 40
0.3937173852
 40
0.4539391606
 40
0.5132404998
 40
0.5719925032
 40
0.6305994617
 40
0.6894731294
 40
0.7490030573
 40
0.8095465592
 40
0.871427412
 40
0.9348897887
 40
1.0
 40
1.0
 40
1.0
 40
1.0
 10
-3.8456716841
 20
197.6755211688
 30
0.0
 10
-3.8460973622
 20
197.8738256106
 30
0.0
 10
-3.864118793
 20
198.2658129058
 30
0.0
 10
-3.9441673888
 20
198.8411318904
 30
0.0
 10
-4.0766546299
 20
199.3912244851
 30
0.0
 10
-4.2601179497
 20
199.9105980154
 30
0.0
 10
-4.4930758536
 20
200.3942671578
 30
0.0
 10
-4.7731601003
 20
200.8376710812
 30
0.0
 10
-5.0980297086
 20
201.2362244438
 30
0.0
 10
-5.4643336143
 20
201.5861167826
 30
0.0
 10
-5.8687067041
 20
201.8836221857
 30
0.0
 10
-6.3069873416
 20
202.12597335
 30
0.0
 10
-6.7749362055
 20
202.3104739105
 30
0.0
 10
-7.2677285189
 20
202.4356663826
 30
0.0
 10
-7.7805917519
 20
202.5001426309
 30
0.0
 10
-8.3085594972
 20
202.5035613506
 30
0.0
 10
-8.8462364254
 20
202.4457769703
 30
0.0
 10
-9.2030446472
 20
202.3682370852
 30
0.0
 10
-9.3811490594
 20
202.3200224057
 30
0.0
  0
SPLINE
  5
3A8
100
AcDbEntity
  8
0
100
AcDbSpline
 62
7
  6
CONTINUOUS
 70
0
 71
3
 72
11
 73
7
 74
0
 42
0.0000001
 43
0.0000001
 44
0.0000000001
 40
0.0
 40
0.0
 40
0.0
 40
0.0
 40
0.2585671123
 40
0.5112446396
 40
0.7581652015
 40
1.0
 40
1.0
 40
1.0
 40
1.0
 10
-24.3772469403
 20
197.0135071515
 30
0.0
 10
-24.5695921451
 20
196.9614373442
 30
0.0
 10
-24.954846816
 20
196.875729758
 30
0.0
 10
-25.5356300551
 20
196.8038833567
 30
0.0
 10
-26.1078633036
 20
196.7913101829
 30
0.0
 10
-26.4840711343
 20
196.82283916
 30
0.0
 10
-26.6686516832
 20
196.8486288641
 30
0.0
  0
SPLINE
  5
3A9
100
AcDbEntity
  8
0
100
AcDbSpline
 62
7
  6
CONTINUOUS
 70
0
 71
3
 72
14
 73
10
 74
0
 42
0.0000001
 43
0.0000001
 44
0.0000000001
 40
0.0
 40
0.0
 40
0.0
 40
0.0
 40
0.1196402494
 40
0.2398433421
 40
0.3611631664
 40
0.4841359298
 40
0.6092444914
 40
0.736883343
 40
1.0
 40
1.0
 40
1.0
 40
1.0
 10
-6.9846953218
 20
221.9820296886
 30
0.0
 10
-6.9193882884
 20
221.9443237641
 30
0.0
 10
-6.7842998814
 20
221.8757059849
 30
0.0
 10
-6.5711289566
 20
221.7946707678
 30
0.0
 10
-6.3485422328
 20
221.7360692148
 30
0.0
 10
-6.1180922389
 20
221.700177406
 30
0.0
 10
-5.8812179506
 20
221.687234073
 30
0.0
 10
-5.5559913547
 20
221.7009684132
 30
0.0
 10
-5.3120545205
 20
221.745697626
 30
0.0
 10
-5.1519713803
 20
221.7890337636
 30
0.0
  0
SPLINE
  5
3AA
100
AcDbEntity
  8
0
100
AcDbSpline
 62
7
  6
CONTINUOUS
 70
0
 71
3
 72
26
 73
22
 74
0
 42
0.0000001
 43
0.0000001
 44
0.0000000001
 40
0.0
 40
0.0
 40
0.0
 40
0.0
 40
0.0602265169
 40
0.1230367611
 40
0.1880821075
 40
0.2549818619
 40
0.391736511
 40
0.4604813736
 40
0.5284675784
 40
0.5619879037
 40
0.5950856314
 40
0.6597240848
 40
0.722022838
 40
0.7817760488
 40
0.810723081
 40
0.8390658613
 40
0.8940801706
 40
0.9209470534
 40
0.9474863198
 40
0.9738001684
 40
1.0
 40
1.0
 40
1.0
 40
1.0
 10
-24.3858264145
 20
201.0103015569
 30
0.0
 10
-24.2262156336
 20
201.053509822
 30
0.0
 10
-23.9070150541
 20
201.1688772398
 30
0.0
 10
-23.4509511022
 20
201.4144777701
 30
0.0
 10
-23.0178104248
 20
201.7308560522
 30
0.0
 10
-22.4814138548
 20
202.2395080842
 30
0.0
 10
-22.0364785466
 20
202.8512780028
 30
0.0
 10
-21.7070831703
 20
203.5273874299
 30
0.0
 10
-21.5531690148
 20
203.9701729919
 30
0.0
 10
-21.4647894633
 20
204.3292267339
 30
0.0
 10
-21.4007747831
 20
204.6840714605
 30
0.0
 10
-21.3647847959
 20
205.1234079565
 30
0.0
 10
-21.3938023829
 20
205.6368428191
 30
0.0
 10
-21.4793323543
 20
206.0444235192
 30
0.0
 10
-21.5838077354
 20
206.3486979793
 30
0.0
 10
-21.7086666742
 20
206.6309245041
 30
0.0
 10
-21.8676086479
 20
206.8908838315
 30
0.0
 10
-22.0583599075
 20
207.1199132367
 30
0.0
 10
-22.2145393365
 20
207.2738027784
 30
0.0
 10
-22.3839391765
 20
207.4100582659
 30
0.0
 10
-22.5052044683
 20
207.4886024924
 30
0.0
 10
-22.5675002113
 20
207.5245698064
 30
0.0
  0
SPLINE
  5
3AB
100
AcDbEntity
  8
0
100
AcDbSpline
 62
7
  6
CONTINUOUS
 70
0
 71
3
 72
22
 73
18
 74
0
 42
0.0000001
 43
0.0000001
 44
0.0000000001
 40
0.0
 40
0.0
 40
0.0
 40
0.0
 40
0.114703657
 40
0.1743825443
 40
0.2354320073
 40
0.2977299543
 40
0.3610908125
 40
0.4252980732
 40
0.4901139826
 40
0.5552871611
 40
0.6205557323
 40
0.6856545664
 40
0.7503179139
 40
0.8142940757
 40
0.8773754441
 40
0.9393617758
 40
1.0
 40
1.0
 40
1.0
 40
1.0
 10
-9.3811490594
 20
202.3200224057
 30
0.0
 10
-9.7519228638
 20
202.2196501583
 30
0.0
 10
-10.3011257981
 20
202.0075989702
 30
0.0
 10
-10.9921282711
 20
201.6268028544
 30
0.0
 10
-11.5019441738
 20
201.2850607099
 30
0.0
 10
-11.9909705522
 20
200.8943879587
 30
0.0
 10
-12.4548961269
 20
200.4586174754
 30
0.0
 10
-12.8890493228
 20
199.9817582966
 30
0.0
 10
-13.2894793778
 20
199.4685498533
 30
0.0
 10
-13.6521901594
 20
198.9237619087
 30
0.0
 10
-13.9739076089
 20
198.352719452
 30
0.0
 10
-14.2513324787
 20
197.7607758739
 30
0.0
 10
-14.4820466004
 20
197.1537265597
 30
0.0
 10
-14.6636418995
 20
196.5372413972
 30
0.0
 10
-14.7945249194
 20
195.9171489899
 30
0.0
 10
-14.8731598205
 20
195.2995760815
 30
0.0
 10
-14.8907046088
 20
194.8887009559
 30
0.0
 10
-14.8902687122
 20
194.6856361868
 30
0.0
  0
SPLINE
  5
3AC
100
AcDbEntity
  8
0
100
AcDbSpline
 62
7
  6
CONTINUOUS
 70
0
 71
3
 72
11
 73
7
 74
0
 42
0.0000001
 43
0.0000001
 44
0.0000000001
 40
0.0
 40
0.0
 40
0.0
 40
0.0
 40
0.2585671123
 40
0.5112446396
 40
0.7581652015
 40
1.0
 40
1.0
 40
1.0
 40
1.0
 10
-19.8622704526
 20
213.807688921
 30
0.0
 10
-20.0546156574
 20
213.7556191137
 30
0.0
 10
-20.4398703283
 20
213.6699115275
 30
0.0
 10
-21.0206535674
 20
213.5980651262
 30
0.0
 10
-21.5928868159
 20
213.5854919524
 30
0.0
 10
-21.9690946466
 20
213.6170209294
 30
0.0
 10
-22.1536751955
 20
213.6428106336
 30
0.0
  0
SPLINE
  5
3AD
100
AcDbEntity
  8
0
100
AcDbSpline
 62
7
  6
CONTINUOUS
 70
0
 71
3
 72
28
 73
24
 74
0
 42
0.0000001
 43
0.0000001
 44
0.0000000001
 40
0.0
 40
0.0
 40
0.0
 40
0.0
 40
0.0266307792
 40
0.053674312
 40
0.0811799605
 40
0.1091881724
 40
0.1667763414
 40
0.1964164
 40
0.2266060458
 40
0.2885390296
 40
0.3523928266
 40
0.3849525032
 40
0.4178588165
 40
0.4844615096
 40
0.5517390221
 40
0.5854796421
 40
0.6191915425
 40
0.7522142797
 40
0.784827599
 40
0.8170490194
 40
0.8801084533
 40
0.9411644016
 40
1.0
 40
1.0
 40
1.0
 40
1.0
 10
0.2217214523
 20
230.8585307747
 30
0.0
 10
0.3098986511
 20
230.744796836
 30
0.0
 10
0.4779025304
 20
230.5078584309
 30
0.0
 10
0.7016106582
 20
230.1299715134
 30
0.0
 10
0.8979346626
 20
229.728815619
 30
0.0
 10
1.1237683544
 20
229.1603603946
 30
0.0
 10
1.2883208912
 20
228.5571405147
 30
0.0
 10
1.3921454597
 20
227.9308318906
 30
0.0
 10
1.4567941865
 20
227.2755680187
 30
0.0
 10
1.4585177846
 20
226.4303827569
 30
0.0
 10
1.3584627374
 20
225.5785454178
 30
0.0
 10
1.2188751054
 20
224.8934787719
 30
0.0
 10
1.0380605534
 20
224.2027381416
 30
0.0
 10
0.7390510412
 20
223.3505350912
 30
0.0
 10
0.3506229723
 20
222.5303397297
 30
0.0
 10
-0.0114338635
 20
221.8982649041
 30
0.0
 10
-0.5978468778
 20
220.9872873306
 30
0.0
 10
-1.2992646085
 20
220.155449572
 30
0.0
 10
-2.094772027
 20
219.4407122345
 30
0.0
 10
-2.6342068243
 20
219.0081038623
 30
0.0
 10
-3.3379963807
 20
218.5368481614
 30
0.0
 10
-4.2226865938
 20
218.0900937826
 30
0.0
 10
-4.8364928179
 20
217.8753200694
 30
0.0
 10
-5.1433919062
 20
217.7922393582
 30
0.0
  0
SPLINE
  5
3AE
100
AcDbEntity
  8
0
100
AcDbSpline
 62
7
  6
CONTINUOUS
 70
0
 71
3
 72
15
 73
11
 74
0
 42
0.0000001
 43
0.0000001
 44
0.0000000001
 40
0.0
 40
0.0
 40
0.0
 40
0.0
 40
0.1196027475
 40
0.2397877029
 40
0.3610958866
 40
0.4840314622
 40
0.6090661522
 40
0.736610535
 40
0.8669097558
 40
1.0
 40
1.0
 40
1.0
 40
1.0
 10
-6.0637735721
 20
216.4266469528
 30
0.0
 10
-5.9206609778
 20
216.3439756661
 30
0.0
 10
-5.6245718355
 20
216.1935487256
 30
0.0
 10
-5.1572311369
 20
216.016146853
 30
0.0
 10
-4.6693714054
 20
215.8875801592
 30
0.0
 10
-4.1642831651
 20
215.8089658313
 30
0.0
 10
-3.6453153444
 20
215.7806087715
 30
0.0
 10
-3.1158969125
 20
215.8028024968
 30
0.0
 10
-2.5798529157
 20
215.8752555871
 30
0.0
 10
-2.2243293259
 20
215.9556518468
 30
0.0
 10
-2.0468064393
 20
216.0037091015
 30
0.0
  0
SPLINE
  5
3AF
100
AcDbEntity
  8
0
100
AcDbSpline
 62
7
  6
CONTINUOUS
 70
0
 71
3
 72
26
 73
22
 74
0
 42
0.0000001
 43
0.0000001
 44
0.0000000001
 40
0.0
 40
0.0
 40
0.0
 40
0.0
 40
0.0602265169
 40
0.1230367611
 40
0.1880821075
 40
0.2549818619
 40
0.391736511
 40
0.4604813736
 40
0.5284675784
 40
0.5619879037
 40
0.5950856314
 40
0.6597240848
 40
0.722022838
 40
0.7817760488
 40
0.810723081
 40
0.8390658613
 40
0.8940801706
 40
0.9209470534
 40
0.9474863198
 40
0.9738001684
 40
1.0
 40
1.0
 40
1.0
 40
1.0
 10
-19.8708499268
 20
217.8044833264
 30
0.0
 10
-19.7112391458
 20
217.8476915915
 30
0.0
 10
-19.3920385663
 20
217.9630590093
 30
0.0
 10
-18.9359746145
 20
218.2086595396
 30
0.0
 10
-18.5028339371
 20
218.5250378217
 30
0.0
 10
-17.9664373671
 20
219.0336898537
 30
0.0
 10
-17.5215020589
 20
219.6454597723
 30
0.0
 10
-17.1921066826
 20
220.3215691993
 30
0.0
 10
-17.0381925271
 20
220.7643547613
 30
0.0
 10
-16.9498129755
 20
221.1234085034
 30
0.0
 10
-16.8857982953
 20
221.47825323
 30
0.0
 10
-16.8498083081
 20
221.9175897259
 30
0.0
 10
-16.8788258952
 20
222.4310245886
 30
0.0
 10
-16.9643558665
 20
222.8386052887
 30
0.0
 10
-17.0688312477
 20
223.1428797488
 30
0.0
 10
-17.1936901865
 20
223.4251062736
 30
0.0
 10
-17.3526321602
 20
223.685065601
 30
0.0
 10
-17.5433834198
 20
223.9140950062
 30
0.0
 10
-17.6995628488
 20
224.0679845479
 30
0.0
 10
-17.8689626888
 20
224.2042400353
 30
0.0
 10
-17.9902279806
 20
224.2827842619
 30
0.0
 10
-18.0525237236
 20
224.3187515759
 30
0.0
  0
SPLINE
  5
3B0
100
AcDbEntity
  8
0
100
AcDbSpline
 62
7
  6
CONTINUOUS
 70
0
 71
3
 72
11
 73
7
 74
0
 42
0.0000001
 43
0.0000001
 44
0.0000000001
 40
0.0
 40
0.0
 40
0.0
 40
0.0
 40
0.2585671123
 40
0.5112446396
 40
0.7581652015
 40
1.0
 40
1.0
 40
1.0
 40
1.0
 10
-5.1433919062
 20
217.7922393582
 30
0.0
 10
-5.3357371109
 20
217.7401695509
 30
0.0
 10
-5.7209917819
 20
217.6544619647
 30
0.0
 10
-6.301775021
 20
217.5826155634
 30
0.0
 10
-6.8740082694
 20
217.5700423896
 30
0.0
 10
-7.2502161001
 20
217.6015713667
 30
0.0
 10
-7.434796649
 20
217.6273610708
 30
0.0
  0
SPLINE
  5
3B1
100
AcDbEntity
  8
0
100
AcDbSpline
 62
7
  6
CONTINUOUS
 70
0
 71
3
 72
23
 73
19
 74
0
 42
0.0000001
 43
0.0000001
 44
0.0000000001
 40
0.0
 40
0.0
 40
0.0
 40
0.0
 40
0.0699762298
 40
0.1382468452
 40
0.2046735536
 40
0.269299245
 40
0.3322529931
 40
0.3937173852
 40
0.4539391606
 40
0.5132404998
 40
0.5719925032
 40
0.6305994617
 40
0.6894731294
 40
0.7490030573
 40
0.8095465592
 40
0.871427412
 40
0.9348897888
 40
1.0
 40
1.0
 40
1.0
 40
1.0
 10
-14.8902687122
 20
194.6856361868
 30
0.0
 10
-14.8898430341
 20
194.487331745
 30
0.0
 10
-14.8718216034
 20
194.0953444499
 30
0.0
 10
-14.7917730076
 20
193.5200254652
 30
0.0
 10
-14.6592857664
 20
192.9699328705
 30
0.0
 10
-14.4758224467
 20
192.4505593402
 30
0.0
 10
-14.2428645428
 20
191.9668901978
 30
0.0
 10
-13.962780296
 20
191.5234862744
 30
0.0
 10
-13.6379106877
 20
191.1249329118
 30
0.0
 10
-13.271606782
 20
190.775040573
 30
0.0
 10
-12.8672336922
 20
190.4775351699
 30
0.0
 10
-12.4289530547
 20
190.2351840056
 30
0.0
 10
-11.9610041909
 20
190.0506834451
 30
0.0
 10
-11.4682118775
 20
189.925490973
 30
0.0
 10
-10.9553486445
 20
189.8610147246
 30
0.0
 10
-10.4273808991
 20
189.857596005
 30
0.0
 10
-9.8897039709
 20
189.9153803855
 30
0.0
 10
-9.5328957492
 20
189.9929202706
 30
0.0
 10
-9.3547913369
 20
190.0411349499
 30
0.0
  0
SPLINE
  5
3B2
100
AcDbEntity
  8
0
100
AcDbSpline
 62
7
  6
CONTINUOUS
 70
0
 71
3
 72
26
 73
22
 74
0
 42
0.0000001
 43
0.0000001
 44
0.0000000001
 40
0.0
 40
0.0
 40
0.0
 40
0.0
 40
0.0602265169
 40
0.1230367611
 40
0.1880821075
 40
0.2549818619
 40
0.391736511
 40
0.4604813736
 40
0.5284675784
 40
0.5619879037
 40
0.5950856314
 40
0.6597240848
 40
0.722022838
 40
0.7817760488
 40
0.810723081
 40
0.8390658613
 40
0.8940801706
 40
0.9209470534
 40
0.9474863198
 40
0.9738001684
 40
1.0
 40
1.0
 40
1.0
 40
1.0
 10
-5.1519713803
 20
221.7890337636
 30
0.0
 10
-4.9923605994
 20
221.8322420287
 30
0.0
 10
-4.6731600199
 20
221.9476094465
 30
0.0
 10
-4.2170960681
 20
222.1932099768
 30
0.0
 10
-3.7839553906
 20
222.5095882589
 30
0.0
 10
-3.2475588207
 20
223.0182402909
 30
0.0
 10
-2.8026235125
 20
223.6300102095
 30
0.0
 10
-2.4732281362
 20
224.3061196366
 30
0.0
 10
-2.3193139807
 20
224.7489051986
 30
0.0
 10
-2.2309344291
 20
225.1079589406
 30
0.0
 10
-2.1669197489
 20
225.4628036672
 30
0.0
 10
-2.1309297617
 20
225.9021401632
 30
0.0
 10
-2.1599473488
 20
226.4155750258
 30
0.0
 10
-2.2454773201
 20
226.8231557259
 30
0.0
 10
-2.3499527012
 20
227.127430186
 30
0.0
 10
-2.47481164
 20
227.4096567108
 30
0.0
 10
-2.6337536138
 20
227.6696160382
 30
0.0
 10
-2.8245048733
 20
227.8986454434
 30
0.0
 10
-2.9806843024
 20
228.0525349851
 30
0.0
 10
-3.1500841423
 20
228.1887904726
 30
0.0
 10
-3.2713494342
 20
228.2673346991
 30
0.0
 10
-3.3336451772
 20
228.3033020131
 30
0.0
  0
SPLINE
  5
3B3
100
AcDbEntity
  8
0
100
AcDbSpline
 62
7
  6
CONTINUOUS
 70
0
 71
3
 72
11
 73
7
 74
0
 42
0.0000001
 43
0.0000001
 44
0.0000000001
 40
0.0
 40
0.0
 40
0.0
 40
0.0
 40
0.2585671123
 40
0.5112446396
 40
0.7581652015
 40
1.0
 40
1.0
 40
1.0
 40
1.0
 10
-0.5616011759
 20
203.4606451888
 30
0.0
 10
-0.7539463807
 20
203.4085753815
 30
0.0
 10
-1.1392010516
 20
203.3228677954
 30
0.0
 10
-1.7199842907
 20
203.251021394
 30
0.0
 10
-2.2922175392
 20
203.2384482202
 30
0.0
 10
-2.6684253699
 20
203.2699771973
 30
0.0
 10
-2.8530059188
 20
203.2957669014
 30
0.0
  0
SPLINE
  5
3B4
100
AcDbEntity
  8
0
100
AcDbSpline
 62
7
  6
CONTINUOUS
 70
0
 71
3
 72
33
 73
29
 74
0
 42
0.0000001
 43
0.0000001
 44
0.0000000001
 40
0.0
 40
0.0
 40
0.0
 40
0.0
 40
0.0602144333
 40
0.1229710663
 40
0.1879866429
 40
0.2548570918
 40
0.2888275855
 40
0.3230392603
 40
0.357409278
 40
0.391850861
 40
0.4605647412
 40
0.4946940334
 40
0.5285495655
 40
0.5951020271
 40
0.6276955121
 40
0.6597469932
 40
0.6912107482
 40
0.7220557053
 40
0.7522621936
 40
0.781825768
 40
0.8107588924
 40
0.8390881508
 40
0.8668596268
 40
0.8941341941
 40
0.9209889058
 40
0.94751529
 40
0.9738150318
 40
1.0
 40
1.0
 40
1.0
 40
1.0
 10
-16.7656849858
 20
212.0191586642
 30
0.0
 10
-16.4157523071
 20
212.1138890069
 30
0.0
 10
-15.7161172708
 20
212.3665836696
 30
0.0
 10
-14.7166000333
 20
212.9051276742
 30
0.0
 10
-13.7675256662
 20
213.5983240155
 30
0.0
 10
-13.0408316742
 20
214.2872547334
 30
0.0
 10
-12.5039905976
 20
214.898465895
 30
0.0
 10
-12.1248939637
 20
215.386294453
 30
0.0
 10
-11.7739796009
 20
215.8982144247
 30
0.0
 10
-11.3467274915
 20
216.6078724023
 30
0.0
 10
-10.9836277621
 20
217.3529590302
 30
0.0
 10
-10.6905756399
 20
218.1224740281
 30
0.0
 10
-10.4486465949
 20
218.8958956507
 30
0.0
 10
-10.280090376
 20
219.6813192899
 30
0.0
 10
-10.1907246358
 20
220.4665969927
 30
0.0
 10
-10.1638178126
 20
221.04507632
 30
0.0
 10
-10.1769729306
 20
221.6135009252
 30
0.0
 10
-10.2299783234
 20
222.1684770502
 30
0.0
 10
-10.3225644196
 20
222.706667974
 30
0.0
 10
-10.4543152891
 20
223.2247990415
 30
0.0
 10
-10.6242683352
 20
223.719792262
 30
0.0
 10
-10.8316508052
 20
224.1885798689
 30
0.0
 10
-11.0751054023
 20
224.6283491681
 30
0.0
 10
-11.3532131845
 20
225.0364209833
 30
0.0
 10
-11.6644221442
 20
225.4101794653
 30
0.0
 10
-12.0066890586
 20
225.7474722356
 30
0.0
 10
-12.3780459506
 20
226.0460087366
 30
0.0
 10
-12.6437645236
 20
226.2182165967
 30
0.0
 10
-12.7802745396
 20
226.2970737981
 30
0.0
  0
SPLINE
  5
3B5
100
AcDbEntity
  8
0
100
AcDbSpline
 62
7
  6
CONTINUOUS
 70
0
 71
3
 72
26
 73
22
 74
0
 42
0.0000001
 43
0.0000001
 44
0.0000000001
 40
0.0
 40
0.0
 40
0.0
 40
0.0
 40
0.0602265169
 40
0.1230367611
 40
0.1880821075
 40
0.2549818619
 40
0.391736511
 40
0.4604813736
 40
0.5284675784
 40
0.5619879037
 40
0.5950856314
 40
0.6597240848
 40
0.722022838
 40
0.7817760488
 40
0.810723081
 40
0.8390658613
 40
0.8940801706
 40
0.9209470534
 40
0.9474863198
 40
0.9738001684
 40
1.0
 40
1.0
 40
1.0
 40
1.0
 10
-0.5701806501
 20
207.4574395942
 30
0.0
 10
-0.4105698692
 20
207.5006478593
 30
0.0
 10
-0.0913692897
 20
207.6160152771
 30
0.0
 10
0.3646946622
 20
207.8616158075
 30
0.0
 10
0.7978353396
 20
208.1779940896
 30
0.0
 10
1.3342319096
 20
208.6866461216
 30
0.0
 10
1.7791672178
 20
209.2984160401
 30
0.0
 10
2.1085625941
 20
209.9745254672
 30
0.0
 10
2.2624767495
 20
210.4173110292
 30
0.0
 10
2.3508563011
 20
210.7763647712
 30
0.0
 10
2.4148709813
 20
211.1312094978
 30
0.0
 10
2.4508609685
 20
211.5705459938
 30
0.0
 10
2.4218433815
 20
212.0839808564
 30
0.0
 10
2.3363134101
 20
212.4915615565
 30
0.0
 10
2.231838029
 20
212.7958360166
 30
0.0
 10
2.1069790902
 20
213.0780625415
 30
0.0
 10
1.9480371165
 20
213.3380218688
 30
0.0
 10
1.7572858569
 20
213.567051274
 30
0.0
 10
1.6011064279
 20
213.7209408157
 30
0.0
 10
1.4317065879
 20
213.8571963032
 30
0.0
 10
1.3104412961
 20
213.9357405297
 30
0.0
 10
1.2481455531
 20
213.9717078437
 30
0.0
  0
SPLINE
  5
3B6
100
AcDbEntity
  8
0
100
AcDbSpline
 62
7
  6
CONTINUOUS
 70
0
 71
3
 72
21
 73
17
 74
0
 42
0.0000001
 43
0.0000001
 44
0.0000000001
 40
0.0
 40
0.0
 40
0.0
 40
0.0
 40
0.0566123703
 40
0.1148350071
 40
0.235474178
 40
0.2977702462
 40
0.3611359143
 40
0.4253490387
 40
0.4901714825
 40
0.5553506303
 40
0.6206260803
 40
0.6857292303
 40
0.7503906587
 40
0.8773771036
 40
0.9393742089
 40
1.0
 40
1.0
 40
1.0
 40
1.0
 10
-10.5028466191
 20
192.5689239102
 30
0.0
 10
-10.3755097184
 20
192.6033953067
 30
0.0
 10
-10.1206714381
 20
192.6867796634
 30
0.0
 10
-9.6172927792
 20
192.9067148444
 30
0.0
 10
-9.1354311157
 20
193.2025188473
 30
0.0
 10
-8.6866801397
 20
193.5609868761
 30
0.0
 10
-8.3638692154
 20
193.8643127329
 30
0.0
 10
-8.0616663513
 20
194.1960799881
 30
0.0
 10
-7.7830758171
 20
194.5532858946
 30
0.0
 10
-7.5305824604
 20
194.9323601196
 30
0.0
 10
-7.3067966746
 20
195.3297960603
 30
0.0
 10
-7.1136584243
 20
195.7417144411
 30
0.0
 10
-6.9009920905
 20
196.3013522265
 30
0.0
 10
-6.7544913462
 20
196.8770155304
 30
0.0
 10
-6.6809858162
 20
197.4544962396
 30
0.0
 10
-6.6687501255
 20
197.7404167484
 30
0.0
 10
-6.6690533788
 20
197.8816889402
 30
0.0
  0
SPLINE
  5
3B7
100
AcDbEntity
  8
0
100
AcDbSpline
 62
7
  6
CONTINUOUS
 70
0
 71
3
 72
15
 73
11
 74
0
 42
0.0000001
 43
0.0000001
 44
0.0000000001
 40
0.0
 40
0.0
 40
0.0
 40
0.0
 40
0.1377341855
 40
0.2715261745
 40
0.4010620119
 40
0.5265505483
 40
0.6484548224
 40
0.7674109803
 40
0.884253483
 40
1.0
 40
1.0
 40
1.0
 40
1.0
 10
-6.6690533788
 20
197.8816889402
 30
0.0
 10
-6.6693989485
 20
198.0426744474
 30
0.0
 10
-6.6863402086
 20
198.360283027
 30
0.0
 10
-6.762102805
 20
198.8238536383
 30
0.0
 10
-6.8875242497
 20
199.2618124814
 30
0.0
 10
-7.0607688099
 20
199.6681929729
 30
0.0
 10
-7.2799058981
 20
200.0375922728
 30
0.0
 10
-7.5419736949
 20
200.3652062575
 30
0.0
 10
-7.8437526884
 20
200.6461764027
 30
0.0
 10
-8.0691644886
 20
200.8003204532
 30
0.0
 10
-8.1863231631
 20
200.8679683683
 30
0.0
  0
SPLINE
  5
3B8
100
AcDbEntity
  8
0
100
AcDbSpline
 62
7
  6
CONTINUOUS
 70
0
 71
3
 72
14
 73
10
 74
0
 42
0.0000001
 43
0.0000001
 44
0.0000000001
 40
0.0
 40
0.0
 40
0.0
 40
0.0
 40
0.1196402494
 40
0.2398433421
 40
0.3611631664
 40
0.4841359298
 40
0.6092444914
 40
0.736883343
 40
1.0
 40
1.0
 40
1.0
 40
1.0
 10
-21.7035738682
 20
217.9974792514
 30
0.0
 10
-21.6382668348
 20
217.9597733269
 30
0.0
 10
-21.5031784278
 20
217.8911555477
 30
0.0
 10
-21.290007503
 20
217.8101203306
 30
0.0
 10
-21.0674207793
 20
217.7515187776
 30
0.0
 10
-20.8369707853
 20
217.7156269688
 30
0.0
 10
-20.600096497
 20
217.7026836358
 30
0.0
 10
-20.2748699011
 20
217.716417976
 30
0.0
 10
-20.0309330669
 20
217.7611471888
 30
0.0
 10
-19.8708499268
 20
217.8044833264
 30
0.0
  0
SPLINE
  5
3B9
100
AcDbEntity
  8
0
100
AcDbSpline
 62
7
  6
CONTINUOUS
 70
0
 71
3
 72
35
 73
31
 74
0
 42
0.0000001
 43
0.0000001
 44
0.0000000001
 40
0.0
 40
0.0
 40
0.0
 40
0.0
 40
0.0261542591
 40
0.0524186934
 40
0.0788995873
 40
0.1056958087
 40
0.1328954328
 40
0.1605739132
 40
0.1887916179
 40
0.2175940256
 40
0.247010052
 40
0.277053886
 40
0.3077238702
 40
0.3390052974
 40
0.3708696121
 40
0.4032775774
 40
0.4361787167
 40
0.4695144439
 40
0.5032177909
 40
0.5372162429
 40
0.6057544476
 40
0.6745026021
 40
0.7427907891
 40
0.8099778296
 40
0.8429937785
 40
0.8755305686
 40
0.9075339967
 40
0.938962463
 40
0.9697923821
 40
1.0
 40
1.0
 40
1.0
 40
1.0
 10
-22.5267713183
 20
187.3695916884
 30
0.0
 10
-22.9653348382
 20
187.6229124516
 30
0.0
 10
-23.8194671724
 20
188.1750997103
 30
0.0
 10
-25.0150751937
 20
189.1301980286
 30
0.0
 10
-26.1198062653
 20
190.2071134672
 30
0.0
 10
-27.1268373984
 20
191.3995356588
 30
0.0
 10
-28.0306334266
 20
192.7002129902
 30
0.0
 10
-28.8257537637
 20
194.1016265547
 30
0.0
 10
-29.5079721487
 20
195.5953917629
 30
0.0
 10
-30.0731524877
 20
197.1729088465
 30
0.0
 10
-30.5184493752
 20
198.8248950684
 30
0.0
 10
-30.8410687116
 20
200.5418522926
 30
0.0
 10
-31.0395679475
 20
202.3137942636
 30
0.0
 10
-31.1125433829
 20
204.1305175881
 30
0.0
 10
-31.0599704151
 20
205.9815342913
 30
0.0
 10
-30.8818710514
 20
207.8561514287
 30
0.0
 10
-30.5796366976
 20
209.7436026655
 30
0.0
 10
-30.1547305783
 20
211.6329274107
 30
0.0
 10
-29.6099031044
 20
213.5133786565
 30
0.0
 10
-28.7252929132
 20
216.0002531771
 30
0.0
 10
-27.339235872
 20
219.0226268485
 30
0.0
 10
-25.2696455597
 20
222.4333901549
 30
0.0
 10
-22.8359566347
 20
225.5617472815
 30
0.0
 10
-20.5359061642
 20
227.8882649305
 30
0.0
 10
-18.5652121645
 20
229.5408376311
 30
0.0
 10
-17.0422090789
 20
230.6608696902
 30
0.0
 10
-15.4749657477
 20
231.6620976732
 30
0.0
 10
-13.8721486191
 20
232.5386235049
 30
0.0
 10
-12.2431151003
 20
233.2853735818
 30
0.0
 10
-11.1341135033
 20
233.6980346195
 30
0.0
 10
-10.5784099883
 20
233.8807119985
 30
0.0
  0
SPLINE
  5
3BA
100
AcDbEntity
  8
0
100
AcDbSpline
 62
7
  6
CONTINUOUS
 70
0
 71
3
 72
28
 73
24
 74
0
 42
0.0000001
 43
0.0000001
 44
0.0000000001
 40
0.0
 40
0.0
 40
0.0
 40
0.0
 40
0.0266307792
 40
0.053674312
 40
0.0811799605
 40
0.1091881724
 40
0.1667763414
 40
0.1964164
 40
0.2266060458
 40
0.2885390296
 40
0.3523928266
 40
0.3849525032
 40
0.4178588165
 40
0.4844615096
 40
0.5517390221
 40
0.5854796421
 40
0.6191915425
 40
0.7522142797
 40
0.784827599
 40
0.8170490194
 40
0.8801084533
 40
0.9411644016
 40
1.0
 40
1.0
 40
1.0
 40
1.0
 10
-14.4971570941
 20
226.8739803375
 30
0.0
 10
-14.4089798953
 20
226.7602463988
 30
0.0
 10
-14.240976016
 20
226.5233079936
 30
0.0
 10
-14.0172678882
 20
226.1454210761
 30
0.0
 10
-13.8209438838
 20
225.7442651818
 30
0.0
 10
-13.595110192
 20
225.1758099574
 30
0.0
 10
-13.4305576552
 20
224.5725900774
 30
0.0
 10
-13.3267330867
 20
223.9462814534
 30
0.0
 10
-13.2620843599
 20
223.2910175815
 30
0.0
 10
-13.2603607619
 20
222.4458323197
 30
0.0
 10
-13.360415809
 20
221.5939949806
 30
0.0
 10
-13.5000034411
 20
220.9089283346
 30
0.0
 10
-13.6808179931
 20
220.2181877043
 30
0.0
 10
-13.9798275052
 20
219.365984654
 30
0.0
 10
-14.3682555741
 20
218.5457892925
 30
0.0
 10
-14.7303124099
 20
217.9137144669
 30
0.0
 10
-15.3167254242
 20
217.0027368933
 30
0.0
 10
-16.018143155
 20
216.1708991348
 30
0.0
 10
-16.8136505735
 20
215.4561617973
 30
0.0
 10
-17.3530853707
 20
215.0235534251
 30
0.0
 10
-18.0568749271
 20
214.5522977241
 30
0.0
 10
-18.9415651402
 20
214.1055433453
 30
0.0
 10
-19.5553713643
 20
213.8907696321
 30
0.0
 10
-19.8622704526
 20
213.807688921
 30
0.0
  0
SPLINE
  5
3BB
100
AcDbEntity
  8
0
100
AcDbSpline
 62
7
  6
CONTINUOUS
 70
0
 71
3
 72
15
 73
11
 74
0
 42
0.0000001
 43
0.0000001
 44
0.0000000001
 40
0.0
 40
0.0
 40
0.0
 40
0.0
 40
0.1196027475
 40
0.2397877029
 40
0.3610958866
 40
0.4840314622
 40
0.6090661522
 40
0.736610535
 40
0.8669097558
 40
1.0
 40
1.0
 40
1.0
 40
1.0
 10
-20.7826521185
 20
212.4420965156
 30
0.0
 10
-20.6395395242
 20
212.3594252289
 30
0.0
 10
-20.3434503819
 20
212.2089982884
 30
0.0
 10
-19.8761096833
 20
212.0315964158
 30
0.0
 10
-19.3882499518
 20
211.9030297219
 30
0.0
 10
-18.8831617116
 20
211.8244153941
 30
0.0
 10
-18.3641938908
 20
211.7960583343
 30
0.0
 10
-17.8347754589
 20
211.8182520596
 30
0.0
 10
-17.2987314621
 20
211.8907051498
 30
0.0
 10
-16.9432078723
 20
211.9711014095
 30
0.0
 10
-16.7656849858
 20
212.0191586642
 30
0.0
  0
SPLINE
  5
3BC
100
AcDbEntity
  8
0
100
AcDbSpline
 62
7
  6
CONTINUOUS
 70
0
 71
3
 72
33
 73
29
 74
0
 42
0.0000001
 43
0.0000001
 44
0.0000000001
 40
0.0
 40
0.0
 40
0.0
 40
0.0
 40
0.0602144333
 40
0.1229710663
 40
0.1879866429
 40
0.2548570918
 40
0.2888275855
 40
0.3230392603
 40
0.357409278
 40
0.391850861
 40
0.4605647412
 40
0.4946940334
 40
0.5285495655
 40
0.5951020271
 40
0.6276955121
 40
0.6597469932
 40
0.6912107482
 40
0.7220557053
 40
0.7522621936
 40
0.781825768
 40
0.8107588924
 40
0.8390881508
 40
0.8668596268
 40
0.8941341941
 40
0.9209889058
 40
0.94751529
 40
0.9738150318
 40
1.0
 40
1.0
 40
1.0
 40
1.0
 10
-21.2806614735
 20
195.2249768948
 30
0.0
 10
-20.9307287949
 20
195.3197072374
 30
0.0
 10
-20.2310937586
 20
195.5724019002
 30
0.0
 10
-19.231576521
 20
196.1109459048
 30
0.0
 10
-18.2825021539
 20
196.804142246
 30
0.0
 10
-17.5558081619
 20
197.4930729639
 30
0.0
 10
-17.0189670853
 20
198.1042841255
 30
0.0
 10
-16.6398704515
 20
198.5921126835
 30
0.0
 10
-16.2889560886
 20
199.1040326552
 30
0.0
 10
-15.8617039792
 20
199.8136906329
 30
0.0
 10
-15.4986042499
 20
200.5587772607
 30
0.0
 10
-15.2055521276
 20
201.3282922587
 30
0.0
 10
-14.9636230826
 20
202.1017138812
 30
0.0
 10
-14.7950668637
 20
202.8871375204
 30
0.0
 10
-14.7057011235
 20
203.6724152232
 30
0.0
 10
-14.6787943004
 20
204.2508945505
 30
0.0
 10
-14.6919494183
 20
204.8193191557
 30
0.0
 10
-14.7449548111
 20
205.3742952807
 30
0.0
 10
-14.8375409074
 20
205.9124862045
 30
0.0
 10
-14.9692917768
 20
206.4306172721
 30
0.0
 10
-15.139244823
 20
206.9256104926
 30
0.0
 10
-15.3466272929
 20
207.3943980995
 30
0.0
 10
-15.59008189
 20
207.8341673986
 30
0.0
 10
-15.8681896723
 20
208.2422392138
 30
0.0
 10
-16.1793986319
 20
208.6159976958
 30
0.0
 10
-16.5216655463
 20
208.9532904661
 30
0.0
 10
-16.8930224383
 20
209.2518269671
 30
0.0
 10
-17.1587410113
 20
209.4240348272
 30
0.0
 10
-17.2952510273
 20
209.5028920286
 30
0.0
  0
SPLINE
  5
3BD
100
AcDbEntity
  8
0
100
AcDbSpline
 62
7
  6
CONTINUOUS
 70
0
 71
3
 72
14
 73
10
 74
0
 42
0.0000001
 43
0.0000001
 44
0.0000000001
 40
0.0
 40
0.0
 40
0.0
 40
0.0
 40
0.1196402494
 40
0.2398433421
 40
0.3611631664
 40
0.4841359298
 40
0.6092444914
 40
0.736883343
 40
1.0
 40
1.0
 40
1.0
 40
1.0
 10
-26.2185503559
 20
201.2032974819
 30
0.0
 10
-26.1532433225
 20
201.1655915574
 30
0.0
 10
-26.0181549155
 20
201.0969737782
 30
0.0
 10
-25.8049839907
 20
201.0159385611
 30
0.0
 10
-25.582397267
 20
200.9573370081
 30
0.0
 10
-25.3519472731
 20
200.9214451993
 30
0.0
 10
-25.1150729848
 20
200.9085018663
 30
0.0
 10
-24.7898463888
 20
200.9222362065
 30
0.0
 10
-24.5459095546
 20
200.9669654193
 30
0.0
 10
-24.3858264145
 20
201.0103015569
 30
0.0
  0
SPLINE
  5
3BE
100
AcDbEntity
  8
0
100
AcDbSpline
 62
7
  6
CONTINUOUS
 70
0
 71
3
 72
15
 73
11
 74
0
 42
0.0000001
 43
0.0000001
 44
0.0000000001
 40
0.0
 40
0.0
 40
0.0
 40
0.0
 40
0.1299805951
 40
0.258138939
 40
0.3845843414
 40
0.5095268269
 40
0.6332437922
 40
0.7560279889
 40
0.8781763626
 40
1.0
 40
1.0
 40
1.0
 40
1.0
 10
-12.8799847153
 20
175.8053169077
 30
0.0
 10
-13.4566706105
 20
175.759192273
 30
0.0
 10
-14.6055069181
 20
175.7066498875
 30
0.0
 10
-16.3181153052
 20
175.7492224246
 30
0.0
 10
-18.000924527
 20
175.914059437
 30
0.0
 10
-19.6473092674
 20
176.2005596076
 30
0.0
 10
-21.2513386114
 20
176.6076424147
 30
0.0
 10
-22.8072315972
 20
177.1339651836
 30
0.0
 10
-24.3092368288
 20
177.7773489205
 30
0.0
 10
-25.27154863
 20
178.2833609438
 30
0.0
 10
-25.7410768116
 20
178.5545581032
 30
0.0
  0
SPLINE
  5
3BF
100
AcDbEntity
  8
0
100
AcDbSpline
 62
7
  6
CONTINUOUS
 70
0
 71
3
 72
21
 73
17
 74
0
 42
0.0000001
 43
0.0000001
 44
0.0000000001
 40
0.0
 40
0.0
 40
0.0
 40
0.0
 40
0.0599758866
 40
0.1211266838
 40
0.1832836526
 40
0.2463077566
 40
0.3741721541
 40
0.4386927036
 40
0.5033078457
 40
0.5678081893
 40
0.6319868507
 40
0.7585174583
 40
0.8205811937
 40
0.8512372369
 40
0.8816194426
 40
1.0
 40
1.0
 40
1.0
 40
1.0
 10
21.3409423162
 20
217.2277499252
 30
0.0
 10
21.3430055064
 20
216.2666016195
 30
0.0
 10
21.2698077219
 20
214.3245540468
 30
0.0
 10
20.9378302024
 20
211.4036178446
 30
0.0
 10
20.3845699937
 20
208.4664333719
 30
0.0
 10
19.3534398501
 20
204.5418742957
 30
0.0
 10
17.9035143649
 20
200.6980625685
 30
0.0
 10
16.0719437234
 20
197.0066949801
 30
0.0
 10
14.5100179412
 20
194.3225177168
 30
0.0
 10
12.7760714689
 20
191.7526916066
 30
0.0
 10
10.265661619
 20
188.5211263693
 30
0.0
 10
7.4596050986
 20
185.5781300929
 30
0.0
 10
4.7756846506
 20
183.3065745602
 30
0.0
 10
3.2013903645
 20
182.1167193129
 30
0.0
 10
0.8447274024
 20
180.4696720199
 30
0.0
 10
-1.24018408
 20
179.2851222778
 30
0.0
 10
-2.9626565769
 20
178.4900387121
 30
0.0
  0
SPLINE
  5
3C0
100
AcDbEntity
  8
0
100
AcDbSpline
 62
7
  6
CONTINUOUS
 70
0
 71
3
 72
25
 73
21
 74
0
 42
0.0000001
 43
0.0000001
 44
0.0000000001
 40
0.0
 40
0.0
 40
0.0
 40
0.0
 40
0.0641211166
 40
0.1301207715
 40
0.1974913218
 40
0.2657866513
 40
0.4027983499
 40
0.4705939059
 40
0.537163753
 40
0.6020622865
 40
0.6649485943
 40
0.6955809613
 40
0.7256435846
 40
0.7840192115
 40
0.8402346843
 40
0.8945992869
 40
0.9212613313
 40
0.947658389
 40
0.9738752311
 40
1.0
 40
1.0
 40
1.0
 40
1.0
 10
-2.9430483068
 20
178.0173544477
 30
0.0
 10
-2.9424898828
 20
177.7572096122
 30
0.0
 10
-2.974997768
 20
177.2287590837
 30
0.0
 10
-3.1173135241
 20
176.438625363
 30
0.0
 10
-3.3517872215
 20
175.6529145
 30
0.0
 10
-3.7808190165
 20
174.6315479308
 30
0.0
 10
-4.3702549095
 20
173.6816193351
 30
0.0
 10
-5.0934200987
 20
172.8492589822
 30
0.0
 10
-5.6885396008
 20
172.2994180685
 30
0.0
 10
-6.326664768
 20
171.8332568895
 30
0.0
 10
-6.8893588199
 20
171.5188219343
 30
0.0
 10
-7.349342876
 20
171.3184712618
 30
0.0
 10
-7.8044986962
 20
171.1557121045
 30
0.0
 10
-8.3769146056
 20
171.0163808437
 30
0.0
 10
-9.0624832876
 20
170.9564270167
 30
0.0
 10
-9.6205675464
 20
170.9993674444
 30
0.0
 10
-10.0475093452
 20
171.089275682
 30
0.0
 10
-10.3555298622
 20
171.1834104079
 30
0.0
 10
-10.6517635528
 20
171.3040622654
 30
0.0
 10
-10.8406462464
 20
171.4018733578
 30
0.0
 10
-10.9324325489
 20
171.4548761341
 30
0.0
  0
SPLINE
  5
3C1
100
AcDbEntity
  8
0
100
AcDbSpline
 62
7
  6
CONTINUOUS
 70
0
 71
3
 72
15
 73
11
 74
0
 42
0.0000001
 43
0.0000001
 44
0.0000000001
 40
0.0
 40
0.0
 40
0.0
 40
0.0
 40
0.1376716612
 40
0.2714917958
 40
0.4010817192
 40
0.5265773236
 40
0.6484606036
 40
0.7674111384
 40
0.8842580465
 40
1.0
 40
1.0
 40
1.0
 40
1.0
 10
-10.8128490349
 20
175.8869191817
 30
0.0
 10
-10.8125890487
 20
175.7658031996
 30
0.0
 10
-10.7997978456
 20
175.5267769715
 30
0.0
 10
-10.7427916614
 20
175.177839169
 30
0.0
 10
-10.6484249583
 20
174.8480992337
 30
0.0
 10
-10.5179790461
 20
174.5422075976
 30
0.0
 10
-10.3530724428
 20
174.264159833
 30
0.0
 10
-10.1557243881
 20
174.0176807451
 30
0.0
 10
-9.9287029349
 20
173.806072373
 30
0.0
 10
-9.7589698453
 20
173.6901458416
 30
0.0
 10
-9.6707965214
 20
173.6392191977
 30
0.0
  0
SPLINE
  5
3C2
100
AcDbEntity
  8
0
100
AcDbSpline
 62
7
  6
CONTINUOUS
 70
0
 71
3
 72
19
 73
15
 74
0
 42
0.0000001
 43
0.0000001
 44
0.0000000001
 40
0.0
 40
0.0
 40
0.0
 40
0.0
 40
0.059922984
 40
0.1208739114
 40
0.1827455823
 40
0.2454042062
 40
0.3724284039
 40
0.5007289102
 40
0.6289286164
 40
0.7556605091
 40
0.8181013592
 40
0.8797212422
 40
0.9404045087
 40
1.0
 40
1.0
 40
1.0
 40
1.0
 10
-15.7114959491
 20
235.8350184809
 30
0.0
 10
-16.4045323856
 20
235.41785743
 30
0.0
 10
-17.7726971862
 20
234.525841336
 30
0.0
 10
-19.743126352
 20
233.0386930717
 30
0.0
 10
-21.6384640293
 20
231.3997049169
 30
0.0
 10
-24.0592637393
 20
229.0155910134
 30
0.0
 10
-26.8254585388
 20
225.717471186
 30
0.0
 10
-29.6502609731
 20
221.3639300523
 30
0.0
 10
-31.9265940607
 20
216.704485886
 30
0.0
 10
-33.3257717987
 20
212.6422590264
 30
0.0
 10
-34.1176795621
 20
209.3487040195
 30
0.0
 10
-34.5418077285
 20
206.8892181809
 30
0.0
 10
-34.7957585562
 20
204.4451409503
 30
0.0
 10
-34.8514670444
 20
202.8208390433
 30
0.0
 10
-34.8497401576
 20
202.0163594845
 30
0.0
  0
SPLINE
  5
3C3
100
AcDbEntity
  8
0
100
AcDbSpline
 62
7
  6
CONTINUOUS
 70
0
 71
3
 72
22
 73
18
 74
0
 42
0.0000001
 43
0.0000001
 44
0.0000000001
 40
0.0
 40
0.0
 40
0.0
 40
0.0
 40
0.1377473376
 40
0.2051312844
 40
0.2714523536
 40
0.3367209462
 40
0.4009592278
 40
0.4641971601
 40
0.5264747287
 40
0.587849022
 40
0.6483946142
 40
0.7081985882
 40
0.7673625141
 40
0.8259983324
 40
0.8842285486
 40
0.9421839023
 40
1.0
 40
1.0
 40
1.0
 40
1.0
 10
-34.8497401576
 20
202.0163594845
 30
0.0
 10
-34.8473234759
 20
200.8905352836
 30
0.0
 10
-34.7582025107
 20
199.2121337001
 30
0.0
 10
-34.4581555987
 20
197.0130660598
 30
0.0
 10
-34.1473989232
 20
195.415824538
 30
0.0
 10
-33.7505867033
 20
193.8643179674
 30
0.0
 10
-33.2687473061
 20
192.3634518729
 30
0.0
 10
-32.7036501043
 20
190.9180858323
 30
0.0
 10
-32.0570227627
 20
189.5330384369
 30
0.0
 10
-31.3308551113
 20
188.2129965877
 30
0.0
 10
-30.5277426732
 20
186.9622067586
 30
0.0
 10
-29.6500586156
 20
185.784967473
 30
0.0
 10
-28.7008474937
 20
184.6850900751
 30
0.0
 10
-27.6832063384
 20
183.6662525621
 30
0.0
 10
-26.6003561413
 20
182.7319931394
 30
0.0
 10
-25.4561718059
 20
181.8852676876
 30
0.0
 10
-24.6543673201
 20
181.3808341556
 30
0.0
 10
-24.2451719016
 20
181.1445045415
 30
0.0
  0
SPLINE
  5
3C4
100
AcDbEntity
  8
0
100
AcDbSpline
 62
7
  6
CONTINUOUS
 70
0
 71
3
 72
15
 73
11
 74
0
 42
0.0000001
 43
0.0000001
 44
0.0000000001
 40
0.0
 40
0.0
 40
0.0
 40
0.0
 40
0.0943305047
 40
0.1950332281
 40
0.3043485485
 40
0.4235311386
 40
0.5531016113
 40
0.6929581298
 40
0.8424250875
 40
1.0
 40
1.0
 40
1.0
 40
1.0
 10
-25.7277965173
 20
245.7707762912
 30
0.0
 10
-25.6882664125
 20
245.7910985622
 30
0.0
 10
-25.6113060249
 20
245.8429299997
 30
0.0
 10
-25.5109994809
 20
245.9465927615
 30
0.0
 10
-25.4241970701
 20
246.0759891584
 30
0.0
 10
-25.3517976912
 20
246.2289577536
 30
0.0
 10
-25.2947207693
 20
246.4033741959
 30
0.0
 10
-25.2536026343
 20
246.5967578757
 30
0.0
 10
-25.2291378018
 20
246.8061653109
 30
0.0
 10
-25.2241113393
 20
246.9509257918
 30
0.0
 10
-25.2242707197
 20
247.0251740124
 30
0.0
  0
SPLINE
  5
3C5
100
AcDbEntity
  8
0
100
AcDbSpline
 62
7
  6
CONTINUOUS
 70
0
 71
3
 72
21
 73
17
 74
0
 42
0.0000001
 43
0.0000001
 44
0.0000000001
 40
0.0
 40
0.0
 40
0.0
 40
0.0
 40
0.1183805574
 40
0.1487627631
 40
0.1794188063
 40
0.2414825417
 40
0.3680131493
 40
0.4321918107
 40
0.4966921543
 40
0.5613072964
 40
0.6258278459
 40
0.7536922434
 40
0.8167163474
 40
0.8788733162
 40
0.9400241134
 40
1.0
 40
1.0
 40
1.0
 40
1.0
 10
-41.7317591082
 20
256.6694756771
 30
0.0
 10
-43.4542316052
 20
255.8743921115
 30
0.0
 10
-45.5391430875
 20
254.6898423693
 30
0.0
 10
-47.8958060497
 20
253.0427950764
 30
0.0
 10
-49.4701003358
 20
251.852939829
 30
0.0
 10
-52.1540207837
 20
249.5813842963
 30
0.0
 10
-54.9600773042
 20
246.63838802
 30
0.0
 10
-57.4704871541
 20
243.4068227826
 30
0.0
 10
-59.2044336264
 20
240.8369966724
 30
0.0
 10
-60.7663594086
 20
238.1528194091
 30
0.0
 10
-62.5979300501
 20
234.4614518208
 30
0.0
 10
-64.0478555353
 20
230.6176400936
 30
0.0
 10
-65.0789856789
 20
226.6930810174
 30
0.0
 10
-65.6322458876
 20
223.7558965446
 30
0.0
 10
-65.964223407
 20
220.8349603425
 30
0.0
 10
-66.0374211916
 20
218.8929127697
 30
0.0
 10
-66.0353580014
 20
217.931764464
 30
0.0
  0
SPLINE
  5
3C6
100
AcDbEntity
  8
0
100
AcDbSpline
 62
7
  6
CONTINUOUS
 70
0
 71
3
 72
22
 73
18
 74
0
 42
0.0000001
 43
0.0000001
 44
0.0000000001
 40
0.0
 40
0.0
 40
0.0
 40
0.0
 40
0.1377504658
 40
0.2051312413
 40
0.271450824
 40
0.3367198219
 40
0.4009593054
 40
0.4641976036
 40
0.5264745408
 40
0.5878488419
 40
0.6483942993
 40
0.7081984977
 40
0.7673625757
 40
0.8259982422
 40
0.8842285968
 40
0.9421837091
 40
1.0
 40
1.0
 40
1.0
 40
1.0
 10
-66.0353580014
 20
217.931764464
 30
0.0
 10
-66.0327188564
 20
216.7023044973
 30
0.0
 10
-65.9354280741
 20
214.8694392711
 30
0.0
 10
-65.6077228154
 20
212.4680148924
 30
0.0
 10
-65.2683928254
 20
210.723815968
 30
0.0
 10
-64.8350484248
 20
209.0295285012
 30
0.0
 10
-64.3088681532
 20
207.3905225251
 30
0.0
 10
-63.6918052948
 20
205.8121152842
 30
0.0
 10
-62.9856017386
 20
204.2996391057
 30
0.0
 10
-62.1926654596
 20
202.8580921343
 30
0.0
 10
-61.3156136148
 20
201.4922096359
 30
0.0
 10
-60.3571488984
 20
200.2066388245
 30
0.0
 10
-59.3206383828
 20
199.0054873062
 30
0.0
 10
-58.2092617249
 20
197.8929707162
 30
0.0
 10
-57.0268313892
 20
196.8726549943
 30
0.0
 10
-55.7773168795
 20
195.9480426637
 30
0.0
 10
-54.9017145616
 20
195.3972069972
 30
0.0
 10
-54.4548693223
 20
195.1391113932
 30
0.0
  0
SPLINE
  5
3C7
100
AcDbEntity
  8
0
100
AcDbSpline
 62
7
  6
CONTINUOUS
 70
0
 71
3
 72
11
 73
7
 74
0
 42
0.0000001
 43
0.0000001
 44
0.0000000001
 40
0.0
 40
0.0
 40
0.0
 40
0.0
 40
0.25479949
 40
0.5055468723
 40
0.7534851295
 40
1.0
 40
1.0
 40
1.0
 40
1.0
 10
-43.7429055557
 20
247.7918182509
 30
0.0
 10
-43.0736158633
 20
248.2583252545
 30
0.0
 10
-41.7076529488
 20
249.130862863
 30
0.0
 10
-39.5696991622
 20
250.2548653739
 30
0.0
 10
-37.3666785408
 20
251.1789038527
 30
0.0
 10
-35.8560726911
 20
251.6608014384
 30
0.0
 10
-35.094191765
 20
251.8670465185
 30
0.0
  0
SPLINE
  5
3C8
100
AcDbEntity
  8
0
100
AcDbSpline
 62
7
  6
CONTINUOUS
 70
0
 71
3
 72
16
 73
12
 74
0
 42
0.0000001
 43
0.0000001
 44
0.0000000001
 40
0.0
 40
0.0
 40
0.0
 40
0.0
 40
0.1311820784
 40
0.2679426603
 40
0.4063273051
 40
0.5425693027
 40
0.6728978526
 40
0.7940037233
 40
0.9034659694
 40
0.9534085166
 40
1.0
 40
1.0
 40
1.0
 40
1.0
 10
-25.2242707197
 20
247.0251740124
 30
0.0
 10
-25.2245399087
 20
247.1505771449
 30
0.0
 10
-25.240844247
 20
247.4068455982
 30
0.0
 10
-25.3064492517
 20
247.7903379466
 30
0.0
 10
-25.4116998752
 20
248.1699595114
 30
0.0
 10
-25.5524376661
 20
248.5313179502
 30
0.0
 10
-25.7235561168
 20
248.8609599844
 30
0.0
 10
-25.9185240182
 20
249.1466540586
 30
0.0
 10
-26.1005780027
 20
249.3453744383
 30
0.0
 10
-26.2527250822
 20
249.4708114746
 30
0.0
 10
-26.329802951
 20
249.521978805
 30
0.0
 10
-26.3683710802
 20
249.5442550401
 30
0.0
  0
SPLINE
  5
3C9
100
AcDbEntity
  8
0
100
AcDbSpline
 62
7
  6
CONTINUOUS
 70
0
 71
3
 72
11
 73
7
 74
0
 42
0.0000001
 43
0.0000001
 44
0.0000000001
 40
0.0
 40
0.0
 40
0.0
 40
0.0
 40
0.2716429248
 40
0.5272962368
 40
0.7690227981
 40
1.0
 40
1.0
 40
1.0
 40
1.0
 10
-26.3683710802
 20
249.5442550401
 30
0.0
 10
-26.4018698683
 20
249.563603318
 30
0.0
 10
-26.4690185254
 20
249.5976724632
 30
0.0
 10
-26.5724378726
 20
249.6346690958
 30
0.0
 10
-26.6744385826
 20
249.6554832522
 30
0.0
 10
-26.7420687476
 20
249.6582520456
 30
0.0
 10
-26.7749277627
 20
249.6567419846
 30
0.0
  0
SPLINE
  5
3CA
100
AcDbEntity
  8
0
100
AcDbSpline
 62
7
  6
CONTINUOUS
 70
0
 71
3
 72
11
 73
7
 74
0
 42
0.0000001
 43
0.0000001
 44
0.0000000001
 40
0.0
 40
0.0
 40
0.0
 40
0.0
 40
0.2412356284
 40
0.488190051
 40
0.7411594735
 40
1.0
 40
1.0
 40
1.0
 40
1.0
 10
-31.7384625998
 20
259.3601022307
 30
0.0
 10
-32.5723108049
 20
259.2959363453
 30
0.0
 10
-34.254349061
 20
259.0827725097
 30
0.0
 10
-36.765632831
 20
258.5234074746
 30
0.0
 10
-39.275395037
 20
257.7250502708
 30
0.0
 10
-40.9170228143
 20
257.0455533438
 30
0.0
 10
-41.7317591082
 20
256.6694756771
 30
0.0
  0
SPLINE
  5
3CB
100
AcDbEntity
  8
0
100
AcDbSpline
 62
7
  6
CONTINUOUS
 70
0
 71
3
 72
13
 73
9
 74
0
 42
0.0000001
 43
0.0000001
 44
0.0000000001
 40
0.0
 40
0.0
 40
0.0
 40
0.0
 40
0.2403528661
 40
0.3629422428
 40
0.4871541538
 40
0.6130058585
 40
0.7404907257
 40
1.0
 40
1.0
 40
1.0
 40
1.0
 10
19.2460909967
 20
228.6977853382
 30
0.0
 10
19.5931601568
 20
227.8247981318
 30
0.0
 10
20.0481941946
 20
226.477772017
 30
0.0
 10
20.5231705338
 20
224.6333840167
 30
0.0
 10
20.8183118115
 20
223.2064295123
 30
0.0
 10
21.0492043264
 20
221.7483524007
 30
0.0
 10
21.2718286242
 20
219.755739412
 30
0.0
 10
21.3387649852
 20
218.2420713507
 30
0.0
 10
21.3409423162
 20
217.2277499252
 30
0.0
  0
SPLINE
  5
3CC
100
AcDbEntity
  8
0
100
AcDbSpline
 62
7
  6
CONTINUOUS
 70
0
 71
3
 72
21
 73
17
 74
0
 42
0.0000001
 43
0.0000001
 44
0.0000000001
 40
0.0
 40
0.0
 40
0.0
 40
0.0
 40
0.0594232176
 40
0.1198821761
 40
0.1812401912
 40
0.2433938428
 40
0.306229076
 40
0.3696064637
 40
0.4333796373
 40
0.4973982428
 40
0.625498161
 40
0.7527145046
 40
0.8156441192
 40
0.8779166788
 40
0.9394064498
 40
1.0
 40
1.0
 40
1.0
 40
1.0
 10
-37.3215654907
 20
201.347211174
 30
0.0
 10
-37.3233550526
 20
202.1808882861
 30
0.0
 10
-37.2687798166
 20
203.8633945161
 30
0.0
 10
-37.019079185
 20
206.395512849
 30
0.0
 10
-36.6016480964
 20
208.9443151702
 30
0.0
 10
-36.0193201037
 20
211.4946683754
 30
0.0
 10
-35.2753270333
 20
214.03213089
 30
0.0
 10
-34.3741116134
 20
216.5421875561
 30
0.0
 10
-33.3206656633
 20
219.0103768052
 30
0.0
 10
-31.7214205999
 20
222.2264021744
 30
0.0
 10
-29.3819628693
 20
226.0595632
 30
0.0
 10
-26.6247874278
 20
229.5852471686
 30
0.0
 10
-24.2021951811
 20
232.1707198704
 30
0.0
 10
-22.2976889592
 20
233.9712934453
 30
0.0
 10
-20.3107804857
 20
235.6296086405
 30
0.0
 10
-18.927463015
 20
236.6419767398
 30
0.0
 10
-18.2252312816
 20
237.1210775634
 30
0.0
  0
SPLINE
  5
3CD
100
AcDbEntity
  8
0
100
AcDbSpline
 62
7
  6
CONTINUOUS
 70
0
 71
3
 72
15
 73
11
 74
0
 42
0.0000001
 43
0.0000001
 44
0.0000000001
 40
0.0
 40
0.0
 40
0.0
 40
0.0
 40
0.0938442093
 40
0.1931367896
 40
0.3009333818
 40
0.4190700164
 40
0.5483879666
 40
0.6889150371
 40
0.8400026197
 40
1.0
 40
1.0
 40
1.0
 40
1.0
 10
-26.9384530786
 20
249.6240222301
 30
0.0
 10
-26.9819634861
 20
249.6080617796
 30
0.0
 10
-27.0675393832
 20
249.5634086094
 30
0.0
 10
-27.1804483752
 20
249.4650389502
 30
0.0
 10
-27.278295245
 20
249.3364946712
 30
0.0
 10
-27.3600622156
 20
249.1805116553
 30
0.0
 10
-27.4246176366
 20
248.9995540054
 30
0.0
 10
-27.4712125611
 20
248.7965462413
 30
0.0
 10
-27.4989583223
 20
248.5749303527
 30
0.0
 10
-27.5046532675
 20
248.4211978418
 30
0.0
 10
-27.5044836544
 20
248.342182656
 30
0.0
  0
SPLINE
  5
3CE
100
AcDbEntity
  8
0
100
AcDbSpline
 62
7
  6
CONTINUOUS
 70
0
 71
3
 72
11
 73
7
 74
0
 42
0.0000001
 43
0.0000001
 44
0.0000000001
 40
0.0
 40
0.0
 40
0.0
 40
0.0
 40
0.2476262956
 40
0.4962274067
 40
0.7467352666
 40
1.0
 40
1.0
 40
1.0
 40
1.0
 10
-35.094191765
 20
251.8670465185
 30
0.0
 10
-34.4690186913
 20
252.0362840807
 30
0.0
 10
-33.2033774966
 20
252.3298836556
 30
0.0
 10
-31.2721657235
 20
252.6323084978
 30
0.0
 10
-29.3095718825
 20
252.7966890915
 30
0.0
 10
-27.9908076233
 20
252.8141005279
 30
0.0
 10
-27.3285296803
 20
252.8002679673
 30
0.0
  0
SPLINE
  5
3CF
100
AcDbEntity
  8
0
100
AcDbSpline
 62
7
  6
CONTINUOUS
 70
0
 71
3
 72
16
 73
12
 74
0
 42
0.0000001
 43
0.0000001
 44
0.0000000001
 40
0.0
 40
0.0
 40
0.0
 40
0.0
 40
0.1210501713
 40
0.2425100144
 40
0.3647746657
 40
0.4882099182
 40
0.5504897631
 40
0.6131915946
 40
0.7399923896
 40
0.8688929367
 40
1.0
 40
1.0
 40
1.0
 40
1.0
 10
-24.2451719016
 20
181.1445045415
 30
0.0
 10
-23.7599582746
 20
180.8642708339
 30
0.0
 10
-22.7621545407
 20
180.3461241352
 30
0.0
 10
-21.1981590053
 20
179.7041426708
 30
0.0
 10
-19.5729674923
 20
179.1996345062
 30
0.0
 10
-18.17804069
 20
178.8964507293
 30
0.0
 10
-17.0408282135
 20
178.7242450738
 30
0.0
 10
-15.8819003155
 20
178.5981959353
 30
0.0
 10
-14.4078008239
 20
178.5304121386
 30
0.0
 10
-12.6166583559
 20
178.5922323351
 30
0.0
 10
-11.4192791039
 20
178.7268259981
 30
0.0
 10
-10.819138699
 20
178.8169931936
 30
0.0
  0
SPLINE
  5
3D0
100
AcDbEntity
  8
0
100
AcDbSpline
 62
7
  6
CONTINUOUS
 70
0
 71
3
 72
21
 73
17
 74
0
 42
0.0000001
 43
0.0000001
 44
0.0000000001
 40
0.0
 40
0.0
 40
0.0
 40
0.0
 40
0.1170635638
 40
0.1471938345
 40
0.1776297575
 40
0.2393501758
 40
0.3655702095
 40
0.4297740563
 40
0.494399405
 40
0.559222197
 40
0.6240136611
 40
0.7525207101
 40
0.8158812324
 40
0.8783564105
 40
0.9397914915
 40
1.0
 40
1.0
 40
1.0
 40
1.0
 10
-5.0340310069
 20
180.3830808076
 30
0.0
 10
-3.3692106306
 20
181.0344237707
 30
0.0
 10
-1.345510098
 20
182.0471745118
 30
0.0
 10
0.9472780287
 20
183.4965194449
 30
0.0
 10
2.485425338
 20
184.5566386831
 30
0.0
 10
5.117456614
 20
186.6089799923
 30
0.0
 10
7.8782482372
 20
189.3166871471
 30
0.0
 10
10.3553589864
 20
192.325338846
 30
0.0
 10
12.0718982032
 20
194.7366118994
 30
0.0
 10
13.6212026702
 20
197.2690647607
 30
0.0
 10
15.4415762136
 20
200.7679616528
 30
0.0
 10
16.8853682332
 20
204.4286830658
 30
0.0
 10
17.9136877041
 20
208.1769387024
 30
0.0
 10
18.4660179795
 20
210.9858575981
 30
0.0
 10
18.797723704
 20
213.780559113
 30
0.0
 10
18.8710906727
 20
215.6391476542
 30
0.0
 10
18.8691169831
 20
216.5586016147
 30
0.0
  0
SPLINE
  5
3D1
100
AcDbEntity
  8
0
100
AcDbSpline
 62
7
  6
CONTINUOUS
 70
0
 71
3
 72
15
 73
11
 74
0
 42
0.0000001
 43
0.0000001
 44
0.0000000001
 40
0.0
 40
0.0
 40
0.0
 40
0.0
 40
0.1157413356
 40
0.2325815635
 40
0.3515378779
 40
0.473442898
 40
0.5989334604
 40
0.728472393
 40
0.8622664842
 40
1.0
 40
1.0
 40
1.0
 40
1.0
 10
-10.9324325489
 20
171.4548761341
 30
0.0
 10
-11.0841609518
 20
171.542492983
 30
0.0
 10
-11.3760929462
 20
171.7421278582
 30
0.0
 10
-11.7669469271
 20
172.106008867
 30
0.0
 10
-12.1063654282
 20
172.5303176865
 30
0.0
 10
-12.3901954304
 20
173.0087445957
 30
0.0
 10
-12.61457762
 20
173.5350792709
 30
0.0
 10
-12.7770261319
 20
174.1023132474
 30
0.0
 10
-12.8751507185
 20
174.7027165567
 30
0.0
 10
-12.8970945064
 20
175.1140712011
 30
0.0
 10
-12.8975420708
 20
175.3225715297
 30
0.0
  0
SPLINE
  5
3D2
100
AcDbEntity
  8
0
100
AcDbSpline
 62
7
  6
CONTINUOUS
 70
0
 71
3
 72
11
 73
7
 74
0
 42
0.0000001
 43
0.0000001
 44
0.0000000001
 40
0.0
 40
0.0
 40
0.0
 40
0.0
 40
0.2319034932
 40
0.4742585764
 40
0.7296647203
 40
1.0
 40
1.0
 40
1.0
 40
1.0
 10
-27.3285296803
 20
252.8002679673
 30
0.0
 10
-27.2506519723
 20
252.7986413872
 30
0.0
 10
-27.0914452052
 20
252.7830945087
 30
0.0
 10
-26.8525219556
 20
252.725492085
 30
0.0
 10
-26.610735371
 20
252.6337706376
 30
0.0
 10
-26.4533621206
 20
252.5528111762
 30
0.0
 10
-26.3747317248
 20
252.50739572
 30
0.0
  0
SPLINE
  5
3D3
100
AcDbEntity
  8
0
100
AcDbSpline
 62
7
  6
CONTINUOUS
 70
0
 71
3
 72
13
 73
9
 74
0
 42
0.0000001
 43
0.0000001
 44
0.0000000001
 40
0.0
 40
0.0
 40
0.0
 40
0.0
 40
0.1044730778
 40
0.2151813059
 40
0.3320504247
 40
0.4549154582
 40
0.7175055462
 40
1.0
 40
1.0
 40
1.0
 40
1.0
 10
-26.3747317248
 20
252.50739572
 30
0.0
 10
-26.292072486
 20
252.4596532787
 30
0.0
 10
-26.1268099656
 20
252.3525056927
 30
0.0
 10
-25.887512586
 20
252.1654772915
 30
0.0
 10
-25.6513730812
 20
251.948762493
 30
0.0
 10
-25.3361035407
 20
251.6147587079
 30
0.0
 10
-24.9619977142
 20
251.1305755536
 30
0.0
 10
-24.7015654547
 20
250.7049469236
 30
0.0
 10
-24.5772817172
 20
250.4787261386
 30
0.0
  0
SPLINE
  5
3D4
100
AcDbEntity
  8
0
100
AcDbSpline
 62
7
  6
CONTINUOUS
 70
0
 71
3
 72
9
 73
5
 74
0
 42
0.0000001
 43
0.0000001
 44
0.0000000001
 40
0.0
 40
0.0
 40
0.0
 40
0.0
 40
0.5052709373
 40
1.0
 40
1.0
 40
1.0
 40
1.0
 10
-22.0949126491
 20
240.0494509184
 30
0.0
 10
-21.9898815778
 20
239.2122638605
 30
0.0
 10
-21.8181671242
 20
237.5506010401
 30
0.0
 10
-21.722086688
 20
235.8827821749
 30
0.0
 10
-21.6945462572
 20
235.0570953958
 30
0.0
  0
SPLINE
  5
3D5
100
AcDbEntity
  8
0
100
AcDbSpline
 62
7
  6
CONTINUOUS
 70
0
 71
3
 72
16
 73
12
 74
0
 42
0.0000001
 43
0.0000001
 44
0.0000000001
 40
0.0
 40
0.0
 40
0.0
 40
0.0
 40
0.1309286244
 40
0.2674167668
 40
0.4055622263
 40
0.5416543073
 40
0.6719695795
 40
0.7932283849
 40
0.9030077242
 40
0.9531642792
 40
1.0
 40
1.0
 40
1.0
 40
1.0
 10
-27.5044836544
 20
248.342182656
 30
0.0
 10
-27.5042161999
 20
248.2175875381
 30
0.0
 10
-27.4881155382
 20
247.9629795464
 30
0.0
 10
-27.4233070253
 20
247.5818822763
 30
0.0
 10
-27.3192961545
 20
247.20442828
 30
0.0
 10
-27.1801445198
 20
246.8447564714
 30
0.0
 10
-27.0108395075
 20
246.5160946091
 30
0.0
 10
-26.8177696655
 20
246.230498697
 30
0.0
 10
-26.6373896357
 20
246.0310735524
 30
0.0
 10
-26.4864630492
 20
245.9044221404
 30
0.0
 10
-26.4099278441
 20
245.8524298219
 30
0.0
 10
-26.371604631
 20
245.829673845
 30
0.0
  0
SPLINE
  5
3D6
100
AcDbEntity
  8
0
100
AcDbSpline
 62
7
  6
CONTINUOUS
 70
0
 71
3
 72
11
 73
7
 74
0
 42
0.0000001
 43
0.0000001
 44
0.0000000001
 40
0.0
 40
0.0
 40
0.0
 40
0.0
 40
0.2758920783
 40
0.5310264732
 40
0.7699388097
 40
1.0
 40
1.0
 40
1.0
 40
1.0
 10
-26.3603832939
 20
245.8231016283
 30
0.0
 10
-26.3168260014
 20
245.797943745
 30
0.0
 10
-26.229375889
 20
245.7553288345
 30
0.0
 10
-26.0937745199
 20
245.7160375112
 30
0.0
 10
-25.9611983992
 20
245.7054456939
 30
0.0
 10
-25.8757245263
 20
245.7180813064
 30
0.0
 10
-25.8352366022
 20
245.7290399562
 30
0.0
  0
SPLINE
  5
3D7
100
AcDbEntity
  8
0
100
AcDbSpline
 62
7
  6
CONTINUOUS
 70
0
 71
3
 72
25
 73
21
 74
0
 42
0.0000001
 43
0.0000001
 44
0.0000000001
 40
0.0
 40
0.0
 40
0.0
 40
0.0
 40
0.026119375
 40
0.0523299516
 40
0.078722475
 40
0.1053800878
 40
0.1597338188
 40
0.2159395153
 40
0.2743029288
 40
0.3349516604
 40
0.3978243105
 40
0.4627115983
 40
0.5292666138
 40
0.5970531171
 40
0.6655629691
 40
0.7342428193
 40
0.8025216376
 40
0.869900021
 40
0.935911739
 40
1.0
 40
1.0
 40
1.0
 40
1.0
 10
-9.6707965214
 20
173.6392191977
 30
0.0
 10
-9.6174599735
 20
173.6084133796
 30
0.0
 10
-9.5077165915
 20
173.5515390737
 30
0.0
 10
-9.3355722801
 20
173.4814047022
 30
0.0
 10
-9.1565475428
 20
173.4267812295
 30
0.0
 10
-8.908447053
 20
173.3744907487
 30
0.0
 10
-8.584126415
 20
173.3495164525
 30
0.0
 10
-8.1856959704
 20
173.3843735664
 30
0.0
 10
-7.7827857619
 20
173.4824310328
 30
0.0
 10
-7.3831602445
 20
173.6417660598
 30
0.0
 10
-6.9942583862
 20
173.8590094104
 30
0.0
 10
-6.6234038432
 20
174.1299609852
 30
0.0
 10
-6.2775726643
 20
174.4494126492
 30
0.0
 10
-5.9632135451
 20
174.8112107035
 30
0.0
 10
-5.6864265889
 20
175.2085833353
 30
0.0
 10
-5.4522430869
 20
175.6337829488
 30
0.0
 10
-5.2653059593
 20
176.0788857799
 30
0.0
 10
-5.1289890607
 20
176.535513438
 30
0.0
 10
-5.0463756365
 20
176.9947771689
 30
0.0
 10
-5.0274169285
 20
177.301876648
 30
0.0
 10
-5.0277413428
 20
177.4530067957
 30
0.0
  0
SPLINE
  5
3D8
100
AcDbEntity
  8
0
100
AcDbSpline
 62
7
  6
CONTINUOUS
 70
0
 71
3
 72
9
 73
5
 74
0
 42
0.0000001
 43
0.0000001
 44
0.0000000001
 40
0.0
 40
0.0
 40
0.0
 40
0.0
 40
0.2526532768
 40
1.0
 40
1.0
 40
1.0
 40
1.0
 10
-21.6945462573
 20
235.0570953958
 30
0.0
 10
-21.4527609052
 20
235.2647670389
 30
0.0
 10
-20.4875359531
 20
236.0770493509
 30
0.0
 10
-19.4880021836
 20
236.8488654259
 30
0.0
 10
-18.7214006989
 20
237.3976698642
 30
0.0
  0
SPLINE
  5
3D9
100
AcDbEntity
  8
0
100
AcDbSpline
 62
7
  6
CONTINUOUS
 70
0
 71
3
 72
10
 73
6
 74
0
 42
0.0000001
 43
0.0000001
 44
0.0000000001
 40
0.0
 40
0.0
 40
0.0
 40
0.0
 40
0.4911228187
 40
0.7440891877
 40
1.0
 40
1.0
 40
1.0
 40
1.0
 10
-32.3379058755
 20
193.0491103114
 30
0.0
 10
-32.3502698923
 20
192.7823485838
 30
0.0
 10
-32.4124557302
 20
192.3789336876
 30
0.0
 10
-32.5710444277
 20
191.8583807154
 30
0.0
 10
-32.6760912959
 20
191.6018284422
 30
0.0
 10
-32.7346724946
 20
191.4756088154
 30
0.0
  0
SPLINE
  5
3DA
100
AcDbEntity
  8
0
100
AcDbSpline
 62
7
  6
CONTINUOUS
 70
0
 71
3
 72
22
 73
18
 74
0
 42
0.0000001
 43
0.0000001
 44
0.0000000001
 40
0.0
 40
0.0
 40
0.0
 40
0.0
 40
0.0578162909
 40
0.1157714032
 40
0.1740017578
 40
0.2326374243
 40
0.2918015023
 40
0.3516057007
 40
0.4121511581
 40
0.4735254592
 40
0.5358023964
 40
0.5990406946
 40
0.6632801781
 40
0.728549176
 40
0.7948687587
 40
0.8622495342
 40
1.0
 40
1.0
 40
1.0
 40
1.0
 10
-25.7410768116
 20
178.5545581032
 30
0.0
 10
-26.1879220509
 20
178.8126537072
 30
0.0
 10
-27.0635243687
 20
179.3634893737
 30
0.0
 10
-28.3130388785
 20
180.2881017043
 30
0.0
 10
-29.4954692142
 20
181.3084174262
 30
0.0
 10
-30.6068458721
 20
182.4209340162
 30
0.0
 10
-31.6433563876
 20
183.6220855345
 30
0.0
 10
-32.6018211041
 20
184.9076563459
 30
0.0
 10
-33.4788729489
 20
186.2735388443
 30
0.0
 10
-34.2718092279
 20
187.7150858158
 30
0.0
 10
-34.978012784
 20
189.2275619942
 30
0.0
 10
-35.5950756424
 20
190.8059692351
 30
0.0
 10
-36.1212559141
 20
192.4449752112
 30
0.0
 10
-36.5546003146
 20
194.139262678
 30
0.0
 10
-36.8939303046
 20
195.8834616024
 30
0.0
 10
-37.2216355633
 20
198.2848859812
 30
0.0
 10
-37.3189263457
 20
200.1177512073
 30
0.0
 10
-37.3215654907
 20
201.347211174
 30
0.0
  0
SPLINE
  5
3DB
100
AcDbEntity
  8
0
100
AcDbSpline
 62
7
  6
CONTINUOUS
 70
0
 71
3
 72
14
 73
10
 74
0
 42
0.0000001
 43
0.0000001
 44
0.0000000001
 40
0.0
 40
0.0
 40
0.0
 40
0.0
 40
0.1330605292
 40
0.2638997663
 40
0.518282967
 40
0.6420034992
 40
0.76344888
 40
0.882726285
 40
1.0
 40
1.0
 40
1.0
 40
1.0
 10
18.8691169831
 20
216.5586016147
 30
0.0
 10
18.867682715
 20
217.2267631632
 30
0.0
 10
18.8246740101
 20
218.5523365029
 30
0.0
 10
18.5770324953
 20
221.1441887002
 30
0.0
 10
18.0867464103
 20
223.6620136828
 30
0.0
 10
17.3477688899
 20
226.0609929982
 30
0.0
 10
16.6823454773
 20
227.767704808
 30
0.0
 10
15.9035112849
 20
229.3897629502
 30
0.0
 10
15.3062258835
 20
230.4182501851
 30
0.0
 10
14.9899264989
 20
230.9149852364
 30
0.0
  0
SPLINE
  5
3DC
100
AcDbEntity
  8
0
100
AcDbSpline
 62
7
  6
CONTINUOUS
 70
0
 71
3
 72
15
 73
11
 74
0
 42
0.0000001
 43
0.0000001
 44
0.0000000001
 40
0.0
 40
0.0
 40
0.0
 40
0.0
 40
0.1196016615
 40
0.2397804821
 40
0.3610939947
 40
0.4840441519
 40
0.6090719832
 40
0.7365756293
 40
0.8668601269
 40
1.0
 40
1.0
 40
1.0
 40
1.0
 10
-66.1149758031
 20
276.3488454441
 30
0.0
 10
-66.6337613952
 20
276.6485169215
 30
0.0
 10
-67.7071033519
 20
277.1936769543
 30
0.0
 10
-69.4010720897
 20
277.8371436926
 30
0.0
 10
-71.1697573411
 20
278.3027787802
 30
0.0
 10
-73.0007329086
 20
278.5879489804
 30
0.0
 10
-74.8818427892
 20
278.6905772677
 30
0.0
 10
-76.8006792316
 20
278.6104172926
 30
0.0
 10
-78.7438340057
 20
278.3478172579
 30
0.0
 10
-80.0327505393
 20
278.0562137587
 30
0.0
 10
-80.6765126676
 20
277.8819407894
 30
0.0
  0
SPLINE
  5
3DD
100
AcDbEntity
  8
0
100
AcDbSpline
 62
7
  6
CONTINUOUS
 70
0
 71
3
 72
15
 73
11
 74
0
 42
0.0000001
 43
0.0000001
 44
0.0000000001
 40
0.0
 40
0.0
 40
0.0
 40
0.0
 40
0.1245698018
 40
0.2491991389
 40
0.3739146459
 40
0.4987444107
 40
0.6237268039
 40
0.7489035821
 40
0.8743124027
 40
1.0
 40
1.0
 40
1.0
 40
1.0
 10
-29.5918314038
 20
260.2831428621
 30
0.0
 10
-30.2378833851
 20
260.4862547002
 30
0.0
 10
-31.5460100967
 20
260.8444023655
 30
0.0
 10
-33.5428701737
 20
261.2342705259
 30
0.0
 10
-35.5644282462
 20
261.4767079262
 30
0.0
 10
-37.6000850882
 20
261.5720826007
 30
0.0
 10
-39.6398048828
 20
261.5217721893
 30
0.0
 10
-41.6740836246
 20
261.3283209197
 30
0.0
 10
-43.6938106338
 20
260.9944422695
 30
0.0
 10
-45.0237231799
 20
260.6812583196
 30
0.0
 10
-45.6832913367
 20
260.5027217876
 30
0.0
  0
SPLINE
  5
3DE
100
AcDbEntity
  8
0
100
AcDbSpline
 62
7
  6
CONTINUOUS
 70
0
 71
3
 72
28
 73
24
 74
0
 42
0.0000001
 43
0.0000001
 44
0.0000000001
 40
0.0
 40
0.0
 40
0.0
 40
0.0
 40
0.0641971862
 40
0.1282300385
 40
0.1601710503
 40
0.1920501836
 40
0.255593107
 40
0.3188415799
 40
0.3817837001
 40
0.4444261868
 40
0.5067944674
 40
0.5689147474
 40
0.630825205
 40
0.6617217348
 40
0.6925828337
 40
0.723411931
 40
0.7542123721
 40
0.8157296379
 40
0.8771795089
 40
0.9078972862
 40
0.9386056914
 40
0.9693056717
 40
1.0
 40
1.0
 40
1.0
 40
1.0
 10
-68.7025143991
 20
240.3849914646
 30
0.0
 10
-69.0997353736
 20
239.5329222221
 30
0.0
 10
-69.8321765006
 20
237.8017990363
 30
0.0
 10
-70.5877057734
 20
235.5789557284
 30
0.0
 10
-71.0914034567
 20
233.7752884033
 30
0.0
 10
-71.5261439229
 20
231.9611719462
 30
0.0
 10
-71.9402847142
 20
229.6723394311
 30
0.0
 10
-72.2244807235
 20
226.9056930854
 30
0.0
 10
-72.290246701
 20
224.1382433907
 30
0.0
 10
-72.133278382
 20
221.3872445431
 30
0.0
 10
-71.749868513
 20
218.6705247553
 30
0.0
 10
-71.1381203336
 20
216.0068820897
 30
0.0
 10
-70.4363627638
 20
213.8458861688
 30
0.0
 10
-69.7611844791
 20
212.1648797614
 30
0.0
 10
-69.1983472232
 20
210.9308244016
 30
0.0
 10
-68.5794490314
 20
209.7254790324
 30
0.0
 10
-67.6810784436
 20
208.1611577742
 30
0.0
 10
-66.4211448684
 20
206.2904197207
 30
0.0
 10
-64.986790689
 20
204.5511547801
 30
0.0
 10
-63.7419739584
 20
203.2509561315
 30
0.0
 10
-62.7615532299
 20
202.3233622047
 30
0.0
 10
-61.7365043325
 20
201.445947625
 30
0.0
 10
-61.0246912176
 20
200.8959991535
 30
0.0
 10
-60.6622227607
 20
200.6301824297
 30
0.0
  0
SPLINE
  5
3DF
100
AcDbEntity
  8
0
100
AcDbSpline
 62
7
  6
CONTINUOUS
 70
0
 71
3
 72
15
 73
11
 74
0
 42
0.0000001
 43
0.0000001
 44
0.0000000001
 40
0.0
 40
0.0
 40
0.0
 40
0.0
 40
0.1283843589
 40
0.2576934233
 40
0.386885678
 40
0.515070708
 40
0.6413283804
 40
0.7647703569
 40
0.8846096913
 40
1.0
 40
1.0
 40
1.0
 40
1.0
 10
-52.1663740051
 20
263.7635077973
 30
0.0
 10
-52.3013455024
 20
264.5755902633
 30
0.0
 10
-52.6156409712
 20
266.1987022647
 30
0.0
 10
-53.2122723261
 20
268.6077293675
 30
0.0
 10
-53.9314172446
 20
270.981810142
 30
0.0
 10
-54.7657831839
 20
273.2971051038
 30
0.0
 10
-55.7069857175
 20
275.5311593923
 30
0.0
 10
-56.7460973142
 20
277.662137385
 30
0.0
 10
-57.8727485558
 20
279.668603308
 30
0.0
 10
-58.6916856091
 20
280.9367456711
 30
0.0
 10
-59.1142093322
 20
281.5441411458
 30
0.0
  0
SPLINE
  5
3E0
100
AcDbEntity
  8
0
100
AcDbSpline
 62
7
  6
CONTINUOUS
 70
0
 71
3
 72
15
 73
11
 74
0
 42
0.0000001
 43
0.0000001
 44
0.0000000001
 40
0.0
 40
0.0
 40
0.0
 40
0.0
 40
0.1283848587
 40
0.2572174413
 40
0.3856865673
 40
0.5131188497
 40
0.6388830465
 40
0.7623706578
 40
0.8829699832
 40
1.0
 40
1.0
 40
1.0
 40
1.0
 10
-57.8982975012
 20
264.1445527884
 30
0.0
 10
-58.0229305871
 20
264.7668407079
 30
0.0
 10
-58.3004912692
 20
266.0081797986
 30
0.0
 10
-58.7975316722
 20
267.8494176483
 30
0.0
 10
-59.37355425
 20
269.6626020295
 30
0.0
 10
-60.023956592
 20
271.4343089543
 30
0.0
 10
-60.7443381262
 20
273.1520866316
 30
0.0
 10
-61.5294916873
 20
274.8039795709
 30
0.0
 10
-62.3738727621
 20
276.3775526456
 30
0.0
 10
-62.9818405299
 20
277.3834246051
 30
0.0
 10
-63.2947994055
 20
277.8699809063
 30
0.0
  0
SPLINE
  5
3E1
100
AcDbEntity
  8
0
100
AcDbSpline
 62
7
  6
CONTINUOUS
 70
0
 71
3
 72
15
 73
11
 74
0
 42
0.0000001
 43
0.0000001
 44
0.0000000001
 40
0.0
 40
0.0
 40
0.0
 40
0.0
 40
0.1228760877
 40
0.2463416975
 40
0.3704136977
 40
0.4951562621
 40
0.6205655803
 40
0.7465791569
 40
0.8731023514
 40
1.0
 40
1.0
 40
1.0
 40
1.0
 10
-45.6838238282
 20
260.5025776441
 30
0.0
 10
-46.6586293828
 20
260.2386918262
 30
0.0
 10
-48.5882459467
 20
259.6136788881
 30
0.0
 10
-51.387100863
 20
258.4055064651
 30
0.0
 10
-54.0775212904
 20
256.9395591283
 30
0.0
 10
-56.6408482973
 20
255.2328250848
 30
0.0
 10
-59.0606618494
 20
253.3026642255
 30
0.0
 10
-61.3209588863
 20
251.1667250246
 30
0.0
 10
-63.4067666651
 20
248.8440543966
 30
0.0
 10
-64.6705154007
 20
247.1851240949
 30
0.0
 10
-65.2689536319
 20
246.3309553147
 30
0.0
  0
SPLINE
  5
3E2
100
AcDbEntity
  8
0
100
AcDbSpline
 62
7
  6
CONTINUOUS
 70
0
 71
3
 72
41
 73
37
 74
0
 42
0.0000001
 43
0.0000001
 44
0.0000000001
 40
0.0
 40
0.0
 40
0.0
 40
0.0
 40
0.029795582
 40
0.0602526019
 40
0.0913358013
 40
0.1230218235
 40
0.1552808228
 40
0.1880629792
 40
0.2213080573
 40
0.2549488165
 40
0.2889120649
 40
0.3231173124
 40
0.3574800953
 40
0.3919136322
 40
0.4263300373
 40
0.4606418693
 40
0.4947629545
 40
0.5286109639
 40
0.5621074785
 40
0.595181139
 40
0.6277672071
 40
0.6598111908
 40
0.6912680224
 40
0.7221059282
 40
0.7523053033
 40
0.7671667586
 40
0.7818684448
 40
0.8107943261
 40
0.8391174685
 40
0.8668821418
 40
0.8805775548
 40
0.8941578711
 40
0.9210062179
 40
0.9475263663
 40
0.9738206852
 40
1.0
 40
1.0
 40
1.0
 40
1.0
 10
-80.6765126676
 20
277.8819407894
 30
0.0
 10
-81.3043462776
 20
277.7119798323
 30
0.0
 10
-82.5604064761
 20
277.316254908
 30
0.0
 10
-84.4120685684
 20
276.572013988
 30
0.0
 10
-86.2405937395
 20
275.6744785791
 30
0.0
 10
-88.0346834191
 20
274.6297180669
 30
0.0
 10
-89.7836275237
 20
273.4437519118
 30
0.0
 10
-91.477262389
 20
272.1240606457
 30
0.0
 10
-93.1050797275
 20
270.6782496053
 30
0.0
 10
-94.6575775433
 20
269.1153634384
 30
0.0
 10
-96.1251630551
 20
267.444535093
 30
0.0
 10
-97.4993346206
 20
265.6761038999
 30
0.0
 10
-98.7714751408
 20
263.820473293
 30
0.0
 10
-99.9342600015
 20
261.8890589178
 30
0.0
 10
-100.9803569684
 20
259.893286575
 30
0.0
 10
-101.9038054799
 20
257.8453533979
 30
0.0
 10
-102.6986967117
 20
255.7574261618
 30
0.0
 10
-103.3605746405
 20
253.6422085444
 30
0.0
 10
-103.8850975529
 20
251.5123108259
 30
0.0
 10
-104.269424638
 20
249.3806389566
 30
0.0
 10
-104.5108695047
 20
247.2599385001
 30
0.0
 10
-104.6082756157
 20
245.1630185809
 30
0.0
 10
-104.5606586666
 20
243.1024387012
 30
0.0
 10
-104.3685799385
 20
241.0906855915
 30
0.0
 10
-104.0872155276
 20
239.4560805432
 30
0.0
 10
-103.7902169127
 20
238.1854159282
 30
0.0
 10
-103.4500007259
 20
236.9544756862
 30
0.0
 10
-102.9390445718
 20
235.4671280376
 30
0.0
 10
-102.1875564652
 20
233.7677928896
 30
0.0
 10
-101.4485591379
 20
232.433046976
 30
0.0
 10
-100.7944687528
 20
231.424704881
 30
0.0
 10
-100.1053550884
 20
230.4645013253
 30
0.0
 10
-99.1687140168
 20
229.3393817815
 30
0.0
 10
-97.9279125703
 20
228.1168430899
 30
0.0
 10
-96.5817496512
 20
227.03459292
 30
0.0
 10
-95.6185188471
 20
226.4102964847
 30
0.0
 10
-95.1236565433
 20
226.1244440633
 30
0.0
  0
SPLINE
  5
3E3
100
AcDbEntity
  8
0
100
AcDbSpline
 62
7
  6
CONTINUOUS
 70
0
 71
3
 72
15
 73
11
 74
0
 42
0.0000001
 43
0.0000001
 44
0.0000000001
 40
0.0
 40
0.0
 40
0.0
 40
0.0
 40
0.1153903087
 40
0.2352296431
 40
0.3586716196
 40
0.484929292
 40
0.613114322
 40
0.7423065767
 40
0.8716156411
 40
1.0
 40
1.0
 40
1.0
 40
1.0
 10
-63.2464291122
 20
280.4255071358
 30
0.0
 10
-62.8239053891
 20
279.8181116611
 30
0.0
 10
-62.0049683358
 20
278.5499692981
 30
0.0
 10
-60.8783170942
 20
276.543503375
 30
0.0
 10
-59.8392054976
 20
274.4125253823
 30
0.0
 10
-58.898002964
 20
272.1784710938
 30
0.0
 10
-58.0636370247
 20
269.863176132
 30
0.0
 10
-57.3444921061
 20
267.4890953576
 30
0.0
 10
-56.7478607513
 20
265.0800682548
 30
0.0
 10
-56.4335652825
 20
263.4569562534
 30
0.0
 10
-56.2985937852
 20
262.6448737874
 30
0.0
  0
SPLINE
  5
3E4
100
AcDbEntity
  8
0
100
AcDbSpline
 62
7
  6
CONTINUOUS
 70
0
 71
3
 72
14
 73
10
 74
0
 42
0.0000001
 43
0.0000001
 44
0.0000000001
 40
0.0
 40
0.0
 40
0.0
 40
0.0
 40
0.1199098775
 40
0.240992002
 40
0.3634130786
 40
0.4873287847
 40
0.6128781236
 40
0.7401728459
 40
1.0
 40
1.0
 40
1.0
 40
1.0
 10
-29.9602019866
 20
260.1323715826
 30
0.0
 10
-30.406560266
 20
260.2295974552
 30
0.0
 10
-31.3103266802
 20
260.3955574849
 30
0.0
 10
-32.6861920835
 20
260.5577592458
 30
0.0
 10
-34.084821698
 20
260.6337295176
 30
0.0
 10
-35.5024222391
 20
260.6234472872
 30
0.0
 10
-36.935431118
 20
260.5269401329
 30
0.0
 10
-38.8739130353
 20
260.2818049087
 30
0.0
 10
-40.3198051818
 20
259.9714987054
 30
0.0
 10
-41.2752863724
 20
259.7128449884
 30
0.0
  0
SPLINE
  5
3E5
100
AcDbEntity
  8
0
100
AcDbSpline
 62
7
  6
CONTINUOUS
 70
0
 71
3
 72
40
 73
36
 74
0
 42
0.0000001
 43
0.0000001
 44
0.0000000001
 40
0.0
 40
0.0
 40
0.0
 40
0.0
 40
0.059697886
 40
0.0904760676
 40
0.1218288567
 40
0.1537293439
 40
0.1861361949
 40
0.2189989417
 40
0.2522582187
 40
0.2858488963
 40
0.3197001674
 40
0.3537378399
 40
0.3878846244
 40
0.4220617445
 40
0.4561890979
 40
0.4901873416
 40
0.5239797258
 40
0.5574923615
 40
0.5906564689
 40
0.623407909
 40
0.6556891147
 40
0.6874495728
 40
0.7186518613
 40
0.7492685682
 40
0.7792822211
 40
0.8086863332
 40
0.8374897946
 40
0.8657150016
 40
0.8796255041
 40
0.8934070748
 40
0.9206054844
 40
0.9473821787
 40
0.9606397496
 40
0.9738221366
 40
1.0
 40
1.0
 40
1.0
 40
1.0
 10
-41.2752863724
 20
259.7128449884
 30
0.0
 10
-42.6938777478
 20
259.3288200642
 30
0.0
 10
-44.8017056022
 20
258.5766833044
 30
0.0
 10
-47.5061575542
 20
257.2768921442
 30
0.0
 10
-49.521173372
 20
256.1334790757
 30
0.0
 10
-51.4897444038
 20
254.8380635521
 30
0.0
 10
-53.4017544903
 20
253.397867997
 30
0.0
 10
-55.2464335599
 20
251.8205405269
 30
0.0
 10
-57.0139485757
 20
250.1150274631
 30
0.0
 10
-58.6943420095
 20
248.2904495069
 30
0.0
 10
-60.2786801098
 20
246.3570711609
 30
0.0
 10
-61.7579964701
 20
244.3252694671
 30
0.0
 10
-63.1244825301
 20
242.2063935817
 30
0.0
 10
-64.3703077175
 20
240.0118649266
 30
0.0
 10
-65.4889828673
 20
237.7539470769
 30
0.0
 10
-66.4739517384
 20
235.4448574129
 30
0.0
 10
-67.3202041258
 20
233.0974568126
 30
0.0
 10
-68.0226713775
 20
230.7244661501
 30
0.0
 10
-68.5778965516
 20
228.3390285038
 30
0.0
 10
-68.9823692383
 20
225.9541427212
 30
0.0
 10
-69.2342850377
 20
223.5830347058
 30
0.0
 10
-69.3318385196
 20
221.2386682057
 30
0.0
 10
-69.2747779136
 20
218.933864451
 30
0.0
 10
-69.0630168376
 20
216.6811864002
 30
0.0
 10
-68.6980400022
 20
214.4929619358
 30
0.0
 10
-68.1812938877
 20
212.3813081396
 30
0.0
 10
-67.5159976859
 20
210.3578869428
 30
0.0
 10
-66.8369737222
 20
208.7465396551
 30
0.0
 10
-66.2228295723
 20
207.5141355685
 30
0.0
 10
-65.5685493505
 20
206.3313797411
 30
0.0
 10
-64.6661364978
 20
204.9257572485
 30
0.0
 10
-63.6481749367
 20
203.6175091679
 30
0.0
 10
-62.7727312159
 20
202.6422485094
 30
0.0
 10
-61.862782514
 20
201.7198632265
 30
0.0
 10
-61.133373275
 20
201.079011899
 30
0.0
 10
-60.6290967887
 20
200.6777364774
 30
0.0
  0
SPLINE
  5
3E6
100
AcDbEntity
  8
0
100
AcDbSpline
 62
7
  6
CONTINUOUS
 70
0
 71
3
 72
28
 73
24
 74
0
 42
0.0000001
 43
0.0000001
 44
0.0000000001
 40
0.0
 40
0.0
 40
0.0
 40
0.0
 40
0.0566496589
 40
0.1151780498
 40
0.1755391874
 40
0.2063771987
 40
0.2376135965
 40
0.3011406052
 40
0.3658553434
 40
0.4314236599
 40
0.4644222941
 40
0.4974941845
 40
0.5305905818
 40
0.5636625404
 40
0.6295209504
 40
0.6947064017
 40
0.7269439992
 40
0.758884507
 40
0.790490185
 40
0.8217267846
 40
0.8829527145
 40
0.9424184453
 40
1.0
 40
1.0
 40
1.0
 40
1.0
 10
-71.5581039366
 20
218.2342672309
 30
0.0
 10
-71.8676525977
 20
219.1643365784
 30
0.0
 10
-72.3753801154
 20
221.0977542848
 30
0.0
 10
-72.7943349458
 20
224.1123515162
 30
0.0
 10
-72.8640571715
 20
226.7077257633
 30
0.0
 10
-72.7552165369
 20
228.8242304842
 30
0.0
 10
-72.5328755565
 20
230.986995219
 30
0.0
 10
-72.0441829689
 20
233.707790447
 30
0.0
 10
-71.1380379627
 20
236.9414670778
 30
0.0
 10
-70.1260955337
 20
239.5839845482
 30
0.0
 10
-69.1686999883
 20
241.6514886904
 30
0.0
 10
-68.3779742904
 20
243.1750420598
 30
0.0
 10
-67.5187414274
 20
244.6624941512
 30
0.0
 10
-66.2879559562
 20
246.58786982
 30
0.0
 10
-64.5979302092
 20
248.8751122067
 30
0.0
 10
-62.7155972521
 20
250.9878821422
 30
0.0
 10
-61.1115895971
 20
252.5502249541
 30
0.0
 10
-59.8699611224
 20
253.6490658914
 30
0.0
 10
-58.589574323
 20
254.6750867396
 30
0.0
 10
-56.8489533929
 20
255.9328468321
 30
0.0
 10
-54.6026910124
 20
257.3087881583
 30
0.0
 10
-51.8085549959
 20
258.6295996765
 30
0.0
 10
-49.8850013565
 20
259.2815021051
 30
0.0
 10
-48.9232641633
 20
259.5418541653
 30
0.0
  0
ELLIPSE
  5
3E7
100
AcDbEntity
  8
0
100
AcDbEllipse
 62
7
  6
CONTINUOUS
 10
-50.0751214215
 20
233.594885123
 30
0.0
 11
3.7795712034
 21
29.519056762
 31
0.0
 40
0.8135004018
 41
0.2378609304
 42
0.4104889934
  0
ELLIPSE
  5
3E8
100
AcDbEntity
  8
0
100
AcDbEllipse
 62
7
  6
CONTINUOUS
 10
-59.5363325637
 20
239.0595049679
 30
0.0
 11
11.4048413344
 21
26.7496257037
 31
0.0
 40
0.7899803766
 41
0.4704986249
 42
0.6431266879
  0
ENDSEC
  0
SECTION
  2
OBJECTS
  0
DICTIONARY
  5
C
100
AcDbDictionary
280
0
281
1
  3
ACAD_GROUP
350
D
  3
ACAD_MLINESTYLE
350
17
  3
ACAD_LAYOUT
350
1A
  3
ACAD_PLOTSETTINGS
350
19
  3
ACAD_PLOTSTYLENAME
350
E
  0
DICTIONARY
  5
D
102
{ACAD_REACTORS
330
C
102
}
100
AcDbDictionary
280
0
281
1
  0
ACDBDICTIONARYWDFLT
  5
E
102
{ACAD_REACTORS
330
C
102
}
100
AcDbDictionary
281
1
  3
Normal
350
F
100
AcDbDictionaryWithDefault
340
F
  0
DICTIONARY
  5
17
102
{ACAD_REACTORS
330
C
102
}
100
AcDbDictionary
280
0
281
1
  3
Standard
350
18
  0
DICTIONARY
  5
19
102
{ACAD_REACTORS
330
C
102
}
100
AcDbDictionary
281
1
  0
DICTIONARY
  5
1A
102
{ACAD_REACTORS
330
C
102
}
100
AcDbDictionary
281
1
  3
Model
350
3E9
  3
Layout1
350
3EA
  0
ACDBPLACEHOLDER
  5
F
102
{ACAD_REACTORS
330
E
102
}
  0
MLINESTYLE
  5
18
102
{ACAD_REACTORS
330
17
102
}
100
AcDbMlineStyle
  2
STANDARD
 70
0
  3

 62
256
 51
90.0
 52
90.0
 71
2
 49
0.5
 62
256
  6
BYLAYER
 49
-0.5
 62
256
  6
BYLAYER
  0
LAYOUT
  5
3E9
102
{ACAD_REACTORS
330
1A
102
}
100
AcDbPlotSettings
  1

  2
none_device
  4
ANSI_C_(22.00_x_17.00_Inches)
  6

 40
0.0
 41
0.0
 42
0.0
 43
0.0
 44
558.8
 45
431.8
 46
0.0
 47
0.0
 48
0.0
 49
0.0
140
0.0
141
0.0
142
1.0
143
1.0
 70
1024
 72
1
 73
0
 74
0
  7

 75
0
147
1.0
148
0.0
149
0.0
100
AcDbLayout
  1
Model
 70
0
 71
0
 10
0.0
 20
0.0
 11
558.8
 21
431.8
 12
0.0
 22
0.0
 32
0.0
 14
0.0
 24
0.0
 34
0.0
 15
0.0
 25
0.0
 35
0.0
146
0.0
 13
0.0
 23
0.0
 33
0.0
 16
1.0
 26
0.0
 36
0.0
 17
0.0
 27
1.0
 37
0.0
 76
0
330
216
345
0
346
0
  0
LAYOUT
  5
3EA
102
{ACAD_REACTORS
330
1A
102
}
100
AcDbPlotSettings
  1

  2
none_device
  4
ANSI_C_(22.00_x_17.00_Inches)
  6

 40
0.0
 41
0.0
 42
0.0
 43
0.0
 44
558.8
 45
431.8
 46
0.0
 47
0.0
 48
0.0
 49
0.0
140
0.0
141
0.0
142
1.0
143
1.0
 70
0
 72
1
 73
0
 74
0
  7

 75
0
147
1.0
148
0.0
149
0.0
100
AcDbLayout
  1
Layout1
 70
0
 71
1
 10
0.0
 20
0.0
 11
558.8
 21
431.8
 12
0.0
 22
0.0
 32
0.0
 14
0.0
 24
0.0
 34
0.0
 15
0.0
 25
0.0
 35
0.0
146
0.0
 13
0.0
 23
0.0
 33
0.0
 16
1.0
 26
0.0
 36
0.0
 17
0.0
 27
1.0
 37
0.0
 76
0
330
217
345
0
346
0
  0
ENDSEC
  0
EOF
