999
DXF file: Y:\3D PRATIKA-KAEDRA_OLGA\TRAVAIL_PHASE_6\CAD3D\PKF32W434_3D-Simplified\PKF32W434_2D-isometric.dxf
999
Pro/ENGINEER 2018260 by Parametric Technology Corporation
  0
SECTION
  2
HEADER
  9
$ACADVER
  1
AC1027
  9
$DWGCODEPAGE
  3
ANSI_1252
  9
$EXTMAX
 10
558.8
 20
431.8
 30
0.0
  9
$EXTMIN
 10
0.0
 20
0.0
 30
0.0
  9
$LIMMIN
 10
0.0
 20
0.0
  9
$LIMMAX
 10
558.8
 20
431.8
  9
$VIEWCTR
 10
279.4
 20
215.9
  9
$VIEWSIZE
 40
431.8
  9
$CLAYER
  8
0
  9
$LTSCALE
 40
30.734
  9
$CELTYPE
  6
BYLAYER
  9
$DIMSCALE
 40
1.0
  9
$DIMASZ
 40
0.1875
  9
$DIMEXO
 40
0.0625
  9
$DIMDLI
 40
21.2344
  9
$DIMEXE
 40
0.125
  9
$DIMCEN
 40
5.0292
  9
$DIMLFAC
 40
1.0
  9
$DIMBLK
  1
_CLOSED
  9
$DIMALT
 70
0
  9
$DIMALTF
 40
0.0393700787
  9
$DIMTXT
 40
0.15625
  9
$DIMTOL
 70
0
  9
$DIMLIM
 70
0
  9
$DIMTFAC
 40
1.0
  9
$DIMGAP
 40
0.625
  9
$DIMDSEP
 70
46
  9
$AUNITS
 70
0
  9
$PDMODE
 70
3
  9
$PDSIZE
 40
0.3125
  9
$HANDSEED
  5
3B6
  9
$TILEMODE
 70
1
  9
$MEASUREMENT
 70
1
  9
$INSUNITS
 70
4
  0
ENDSEC
  0
SECTION
  2
CLASSES
  0
CLASS
  1
ACDBDICTIONARYWDFLT
  2
AcDbDictionaryWithDefault
  3
AutoCAD 2000
 90
0
 91
1
280
0
281
0
  0
CLASS
  1
ACDBPLACEHOLDER
  2
AcDbPlaceHolder
  3
AutoCAD 2000
 90
0
 91
1
280
0
281
0
  0
CLASS
  1
LAYOUT
  2
AcDbLayout
  3
AutoCAD 2000
 90
0
 91
0
280
0
281
0
  0
ENDSEC
  0
SECTION
  2
TABLES
  0
TABLE
  2
VPORT
  5
8
100
AcDbSymbolTable
 70
2
  0
VPORT
  5
1F4
100
AcDbSymbolTableRecord
100
AcDbViewportTableRecord
  2
*ACTIVE
 70
0
 10
0.0
 20
0.0
 11
1.0
 21
1.0
 12
279.4
 22
215.9
 13
0.0
 23
0.0
 14
1.0
 24
1.0
 15
0.0
 25
0.0
 16
0.0
 26
0.0
 36
1.0
 17
0.0
 27
0.0
 37
0.0
 40
431.8
 41
1.2941176471
 42
50.0
 43
0.0
 44
0.0
 50
0.0
 51
0.0
 71
0
 72
100
 73
1
 74
1
 75
0
 76
0
 77
0
 78
0
  0
ENDTAB
  0
TABLE
  2
LTYPE
  5
5
100
AcDbSymbolTable
 70
6
  0
LTYPE
  5
14
100
AcDbSymbolTableRecord
100
AcDbLinetypeTableRecord
  2
BYBLOCK
 70
0
  3

 72
65
 73
0
 40
0.0
  0
LTYPE
  5
15
100
AcDbSymbolTableRecord
100
AcDbLinetypeTableRecord
  2
BYLAYER
 70
0
  3

 72
65
 73
0
 40
0.0
  0
LTYPE
  5
16
100
AcDbSymbolTableRecord
100
AcDbLinetypeTableRecord
  2
CONTINUOUS
 70
64
  3
Solid line
 72
65
 73
0
 40
0.0
  0
LTYPE
  5
1F5
100
AcDbSymbolTableRecord
100
AcDbLinetypeTableRecord
  2
CENTER
 70
64
  3
____ _ ____ _ ____ _ ____ _ ____ _ ____ _ ____
 72
65
 73
4
 40
0.6
 49
0.375
 74
0
 49
-0.075
 74
0
 49
0.075
 74
0
 49
-0.075
 74
0
  0
LTYPE
  5
1F6
100
AcDbSymbolTableRecord
100
AcDbLinetypeTableRecord
  2
HIDDEN
 70
64
  3
- - - - - - - - - - - - - - - - - - - -
 72
65
 73
2
 40
0.2
 49
0.1
 74
0
 49
-0.1
 74
0
  0
LTYPE
  5
1F7
100
AcDbSymbolTableRecord
100
AcDbLinetypeTableRecord
  2
PHANTOM
 70
64
  3
_____ _ _ _____ _ _ _____ _ _ _____
 72
65
 73
6
 40
0.8
 49
0.45
 74
0
 49
-0.05
 74
0
 49
0.1
 74
0
 49
-0.05
 74
0
 49
0.1
 74
0
 49
-0.05
 74
0
  0
LTYPE
  5
1F8
100
AcDbSymbolTableRecord
100
AcDbLinetypeTableRecord
  2
DOT
 70
64
  3
. . . . . . . . . . . . . . . . . . . .
 72
65
 73
2
 40
0.2
 49
0.1
 74
0
 49
-0.1
 74
0
  0
LTYPE
  5
1F9
100
AcDbSymbolTableRecord
100
AcDbLinetypeTableRecord
  2
DASHED
 70
64
  3
- - - - - - - - - - - - - - - - - - - -
 72
65
 73
2
 40
0.2
 49
0.1
 74
0
 49
-0.1
 74
0
  0
ENDTAB
  0
TABLE
  2
LAYER
  5
2
100
AcDbSymbolTable
 70
36
  0
LAYER
  5
10
100
AcDbSymbolTableRecord
100
AcDbLayerTableRecord
  2
0
 70
0
 62
7
  6
CONTINUOUS
370
-3
390
F
  0
LAYER
  5
1FA
100
AcDbSymbolTableRecord
100
AcDbLayerTableRecord
  2
DEFAULT_1
 70
0
 62
7
  6
CENTER
370
-3
390
F
  0
LAYER
  5
1FB
100
AcDbSymbolTableRecord
100
AcDbLayerTableRecord
  2
DEFAULT_2
 70
0
 62
8
  6
HIDDEN
370
-3
390
F
  0
LAYER
  5
1FC
100
AcDbSymbolTableRecord
100
AcDbLayerTableRecord
  2
DEFAULT_3
 70
0
 62
7
  6
PHANTOM
370
-3
390
F
  0
LAYER
  5
1FD
100
AcDbSymbolTableRecord
100
AcDbLayerTableRecord
  2
01_ALL_DTM_PLN
 70
0
 62
7
  6
CONTINUOUS
370
-3
390
F
  0
LAYER
  5
1FE
100
AcDbSymbolTableRecord
100
AcDbLayerTableRecord
  2
01__ASM_ALL_DTM_PLN
 70
0
 62
7
  6
CONTINUOUS
370
-3
390
F
  0
LAYER
  5
1FF
100
AcDbSymbolTableRecord
100
AcDbLayerTableRecord
  2
01__ASM_DEF_DTM_PLN
 70
0
 62
7
  6
CONTINUOUS
370
-3
390
F
  0
LAYER
  5
200
100
AcDbSymbolTableRecord
100
AcDbLayerTableRecord
  2
01___PRT_ALL_DTM_PLN
 70
0
 62
7
  6
CONTINUOUS
370
-3
390
F
  0
LAYER
  5
201
100
AcDbSymbolTableRecord
100
AcDbLayerTableRecord
  2
01___PRT_DEF_DTM_PLN
 70
0
 62
7
  6
CONTINUOUS
370
-3
390
F
  0
LAYER
  5
202
100
AcDbSymbolTableRecord
100
AcDbLayerTableRecord
  2
02_ALL_AXES
 70
0
 62
7
  6
CONTINUOUS
370
-3
390
F
  0
LAYER
  5
203
100
AcDbSymbolTableRecord
100
AcDbLayerTableRecord
  2
02__ASM_ALL_AXES
 70
0
 62
7
  6
CONTINUOUS
370
-3
390
F
  0
LAYER
  5
204
100
AcDbSymbolTableRecord
100
AcDbLayerTableRecord
  2
02___PRT_ALL_AXES
 70
0
 62
7
  6
CONTINUOUS
370
-3
390
F
  0
LAYER
  5
205
100
AcDbSymbolTableRecord
100
AcDbLayerTableRecord
  2
03_ALL_CURVES
 70
0
 62
7
  6
CONTINUOUS
370
-3
390
F
  0
LAYER
  5
206
100
AcDbSymbolTableRecord
100
AcDbLayerTableRecord
  2
03__ASM_ALL_CURVES
 70
0
 62
7
  6
CONTINUOUS
370
-3
390
F
  0
LAYER
  5
207
100
AcDbSymbolTableRecord
100
AcDbLayerTableRecord
  2
03___PRT_ALL_CURVES
 70
0
 62
7
  6
CONTINUOUS
370
-3
390
F
  0
LAYER
  5
208
100
AcDbSymbolTableRecord
100
AcDbLayerTableRecord
  2
04_ALL_DTM_PNT
 70
0
 62
7
  6
CONTINUOUS
370
-3
390
F
  0
LAYER
  5
209
100
AcDbSymbolTableRecord
100
AcDbLayerTableRecord
  2
04__ASM_ALL_DTM_PNT
 70
0
 62
7
  6
CONTINUOUS
370
-3
390
F
  0
LAYER
  5
20A
100
AcDbSymbolTableRecord
100
AcDbLayerTableRecord
  2
04___PRT_ALL_DTM_PNT
 70
0
 62
7
  6
CONTINUOUS
370
-3
390
F
  0
LAYER
  5
20B
100
AcDbSymbolTableRecord
100
AcDbLayerTableRecord
  2
05_ALL_DTM_CSYS
 70
0
 62
7
  6
CONTINUOUS
370
-3
390
F
  0
LAYER
  5
20C
100
AcDbSymbolTableRecord
100
AcDbLayerTableRecord
  2
05__ASM_ALL_DTM_CSYS
 70
0
 62
7
  6
CONTINUOUS
370
-3
390
F
  0
LAYER
  5
20D
100
AcDbSymbolTableRecord
100
AcDbLayerTableRecord
  2
05__ASM_DEF_DTM_CSYS
 70
0
 62
7
  6
CONTINUOUS
370
-3
390
F
  0
LAYER
  5
20E
100
AcDbSymbolTableRecord
100
AcDbLayerTableRecord
  2
05___PRT_ALL_DTM_CSYS
 70
0
 62
7
  6
CONTINUOUS
370
-3
390
F
  0
LAYER
  5
20F
100
AcDbSymbolTableRecord
100
AcDbLayerTableRecord
  2
05___PRT_DEF_DTM_CSYS
 70
0
 62
7
  6
CONTINUOUS
370
-3
390
F
  0
LAYER
  5
210
100
AcDbSymbolTableRecord
100
AcDbLayerTableRecord
  2
06_ALL_SURFS
 70
0
 62
7
  6
CONTINUOUS
370
-3
390
F
  0
LAYER
  5
211
100
AcDbSymbolTableRecord
100
AcDbLayerTableRecord
  2
06__ASM_ALL_SURFS
 70
0
 62
7
  6
CONTINUOUS
370
-3
390
F
  0
LAYER
  5
212
100
AcDbSymbolTableRecord
100
AcDbLayerTableRecord
  2
06___PRT_ALL_SURFS
 70
0
 62
7
  6
CONTINUOUS
370
-3
390
F
  0
LAYER
  5
213
100
AcDbSymbolTableRecord
100
AcDbLayerTableRecord
  2
07__ASM_ALL_SKELETONS
 70
0
 62
7
  6
CONTINUOUS
370
-3
390
F
  0
ENDTAB
  0
TABLE
  2
STYLE
  5
3
100
AcDbSymbolTable
 70
1
  0
STYLE
  5
11
100
AcDbSymbolTableRecord
100
AcDbTextStyleTableRecord
  2
STANDARD
 70
0
 40
0.0
 41
0.8
 50
0.0
 71
0
 42
0.2
  3
txt
  4

  0
STYLE
  5
214
100
AcDbSymbolTableRecord
100
AcDbTextStyleTableRecord
  2
TEXTSTYLE_1
 70
0
 40
0.0
 41
0.8
 50
0.0
 71
0
 42
0.2
  3
gdt
  4

  0
ENDTAB
  0
TABLE
  2
VIEW
  5
6
100
AcDbSymbolTable
 70
0
  0
ENDTAB
  0
TABLE
  2
UCS
  5
7
100
AcDbSymbolTable
 70
0
  0
ENDTAB
  0
TABLE
  2
APPID
  5
9
100
AcDbSymbolTable
 70
1
  0
APPID
  5
215
100
AcDbSymbolTableRecord
100
AcDbRegAppTableRecord
  2
ACAD
 70
0
  0
ENDTAB
  0
TABLE
  2
BLOCK_RECORD
  5
1
100
AcDbSymbolTable
 70
0
  0
BLOCK_RECORD
  5
216
100
AcDbSymbolTableRecord
100
AcDbBlockTableRecord
  2
*Model_Space
  0
BLOCK_RECORD
  5
217
100
AcDbSymbolTableRecord
100
AcDbBlockTableRecord
  2
*Paper_Space
  0
BLOCK_RECORD
  5
218
100
AcDbSymbolTableRecord
100
AcDbBlockTableRecord
  2
_CLOSED
  0
ENDTAB
  0
TABLE
  2
DIMSTYLE
  5
A
100
AcDbSymbolTable
 70
1
100
AcDbDimStyleTable
 71
0
  0
DIMSTYLE
105
219
100
AcDbSymbolTableRecord
100
AcDbDimStyleTableRecord
  2
STANDARD
 70
0
  3

  4

 40
1.0
 41
0.1875
 42
0.0625
 43
0.38
 44
0.125
 45
0.0
 46
0.0
 47
0.01
 48
0.01
140
0.15625
141
0.09
142
0.0
143
25.4
144
1.0
145
0.0
146
1.0
147
0.625
 71
0.0
 72
0.0
 73
1
 74
1
 75
0
 76
0
 77
0
 78
8
 79
2
170
0
171
1
172
0
173
0
174
0
175
0
176
0
177
0
178
0
270
2
179
2
271
2
272
2
273
2
274
2
275
0
280
0
281
0
282
0
283
1
284
8
285
0
286
0
287
3
288
0
340
11
278
46
341
218
342
218
343
218
344
218
  0
ENDTAB
  0
ENDSEC
  0
SECTION
  2
BLOCKS
  0
BLOCK
  5
20
100
AcDbEntity
  8
0
100
AcDbBlockBegin
  2
*Model_Space
 70
0
 10
0.0
 20
0.0
 30
0.0
  3
*Model_Space
  1

  0
ENDBLK
  5
21
100
AcDbEntity
  8
0
100
AcDbBlockEnd
  0
BLOCK
  5
1C
100
AcDbEntity
  8
0
100
AcDbBlockBegin
  2
*Paper_Space
 70
0
 10
0.0
 20
0.0
 30
0.0
  3
*Paper_Space
  1

  0
ENDBLK
  5
1D
100
AcDbEntity
  8
0
100
AcDbBlockEnd
  0
BLOCK
  5
21A
100
AcDbEntity
  8
0
100
AcDbBlockBegin
  2
_CLOSED
 70
64
 10
0.0
 20
0.0
  3
_CLOSED
  1

  0
LINE
  5
21B
100
AcDbEntity
  8
0
  6
BYBLOCK
 62
0
100
AcDbLine
 10
0.0
 20
0.0
 11
-1.0
 21
0.1666666667
  0
LINE
  5
21C
100
AcDbEntity
  8
0
  6
BYBLOCK
 62
0
100
AcDbLine
 10
-1.0
 20
0.1666666667
 11
-1.0
 21
-0.1666666667
  0
LINE
  5
21D
100
AcDbEntity
  8
0
  6
BYBLOCK
 62
0
100
AcDbLine
 10
-1.0
 20
-0.1666666667
 11
0.0
 21
0.0
  0
LINE
  5
21E
100
AcDbEntity
  8
0
  6
BYBLOCK
 62
0
100
AcDbLine
 10
-1.0
 20
0.0
 11
0.0
 21
0.0
  0
ENDBLK
  5
21F
100
AcDbEntity
  8
0
  6
BYBLOCK
 62
0
100
AcDbBlockEnd
  0
ENDSEC
  0
SECTION
  2
ENTITIES
  0
LINE
  5
220
100
AcDbEntity
  8
0
100
AcDbLine
 62
7
  6
CONTINUOUS
 10
110.4953840932
 20
188.5583416116
 11
48.5119108862
 21
171.943331783
  0
LINE
  5
221
100
AcDbEntity
  8
0
100
AcDbLine
 62
7
  6
CONTINUOUS
 10
110.4953840932
 20
195.9130185191
 11
101.3718875856
 21
193.467415259
  0
LINE
  5
222
100
AcDbEntity
  8
0
100
AcDbLine
 62
7
  6
CONTINUOUS
 10
96.956786863
 20
192.2839233037
 11
48.5119108862
 21
179.2980086904
  0
LINE
  5
223
100
AcDbEntity
  8
0
100
AcDbLine
 62
7
  6
CONTINUOUS
 10
45.0111407645
 20
180.6211149933
 11
48.7301491569
 21
181.618015583
  0
LINE
  5
224
100
AcDbEntity
  8
0
100
AcDbLine
 62
7
  6
CONTINUOUS
 10
104.9284981979
 20
196.682291161
 11
108.6475065903
 21
197.6791917507
  0
LINE
  5
225
100
AcDbEntity
  8
0
100
AcDbLine
 62
7
  6
CONTINUOUS
 10
105.5509211235
 20
199.4677220074
 11
103.4118507971
 21
198.8943324786
  0
LINE
  5
226
100
AcDbEntity
  8
0
100
AcDbLine
 62
7
  6
CONTINUOUS
 10
45.6335636901
 20
183.4065458398
 11
41.9145552976
 21
182.40964525
  0
LINE
  5
227
100
AcDbEntity
  8
0
100
AcDbLine
 62
7
  6
CONTINUOUS
 10
36.8617228054
 20
182.3363862536
 11
81.8596605301
 21
194.3983301699
  0
LINE
  5
228
100
AcDbEntity
  8
0
100
AcDbLine
 62
7
  6
CONTINUOUS
 10
105.2920364804
 20
200.6795070156
 11
107.5736577447
 21
201.2911081049
  0
LINE
  5
229
100
AcDbEntity
  8
0
100
AcDbLine
 62
7
  6
CONTINUOUS
 10
35.3848710143
 20
192.4095782838
 11
44.9032244701
 21
194.9610251137
  0
LINE
  5
22A
100
AcDbEntity
  8
0
100
AcDbLine
 62
7
  6
CONTINUOUS
 10
68.953706209
 20
205.5414562224
 11
69.2356249525
 21
205.6170260873
  0
LINE
  5
22B
100
AcDbEntity
  8
0
100
AcDbLine
 62
7
  6
CONTINUOUS
 10
55.9322914923
 20
207.8214988789
 11
55.6147509891
 21
207.7363804061
  0
LINE
  5
22C
100
AcDbEntity
  8
0
100
AcDbLine
 62
7
  6
CONTINUOUS
 10
53.0865263607
 20
209.5250299426
 11
53.3862539356
 21
209.6053735624
  0
LINE
  5
22D
100
AcDbEntity
  8
0
100
AcDbLine
 62
7
  6
CONTINUOUS
 10
30.2094166614
 20
203.9483151121
 11
30.8453708406
 21
204.1187861166
  0
LINE
  5
22E
100
AcDbEntity
  8
0
100
AcDbLine
 62
7
  6
CONTINUOUS
 10
31.1063830959
 20
204.768236025
 11
32.3991453298
 21
205.1147680296
  0
LINE
  5
22F
100
AcDbEntity
  8
0
100
AcDbLine
 62
7
  6
CONTINUOUS
 10
32.0855427432
 20
205.5544225306
 11
30.4870660025
 21
205.1259420764
  0
LINE
  5
230
100
AcDbEntity
  8
0
100
AcDbLine
 62
7
  6
CONTINUOUS
 10
69.3551256479
 20
273.0664716385
 11
71.1426564454
 21
273.7618175268
  0
LINE
  5
231
100
AcDbEntity
  8
0
100
AcDbLine
 62
7
  6
CONTINUOUS
 10
68.3164076646
 20
269.2636028777
 11
68.6000871041
 21
269.3732504457
  0
LINE
  5
232
100
AcDbEntity
  8
0
100
AcDbLine
 62
7
  6
CONTINUOUS
 10
68.2420253938
 20
270.2531198917
 11
66.0880671536
 21
269.4823996986
  0
LINE
  5
233
100
AcDbEntity
  8
0
100
AcDbLine
 62
7
  6
CONTINUOUS
 10
121.6715806567
 20
248.7259097798
 11
118.365795419
 21
247.8397759223
  0
LINE
  5
234
100
AcDbEntity
  8
0
100
AcDbLine
 62
7
  6
CONTINUOUS
 10
-19.0499538449
 20
218.3204870198
 11
-12.6725073903
 21
220.0299965075
  0
LINE
  5
235
100
AcDbEntity
  8
0
100
AcDbLine
 62
7
  6
CONTINUOUS
 10
32.3797846742
 20
205.7910842591
 11
31.3760909331
 21
205.8165514688
  0
LINE
  5
236
100
AcDbEntity
  8
0
100
AcDbLine
 62
7
  6
CONTINUOUS
 10
69.855439835
 20
196.0795644725
 11
97.5908335918
 21
192.1951227779
  0
LINE
  5
237
100
AcDbEntity
  8
0
100
AcDbLine
 62
7
  6
CONTINUOUS
 10
-5.9699844545
 20
230.638933486
 11
-6.2718219366
 21
230.5044180246
  0
LINE
  5
238
100
AcDbEntity
  8
0
100
AcDbLine
 62
7
  6
CONTINUOUS
 10
-5.8247928988
 20
230.1270951259
 11
-5.926365975
 21
230.0818285503
  0
LINE
  5
239
100
AcDbEntity
  8
0
100
AcDbLine
 62
7
  6
CONTINUOUS
 10
-3.8241774924
 20
230.5831988744
 11
-3.5223400102
 21
230.7177143358
  0
LINE
  5
23A
100
AcDbEntity
  8
0
100
AcDbLine
 62
7
  6
CONTINUOUS
 10
-3.969369048
 20
229.9918356984
 11
-3.9362920965
 21
230.0065766158
  0
LINE
  5
23B
100
AcDbEntity
  8
0
100
AcDbLine
 62
7
  6
CONTINUOUS
 10
48.2860838854
 20
243.6314536786
 11
47.9863563105
 21
243.5511100588
  0
LINE
  5
23C
100
AcDbEntity
  8
0
100
AcDbLine
 62
7
  6
CONTINUOUS
 10
-8.1479480184
 20
228.8983106061
 11
-7.5119938392
 21
229.0687816105
  0
LINE
  5
23D
100
AcDbEntity
  8
0
100
AcDbLine
 62
7
  6
CONTINUOUS
 10
-4.0295265594
 20
230.0022760581
 11
-3.934635646
 21
230.0277120878
  0
LINE
  5
23E
100
AcDbEntity
  8
0
100
AcDbLine
 62
7
  6
CONTINUOUS
 10
-7.2509815839
 20
229.718231519
 11
-5.6525048433
 21
230.1467119733
  0
LINE
  5
23F
100
AcDbEntity
  8
0
100
AcDbLine
 62
7
  6
CONTINUOUS
 10
-3.5223400102
 20
230.7177143358
 11
-1.9238632695
 21
231.14619479
  0
LINE
  5
240
100
AcDbEntity
  8
0
100
AcDbLine
 62
7
  6
CONTINUOUS
 10
-2.5431803629
 20
231.5039008414
 11
-4.1416571036
 21
231.0754203871
  0
LINE
  5
241
100
AcDbEntity
  8
0
100
AcDbLine
 62
7
  6
CONTINUOUS
 10
-6.2718219366
 20
230.5044180246
 11
-7.8702986773
 21
230.0759375703
  0
LINE
  5
242
100
AcDbEntity
  8
0
100
AcDbLine
 62
7
  6
CONTINUOUS
 10
70.6967638382
 20
262.4812429455
 11
70.464235493
 21
262.4189124477
  0
LINE
  5
243
100
AcDbEntity
  8
0
100
AcDbLine
 62
7
  6
CONTINUOUS
 10
-5.6525048433
 20
230.1467119733
 11
-5.2238841785
 21
230.207999823
  0
LINE
  5
244
100
AcDbEntity
  8
0
100
AcDbLine
 62
7
  6
CONTINUOUS
 10
-4.573225506
 20
230.4445452718
 11
-4.7174631239
 21
230.4239209432
  0
LINE
  5
245
100
AcDbEntity
  8
0
100
AcDbLine
 62
7
  6
CONTINUOUS
 10
-4.1416571036
 20
231.0754203871
 11
-4.5702777683
 21
231.0141325374
  0
LINE
  5
246
100
AcDbEntity
  8
0
100
AcDbLine
 62
7
  6
CONTINUOUS
 10
31.3760909331
 20
205.8165514688
 11
32.3826918416
 21
205.689529614
  0
LINE
  5
247
100
AcDbEntity
  8
0
100
AcDbLine
 62
7
  6
CONTINUOUS
 10
93.4643551759
 20
196.8079286291
 11
92.914136918
 21
196.8849886779
  0
LINE
  5
248
100
AcDbEntity
  8
0
100
AcDbLine
 62
7
  6
CONTINUOUS
 10
82.5309474463
 20
198.3391917629
 11
65.7289614034
 21
200.6923704278
  0
LINE
  5
249
100
AcDbEntity
  8
0
100
AcDbLine
 62
7
  6
CONTINUOUS
 10
95.1689980519
 20
199.7733496784
 11
101.3155950998
 21
198.9124966448
  0
LINE
  5
24A
100
AcDbEntity
  8
0
100
AcDbLine
 62
7
  6
CONTINUOUS
 10
84.4444323052
 20
201.49212769
 11
95.1358105997
 21
199.9947616896
  0
LINE
  5
24B
100
AcDbEntity
  8
0
100
AcDbLine
 62
7
  6
CONTINUOUS
 10
100.9209347656
 20
201.5454959403
 11
79.3954240643
 21
204.5602211682
  0
LINE
  5
24C
100
AcDbEntity
  8
0
100
AcDbLine
 62
7
  6
CONTINUOUS
 10
90.5699226036
 20
206.4689959734
 11
75.3403052041
 21
208.6019586903
  0
LINE
  5
24D
100
AcDbEntity
  8
0
100
AcDbLine
 62
7
  6
CONTINUOUS
 10
-6.3931258174
 20
210.2866578478
 11
3.9800774859
 21
208.7414621779
  0
LINE
  5
24E
100
AcDbEntity
  8
0
100
AcDbLine
 62
7
  6
CONTINUOUS
 10
3.9800774859
 20
217.9348083122
 11
-6.3931258174
 21
219.4800039821
  0
LINE
  5
24F
100
AcDbEntity
  8
0
100
AcDbLine
 62
7
  6
CONTINUOUS
 10
-6.3300354332
 20
219.4959242425
 11
3.9283674021
 21
217.9678291995
  0
LINE
  5
250
100
AcDbEntity
  8
0
100
AcDbLine
 62
7
  6
CONTINUOUS
 10
69.2417298324
 20
205.6294038552
 11
69.1543734002
 21
205.643775092
  0
LINE
  5
251
100
AcDbEntity
  8
0
100
AcDbLine
 62
7
  6
CONTINUOUS
 10
60.5807802735
 20
202.6223788454
 11
88.0527621093
 21
197.2617072477
  0
LINE
  5
252
100
AcDbEntity
  8
0
100
AcDbLine
 62
7
  6
CONTINUOUS
 10
38.0909470198
 20
172.7207356957
 11
-21.0256846199
 21
206.8654042339
  0
LINE
  5
253
100
AcDbEntity
  8
0
100
AcDbLine
 62
7
  6
CONTINUOUS
 10
72.1374220729
 20
266.3072773312
 11
72.598776243
 21
266.430945846
  0
LINE
  5
254
100
AcDbEntity
  8
0
100
AcDbLine
 62
7
  6
CONTINUOUS
 10
69.70167014
 20
266.2521870361
 11
69.4544676471
 21
266.1859230525
  0
LINE
  5
255
100
AcDbEntity
  8
0
100
AcDbLine
 62
7
  6
CONTINUOUS
 10
71.6992223608
 20
270.2041440558
 11
68.6000487005
 21
269.3733935644
  0
LINE
  5
256
100
AcDbEntity
  8
0
100
AcDbLine
 62
7
  6
CONTINUOUS
 10
69.709521022
 20
270.4531098206
 11
66.0880772697
 21
269.4823619676
  0
LINE
  5
257
100
AcDbEntity
  8
0
100
AcDbLine
 62
7
  6
CONTINUOUS
 10
66.9108361298
 20
269.776296478
 11
69.3813829199
 21
270.4385400903
  0
LINE
  5
258
100
AcDbEntity
  8
0
100
AcDbLine
 62
7
  6
CONTINUOUS
 10
69.2436328892
 20
273.0222518419
 11
68.1624536273
 21
272.732435813
  0
LINE
  5
259
100
AcDbEntity
  8
0
100
AcDbLine
 62
7
  6
CONTINUOUS
 10
71.1426539726
 20
273.7618267511
 11
76.9874368441
 21
275.3285528448
  0
LINE
  5
25A
100
AcDbEntity
  8
0
100
AcDbLine
 62
7
  6
CONTINUOUS
 10
-5.9347092882
 20
230.1883912055
 11
-5.8520749284
 21
230.1862944836
  0
LINE
  5
25B
100
AcDbEntity
  8
0
100
AcDbLine
 62
7
  6
CONTINUOUS
 10
-3.8989422034
 20
230.4831423743
 11
-2.8128882001
 21
230.4555853976
  0
LINE
  5
25C
100
AcDbEntity
  8
0
100
AcDbLine
 62
7
  6
CONTINUOUS
 10
-5.8952197434
 20
230.7389899861
 11
-6.9812737467
 21
230.7665469627
  0
LINE
  5
25D
100
AcDbEntity
  8
0
100
AcDbLine
 62
7
  6
CONTINUOUS
 10
-6.9812737467
 20
230.7665469627
 11
-5.9699844545
 21
230.638933486
  0
LINE
  5
25E
100
AcDbEntity
  8
0
100
AcDbLine
 62
7
  6
CONTINUOUS
 10
-2.8128882001
 20
230.4555853976
 11
-3.8241774924
 21
230.5831988744
  0
LINE
  5
25F
100
AcDbEntity
  8
0
100
AcDbLine
 62
7
  6
CONTINUOUS
 10
31.7390161149
 20
228.1747361749
 11
24.2505304186
 21
229.2235260414
  0
LINE
  5
260
100
AcDbEntity
  8
0
100
AcDbLine
 62
7
  6
CONTINUOUS
 10
4.4526097285
 20
224.3250636662
 11
-6.3300354332
 21
225.9312499128
  0
LINE
  5
261
100
AcDbEntity
  8
0
100
AcDbLine
 62
7
  6
CONTINUOUS
 10
32.5044444452
 20
201.4364059872
 11
34.1441176899
 21
200.9221791799
  0
LINE
  5
262
100
AcDbEntity
  8
0
100
AcDbLine
 62
7
  6
CONTINUOUS
 10
38.0909470198
 20
180.0754126032
 11
-21.0256846199
 21
214.2200811414
  0
LINE
  5
263
100
AcDbEntity
  8
0
100
AcDbLine
 62
7
  6
CONTINUOUS
 10
-17.9265109596
 20
215.0508316328
 11
-15.3929410322
 21
213.5874886955
  0
LINE
  5
264
100
AcDbEntity
  8
0
100
AcDbLine
 62
7
  6
CONTINUOUS
 10
-10.8474863303
 20
214.8059227496
 11
-13.3810562577
 21
216.2692656869
  0
LINE
  5
265
100
AcDbEntity
  8
0
100
AcDbLine
 62
7
  6
CONTINUOUS
 10
27.4593114793
 20
187.9379456424
 11
36.8617228054
 21
182.3363862536
  0
LINE
  5
266
100
AcDbEntity
  8
0
100
AcDbLine
 62
7
  6
CONTINUOUS
 10
-8.5513650209
 20
211.749695419
 11
-6.3931258174
 21
210.2866578478
  0
LINE
  5
267
100
AcDbEntity
  8
0
100
AcDbLine
 62
7
  6
CONTINUOUS
 10
-22.3273372992
 20
215.8815821242
 11
-22.3273372992
 21
208.5269052168
  0
LINE
  5
268
100
AcDbEntity
  8
0
100
AcDbLine
 62
7
  6
CONTINUOUS
 10
-21.0256846199
 20
214.2200811414
 11
-21.0256846199
 21
206.8654042339
  0
LINE
  5
269
100
AcDbEntity
  8
0
100
AcDbLine
 62
7
  6
CONTINUOUS
 10
-4.5019348184
 20
231.4311473559
 11
-4.8342854235
 21
231.0233792473
  0
LINE
  5
26A
100
AcDbEntity
  8
0
100
AcDbLine
 62
7
  6
CONTINUOUS
 10
-4.8474884552
 20
230.4555793956
 11
-4.571415453
 21
230.7942993022
  0
LINE
  5
26B
100
AcDbEntity
  8
0
100
AcDbLine
 62
7
  6
CONTINUOUS
 10
-5.2922271284
 20
229.7909850045
 11
-4.9598765233
 21
230.1987531131
  0
LINE
  5
26C
100
AcDbEntity
  8
0
100
AcDbLine
 62
7
  6
CONTINUOUS
 10
32.3827676235
 20
205.6868823618
 11
32.0855427432
 21
205.5544225306
  0
LINE
  5
26D
100
AcDbEntity
  8
0
100
AcDbLine
 62
7
  6
CONTINUOUS
 10
61.7337554768
 20
271.3825069841
 11
61.812892769
 21
271.3994626479
  0
LINE
  5
26E
100
AcDbEntity
  8
0
100
AcDbLine
 62
7
  6
CONTINUOUS
 10
61.7427554976
 20
271.3022624092
 11
61.8220214346
 21
271.3165054409
  0
LINE
  5
26F
100
AcDbEntity
  8
0
100
AcDbLine
 62
7
  6
CONTINUOUS
 10
33.3148428485
 20
229.8908280358
 11
31.6833490981
 21
230.1193246061
  0
LINE
  5
270
100
AcDbEntity
  8
0
100
AcDbLine
 62
7
  6
CONTINUOUS
 10
24.250411364
 20
229.2235012109
 11
22.5163736452
 21
229.5181557026
  0
LINE
  5
271
100
AcDbEntity
  8
0
100
AcDbLine
 62
7
  6
CONTINUOUS
 10
22.5193883429
 20
229.5187190356
 11
-10.0497296089
 21
236.134042719
  0
LINE
  5
272
100
AcDbEntity
  8
0
100
AcDbLine
 62
7
  6
CONTINUOUS
 10
-4.9598765233
 20
230.1987531131
 11
-4.6631235405
 21
230.1264999599
  0
LINE
  5
273
100
AcDbEntity
  8
0
100
AcDbLine
 62
7
  6
CONTINUOUS
 10
-4.7174631239
 20
230.4239209432
 11
-4.8474884552
 21
230.4555793956
  0
LINE
  5
274
100
AcDbEntity
  8
0
100
AcDbLine
 62
7
  6
CONTINUOUS
 10
-4.8342854235
 20
231.0233792473
 11
-5.1310384063
 21
231.0956324005
  0
LINE
  5
275
100
AcDbEntity
  8
0
100
AcDbLine
 62
7
  6
CONTINUOUS
 10
-10.0492201506
 20
236.1340553123
 11
-12.1661983053
 21
236.8739919132
  0
LINE
  5
276
100
AcDbEntity
  8
0
100
AcDbLine
 62
7
  6
CONTINUOUS
 10
44.9032244701
 20
194.9610251137
 11
44.6315637301
 21
195.1179313119
  0
LINE
  5
277
100
AcDbEntity
  8
0
100
AcDbLine
 62
7
  6
CONTINUOUS
 10
32.3755749184
 20
205.9381415811
 11
31.8697543447
 21
206.230294066
  0
LINE
  5
278
100
AcDbEntity
  8
0
100
AcDbLine
 62
7
  6
CONTINUOUS
 10
-4.1330715699
 20
229.8203523402
 11
-4.6631235405
 21
230.1264999599
  0
LINE
  5
279
100
AcDbEntity
  8
0
100
AcDbLine
 62
7
  6
CONTINUOUS
 10
-5.9574847157
 20
230.8740989361
 11
-6.4876103351
 21
231.18028956
  0
LINE
  5
27A
100
AcDbEntity
  8
0
100
AcDbLine
 62
7
  6
CONTINUOUS
 10
-3.8366772311
 20
230.3480334242
 11
-3.3065516122
 21
230.0418426136
  0
LINE
  5
27B
100
AcDbEntity
  8
0
100
AcDbLine
 62
7
  6
CONTINUOUS
 10
-5.661090376
 20
231.4017811912
 11
-5.1310384063
 21
231.0956324005
  0
LINE
  5
27C
100
AcDbEntity
  8
0
100
AcDbLine
 62
7
  6
CONTINUOUS
 10
27.4586157473
 20
197.1311219057
 11
35.3933312514
 21
192.4118650273
  0
LINE
  5
27D
100
AcDbEntity
  8
0
100
AcDbLine
 62
7
  6
CONTINUOUS
 10
32.6445297219
 20
200.4820697955
 11
27.4586157473
 21
203.566447576
  0
LINE
  5
27E
100
AcDbEntity
  8
0
100
AcDbLine
 62
7
  6
CONTINUOUS
 10
31.1524410653
 20
206.6145918436
 11
27.6264614645
 21
208.7116726672
  0
LINE
  5
27F
100
AcDbEntity
  8
0
100
AcDbLine
 62
7
  6
CONTINUOUS
 10
27.4586157473
 20
202.1236390476
 11
26.7481341383
 21
202.5462258595
  0
LINE
  5
280
100
AcDbEntity
  8
0
100
AcDbLine
 62
7
  6
CONTINUOUS
 10
25.4794514695
 20
203.3527154589
 11
26.748565399
 21
202.5463063284
  0
LINE
  5
281
100
AcDbEntity
  8
0
100
AcDbLine
 62
7
  6
CONTINUOUS
 10
-12.7062390513
 20
229.2143173045
 11
-11.0406659586
 21
228.1192501326
  0
LINE
  5
282
100
AcDbEntity
  8
0
100
AcDbLine
 62
7
  6
CONTINUOUS
 10
-8.4901977779
 20
220.9585746566
 11
-6.3300354332
 21
219.4959242425
  0
LINE
  5
283
100
AcDbEntity
  8
0
100
AcDbLine
 62
7
  6
CONTINUOUS
 10
-6.3300354332
 20
225.9312499128
 11
-8.490197778
 21
227.3939003268
  0
LINE
  5
284
100
AcDbEntity
  8
0
100
AcDbLine
 62
7
  6
CONTINUOUS
 10
-12.6725073903
 20
220.0299965075
 11
-9.0919901033
 21
217.6028182278
  0
LINE
  5
285
100
AcDbEntity
  8
0
100
AcDbLine
 62
7
  6
CONTINUOUS
 10
3.9800774859
 20
208.7414621779
 11
27.4593114793
 21
192.8252461106
  0
LINE
  5
286
100
AcDbEntity
  8
0
100
AcDbLine
 62
7
  6
CONTINUOUS
 10
-6.3931258174
 20
219.4800039821
 11
-8.5514425757
 21
220.9430941262
  0
LINE
  5
287
100
AcDbEntity
  8
0
100
AcDbLine
 62
7
  6
CONTINUOUS
 10
-9.0317532867
 20
226.7553307392
 11
-11.1439333729
 21
228.1871455349
  0
LINE
  5
288
100
AcDbEntity
  8
0
100
AcDbLine
 62
7
  6
CONTINUOUS
 10
3.9283674021
 20
217.9678291995
 11
27.4586157473
 21
202.019063871
  0
LINE
  5
289
100
AcDbEntity
  8
0
100
AcDbLine
 62
7
  6
CONTINUOUS
 10
-5.8226944471
 20
230.1010917168
 11
-5.8247928988
 21
230.1270951259
  0
LINE
  5
28A
100
AcDbEntity
  8
0
100
AcDbLine
 62
7
  6
CONTINUOUS
 10
-5.926365975
 20
230.0818285503
 11
-5.9699844545
 21
230.638933486
  0
LINE
  5
28B
100
AcDbEntity
  8
0
100
AcDbLine
 62
7
  6
CONTINUOUS
 10
-5.8520749284
 20
230.1862944836
 11
-5.8952197434
 21
230.7389899861
  0
LINE
  5
28C
100
AcDbEntity
  8
0
100
AcDbLine
 62
7
  6
CONTINUOUS
 10
-5.222056141
 20
229.8770792988
 11
-5.2238841785
 21
230.207999823
  0
LINE
  5
28D
100
AcDbEntity
  8
0
100
AcDbLine
 62
7
  6
CONTINUOUS
 10
-13.3810562577
 20
216.2692656869
 11
-13.3810562577
 21
213.1226830706
  0
LINE
  5
28E
100
AcDbEntity
  8
0
100
AcDbLine
 62
7
  6
CONTINUOUS
 10
-12.6725073903
 20
220.0299965075
 11
-12.6725073903
 21
229.192139692
  0
LINE
  5
28F
100
AcDbEntity
  8
0
100
AcDbLine
 62
7
  6
CONTINUOUS
 10
-10.8474863303
 20
213.597259839
 11
-10.8474863303
 21
214.8059227496
  0
LINE
  5
290
100
AcDbEntity
  8
0
100
AcDbLine
 62
7
  6
CONTINUOUS
 10
-9.0919901033
 20
212.5398612968
 11
-9.0919901033
 21
221.7332074312
  0
LINE
  5
291
100
AcDbEntity
  8
0
100
AcDbLine
 62
7
  6
CONTINUOUS
 10
-9.0317532867
 20
221.7493708631
 11
-9.0317532867
 21
228.1846965333
  0
LINE
  5
292
100
AcDbEntity
  8
0
100
AcDbLine
 62
7
  6
CONTINUOUS
 10
-8.5513779464
 20
211.7497041816
 11
-8.5514296407
 21
220.9430853587
  0
LINE
  5
293
100
AcDbEntity
  8
0
100
AcDbLine
 62
7
  6
CONTINUOUS
 10
-8.4901977779
 20
227.3939003268
 11
-8.4901977779
 21
220.9585654212
  0
LINE
  5
294
100
AcDbEntity
  8
0
100
AcDbLine
 62
7
  6
CONTINUOUS
 10
-6.3931258174
 20
210.2866578478
 11
-6.3931258174
 21
219.4800039821
  0
LINE
  5
295
100
AcDbEntity
  8
0
100
AcDbLine
 62
7
  6
CONTINUOUS
 10
-6.3300354332
 20
219.4959168542
 11
-6.3300354332
 21
225.9312499128
  0
LINE
  5
296
100
AcDbEntity
  8
0
100
AcDbLine
 62
7
  6
CONTINUOUS
 10
-4.573225506
 20
230.4445452718
 11
-4.5702777683
 21
231.0141325374
  0
LINE
  5
297
100
AcDbEntity
  8
0
100
AcDbLine
 62
7
  6
CONTINUOUS
 10
-4.7198439369
 20
230.1403101917
 11
-4.7174631239
 21
230.4239209432
  0
LINE
  5
298
100
AcDbEntity
  8
0
100
AcDbLine
 62
7
  6
CONTINUOUS
 10
-4.8474884552
 20
230.4555793956
 11
-4.8342854235
 21
231.0233792473
  0
LINE
  5
299
100
AcDbEntity
  8
0
100
AcDbLine
 62
7
  6
CONTINUOUS
 10
-8.4659988963
 20
230.3658820933
 11
-8.5358326333
 21
228.5276236209
  0
LINE
  5
29A
100
AcDbEntity
  8
0
100
AcDbLine
 62
7
  6
CONTINUOUS
 10
-5.1932772969
 20
229.9123886819
 11
-5.1310384063
 21
231.0956324005
  0
LINE
  5
29B
100
AcDbEntity
  8
0
100
AcDbLine
 62
7
  6
CONTINUOUS
 10
-12.1664135638
 20
236.8748243701
 11
-12.7062390566
 21
229.2143098383
  0
LINE
  5
29C
100
AcDbEntity
  8
0
100
AcDbLine
 62
7
  6
CONTINUOUS
 10
-3.8708022792
 20
229.8682847479
 11
-3.8366772311
 21
230.3480334242
  0
LINE
  5
29D
100
AcDbEntity
  8
0
100
AcDbLine
 62
7
  6
CONTINUOUS
 10
-3.9420870185
 20
229.9326363406
 11
-3.8989422034
 21
230.4831423743
  0
LINE
  5
29E
100
AcDbEntity
  8
0
100
AcDbLine
 62
7
  6
CONTINUOUS
 10
-3.8323043769
 20
230.4814515403
 11
-3.8241774924
 21
230.5831988744
  0
LINE
  5
29F
100
AcDbEntity
  8
0
100
AcDbLine
 62
7
  6
CONTINUOUS
 10
-3.9813735757
 20
229.8457134859
 11
-3.969369048
 21
229.9918356984
  0
LINE
  5
2A0
100
AcDbEntity
  8
0
100
AcDbLine
 62
7
  6
CONTINUOUS
 10
-10.0497942974
 20
236.134046889
 11
-11.0406559135
 21
228.1192369824
  0
LINE
  5
2A1
100
AcDbEntity
  8
0
100
AcDbLine
 62
7
  6
CONTINUOUS
 10
-5.2238841785
 20
230.207999823
 11
-5.2922271284
 21
229.7909850045
  0
LINE
  5
2A2
100
AcDbEntity
  8
0
100
AcDbLine
 62
7
  6
CONTINUOUS
 10
-4.5702777683
 20
231.0141325374
 11
-4.5019348184
 21
231.4311473559
  0
LINE
  5
2A3
100
AcDbEntity
  8
0
100
AcDbLine
 62
7
  6
CONTINUOUS
 10
-4.4035608987
 20
229.9765816701
 11
-4.1416571036
 21
231.0754203871
  0
LINE
  5
2A4
100
AcDbEntity
  8
0
100
AcDbLine
 62
7
  6
CONTINUOUS
 10
51.2013959604
 20
268.998025516
 11
20.7936566645
 21
268.1934001422
  0
LINE
  5
2A5
100
AcDbEntity
  8
0
100
AcDbLine
 62
7
  6
CONTINUOUS
 10
-5.8520749284
 20
230.1862944836
 11
-5.8247928988
 21
230.1270951259
  0
LINE
  5
2A6
100
AcDbEntity
  8
0
100
AcDbLine
 62
7
  6
CONTINUOUS
 10
-5.9574847157
 20
230.8740989361
 11
-5.8952197434
 21
230.7389899861
  0
LINE
  5
2A7
100
AcDbEntity
  8
0
100
AcDbLine
 62
7
  6
CONTINUOUS
 10
-3.9420870185
 20
229.9326363406
 11
-3.969369048
 21
229.9918356984
  0
LINE
  5
2A8
100
AcDbEntity
  8
0
100
AcDbLine
 62
7
  6
CONTINUOUS
 10
-3.8366772311
 20
230.3480334242
 11
-3.8989422034
 21
230.4831423743
  0
LINE
  5
2A9
100
AcDbEntity
  8
0
100
AcDbLine
 62
7
  6
CONTINUOUS
 10
-6.1384765707
 20
230.0164445873
 11
-6.2718219366
 21
230.5044180246
  0
LINE
  5
2AA
100
AcDbEntity
  8
0
100
AcDbLine
 62
7
  6
CONTINUOUS
 10
-1.3281630505
 20
230.3658820933
 11
-1.2583293136
 21
228.5276236209
  0
LINE
  5
2AB
100
AcDbEntity
  8
0
100
AcDbLine
 62
7
  6
CONTINUOUS
 10
3.9800774859
 20
208.7414621779
 11
3.9800774859
 21
217.9348083122
  0
LINE
  5
2AC
100
AcDbEntity
  8
0
100
AcDbLine
 62
7
  6
CONTINUOUS
 10
21.5142884735
 20
268.2123738014
 11
18.4982874585
 21
268.3467741068
  0
LINE
  5
2AD
100
AcDbEntity
  8
0
100
AcDbLine
 62
7
  6
CONTINUOUS
 10
83.4292032641
 20
253.91803378
 11
81.7463055343
 21
254.1537296626
  0
LINE
  5
2AE
100
AcDbEntity
  8
0
100
AcDbLine
 62
7
  6
CONTINUOUS
 10
26.7481341383
 20
202.5462258595
 11
24.2505304186
 21
229.2235260414
  0
LINE
  5
2AF
100
AcDbEntity
  8
0
100
AcDbLine
 62
7
  6
CONTINUOUS
 10
108.0218579166
 20
202.5832325825
 11
112.4711148682
 21
200.0134243975
  0
LINE
  5
2B0
100
AcDbEntity
  8
0
100
AcDbLine
 62
7
  6
CONTINUOUS
 10
22.5164645917
 20
229.5181358755
 11
25.4794572109
 21
203.3527046281
  0
LINE
  5
2B1
100
AcDbEntity
  8
0
100
AcDbLine
 62
7
  6
CONTINUOUS
 10
31.6833490981
 20
230.1193246061
 11
32.5044444452
 21
201.4364059872
  0
LINE
  5
2B2
100
AcDbEntity
  8
0
100
AcDbLine
 62
7
  6
CONTINUOUS
 10
34.1441176899
 20
200.9221791799
 11
33.3148428485
 21
229.890828036
  0
LINE
  5
2B3
100
AcDbEntity
  8
0
100
AcDbLine
 62
7
  6
CONTINUOUS
 10
27.4586157473
 20
203.566447576
 11
27.4593114793
 21
187.9379456424
  0
LINE
  5
2B4
100
AcDbEntity
  8
0
100
AcDbLine
 62
7
  6
CONTINUOUS
 10
38.0909470198
 20
172.7207356957
 11
38.0909470198
 21
180.0754126032
  0
LINE
  5
2B5
100
AcDbEntity
  8
0
100
AcDbLine
 62
7
  6
CONTINUOUS
 10
27.4586157473
 20
203.566447576
 11
27.6264614645
 21
208.7116726672
  0
LINE
  5
2B6
100
AcDbEntity
  8
0
100
AcDbLine
 62
7
  6
CONTINUOUS
 10
29.8913657835
 20
205.4158865993
 11
29.8215320465
 21
203.5776281269
  0
LINE
  5
2B7
100
AcDbEntity
  8
0
100
AcDbLine
 62
7
  6
CONTINUOUS
 10
32.2188881091
 20
205.0664490933
 11
32.0855427432
 21
205.5544225306
  0
LINE
  5
2B8
100
AcDbEntity
  8
0
100
AcDbLine
 62
7
  6
CONTINUOUS
 10
32.6445297219
 20
200.4820697955
 11
32.5044444452
 21
201.4364059872
  0
LINE
  5
2B9
100
AcDbEntity
  8
0
100
AcDbLine
 62
7
  6
CONTINUOUS
 10
34.1441176899
 20
200.9221791799
 11
36.8617228054
 21
182.3363862536
  0
LINE
  5
2BA
100
AcDbEntity
  8
0
100
AcDbLine
 62
7
  6
CONTINUOUS
 10
42.0432778578
 20
219.982596241
 11
44.6548269419
 21
194.8944506015
  0
LINE
  5
2BB
100
AcDbEntity
  8
0
100
AcDbLine
 62
7
  6
CONTINUOUS
 10
44.9032244701
 20
194.9610251137
 11
42.3992649993
 21
219.0155962748
  0
LINE
  5
2BC
100
AcDbEntity
  8
0
100
AcDbLine
 62
7
  6
CONTINUOUS
 10
41.9145552976
 20
182.40964525
 11
41.9145552976
 21
180.6319458228
  0
LINE
  5
2BD
100
AcDbEntity
  8
0
100
AcDbLine
 62
7
  6
CONTINUOUS
 10
45.6335636901
 20
180.787958871
 11
45.6335636901
 21
183.4065458398
  0
LINE
  5
2BE
100
AcDbEntity
  8
0
100
AcDbLine
 62
7
  6
CONTINUOUS
 10
48.5119108862
 20
179.2980086904
 11
48.5119108862
 21
171.943331783
  0
LINE
  5
2BF
100
AcDbEntity
  8
0
100
AcDbLine
 62
7
  6
CONTINUOUS
 10
61.8373792258
 20
270.662078937
 11
61.8220214346
 21
270.8623893786
  0
LINE
  5
2C0
100
AcDbEntity
  8
0
100
AcDbLine
 62
7
  6
CONTINUOUS
 10
61.8220214346
 20
272.7016251151
 11
61.8373777978
 21
272.5007555026
  0
LINE
  5
2C1
100
AcDbEntity
  8
0
100
AcDbLine
 62
7
  6
CONTINUOUS
 10
61.8220214346
 20
272.700243319
 11
61.8220214346
 21
270.8611281859
  0
LINE
  5
2C2
100
AcDbEntity
  8
0
100
AcDbLine
 62
7
  6
CONTINUOUS
 10
63.2104509591
 20
271.3555795885
 11
63.2104509591
 21
269.4727188255
  0
LINE
  5
2C3
100
AcDbEntity
  8
0
100
AcDbLine
 62
7
  6
CONTINUOUS
 10
107.8026075322
 20
250.683923766
 11
111.2813035154
 21
248.6746935714
  0
LINE
  5
2C4
100
AcDbEntity
  8
0
100
AcDbLine
 62
7
  6
CONTINUOUS
 10
118.365795419
 20
247.8397759223
 11
117.2952729931
 21
248.4580897941
  0
LINE
  5
2C5
100
AcDbEntity
  8
0
100
AcDbLine
 62
7
  6
CONTINUOUS
 10
65.5860690223
 20
201.645685231
 11
65.7289614034
 21
200.6923704278
  0
LINE
  5
2C6
100
AcDbEntity
  8
0
100
AcDbLine
 62
7
  6
CONTINUOUS
 10
70.2679829103
 20
270.4779062069
 11
70.2679829103
 21
269.8204924741
  0
LINE
  5
2C7
100
AcDbEntity
  8
0
100
AcDbLine
 62
7
  6
CONTINUOUS
 10
72.598776243
 20
268.9435902514
 11
72.598776243
 21
263.4275825709
  0
LINE
  5
2C8
100
AcDbEntity
  8
0
100
AcDbLine
 62
7
  6
CONTINUOUS
 10
93.4558090978
 20
196.8649442841
 11
93.4643551759
 21
196.8079286291
  0
LINE
  5
2C9
100
AcDbEntity
  8
0
100
AcDbLine
 62
7
  6
CONTINUOUS
 10
95.1358105997
 20
199.9947616896
 11
95.5304709338
 21
197.3617623942
  0
LINE
  5
2CA
100
AcDbEntity
  8
0
100
AcDbLine
 62
7
  6
CONTINUOUS
 10
105.5509211235
 20
196.8491350387
 11
105.5509211235
 21
199.4677220074
  0
LINE
  5
2CB
100
AcDbEntity
  8
0
100
AcDbLine
 62
7
  6
CONTINUOUS
 10
107.8026075322
 20
254.3612622198
 11
107.8026075322
 21
250.683923766
  0
LINE
  5
2CC
100
AcDbEntity
  8
0
100
AcDbLine
 62
7
  6
CONTINUOUS
 10
107.4475784602
 20
202.1142222895
 11
107.5736577447
 21
201.2911081049
  0
LINE
  5
2CD
100
AcDbEntity
  8
0
100
AcDbLine
 62
7
  6
CONTINUOUS
 10
101.3155950998
 20
198.9124966448
 11
100.9209347656
 21
201.5454959403
  0
LINE
  5
2CE
100
AcDbEntity
  8
0
100
AcDbLine
 62
7
  6
CONTINUOUS
 10
103.3817108734
 20
199.4663303059
 11
103.3731648109
 21
199.5233458567
  0
LINE
  5
2CF
100
AcDbEntity
  8
0
100
AcDbLine
 62
7
  6
CONTINUOUS
 10
110.4953840932
 20
188.5583416116
 11
110.4953840932
 21
195.9130185191
  0
LINE
  5
2D0
100
AcDbEntity
  8
0
100
AcDbLine
 62
7
  6
CONTINUOUS
 10
111.2813035154
 20
248.6746935714
 11
111.2813035154
 21
250.5133627983
  0
LINE
  5
2D1
100
AcDbEntity
  8
0
100
AcDbLine
 62
7
  6
CONTINUOUS
 10
113.7727675475
 20
198.3519234147
 11
113.7727675475
 21
190.9972465072
  0
LINE
  5
2D2
100
AcDbEntity
  8
0
100
AcDbLine
 62
7
  6
CONTINUOUS
 10
118.365795419
 20
247.8397759223
 11
118.365795419
 21
249.446634756
  0
LINE
  5
2D3
100
AcDbEntity
  8
0
100
AcDbLine
 62
7
  6
CONTINUOUS
 10
121.6715806567
 20
248.7259097798
 11
121.6715806567
 21
250.0004974383
  0
LINE
  5
2D4
100
AcDbEntity
  8
0
100
AcDbLine
 62
7
  6
CONTINUOUS
 10
117.2952729931
 20
248.4580897941
 11
117.1727591779
 21
249.2754478132
  0
LINE
  5
2D5
100
AcDbEntity
  8
0
100
AcDbLine
 62
7
  6
CONTINUOUS
 10
137.598776243
 20
268.9435902514
 11
137.598776243
 21
263.4275825709
  0
LINE
  5
2D6
100
AcDbEntity
  8
0
100
AcDbLine
 62
7
  6
CONTINUOUS
 10
137.7275854171
 20
257.6024336585
 11
137.7275854171
 21
255.7637644317
  0
ARC
  5
2D7
100
AcDbEntity
  8
0
100
AcDbCircle
 62
7
  6
CONTINUOUS
 10
1883.531440494
 20
2968.039152803
 40
3325.4930845153
100
AcDbArc
 50
235.473941103
 51
235.5940493519
  0
ARC
  5
2D8
100
AcDbEntity
  8
0
100
AcDbCircle
 62
7
  6
CONTINUOUS
 10
-1894.0436609372
 20
377.6820939432
 40
1904.6801486649
100
AcDbArc
 50
355.1898948932
 51
355.3817798931
  0
ARC
  5
2D9
100
AcDbEntity
  8
0
100
AcDbCircle
 62
7
  6
CONTINUOUS
 10
-61.1108461765
 20
255.1816099931
 40
62.3881070929
100
AcDbArc
 50
336.018307741
 51
336.1970823424
  0
ARC
  5
2DA
100
AcDbEntity
  8
0
100
AcDbCircle
 62
7
  6
CONTINUOUS
 10
15.1117763951
 20
242.312273213
 40
61.8730368057
100
AcDbArc
 50
10.1688786599
 51
15.6479143989
  0
ARC
  5
2DB
100
AcDbEntity
  8
0
100
AcDbCircle
 62
7
  6
CONTINUOUS
 10
18.7977078408
 20
243.2633859549
 40
61.2743268043
100
AcDbArc
 50
11.8429139211
 51
11.9775790009
  0
ARC
  5
2DC
100
AcDbEntity
  8
0
100
AcDbCircle
 62
7
  6
CONTINUOUS
 10
18.7266009761
 20
243.6523285925
 40
58.0169157452
100
AcDbArc
 50
21.71200559
 51
22.9849097958
  0
ARC
  5
2DD
100
AcDbEntity
  8
0
100
AcDbCircle
 62
7
  6
CONTINUOUS
 10
28.108330463
 20
231.0210996328
 40
38.6145439334
100
AcDbArc
 50
152.4066576205
 51
159.2538613225
  0
ARC
  5
2DE
100
AcDbEntity
  8
0
100
AcDbCircle
 62
7
  6
CONTINUOUS
 10
64.5816034404
 20
228.6011628279
 40
25.4081268118
100
AcDbArc
 50
299.7121388867
 51
305.7108776536
  0
ARC
  5
2DF
100
AcDbEntity
  8
0
100
AcDbCircle
 62
7
  6
CONTINUOUS
 10
51.8405391007
 20
244.9926349834
 40
24.0138640826
100
AcDbArc
 50
87.4260661078
 51
91.5251516181
  0
ARC
  5
2E0
100
AcDbEntity
  8
0
100
AcDbCircle
 62
7
  6
CONTINUOUS
 10
92.413107441
 20
219.6527436095
 40
22.8116423091
100
AcDbArc
 50
258.9803526385
 51
272.6198564137
  0
ARC
  5
2E1
100
AcDbEntity
  8
0
100
AcDbCircle
 62
7
  6
CONTINUOUS
 10
21.3575587269
 20
246.940277784
 40
21.2616071465
100
AcDbArc
 50
91.5197005301
 51
97.589980181
  0
ARC
  5
2E2
100
AcDbEntity
  8
0
100
AcDbCircle
 62
7
  6
CONTINUOUS
 10
92.5418719648
 20
220.6322136758
 40
20.7998303388
100
AcDbArc
 50
262.0591868901
 51
277.1639861771
  0
ARC
  5
2E3
100
AcDbEntity
  8
0
100
AcDbCircle
 62
7
  6
CONTINUOUS
 10
122.5330759956
 20
278.2744638198
 40
19.0265276174
100
AcDbArc
 50
303.0194026275
 51
303.8880909249
  0
ARC
  5
2E4
100
AcDbEntity
  8
0
100
AcDbCircle
 62
7
  6
CONTINUOUS
 10
70.3734164127
 20
259.8557996694
 40
10.7024180647
100
AcDbArc
 50
77.004072279
 51
82.6914299169
  0
ARC
  5
2E5
100
AcDbEntity
  8
0
100
AcDbCircle
 62
7
  6
CONTINUOUS
 10
89.6168200161
 20
241.5045482132
 40
3.7138646671
100
AcDbArc
 50
199.8802936815
 51
205.5473624847
  0
ARC
  5
2E6
100
AcDbEntity
  8
0
100
AcDbCircle
 62
7
  6
CONTINUOUS
 10
81.0881241768
 20
226.5746010306
 40
3.6924623011
100
AcDbArc
 50
201.1958800455
 51
205.6323045673
  0
ARC
  5
2E7
100
AcDbEntity
  8
0
100
AcDbCircle
 62
7
  6
CONTINUOUS
 10
101.7492819125
 20
232.1129376401
 40
3.6924623011
100
AcDbArc
 50
201.1958800455
 51
205.6323045673
  0
ARC
  5
2E8
100
AcDbEntity
  8
0
100
AcDbCircle
 62
7
  6
CONTINUOUS
 10
33.1860358393
 20
202.8620600845
 40
3.6212820567
100
AcDbArc
 50
103.1507602604
 51
104.9832729487
  0
ARC
  5
2E9
100
AcDbEntity
  8
0
100
AcDbCircle
 62
7
  6
CONTINUOUS
 10
-4.6301629289
 20
227.7891186715
 40
2.2932138292
100
AcDbArc
 50
73.2594627768
 51
74.8160381667
  0
ARC
  5
2EA
100
AcDbEntity
  8
0
100
AcDbCircle
 62
7
  6
CONTINUOUS
 10
70.5092229977
 20
263.3923188947
 40
1.0990055055
100
AcDbArc
 50
237.9152175151
 51
239.977803509
  0
ARC
  5
2EB
100
AcDbEntity
  8
0
100
AcDbCircle
 62
7
  6
CONTINUOUS
 10
69.4560340833
 20
265.2238929759
 40
1.0061637288
100
AcDbArc
 50
59.9845056359
 51
61.5535264713
  0
ARC
  5
2EC
100
AcDbEntity
  8
0
100
AcDbCircle
 62
7
  6
CONTINUOUS
 10
-8.4127766746
 20
221.7491434193
 40
0.6189502641
100
AcDbArc
 50
179.9789467982
 51
183.7932560351
  0
ARC
  5
2ED
100
AcDbEntity
  8
0
100
AcDbCircle
 62
7
  6
CONTINUOUS
 10
-8.4730626121
 20
221.7329815683
 40
0.61890148
100
AcDbArc
 50
177.1194984141
 51
183.7489574312
  0
ARC
  5
2EE
100
AcDbEntity
  8
0
100
AcDbCircle
 62
7
  6
CONTINUOUS
 10
-1.823129104
 20
228.5062312258
 40
0.5652031065
100
AcDbArc
 50
354.6291391845
 51
2.1691073724
  0
ARC
  5
2EF
100
AcDbEntity
  8
0
100
AcDbCircle
 62
7
  6
CONTINUOUS
 10
70.3411412534
 20
262.8769094797
 40
0.5492444238
100
AcDbArc
 50
285.0385109945
 51
295.3740175537
  0
ARC
  5
2F0
100
AcDbEntity
  8
0
100
AcDbCircle
 62
7
  6
CONTINUOUS
 10
69.5775618867
 20
265.7279260205
 40
0.5492444238
100
AcDbArc
 50
105.0385109945
 51
115.3740175537
  0
SPLINE
  5
2F1
100
AcDbEntity
  8
0
100
AcDbSpline
 62
7
  6
CONTINUOUS
 70
0
 71
3
 72
11
 73
7
 74
0
 42
0.0000001
 43
0.0000001
 44
0.0000000001
 40
0.0
 40
0.0
 40
0.0
 40
0.0
 40
0.241018736
 40
0.4842115308
 40
0.7358971751
 40
1.0
 40
1.0
 40
1.0
 40
1.0
 10
-1.7456275197
 20
231.112594952
 30
0.0
 10
-1.7572241094
 20
231.1223040652
 30
0.0
 10
-1.7831866794
 20
231.1388609792
 30
0.0
 10
-1.8276699751
 20
231.152957614
 30
0.0
 10
-1.8756467762
 20
231.1558258978
 30
0.0
 10
-1.9078554229
 20
231.1504857811
 30
0.0
 10
-1.9238632695
 20
231.14619479
 30
0.0
  0
SPLINE
  5
2F2
100
AcDbEntity
  8
0
100
AcDbSpline
 62
7
  6
CONTINUOUS
 70
0
 71
3
 72
26
 73
22
 74
0
 42
0.0000001
 43
0.0000001
 44
0.0000000001
 40
0.0
 40
0.0
 40
0.0
 40
0.0
 40
0.0610299083
 40
0.1269639244
 40
0.197034038
 40
0.2701929652
 40
0.3452279066
 40
0.4208288444
 40
0.4956587479
 40
0.568418186
 40
0.6379140002
 40
0.7031369535
 40
0.7633583246
 40
0.8182571694
 40
0.8680913768
 40
0.891414399
 40
0.9139109065
 40
0.9358181521
 40
0.9573691686
 40
0.9786602907
 40
1.0
 40
1.0
 40
1.0
 40
1.0
 10
-2.4104356708
 20
231.4978831331
 30
0.0
 10
-2.5368212179
 20
231.5502908685
 30
0.0
 10
-2.8057470981
 20
231.6450982873
 30
0.0
 10
-3.2337131635
 20
231.7561088127
 30
0.0
 10
-3.6953676148
 20
231.8404582647
 30
0.0
 10
-4.1817547265
 20
231.8967698387
 30
0.0
 10
-4.6830284599
 20
231.9240469649
 30
0.0
 10
-5.1887766135
 20
231.9217681611
 30
0.0
 10
-5.6884282552
 20
231.8899792203
 30
0.0
 10
-6.1716323783
 20
231.8292785211
 30
0.0
 10
-6.6286538048
 20
231.740738775
 30
0.0
 10
-7.0507581255
 20
231.625741517
 30
0.0
 10
-7.4306715052
 20
231.4855682369
 30
0.0
 10
-7.7626665321
 20
231.3208807101
 30
0.0
 10
-8.0011472861
 20
231.1585479504
 30
0.0
 10
-8.1599679071
 20
231.0139682636
 30
0.0
 10
-8.2609770466
 20
230.9001509769
 30
0.0
 10
-8.3447631421
 20
230.7777875144
 30
0.0
 10
-8.4092439009
 20
230.6471213414
 30
0.0
 10
-8.4520358738
 20
230.5090847639
 30
0.0
 10
-8.4641827835
 20
230.4136882825
 30
0.0
 10
-8.4659988963
 20
230.3658820933
 30
0.0
  0
LINE
  5
2F3
100
AcDbEntity
  8
0
100
AcDbLine
 62
7
  6
CONTINUOUS
 10
-7.5286309251
 20
228.5406045547
 11
-7.5020398709
 21
229.3847588793
  0
SPLINE
  5
2F4
100
AcDbEntity
  8
0
100
AcDbSpline
 62
7
  6
CONTINUOUS
 70
0
 71
3
 72
9
 73
5
 74
0
 42
0.0000001
 43
0.0000001
 44
0.0000000001
 40
0.0
 40
0.0
 40
0.0
 40
0.0
 40
0.2590168828
 40
1.0
 40
1.0
 40
1.0
 40
1.0
 10
-4.1330156959
 20
229.820314759
 30
0.0
 10
-4.0940910818
 20
229.8261376476
 30
0.0
 10
-3.9441152142
 20
229.8505467547
 30
0.0
 10
-3.7953509068
 20
229.8827615136
 30
0.0
 10
-3.6865975637
 20
229.9119134435
 30
0.0
  0
SPLINE
  5
2F5
100
AcDbEntity
  8
0
100
AcDbSpline
 62
7
  6
CONTINUOUS
 70
0
 71
3
 72
9
 73
5
 74
0
 42
0.0000001
 43
0.0000001
 44
0.0000000001
 40
0.0
 40
0.0
 40
0.0
 40
0.0
 40
0.5192878938
 40
1.0
 40
1.0
 40
1.0
 40
1.0
 10
-3.6865975637
 20
229.9119134435
 30
0.0
 10
-3.6194028167
 20
229.9299253638
 30
0.0
 10
-3.4910120371
 20
229.9685376697
 30
0.0
 10
-3.3656688798
 20
230.0162793338
 30
0.0
 10
-3.3065635134
 20
230.041848898
 30
0.0
  0
SPLINE
  5
2F6
100
AcDbEntity
  8
0
100
AcDbSpline
 62
7
  6
CONTINUOUS
 70
0
 71
3
 72
12
 73
8
 74
0
 42
0.0000001
 43
0.0000001
 44
0.0000000001
 40
0.0
 40
0.0
 40
0.0
 40
0.0
 40
0.2344666549
 40
0.4880789296
 40
0.6187053667
 40
0.7490045805
 40
1.0
 40
1.0
 40
1.0
 40
1.0
 10
-7.2509815839
 20
229.718231519
 30
0.0
 10
-7.2844109655
 20
229.70927059
 30
0.0
 10
-7.3504218953
 20
229.6762617857
 30
0.0
 10
-7.4162461543
 20
229.6110091291
 30
0.0
 10
-7.4575566793
 20
229.5469719627
 30
0.0
 10
-7.4889976039
 20
229.4780907837
 30
0.0
 10
-7.5008732619
 20
229.4217898765
 30
0.0
 10
-7.5020398709
 20
229.3847588793
 30
0.0
  0
SPLINE
  5
2F7
100
AcDbEntity
  8
0
100
AcDbSpline
 62
7
  6
CONTINUOUS
 70
0
 71
3
 72
16
 73
12
 74
0
 42
0.0000001
 43
0.0000001
 44
0.0000000001
 40
0.0
 40
0.0
 40
0.0
 40
0.0
 40
0.157664922
 40
0.304479409
 40
0.4399942724
 40
0.564696928
 40
0.6801902891
 40
0.7891861244
 40
0.8949526548
 40
0.9473723931
 40
1.0
 40
1.0
 40
1.0
 40
1.0
 10
-2.9393057023
 20
227.120915205
 30
0.0
 10
-2.8199009791
 20
227.1529222957
 30
0.0
 10
-2.5912239161
 20
227.2223227044
 30
0.0
 10
-2.2695809569
 20
227.3481754614
 30
0.0
 10
-1.984070574
 20
227.4920434334
 30
0.0
 10
-1.7373853718
 20
227.6545504032
 30
0.0
 10
-1.5324712428
 20
227.8380392154
 30
0.0
 10
-1.3745282511
 20
228.0456766974
 30
0.0
 10
-1.2909720311
 20
228.2408357024
 30
0.0
 10
-1.2598682916
 20
228.4036975381
 30
0.0
 10
-1.2567628743
 20
228.4863896801
 30
0.0
 10
-1.2583293129
 20
228.5276236032
 30
0.0
  0
SPLINE
  5
2F8
100
AcDbEntity
  8
0
100
AcDbSpline
 62
7
  6
CONTINUOUS
 70
0
 71
3
 72
26
 73
22
 74
0
 42
0.0000001
 43
0.0000001
 44
0.0000000001
 40
0.0
 40
0.0
 40
0.0
 40
0.0
 40
0.0213314047
 40
0.0425701982
 40
0.0639892872
 40
0.085638259
 40
0.1076827683
 40
0.1303365034
 40
0.1781779442
 40
0.2303749426
 40
0.2874775858
 40
0.3494929648
 40
0.416022593
 40
0.4863760935
 40
0.5596581016
 40
0.6348355033
 40
0.7107931542
 40
0.7863837641
 40
0.860474488
 40
0.9319979845
 40
1.0
 40
1.0
 40
1.0
 40
1.0
 10
-8.5358326339
 20
228.5276236035
 30
0.0
 10
-8.5375352411
 20
228.4828052676
 30
0.0
 10
-8.5335803416
 20
228.3929006758
 30
0.0
 10
-8.5056097254
 20
228.2607403385
 30
0.0
 10
-8.4575167589
 20
228.1338414886
 30
0.0
 10
-8.3912666698
 20
228.0135622725
 30
0.0
 10
-8.3086715997
 20
227.9007258721
 30
0.0
 10
-8.1768536831
 20
227.7571657014
 30
0.0
 10
-7.9751436951
 20
227.5940894392
 30
0.0
 10
-7.6898733074
 20
227.4257858359
 30
0.0
 10
-7.360239187
 20
227.2789915499
 30
0.0
 10
-6.9901230148
 20
227.1535815118
 30
0.0
 10
-6.5845069467
 20
227.0503044135
 30
0.0
 10
-6.1496192614
 20
226.9703079618
 30
0.0
 10
-5.6926608506
 20
226.9146897488
 30
0.0
 10
-5.2215465823
 20
226.8843031051
 30
0.0
 10
-4.74462927
 20
226.8796377329
 30
0.0
 10
-4.2704432201
 20
226.9007707404
 30
0.0
 10
-3.8074241313
 20
226.9473579281
 30
0.0
 10
-3.3637136181
 20
227.0186643266
 30
0.0
 10
-3.0774088084
 20
227.0838959102
 30
0.0
 10
-2.9393057023
 20
227.120915205
 30
0.0
  0
SPLINE
  5
2F9
100
AcDbEntity
  8
0
100
AcDbSpline
 62
7
  6
CONTINUOUS
 70
0
 71
3
 72
15
 73
11
 74
0
 42
0.0000001
 43
0.0000001
 44
0.0000000001
 40
0.0
 40
0.0
 40
0.0
 40
0.0
 40
0.1203286417
 40
0.2487402757
 40
0.3819880433
 40
0.5165808123
 40
0.6489687993
 40
0.775704718
 40
0.8936132624
 40
1.0
 40
1.0
 40
1.0
 40
1.0
 10
-2.8875002541
 20
229.1841945886
 30
0.0
 10
-3.0690901735
 20
229.1355184151
 30
0.0
 10
-3.4495165608
 20
229.0532497696
 30
0.0
 10
-4.0415627356
 20
228.9739537526
 30
0.0
 10
-4.6600441683
 20
228.9363072951
 30
0.0
 10
-5.2858312181
 20
228.9415383385
 30
0.0
 10
-5.8996170739
 20
228.9894649003
 30
0.0
 10
-6.482533686
 20
229.07856752
 30
0.0
 10
-7.0166348251
 20
229.2059617855
 30
0.0
 10
-7.3487929695
 20
229.3203865162
 30
0.0
 10
-7.5020398709
 20
229.3847588793
 30
0.0
  0
SPLINE
  5
2FA
100
AcDbEntity
  8
0
100
AcDbSpline
 62
7
  6
CONTINUOUS
 70
0
 71
3
 72
22
 73
18
 74
0
 42
0.0000001
 43
0.0000001
 44
0.0000000001
 40
0.0
 40
0.0
 40
0.0
 40
0.0
 40
0.0591862557
 40
0.113083191
 40
0.1624987497
 40
0.2087016298
 40
0.2533260883
 40
0.2982232729
 40
0.3452078666
 40
0.3958108696
 40
0.4511669134
 40
0.5120134843
 40
0.5787614426
 40
0.6515621118
 40
0.7303552502
 40
0.8149385146
 40
1.0
 40
1.0
 40
1.0
 40
1.0
 10
-1.9238632695
 20
231.14619479
 30
0.0
 10
-1.8856711732
 20
231.113341418
 30
0.0
 10
-1.8160226284
 20
231.0464780909
 30
0.0
 10
-1.7301005035
 20
230.9374277365
 30
0.0
 10
-1.6687607905
 20
230.8251128715
 30
0.0
 10
-1.6329534453
 20
230.7103151426
 30
0.0
 10
-1.6234802907
 20
230.5941800864
 30
0.0
 10
-1.6406649181
 20
230.4782807959
 30
0.0
 10
-1.6839926555
 20
230.3641130783
 30
0.0
 10
-1.7525532122
 20
230.2526812951
 30
0.0
 10
-1.8454556162
 20
230.1446661641
 30
0.0
 10
-1.9618276483
 20
230.0406402434
 30
0.0
 10
-2.1007767311
 20
229.9412278096
 30
0.0
 10
-2.2612698708
 20
229.8470980804
 30
0.0
 10
-2.4421092571
 20
229.7588928082
 30
0.0
 10
-2.7168407241
 20
229.6467414751
 30
0.0
 10
-2.9367181811
 20
229.5789817988
 30
0.0
 10
-3.0891283689
 20
229.5391810972
 30
0.0
  0
SPLINE
  5
2FB
100
AcDbEntity
  8
0
100
AcDbSpline
 62
7
  6
CONTINUOUS
 70
0
 71
3
 72
15
 73
11
 74
0
 42
0.0000001
 43
0.0000001
 44
0.0000000001
 40
0.0
 40
0.0
 40
0.0
 40
0.0
 40
0.1205728177
 40
0.2489056039
 40
0.381869958
 40
0.5161068773
 40
0.6482071997
 40
0.7748576287
 40
0.8929937519
 40
1.0
 40
1.0
 40
1.0
 40
1.0
 10
-3.0891283689
 20
229.5391810972
 30
0.0
 10
-3.2534131482
 20
229.4962794411
 30
0.0
 10
-3.5968600258
 20
229.4237643241
 30
0.0
 10
-4.1305137136
 20
229.3539030509
 30
0.0
 10
-4.6869894294
 20
229.3208636791
 30
0.0
 10
-5.2497053009
 20
229.3256862102
 30
0.0
 10
-5.8019316944
 20
229.3682143567
 30
0.0
 10
-6.3273067533
 20
229.447145836
 30
0.0
 10
-6.8102429667
 20
229.5600186513
 30
0.0
 10
-7.1114672371
 20
229.6612841237
 30
0.0
 10
-7.2509815839
 20
229.718231519
 30
0.0
  0
LINE
  5
2FC
100
AcDbEntity
  8
0
100
AcDbLine
 62
7
  6
CONTINUOUS
 10
-8.1213569643
 20
229.7424649306
 11
-8.1479480184
 21
228.8983106061
  0
SPLINE
  5
2FD
100
AcDbEntity
  8
0
100
AcDbSpline
 62
7
  6
CONTINUOUS
 70
0
 71
3
 72
12
 73
8
 74
0
 42
0.0000001
 43
0.0000001
 44
0.0000000001
 40
0.0
 40
0.0
 40
0.0
 40
0.0
 40
0.2905429741
 40
0.5479843343
 40
0.7802136125
 40
0.8908237745
 40
1.0
 40
1.0
 40
1.0
 40
1.0
 10
-8.1213569643
 20
229.7424649306
 30
0.0
 10
-8.17632964
 20
229.7880175314
 30
0.0
 10
-8.274506365
 20
229.8811761361
 30
0.0
 10
-8.3879564768
 20
230.0373052133
 30
0.0
 10
-8.4451515048
 20
230.1752700365
 30
0.0
 10
-8.465111776
 20
230.2848701212
 30
0.0
 10
-8.4670149369
 20
230.3390741376
 30
0.0
 10
-8.4659968019
 20
230.365882081
 30
0.0
  0
SPLINE
  5
2FE
100
AcDbEntity
  8
0
100
AcDbSpline
 62
7
  6
CONTINUOUS
 70
0
 71
3
 72
22
 73
18
 74
0
 42
0.0000001
 43
0.0000001
 44
0.0000000001
 40
0.0
 40
0.0
 40
0.0
 40
0.0
 40
0.0591862557
 40
0.113083191
 40
0.1624987497
 40
0.2087016298
 40
0.2533260883
 40
0.2982232729
 40
0.3452078666
 40
0.3958108696
 40
0.4511669134
 40
0.5120134843
 40
0.5787614426
 40
0.6515621118
 40
0.7303552502
 40
0.8149385146
 40
1.0
 40
1.0
 40
1.0
 40
1.0
 10
-7.8702986773
 20
230.0759375703
 30
0.0
 10
-7.9084907736
 20
230.1087909423
 30
0.0
 10
-7.9781393184
 20
230.1756542695
 30
0.0
 10
-8.0640614434
 20
230.2847046239
 30
0.0
 10
-8.1254011564
 20
230.3970194888
 30
0.0
 10
-8.1612085015
 20
230.5118172177
 30
0.0
 10
-8.1706816562
 20
230.627952274
 30
0.0
 10
-8.1534970288
 20
230.7438515645
 30
0.0
 10
-8.1101692913
 20
230.8580192821
 30
0.0
 10
-8.0416087346
 20
230.9694510653
 30
0.0
 10
-7.9487063306
 20
231.0774661963
 30
0.0
 10
-7.8323342986
 20
231.181492117
 30
0.0
 10
-7.6933852157
 20
231.2809045508
 30
0.0
 10
-7.5328920761
 20
231.37503428
 30
0.0
 10
-7.3520526898
 20
231.4632395522
 30
0.0
 10
-7.0773212227
 20
231.5753908853
 30
0.0
 10
-6.8574437658
 20
231.6431505616
 30
0.0
 10
-6.7050335779
 20
231.6829512632
 30
0.0
  0
SPLINE
  5
2FF
100
AcDbEntity
  8
0
100
AcDbSpline
 62
7
  6
CONTINUOUS
 70
0
 71
3
 72
15
 73
11
 74
0
 42
0.0000001
 43
0.0000001
 44
0.0000000001
 40
0.0
 40
0.0
 40
0.0
 40
0.0
 40
0.1205728177
 40
0.2489056039
 40
0.381869958
 40
0.5161068773
 40
0.6482071997
 40
0.7748576287
 40
0.8929937519
 40
1.0
 40
1.0
 40
1.0
 40
1.0
 10
-6.7050335779
 20
231.6829512632
 30
0.0
 10
-6.5407487987
 20
231.7258529193
 30
0.0
 10
-6.1973019211
 20
231.7983680363
 30
0.0
 10
-5.6636482332
 20
231.8682293094
 30
0.0
 10
-5.1071725174
 20
231.9012686812
 30
0.0
 10
-4.5444566459
 20
231.8964461501
 30
0.0
 10
-3.9922302525
 20
231.8539180037
 30
0.0
 10
-3.4668551936
 20
231.7749865244
 30
0.0
 10
-2.9839189802
 20
231.6621137091
 30
0.0
 10
-2.6826947097
 20
231.5608482367
 30
0.0
 10
-2.5431803629
 20
231.5039008414
 30
0.0
  0
SPLINE
  5
300
100
AcDbEntity
  8
0
100
AcDbSpline
 62
7
  6
CONTINUOUS
 70
0
 71
3
 72
15
 73
11
 74
0
 42
0.0000001
 43
0.0000001
 44
0.0000000001
 40
0.0
 40
0.0
 40
0.0
 40
0.0
 40
0.1718406101
 40
0.3309808051
 40
0.4761942171
 40
0.6068193646
 40
0.7228470751
 40
0.8252446944
 40
0.9163085758
 40
1.0
 40
1.0
 40
1.0
 40
1.0
 10
-2.8481783827
 20
227.3228137984
 30
0.0
 10
-2.7347987794
 20
227.3532058227
 30
0.0
 10
-2.5180974599
 20
227.4183589348
 30
0.0
 10
-2.2137840039
 20
227.5341419708
 30
0.0
 10
-1.9455965366
 20
227.6630347642
 30
0.0
 10
-1.7169905615
 20
227.8033968782
 30
0.0
 10
-1.5308116176
 20
227.9536556488
 30
0.0
 10
-1.3894639518
 20
228.1125295676
 30
0.0
 10
-1.2953918166
 20
228.2787853835
 30
0.0
 10
-1.2657572728
 20
228.3964093268
 30
0.0
 10
-1.2604074104
 20
228.4533270939
 30
0.0
  0
SPLINE
  5
301
100
AcDbEntity
  8
0
100
AcDbSpline
 62
7
  6
CONTINUOUS
 70
0
 71
3
 72
9
 73
5
 74
0
 42
0.0000001
 43
0.0000001
 44
0.0000000001
 40
0.0
 40
0.0
 40
0.0
 40
0.0
 40
0.5355482671
 40
1.0
 40
1.0
 40
1.0
 40
1.0
 10
-7.5286309251
 20
228.5406045547
 30
0.0
 10
-7.6465950005
 20
228.5902930714
 30
0.0
 10
-7.8624227097
 20
228.6942860014
 30
0.0
 10
-8.0623482732
 20
228.8276304691
 30
0.0
 10
-8.1479480184
 20
228.8983106061
 30
0.0
  0
SPLINE
  5
302
100
AcDbEntity
  8
0
100
AcDbSpline
 62
7
  6
CONTINUOUS
 70
0
 71
3
 72
9
 73
5
 74
0
 42
0.0000001
 43
0.0000001
 44
0.0000000001
 40
0.0
 40
0.0
 40
0.0
 40
0.0
 40
0.2590168828
 40
1.0
 40
1.0
 40
1.0
 40
1.0
 10
-5.661146251
 20
231.4018176013
 30
0.0
 10
-5.700070865
 20
231.3959947128
 30
0.0
 10
-5.8500467326
 20
231.3715856057
 30
0.0
 10
-5.9988110401
 20
231.3393708468
 30
0.0
 10
-6.1075643832
 20
231.3102189169
 30
0.0
  0
SPLINE
  5
303
100
AcDbEntity
  8
0
100
AcDbSpline
 62
7
  6
CONTINUOUS
 70
0
 71
3
 72
25
 73
21
 74
0
 42
0.0000001
 43
0.0000001
 44
0.0000000001
 40
0.0
 40
0.0
 40
0.0
 40
0.0
 40
0.0156170212
 40
0.031539555
 40
0.0656188233
 40
0.0844238161
 40
0.1046382195
 40
0.1496984334
 40
0.2012856509
 40
0.2592818811
 40
0.3231988564
 40
0.3922874953
 40
0.4656101129
 40
0.5420929704
 40
0.620568738
 40
0.6998138834
 40
0.7785836972
 40
0.8556465053
 40
0.9298184515
 40
1.0
 40
1.0
 40
1.0
 40
1.0
 10
-8.5358326257
 20
228.5276236227
 30
0.0
 10
-8.5370699446
 20
228.4950478568
 30
0.0
 10
-8.5337951964
 20
228.4288938913
 30
0.0
 10
-8.5035754046
 20
228.2947148153
 30
0.0
 10
-8.437372294
 20
228.1645082716
 30
0.0
 10
-8.3440455929
 20
228.0435948117
 30
0.0
 10
-8.2219264515
 20
227.9170446125
 30
0.0
 10
-8.0276097445
 20
227.7675113812
 30
0.0
 10
-7.7459915343
 20
227.6082246299
 30
0.0
 10
-7.4125267172
 20
227.4653776562
 30
0.0
 10
-7.0331109263
 20
227.341487085
 30
0.0
 10
-6.6144780806
 20
227.2387923195
 30
0.0
 10
-6.1642399321
 20
227.1592128461
 30
0.0
 10
-5.6906404641
 20
227.1042442275
 30
0.0
 10
-5.2023975156
 20
227.0749250035
 30
0.0
 10
-4.7085171269
 20
227.0718096769
 30
0.0
 10
-4.2181203956
 20
227.0949567726
 30
0.0
 10
-3.740246809
 20
227.1439301419
 30
0.0
 10
-3.2837337266
 20
227.2177982361
 30
0.0
 10
-2.9896810635
 20
227.284883229
 30
0.0
 10
-2.8481783827
 20
227.3228137984
 30
0.0
  0
SPLINE
  5
304
100
AcDbEntity
  8
0
100
AcDbSpline
 62
7
  6
CONTINUOUS
 70
0
 71
3
 72
12
 73
8
 74
0
 42
0.0000001
 43
0.0000001
 44
0.0000000001
 40
0.0
 40
0.0
 40
0.0
 40
0.0
 40
0.25100946
 40
0.381291321
 40
0.5119156772
 40
0.7655193973
 40
1.0
 40
1.0
 40
1.0
 40
1.0
 10
-8.1213569643
 20
229.7424649306
 30
0.0
 10
-8.1201902836
 20
229.7794982015
 30
0.0
 10
-8.1083304996
 20
229.8358006004
 30
0.0
 10
-8.0768874307
 20
229.9046852884
 30
0.0
 10
-8.0355166677
 20
229.9686747079
 30
0.0
 10
-7.9697703532
 20
230.0340028833
 30
0.0
 10
-7.9037302299
 20
230.0669760594
 30
0.0
 10
-7.8702986773
 20
230.0759375703
 30
0.0
  0
SPLINE
  5
305
100
AcDbEntity
  8
0
100
AcDbSpline
 62
7
  6
CONTINUOUS
 70
0
 71
3
 72
9
 73
5
 74
0
 42
0.0000001
 43
0.0000001
 44
0.0000000001
 40
0.0
 40
0.0
 40
0.0
 40
0.0
 40
0.5192878938
 40
1.0
 40
1.0
 40
1.0
 40
1.0
 10
-6.1075643832
 20
231.3102189169
 30
0.0
 10
-6.1747591301
 20
231.2922069966
 30
0.0
 10
-6.3031499098
 20
231.2535946907
 30
0.0
 10
-6.428493067
 20
231.2058530265
 30
0.0
 10
-6.4875984335
 20
231.1802834623
 30
0.0
  0
SPLINE
  5
306
100
AcDbEntity
  8
0
100
AcDbSpline
 62
7
  6
CONTINUOUS
 70
0
 71
3
 72
9
 73
5
 74
0
 42
0.0000001
 43
0.0000001
 44
0.0000000001
 40
0.0
 40
0.0
 40
0.0
 40
0.0
 40
0.4999897262
 40
1.0
 40
1.0
 40
1.0
 40
1.0
 10
-5.4026286167
 20
230.1824348605
 30
0.0
 10
-5.4458791954
 20
230.3856180237
 30
0.0
 10
-5.5322357007
 20
230.7920239512
 30
0.0
 10
-5.6180879032
 20
231.1985366471
 30
0.0
 10
-5.661090376
 20
231.4017811912
 30
0.0
  0
SPLINE
  5
307
100
AcDbEntity
  8
0
100
AcDbSpline
 62
7
  6
CONTINUOUS
 70
0
 71
3
 72
9
 73
5
 74
0
 42
0.0000001
 43
0.0000001
 44
0.0000000001
 40
0.0
 40
0.0
 40
0.0
 40
0.0
 40
0.5153768913
 40
1.0
 40
1.0
 40
1.0
 40
1.0
 10
-2.5431803629
 20
231.5039008414
 30
0.0
 10
-2.5208297682
 20
231.5098920409
 30
0.0
 10
-2.4755132876
 20
231.5157122155
 30
0.0
 10
-2.4305515007
 20
231.5061806666
 30
0.0
 10
-2.4104457112
 20
231.497861714
 30
0.0
  0
SPLINE
  5
308
100
AcDbEntity
  8
0
100
AcDbSpline
 62
7
  6
CONTINUOUS
 70
0
 71
3
 72
16
 73
12
 74
0
 42
0.0000001
 43
0.0000001
 44
0.0000000001
 40
0.0
 40
0.0
 40
0.0
 40
0.0
 40
0.0416464699
 40
0.0839422325
 40
0.1734195354
 40
0.2738609049
 40
0.3884238396
 40
0.5185424308
 40
0.6644029502
 40
0.8253272274
 40
1.0
 40
1.0
 40
1.0
 40
1.0
 10
-1.3281646136
 20
230.3658820841
 30
0.0
 10
-1.3270678837
 20
230.336987851
 30
0.0
 10
-1.3294612787
 20
230.2784682597
 30
0.0
 10
-1.3531061684
 20
230.1599787091
 30
0.0
 10
-1.4204906263
 20
230.0110390485
 30
0.0
 10
-1.5526782391
 20
229.8441320312
 30
0.0
 10
-1.7343610017
 20
229.6862863031
 30
0.0
 10
-1.9628760435
 20
229.5390243056
 30
0.0
 10
-2.2350779584
 20
229.4040036533
 30
0.0
 10
-2.5471141388
 20
229.2830977579
 30
0.0
 10
-2.7703608395
 20
229.2155944509
 30
0.0
 10
-2.8875002541
 20
229.1841945886
 30
0.0
  0
SPLINE
  5
309
100
AcDbEntity
  8
0
100
AcDbSpline
 62
7
  6
CONTINUOUS
 70
0
 71
3
 72
18
 73
14
 74
0
 42
0.0000001
 43
0.0000001
 44
0.0000000001
 40
0.0
 40
0.0
 40
0.0
 40
0.0
 40
0.1615373535
 40
0.3135671398
 40
0.4540485815
 40
0.5819055959
 40
0.6974613097
 40
0.7512863128
 40
0.8030289015
 40
0.8532531348
 40
0.9025755677
 40
0.951251752
 40
1.0
 40
1.0
 40
1.0
 40
1.0
 10
32.3478008489
 20
206.8978814895
 30
0.0
 10
32.1838637804
 20
206.8754961709
 30
0.0
 10
31.8669261726
 20
206.8215687744
 30
0.0
 10
31.4150985527
 20
206.70941253
 30
0.0
 10
31.0071708471
 20
206.569498628
 30
0.0
 10
30.6501178562
 20
206.4028259607
 30
0.0
 10
30.3930652628
 20
206.2369235435
 30
0.0
 10
30.2217147303
 20
206.0882689848
 30
0.0
 10
30.1128647706
 20
205.9710843993
 30
0.0
 10
30.0223844702
 20
205.8446895264
 30
0.0
 10
29.9526792591
 20
205.7091256031
 30
0.0
 10
29.9063434609
 20
205.5653921952
 30
0.0
 10
29.8932612682
 20
205.4657821222
 30
0.0
 10
29.8913657835
 20
205.4158865993
 30
0.0
  0
LINE
  5
30A
100
AcDbEntity
  8
0
100
AcDbLine
 62
7
  6
CONTINUOUS
 10
30.8287337547
 20
203.5906090607
 11
30.8553248089
 21
204.4347633853
  0
SPLINE
  5
30B
100
AcDbEntity
  8
0
100
AcDbSpline
 62
7
  6
CONTINUOUS
 70
0
 71
3
 72
12
 73
8
 74
0
 42
0.0000001
 43
0.0000001
 44
0.0000000001
 40
0.0
 40
0.0
 40
0.0
 40
0.0
 40
0.2344666549
 40
0.4880789296
 40
0.6187053667
 40
0.7490045805
 40
1.0
 40
1.0
 40
1.0
 40
1.0
 10
31.1063830959
 20
204.768236025
 30
0.0
 10
31.0729537143
 20
204.759275096
 30
0.0
 10
31.0069427845
 20
204.7262662917
 30
0.0
 10
30.9411185255
 20
204.6610136351
 30
0.0
 10
30.8998080005
 20
204.5969764687
 30
0.0
 10
30.8683670759
 20
204.5280952898
 30
0.0
 10
30.8564914179
 20
204.4717943826
 30
0.0
 10
30.8553248089
 20
204.4347633853
 30
0.0
  0
SPLINE
  5
30C
100
AcDbEntity
  8
0
100
AcDbSpline
 62
7
  6
CONTINUOUS
 70
0
 71
3
 72
18
 73
14
 74
0
 42
0.0000001
 43
0.0000001
 44
0.0000000001
 40
0.0
 40
0.0
 40
0.0
 40
0.0
 40
0.0481886184
 40
0.0963148819
 40
0.1450058781
 40
0.1945574218
 40
0.2456702723
 40
0.2989765766
 40
0.41401376
 40
0.5422022874
 40
0.6837199057
 40
0.8371490891
 40
1.0
 40
1.0
 40
1.0
 40
1.0
 10
29.8215320459
 20
203.5776281095
 30
0.0
 10
29.8194866965
 20
203.5237876483
 30
0.0
 10
29.8260755586
 20
203.4154520866
 30
0.0
 10
29.8676497708
 20
203.2577993438
 30
0.0
 10
29.9371045522
 20
203.1087292386
 30
0.0
 10
30.0314350996
 20
202.9701803816
 30
0.0
 10
30.1471765694
 20
202.8421232256
 30
0.0
 10
30.3321733721
 20
202.6802417821
 30
0.0
 10
30.6131500181
 20
202.5008581866
 30
0.0
 10
31.0058557442
 20
202.3228982439
 30
0.0
 10
31.4563595213
 20
202.175823157
 30
0.0
 10
31.9557447465
 20
202.0610410201
 30
0.0
 10
32.3058278655
 20
202.0085254335
 30
0.0
 10
32.4867111577
 20
201.9876643383
 30
0.0
  0
SPLINE
  5
30D
100
AcDbEntity
  8
0
100
AcDbSpline
 62
7
  6
CONTINUOUS
 70
0
 71
3
 72
11
 73
7
 74
0
 42
0.0000001
 43
0.0000001
 44
0.0000000001
 40
0.0
 40
0.0
 40
0.0
 40
0.0
 40
0.2726947511
 40
0.5324508627
 40
0.7758524423
 40
1.0
 40
1.0
 40
1.0
 40
1.0
 10
32.428980201
 20
204.0503546289
 30
0.0
 10
32.2823327693
 20
204.0677689143
 30
0.0
 10
31.9968420121
 20
204.1095491592
 30
0.0
 10
31.5852143306
 20
204.1951709139
 30
0.0
 10
31.2055163279
 20
204.3010244954
 30
0.0
 10
30.9672392452
 20
204.3877529945
 30
0.0
 10
30.8553248089
 20
204.4347633853
 30
0.0
  0
SPLINE
  5
30E
100
AcDbEntity
  8
0
100
AcDbSpline
 62
7
  6
CONTINUOUS
 70
0
 71
3
 72
11
 73
7
 74
0
 42
0.0000001
 43
0.0000001
 44
0.0000000001
 40
0.0
 40
0.0
 40
0.0
 40
0.0
 40
0.2712293123
 40
0.5301027734
 40
0.773845041
 40
1.0
 40
1.0
 40
1.0
 40
1.0
 10
32.4158419466
 20
204.4420077273
 30
0.0
 10
32.2945975264
 20
204.458089979
 30
0.0
 10
32.058369158
 20
204.4954973137
 30
0.0
 10
31.7170700231
 20
204.5691121107
 30
0.0
 10
31.400494913
 20
204.6580938017
 30
0.0
 10
31.2008011587
 20
204.7296961696
 30
0.0
 10
31.1063830959
 20
204.768236025
 30
0.0
  0
LINE
  5
30F
100
AcDbEntity
  8
0
100
AcDbLine
 62
7
  6
CONTINUOUS
 10
30.2360077155
 20
204.7924694366
 11
30.2094166614
 21
203.9483151121
  0
SPLINE
  5
310
100
AcDbEntity
  8
0
100
AcDbSpline
 62
7
  6
CONTINUOUS
 70
0
 71
3
 72
12
 73
8
 74
0
 42
0.0000001
 43
0.0000001
 44
0.0000000001
 40
0.0
 40
0.0
 40
0.0
 40
0.0
 40
0.2905429741
 40
0.5479843343
 40
0.7802136125
 40
0.8908237745
 40
1.0
 40
1.0
 40
1.0
 40
1.0
 10
30.2360077155
 20
204.7924694366
 30
0.0
 10
30.1810350399
 20
204.8380220374
 30
0.0
 10
30.0828583149
 20
204.9311806421
 30
0.0
 10
29.969408203
 20
205.0873097193
 30
0.0
 10
29.912213175
 20
205.2252745425
 30
0.0
 10
29.8922529038
 20
205.3348746273
 30
0.0
 10
29.8903497429
 20
205.3890786436
 30
0.0
 10
29.8913678779
 20
205.415886587
 30
0.0
  0
SPLINE
  5
311
100
AcDbEntity
  8
0
100
AcDbSpline
 62
7
  6
CONTINUOUS
 70
0
 71
3
 72
22
 73
18
 74
0
 42
0.0000001
 43
0.0000001
 44
0.0000000001
 40
0.0
 40
0.0
 40
0.0
 40
0.0
 40
0.0591862557
 40
0.113083191
 40
0.1624987497
 40
0.2087016298
 40
0.2533260883
 40
0.2982232729
 40
0.3452078666
 40
0.3958108696
 40
0.4511669134
 40
0.5120134843
 40
0.5787614426
 40
0.6515621118
 40
0.7303552502
 40
0.8149385146
 40
1.0
 40
1.0
 40
1.0
 40
1.0
 10
30.4870660025
 20
205.1259420764
 30
0.0
 10
30.4488739062
 20
205.1587954483
 30
0.0
 10
30.3792253614
 20
205.2256587755
 30
0.0
 10
30.2933032364
 20
205.3347091299
 30
0.0
 10
30.2319635235
 20
205.4470239948
 30
0.0
 10
30.1961561783
 20
205.5618217238
 30
0.0
 10
30.1866830236
 20
205.67795678
 30
0.0
 10
30.203867651
 20
205.7938560705
 30
0.0
 10
30.2471953885
 20
205.9080237881
 30
0.0
 10
30.3157559452
 20
206.0194555713
 30
0.0
 10
30.4086583492
 20
206.1274707023
 30
0.0
 10
30.5250303813
 20
206.231496623
 30
0.0
 10
30.6639794641
 20
206.3309090568
 30
0.0
 10
30.8244726038
 20
206.425038786
 30
0.0
 10
31.00531199
 20
206.5132440582
 30
0.0
 10
31.2800434571
 20
206.6253953913
 30
0.0
 10
31.499920914
 20
206.6931550676
 30
0.0
 10
31.6523311019
 20
206.7329557692
 30
0.0
  0
SPLINE
  5
312
100
AcDbEntity
  8
0
100
AcDbSpline
 62
7
  6
CONTINUOUS
 70
0
 71
3
 72
9
 73
5
 74
0
 42
0.0000001
 43
0.0000001
 44
0.0000000001
 40
0.0
 40
0.0
 40
0.0
 40
0.0
 40
0.2404738117
 40
1.0
 40
1.0
 40
1.0
 40
1.0
 10
31.6523311019
 20
206.7329557692
 30
0.0
 10
31.7072528917
 20
206.7472981553
 30
0.0
 10
31.9365972767
 20
206.8032613621
 30
0.0
 10
32.169252424
 20
206.8453304561
 30
0.0
 10
32.3467439209
 20
206.8706292016
 30
0.0
  0
SPLINE
  5
313
100
AcDbEntity
  8
0
100
AcDbSpline
 62
7
  6
CONTINUOUS
 70
0
 71
3
 72
9
 73
5
 74
0
 42
0.0000001
 43
0.0000001
 44
0.0000000001
 40
0.0
 40
0.0
 40
0.0
 40
0.0
 40
0.5355482671
 40
1.0
 40
1.0
 40
1.0
 40
1.0
 10
30.8287337547
 20
203.5906090607
 30
0.0
 10
30.7107696793
 20
203.6402975775
 30
0.0
 10
30.4949419701
 20
203.7442905074
 30
0.0
 10
30.2950164066
 20
203.8776349751
 30
0.0
 10
30.2094166614
 20
203.9483151121
 30
0.0
  0
SPLINE
  5
314
100
AcDbEntity
  8
0
100
AcDbSpline
 62
7
  6
CONTINUOUS
 70
0
 71
3
 72
19
 73
15
 74
0
 42
0.0000001
 43
0.0000001
 44
0.0000000001
 40
0.0
 40
0.0
 40
0.0
 40
0.0
 40
0.0366460831
 40
0.0743698577
 40
0.1143593951
 40
0.1575615343
 40
0.2046527394
 40
0.2560672954
 40
0.3120335923
 40
0.372622963
 40
0.5072828806
 40
0.6585969013
 40
0.8239484912
 40
1.0
 40
1.0
 40
1.0
 40
1.0
 10
29.8215320541
 20
203.5776281287
 30
0.0
 10
29.8200426978
 20
203.5384167983
 30
0.0
 10
29.8254555051
 20
203.458278434
 30
0.0
 10
29.8587894805
 20
203.3396586394
 30
0.0
 10
29.9167227111
 20
203.2231209181
 30
0.0
 10
29.9984840566
 20
203.1094587042
 30
0.0
 10
30.1033149687
 20
202.9992123668
 30
0.0
 10
30.2304726952
 20
202.8929637833
 30
0.0
 10
30.3791058957
 20
202.7912697362
 30
0.0
 10
30.6129825844
 20
202.6578902197
 30
0.0
 10
30.9541727948
 20
202.5092740219
 30
0.0
 10
31.4157777441
 20
202.3639985377
 30
0.0
 10
31.9314418158
 20
202.2498128011
 30
0.0
 10
32.2936372798
 20
202.1977217292
 30
0.0
 10
32.4810192783
 20
202.1771206733
 30
0.0
  0
SPLINE
  5
315
100
AcDbEntity
  8
0
100
AcDbSpline
 62
7
  6
CONTINUOUS
 70
0
 71
3
 72
12
 73
8
 74
0
 42
0.0000001
 43
0.0000001
 44
0.0000000001
 40
0.0
 40
0.0
 40
0.0
 40
0.0
 40
0.25100946
 40
0.381291321
 40
0.5119156772
 40
0.7655193973
 40
1.0
 40
1.0
 40
1.0
 40
1.0
 10
30.2360077155
 20
204.7924694366
 30
0.0
 10
30.2371743962
 20
204.8295027075
 30
0.0
 10
30.2490341802
 20
204.8858051064
 30
0.0
 10
30.2804772491
 20
204.9546897944
 30
0.0
 10
30.3218480122
 20
205.0186792139
 30
0.0
 10
30.3875943266
 20
205.0840073893
 30
0.0
 10
30.4536344499
 20
205.1169805654
 30
0.0
 10
30.4870660025
 20
205.1259420764
 30
0.0
  0
SPLINE
  5
316
100
AcDbEntity
  8
0
100
AcDbSpline
 62
7
  6
CONTINUOUS
 70
0
 71
3
 72
9
 73
5
 74
0
 42
0.0000001
 43
0.0000001
 44
0.0000000001
 40
0.0
 40
0.0
 40
0.0
 40
0.0
 40
0.5192878938
 40
1.0
 40
1.0
 40
1.0
 40
1.0
 10
32.2498002966
 20
206.3602234229
 30
0.0
 10
32.1826055497
 20
206.3422115026
 30
0.0
 10
32.05421477
 20
206.3035991967
 30
0.0
 10
31.9288716128
 20
206.2558575325
 30
0.0
 10
31.8697662464
 20
206.2302879684
 30
0.0
  0
SPLINE
  5
317
100
AcDbEntity
  8
0
100
AcDbSpline
 62
7
  6
CONTINUOUS
 70
0
 71
3
 72
20
 73
16
 74
0
 42
0.0000001
 43
0.0000001
 44
0.0000000001
 40
0.0
 40
0.0
 40
0.0
 40
0.0
 40
0.0527859979
 40
0.1117095356
 40
0.1763665245
 40
0.2459440795
 40
0.3948277645
 40
0.5471735128
 40
0.6908579799
 40
0.7562118821
 40
0.8159005576
 40
0.8694870558
 40
0.9171655745
 40
0.9599859003
 40
1.0
 40
1.0
 40
1.0
 40
1.0
 10
69.95935157
 20
262.5097152539
 30
0.0
 10
69.8948383793
 20
262.5469768748
 30
0.0
 10
69.7666298037
 20
262.6405210786
 30
0.0
 10
69.5908708584
 20
262.8178429239
 30
0.0
 10
69.4252667532
 20
263.0352595961
 30
0.0
 10
69.2193418487
 20
263.3784222573
 30
0.0
 10
69.0176007306
 20
263.8648059954
 30
0.0
 10
68.8764445227
 20
264.4792967541
 30
0.0
 10
68.8492263895
 20
264.9922577468
 30
0.0
 10
68.8915640304
 20
265.3699598601
 30
0.0
 10
68.9514398628
 20
265.6157109344
 30
0.0
 10
69.039022928
 20
265.8265213296
 30
0.0
 10
69.1529117552
 20
265.9969901529
 30
0.0
 10
69.2913939337
 20
266.1218528279
 30
0.0
 10
69.3999242813
 20
266.1712794492
 30
0.0
 10
69.4544707754
 20
266.1859115161
 30
0.0
  0
SPLINE
  5
318
100
AcDbEntity
  8
0
100
AcDbSpline
 62
7
  6
CONTINUOUS
 70
0
 71
3
 72
10
 73
6
 74
0
 42
0.0000001
 43
0.0000001
 44
0.0000000001
 40
0.0
 40
0.0
 40
0.0
 40
0.0
 40
0.2307026797
 40
0.4700767113
 40
1.0
 40
1.0
 40
1.0
 40
1.0
 10
70.4642323647
 20
262.4189239841
 30
0.0
 10
70.4252521014
 20
262.40846755
 30
0.0
 10
70.3430067667
 20
262.3964853123
 30
0.0
 10
70.167503551
 20
262.4106234012
 30
0.0
 10
70.0396267208
 20
262.4633498177
 30
0.0
 10
69.95935157
 20
262.5097152539
 30
0.0
  0
SPLINE
  5
319
100
AcDbEntity
  8
0
100
AcDbSpline
 62
7
  6
CONTINUOUS
 70
0
 71
3
 72
10
 73
6
 74
0
 42
0.0000001
 43
0.0000001
 44
0.0000000001
 40
0.0
 40
0.0
 40
0.0
 40
0.0
 40
0.2321258149
 40
0.4722166886
 40
1.0
 40
1.0
 40
1.0
 40
1.0
 10
69.4544707754
 20
266.1859115161
 30
0.0
 10
69.4916476551
 20
266.1958841936
 30
0.0
 10
69.5698251045
 20
266.207715519
 30
0.0
 10
69.7362788894
 20
266.1968908277
 30
0.0
 10
69.8583528553
 20
266.150255223
 30
0.0
 10
69.9353076484
 20
266.1085750086
 30
0.0
  0
SPLINE
  5
31A
100
AcDbEntity
  8
0
100
AcDbSpline
 62
7
  6
CONTINUOUS
 70
0
 71
3
 72
20
 73
16
 74
0
 42
0.0000001
 43
0.0000001
 44
0.0000000001
 40
0.0
 40
0.0
 40
0.0
 40
0.0
 40
0.0527859979
 40
0.1117095356
 40
0.1763665245
 40
0.2459440795
 40
0.3948277645
 40
0.5471735128
 40
0.6908579799
 40
0.7562118821
 40
0.8159005576
 40
0.8694870558
 40
0.9171655745
 40
0.9599859003
 40
1.0
 40
1.0
 40
1.0
 40
1.0
 10
69.95935157
 20
266.0951202463
 30
0.0
 10
70.0238647608
 20
266.0578586254
 30
0.0
 10
70.1520733364
 20
265.9643144216
 30
0.0
 10
70.3278322817
 20
265.7869925763
 30
0.0
 10
70.4934363869
 20
265.5695759041
 30
0.0
 10
70.6993612914
 20
265.2264132429
 30
0.0
 10
70.9011024094
 20
264.7400295048
 30
0.0
 10
71.0422586174
 20
264.1255387461
 30
0.0
 10
71.0694767506
 20
263.6125777534
 30
0.0
 10
71.0271391097
 20
263.2348756401
 30
0.0
 10
70.9672632773
 20
262.9891245658
 30
0.0
 10
70.8796802121
 20
262.7783141706
 30
0.0
 10
70.7657913849
 20
262.6078453473
 30
0.0
 10
70.6273092064
 20
262.4829826723
 30
0.0
 10
70.5187788588
 20
262.433556051
 30
0.0
 10
70.4642323647
 20
262.4189239841
 30
0.0
  0
SPLINE
  5
31B
100
AcDbEntity
  8
0
100
AcDbSpline
 62
7
  6
CONTINUOUS
 70
0
 71
3
 72
9
 73
5
 74
0
 42
0.0000001
 43
0.0000001
 44
0.0000000001
 40
0.0
 40
0.0
 40
0.0
 40
0.0
 40
0.507045384
 40
1.0
 40
1.0
 40
1.0
 40
1.0
 10
71.734902811
 20
270.4712651428
 30
0.0
 10
71.1453062811
 20
270.5461573577
 30
0.0
 10
69.9661901372
 20
270.5910764191
 30
0.0
 10
68.8001118353
 20
270.4028282346
 30
0.0
 10
68.242003404
 20
270.253201923
 30
0.0
  0
SPLINE
  5
31C
100
AcDbEntity
  8
0
100
AcDbSpline
 62
7
  6
CONTINUOUS
 70
0
 71
3
 72
9
 73
5
 74
0
 42
0.0000001
 43
0.0000001
 44
0.0000000001
 40
0.0
 40
0.0
 40
0.0
 40
0.0
 40
0.5070430281
 40
1.0
 40
1.0
 40
1.0
 40
1.0
 10
67.4833674434
 20
272.4090817607
 30
0.0
 10
67.582521013
 20
272.4897988867
 30
0.0
 10
67.8018226546
 20
272.6210961939
 30
0.0
 10
68.0423895076
 20
272.7002519456
 30
0.0
 10
68.1624530792
 20
272.7324356661
 30
0.0
  0
SPLINE
  5
31D
100
AcDbEntity
  8
0
100
AcDbSpline
 62
7
  6
CONTINUOUS
 70
0
 71
3
 72
11
 73
7
 74
0
 42
0.0000001
 43
0.0000001
 44
0.0000000001
 40
0.0
 40
0.0
 40
0.0
 40
0.0
 40
0.2255170703
 40
0.4687355763
 40
0.7275132415
 40
1.0
 40
1.0
 40
1.0
 40
1.0
 10
63.7179113169
 20
275.0693284902
 30
0.0
 10
64.8719820294
 20
275.6953319897
 30
0.0
 10
67.3507283162
 20
276.8544307645
 30
0.0
 10
71.3842814406
 20
278.178050664
 30
0.0
 10
75.8085351419
 20
279.0897105195
 30
0.0
 10
78.8859956324
 20
279.4314514612
 30
0.0
 10
80.467223188
 20
279.5590733684
 30
0.0
  0
SPLINE
  5
31E
100
AcDbEntity
  8
0
100
AcDbSpline
 62
7
  6
CONTINUOUS
 70
0
 71
3
 72
9
 73
5
 74
0
 42
0.0000001
 43
0.0000001
 44
0.0000000001
 40
0.0
 40
0.0
 40
0.0
 40
0.0
 40
0.5012518042
 40
1.0
 40
1.0
 40
1.0
 40
1.0
 10
85.8057716067
 20
279.2028635648
 30
0.0
 10
84.9227635119
 20
279.3527438716
 30
0.0
 10
83.1511549096
 20
279.5967395325
 30
0.0
 10
81.3554992086
 20
279.6307667053
 30
0.0
 10
80.467223188
 20
279.5590733684
 30
0.0
  0
SPLINE
  5
31F
100
AcDbEntity
  8
0
100
AcDbSpline
 62
7
  6
CONTINUOUS
 70
0
 71
3
 72
11
 73
7
 74
0
 42
0.0000001
 43
0.0000001
 44
0.0000000001
 40
0.0
 40
0.0
 40
0.0
 40
0.0
 40
0.2952522069
 40
0.5515151179
 40
0.7804363542
 40
1.0
 40
1.0
 40
1.0
 40
1.0
 10
63.2104509591
 20
269.4727188254
 30
0.0
 10
63.0260590489
 20
269.5163769179
 30
0.0
 10
62.6867656242
 20
269.6266098985
 30
0.0
 10
62.2549606544
 20
269.8925327996
 30
0.0
 10
61.9561599648
 20
270.2437167538
 30
0.0
 10
61.859330704
 20
270.5228855245
 30
0.0
 10
61.8373792258
 20
270.662078937
 30
0.0
  0
SPLINE
  5
320
100
AcDbEntity
  8
0
100
AcDbSpline
 62
7
  6
CONTINUOUS
 70
0
 71
3
 72
10
 73
6
 74
0
 42
0.0000001
 43
0.0000001
 44
0.0000000001
 40
0.0
 40
0.0
 40
0.0
 40
0.0
 40
0.3092221074
 40
0.5788298506
 40
1.0
 40
1.0
 40
1.0
 40
1.0
 10
63.7179113169
 20
275.0693284902
 30
0.0
 10
63.4331418883
 20
274.9148607814
 30
0.0
 10
62.9203015991
 20
274.5793835991
 30
0.0
 10
62.173073114
 20
273.8513230537
 30
0.0
 10
61.8221767335
 20
273.1414441582
 30
0.0
 10
61.8220677784
 20
272.7001925253
 30
0.0
  0
SPLINE
  5
321
100
AcDbEntity
  8
0
100
AcDbSpline
 62
7
  6
CONTINUOUS
 70
0
 71
3
 72
13
 73
9
 74
0
 42
0.0000001
 43
0.0000001
 44
0.0000000001
 40
0.0
 40
0.0
 40
0.0
 40
0.0
 40
0.0972775394
 40
0.2052667458
 40
0.3229442583
 40
0.4489221251
 40
0.7188561949
 40
1.0
 40
1.0
 40
1.0
 40
1.0
 10
78.2392711867
 20
256.2277449784
 30
0.0
 10
79.0928887104
 20
255.7347113499
 30
0.0
 10
80.9614677014
 20
254.8095220961
 30
0.0
 10
84.0236138874
 20
253.644659818
 30
0.0
 10
87.4478215967
 20
252.6461276385
 30
0.0
 10
92.535747194
 20
251.5352340067
 30
0.0
 10
99.3607601364
 20
250.6949278214
 30
0.0
 10
104.9551456582
 20
250.5903872291
 30
0.0
 10
107.8026075322
 20
250.683923766
 30
0.0
  0
SPLINE
  5
322
100
AcDbEntity
  8
0
100
AcDbSpline
 62
7
  6
CONTINUOUS
 70
0
 71
3
 72
13
 73
9
 74
0
 42
0.0000001
 43
0.0000001
 44
0.0000000001
 40
0.0
 40
0.0
 40
0.0
 40
0.0
 40
0.2889284344
 40
0.5578138217
 40
0.6817041774
 40
0.797162174
 40
0.9034284473
 40
1.0
 40
1.0
 40
1.0
 40
1.0
 10
111.2813035154
 20
248.6746935714
 30
0.0
 10
113.9376725179
 20
248.8470451576
 30
0.0
 10
119.0549256448
 20
249.3973096992
 30
0.0
 10
125.2207211547
 20
250.657639908
 30
0.0
 10
129.7103966625
 20
251.9969677797
 30
0.0
 10
132.6977404972
 20
253.1072623265
 30
0.0
 10
135.3631044212
 20
254.3374024204
 30
0.0
 10
136.9847210038
 20
255.274094426
 30
0.0
 10
137.7275854171
 20
255.7637644316
 30
0.0
  0
SPLINE
  5
323
100
AcDbEntity
  8
0
100
AcDbSpline
 62
7
  6
CONTINUOUS
 70
0
 71
3
 72
10
 73
6
 74
0
 42
0.0000001
 43
0.0000001
 44
0.0000000001
 40
0.0
 40
0.0
 40
0.0
 40
0.0
 40
0.5252605487
 40
0.7661398931
 40
1.0
 40
1.0
 40
1.0
 40
1.0
 10
136.1414435437
 20
259.6411370024
 30
0.0
 10
136.5883148866
 20
260.2083587031
 30
0.0
 10
137.1483580933
 20
261.1260845571
 30
0.0
 10
137.5352531351
 20
262.4516934892
 30
0.0
 10
137.598746191
 20
263.1060823866
 30
0.0
 10
137.5987426937
 20
263.4275825685
 30
0.0
  0
SPLINE
  5
324
100
AcDbEntity
  8
0
100
AcDbSpline
 62
7
  6
CONTINUOUS
 70
0
 71
3
 72
9
 73
5
 74
0
 42
0.0000001
 43
0.0000001
 44
0.0000000001
 40
0.0
 40
0.0
 40
0.0
 40
0.0
 40
0.488281564
 40
1.0
 40
1.0
 40
1.0
 40
1.0
 10
66.0880710689
 20
269.4823850929
 30
0.0
 10
65.6321408087
 20
269.3601489616
 30
0.0
 10
64.6607746249
 20
269.2351290799
 30
0.0
 10
63.6918308498
 20
269.3587435011
 30
0.0
 10
63.2104509591
 20
269.4727188255
 30
0.0
  0
SPLINE
  5
325
100
AcDbEntity
  8
0
100
AcDbSpline
 62
7
  6
CONTINUOUS
 70
0
 71
3
 72
9
 73
5
 74
0
 42
0.0000001
 43
0.0000001
 44
0.0000000001
 40
0.0
 40
0.0
 40
0.0
 40
0.0
 40
0.4916582404
 40
1.0
 40
1.0
 40
1.0
 40
1.0
 10
65.5702527492
 20
271.4141431421
 30
0.0
 10
65.9135267232
 20
271.5061608398
 30
0.0
 10
66.592674228
 20
271.7724483179
 30
0.0
 10
67.198400153
 20
272.1771008077
 30
0.0
 10
67.4833674427
 20
272.4090817623
 30
0.0
  0
SPLINE
  5
326
100
AcDbEntity
  8
0
100
AcDbSpline
 62
7
  6
CONTINUOUS
 70
0
 71
3
 72
8
 73
4
 74
0
 42
0.0000001
 43
0.0000001
 44
0.0000000001
 40
0.0
 40
0.0
 40
0.0
 40
0.0
 40
1.0
 40
1.0
 40
1.0
 40
1.0
 10
68.9220963754
 20
272.9053102332
 30
0.0
 10
69.0708629247
 20
272.9451879031
 30
0.0
 10
69.2182647134
 20
272.995908509
 30
0.0
 10
69.35504912
 20
273.0667021589
 30
0.0
  0
SPLINE
  5
327
100
AcDbEntity
  8
0
100
AcDbSpline
 62
7
  6
CONTINUOUS
 70
0
 71
3
 72
12
 73
8
 74
0
 42
0.0000001
 43
0.0000001
 44
0.0000000001
 40
0.0
 40
0.0
 40
0.0
 40
0.0
 40
0.1004887216
 40
0.2039620047
 40
0.4294376826
 40
0.6924202148
 40
1.0
 40
1.0
 40
1.0
 40
1.0
 10
72.5988097924
 20
263.4275825732
 30
0.0
 10
72.5988132711
 20
263.1077971286
 30
0.0
 10
72.6615536256
 20
262.4571231451
 30
0.0
 10
73.0444694369
 20
261.1381710277
 30
0.0
 10
74.0391566571
 20
259.5006230935
 30
0.0
 10
75.8724662831
 20
257.7276351889
 30
0.0
 10
77.3916802239
 20
256.7172977773
 30
0.0
 10
78.2392711867
 20
256.2277449784
 30
0.0
  0
SPLINE
  5
328
100
AcDbEntity
  8
0
100
AcDbSpline
 62
7
  6
CONTINUOUS
 70
0
 71
3
 72
9
 73
5
 74
0
 42
0.0000001
 43
0.0000001
 44
0.0000000001
 40
0.0
 40
0.0
 40
0.0
 40
0.0
 40
0.2487132262
 40
1.0
 40
1.0
 40
1.0
 40
1.0
 10
72.598790914
 20
268.9435902513
 30
0.0
 10
72.5987963988
 20
269.032239362
 30
0.0
 10
72.6082092266
 20
269.3886217137
 30
0.0
 10
72.6556373785
 20
269.7438892206
 30
0.0
 10
72.7111183434
 20
270.0058606269
 30
0.0
  0
SPLINE
  5
329
100
AcDbEntity
  8
0
100
AcDbSpline
 62
7
  6
CONTINUOUS
 70
0
 71
3
 72
25
 73
21
 74
0
 42
0.0000001
 43
0.0000001
 44
0.0000000001
 40
0.0
 40
0.0
 40
0.0
 40
0.0
 40
0.0159922354
 40
0.0329328266
 40
0.0511616579
 40
0.0709244736
 40
0.1155813485
 40
0.1674931996
 40
0.2264293969
 40
0.291675623
 40
0.3621886672
 40
0.4366966188
 40
0.5137728144
 40
0.5918975411
 40
0.6695142901
 40
0.7450843655
 40
0.8171418489
 40
0.884354125
 40
0.945586703
 40
1.0
 40
1.0
 40
1.0
 40
1.0
 10
72.7111183434
 20
270.0058606269
 30
0.0
 10
72.7816803875
 20
270.3390422501
 30
0.0
 10
72.9939413114
 20
271.0123127403
 30
0.0
 10
73.4972875583
 20
271.9835998224
 30
0.0
 10
74.1870812979
 20
272.9331988319
 30
0.0
 10
75.3978958522
 20
274.2160097658
 30
0.0
 10
77.3873968974
 20
275.7194651222
 30
0.0
 10
80.3119170297
 20
277.2910788352
 30
0.0
 10
83.8067079698
 20
278.6706145702
 30
0.0
 10
87.7936188217
 20
279.8266505341
 30
0.0
 10
92.1830112582
 20
280.7325850927
 30
0.0
 10
96.8735451131
 20
281.3667171851
 30
0.0
 10
101.7562203944
 20
281.7138455446
 30
0.0
 10
106.7170344926
 20
281.7655953949
 30
0.0
 10
111.6400089159
 20
281.5207288016
 30
0.0
 10
116.4101532913
 20
280.9851243517
 30
0.0
 10
120.9162673182
 20
280.1717349341
 30
0.0
 10
125.0544380187
 20
279.0998191462
 30
0.0
 10
128.7291034882
 20
277.7952177426
 30
0.0
 10
130.954841277
 20
276.7229961652
 30
0.0
 10
131.9582812994
 20
276.1434278439
 30
0.0
  0
SPLINE
  5
32A
100
AcDbEntity
  8
0
100
AcDbSpline
 62
7
  6
CONTINUOUS
 70
0
 71
3
 72
9
 73
5
 74
0
 42
0.0000001
 43
0.0000001
 44
0.0000000001
 40
0.0
 40
0.0
 40
0.0
 40
0.0
 40
0.2687847373
 40
1.0
 40
1.0
 40
1.0
 40
1.0
 10
137.7275854171
 20
257.6024336585
 30
0.0
 10
137.4633387389
 20
257.9857854482
 30
0.0
 10
136.4370213963
 20
259.380851977
 30
0.0
 10
135.2312165224
 20
260.6506926182
 30
0.0
 10
134.2488894338
 20
261.45033308
 30
0.0
  0
SPLINE
  5
32B
100
AcDbEntity
  8
0
100
AcDbSpline
 62
7
  6
CONTINUOUS
 70
0
 71
3
 72
12
 73
8
 74
0
 42
0.0000001
 43
0.0000001
 44
0.0000000001
 40
0.0
 40
0.0
 40
0.0
 40
0.0
 40
0.3075767546
 40
0.5705632506
 40
0.7960383134
 40
0.8995111166
 40
1.0
 40
1.0
 40
1.0
 40
1.0
 10
131.9582812994
 20
276.1434278439
 30
0.0
 10
132.805864856
 20
275.6538793226
 30
0.0
 10
134.3250855188
 20
274.643536907
 30
0.0
 10
136.1583929025
 20
272.8705621135
 30
0.0
 10
137.1531539389
 20
271.233017771
 30
0.0
 10
137.5359501006
 20
269.914042571
 30
0.0
 10
137.5987813574
 20
269.2633765674
 30
0.0
 10
137.5987615721
 20
268.9435902516
 30
0.0
  0
SPLINE
  5
32C
100
AcDbEntity
  8
0
100
AcDbSpline
 62
7
  6
CONTINUOUS
 70
0
 71
3
 72
9
 73
5
 74
0
 42
0.0000001
 43
0.0000001
 44
0.0000000001
 40
0.0
 40
0.0
 40
0.0
 40
0.0
 40
0.509879999
 40
1.0
 40
1.0
 40
1.0
 40
1.0
 10
63.2104509591
 20
271.3555795885
 30
0.0
 10
63.6066992762
 20
271.2775384825
 30
0.0
 10
64.4023343181
 20
271.2021746329
 30
0.0
 10
65.1952819382
 20
271.3136288201
 30
0.0
 10
65.5702527492
 20
271.4141431421
 30
0.0
  0
SPLINE
  5
32D
100
AcDbEntity
  8
0
100
AcDbSpline
 62
7
  6
CONTINUOUS
 70
0
 71
3
 72
11
 73
7
 74
0
 42
0.0000001
 43
0.0000001
 44
0.0000000001
 40
0.0
 40
0.0
 40
0.0
 40
0.0
 40
0.2101398176
 40
0.4388354874
 40
0.6996411609
 40
1.0
 40
1.0
 40
1.0
 40
1.0
 10
137.5987615721
 20
268.9435902516
 30
0.0
 10
137.5987262449
 20
268.3726061321
 30
0.0
 10
137.3868307676
 20
267.1728075164
 30
0.0
 10
136.4804152979
 20
265.4750092975
 30
0.0
 10
135.0336622378
 20
263.8689255077
 30
0.0
 10
133.8192092782
 20
262.9350911214
 30
0.0
 10
133.1417460257
 20
262.4800067741
 30
0.0
  0
SPLINE
  5
32E
100
AcDbEntity
  8
0
100
AcDbSpline
 62
7
  6
CONTINUOUS
 70
0
 71
3
 72
19
 73
15
 74
0
 42
0.0000001
 43
0.0000001
 44
0.0000000001
 40
0.0
 40
0.0
 40
0.0
 40
0.0
 40
0.0470821448
 40
0.0994800673
 40
0.1568284594
 40
0.2185768908
 40
0.3523664271
 40
0.4943453766
 40
0.6371335778
 40
0.7732753086
 40
0.836709531
 40
0.8960226431
 40
0.9506063169
 40
1.0
 40
1.0
 40
1.0
 40
1.0
 10
132.9010687129
 20
262.3209851963
 30
0.0
 10
132.1575824067
 20
261.8377454807
 30
0.0
 10
130.5173186927
 20
260.9221200921
 30
0.0
 10
127.8032879233
 20
259.7477140903
 30
0.0
 10
124.7399175092
 20
258.713678591
 30
0.0
 10
120.1279201101
 20
257.5123244832
 30
0.0
 10
113.8382011855
 20
256.4931216533
 30
0.0
 10
105.9567758885
 20
256.0306841712
 30
0.0
 10
98.0232024876
 20
256.3304553681
 30
0.0
 10
91.6221697339
 20
257.2171939798
 30
0.0
 10
86.8690514753
 20
258.3169099843
 30
0.0
 10
83.6696491245
 20
259.2854480009
 30
0.0
 10
80.8005339388
 20
260.4015337734
 30
0.0
 10
79.0448247047
 20
261.2784799075
 30
0.0
 10
78.2392711867
 20
261.743752659
 30
0.0
  0
SPLINE
  5
32F
100
AcDbEntity
  8
0
100
AcDbSpline
 62
7
  6
CONTINUOUS
 70
0
 71
3
 72
11
 73
7
 74
0
 42
0.0000001
 43
0.0000001
 44
0.0000000001
 40
0.0
 40
0.0
 40
0.0
 40
0.0
 40
0.2212219296
 40
0.449908937
 40
0.7052795276
 40
1.0
 40
1.0
 40
1.0
 40
1.0
 10
61.8373777978
 20
272.5007555026
 30
0.0
 10
61.8592446486
 20
272.3620922976
 30
0.0
 10
61.9553784554
 20
272.084922739
 30
0.0
 10
62.2554528761
 20
271.7402935655
 30
0.0
 10
62.6885232517
 20
271.4885776299
 30
0.0
 10
63.0269604076
 20
271.3917180526
 30
0.0
 10
63.2104509591
 20
271.3555795885
 30
0.0
  0
SPLINE
  5
330
100
AcDbEntity
  8
0
100
AcDbSpline
 62
7
  6
CONTINUOUS
 70
0
 71
3
 72
8
 73
4
 74
0
 42
0.0000001
 43
0.0000001
 44
0.0000000001
 40
0.0
 40
0.0
 40
0.0
 40
0.0
 40
1.0
 40
1.0
 40
1.0
 40
1.0
 10
68.1624530792
 20
272.7324356661
 30
0.0
 10
68.4132863335
 20
272.7996729409
 30
0.0
 10
68.6712631015
 20
272.8380730314
 30
0.0
 10
68.9220963754
 20
272.9053102332
 30
0.0
  0
SPLINE
  5
331
100
AcDbEntity
  8
0
100
AcDbSpline
 62
7
  6
CONTINUOUS
 70
0
 71
3
 72
9
 73
5
 74
0
 42
0.0000001
 43
0.0000001
 44
0.0000000001
 40
0.0
 40
0.0
 40
0.0
 40
0.0
 40
0.4912645553
 40
1.0
 40
1.0
 40
1.0
 40
1.0
 10
71.1426573415
 20
273.7618141841
 30
0.0
 10
71.7752341198
 20
273.9314042459
 30
0.0
 10
73.1063035307
 20
274.1302455673
 30
0.0
 10
74.4467011155
 20
274.0345919048
 30
0.0
 10
75.1155369471
 20
273.9222429154
 30
0.0
  0
SPLINE
  5
332
100
AcDbEntity
  8
0
100
AcDbSpline
 62
7
  6
CONTINUOUS
 70
0
 71
3
 72
14
 73
10
 74
0
 42
0.0000001
 43
0.0000001
 44
0.0000000001
 40
0.0
 40
0.0
 40
0.0
 40
0.0
 40
0.294814581
 40
0.4351391057
 40
0.5682153585
 40
0.6923974197
 40
0.8063229587
 40
0.9090182035
 40
1.0
 40
1.0
 40
1.0
 40
1.0
 10
107.8026075321
 20
254.3612622198
 30
0.0
 10
110.5291413363
 20
254.4508263794
 30
0.0
 10
114.552097484
 20
254.7810843118
 30
0.0
 10
119.7400667324
 20
255.6489441577
 30
0.0
 10
123.3276621684
 20
256.4756898541
 30
0.0
 10
126.6169082444
 20
257.4748562157
 30
0.0
 10
129.5556597609
 20
258.630256943
 30
0.0
 10
132.0966781575
 20
259.9231319311
 30
0.0
 10
133.5908932517
 20
260.9251622797
 30
0.0
 10
134.2488894338
 20
261.45033308
 30
0.0
  0
SPLINE
  5
333
100
AcDbEntity
  8
0
100
AcDbSpline
 62
7
  6
CONTINUOUS
 70
0
 71
3
 72
10
 73
6
 74
0
 42
0.0000001
 43
0.0000001
 44
0.0000000001
 40
0.0
 40
0.0
 40
0.0
 40
0.0
 40
0.2187559797
 40
0.4592177256
 40
1.0
 40
1.0
 40
1.0
 40
1.0
 10
137.7275854171
 20
257.6024336585
 30
0.0
 10
136.9946976544
 20
257.1193399088
 30
0.0
 10
135.3965038874
 20
256.1944255186
 30
0.0
 10
131.7526135964
 20
254.5059089644
 30
0.0
 10
128.7619503218
 20
253.5242590992
 30
0.0
 10
126.66768706
 20
252.9561483792
 30
0.0
  0
SPLINE
  5
334
100
AcDbEntity
  8
0
100
AcDbSpline
 62
7
  6
CONTINUOUS
 70
0
 71
3
 72
9
 73
5
 74
0
 42
0.0000001
 43
0.0000001
 44
0.0000000001
 40
0.0
 40
0.0
 40
0.0
 40
0.0
 40
0.4816646755
 40
1.0
 40
1.0
 40
1.0
 40
1.0
 10
126.66768706
 20
252.9561483792
 30
0.0
 10
124.2506965654
 20
252.3004914543
 30
0.0
 10
119.1474447006
 20
251.2469652196
 30
0.0
 10
113.9706542353
 20
250.6878543173
 30
0.0
 10
111.2813035154
 20
250.5133627983
 30
0.0
  0
SPLINE
  5
335
100
AcDbEntity
  8
0
100
AcDbSpline
 62
7
  6
CONTINUOUS
 70
0
 71
3
 72
9
 73
5
 74
0
 42
0.0000001
 43
0.0000001
 44
0.0000000001
 40
0.0
 40
0.0
 40
0.0
 40
0.0
 40
0.231644268
 40
1.0
 40
1.0
 40
1.0
 40
1.0
 10
107.8026075322
 20
254.3612622198
 30
0.0
 10
108.1138313269
 20
254.1079177463
 30
0.0
 10
109.4121932583
 20
252.958921839
 30
0.0
 10
110.5258502006
 20
251.6093250345
 30
0.0
 10
111.2813035154
 20
250.5133627983
 30
0.0
  0
SPLINE
  5
336
100
AcDbEntity
  8
0
100
AcDbSpline
 62
7
  6
CONTINUOUS
 70
0
 71
3
 72
9
 73
5
 74
0
 42
0.0000001
 43
0.0000001
 44
0.0000000001
 40
0.0
 40
0.0
 40
0.0
 40
0.0
 40
0.256214622
 40
1.0
 40
1.0
 40
1.0
 40
1.0
 10
78.2392711867
 20
261.743752659
 30
0.0
 10
78.133950468
 20
261.8045839502
 30
0.0
 10
77.7248130516
 20
262.0453170982
 30
0.0
 10
77.3235635992
 20
262.2995404041
 30
0.0
 10
77.0307931456
 20
262.4968963707
 30
0.0
  0
SPLINE
  5
337
100
AcDbEntity
  8
0
100
AcDbSpline
 62
7
  6
CONTINUOUS
 70
0
 71
3
 72
11
 73
7
 74
0
 42
0.0000001
 43
0.0000001
 44
0.0000000001
 40
0.0
 40
0.0
 40
0.0
 40
0.0
 40
0.300229765
 40
0.5609514445
 40
0.7897126591
 40
1.0
 40
1.0
 40
1.0
 40
1.0
 10
77.0307931456
 20
262.4968963707
 30
0.0
 10
76.356851766
 20
262.9511988824
 30
0.0
 10
75.1488219133
 20
263.8831786902
 30
0.0
 10
73.7103505226
 20
265.4854366829
 30
0.0
 10
72.8093993736
 20
267.1783780174
 30
0.0
 10
72.5987556924
 20
268.3743119353
 30
0.0
 10
72.598790914
 20
268.9435902513
 30
0.0
  0
SPLINE
  5
338
100
AcDbEntity
  8
0
100
AcDbSpline
 62
7
  6
CONTINUOUS
 70
0
 71
3
 72
17
 73
13
 74
0
 42
0.0000001
 43
0.0000001
 44
0.0000000001
 40
0.0
 40
0.0
 40
0.0
 40
0.0
 40
0.1329155733
 40
0.2667924554
 40
0.3993708492
 40
0.5286125956
 40
0.6531009689
 40
0.7723904468
 40
0.8303973821
 40
0.8874814841
 40
0.9439107029
 40
1.0
 40
1.0
 40
1.0
 40
1.0
 10
112.7682855163
 20
234.3419581636
 30
0.0
 10
113.0371982394
 20
232.547891344
 30
0.0
 10
113.2026692488
 20
228.8807968395
 30
0.0
 10
112.3612160782
 20
223.4608476593
 30
0.0
 10
110.4800563566
 20
218.358533657
 30
0.0
 10
107.6574922625
 20
213.8575213751
 30
0.0
 10
104.0437400135
 20
210.2095588997
 30
0.0
 10
100.4891181844
 20
208.0346814858
 30
0.0
 10
97.4768556136
 20
206.9333064525
 30
0.0
 10
95.1820739752
 20
206.4326718026
 30
0.0
 10
92.8664717882
 20
206.258840517
 30
0.0
 10
91.3280624172
 20
206.3628158736
 30
0.0
 10
90.5699262836
 20
206.4690221402
 30
0.0
  0
SPLINE
  5
339
100
AcDbEntity
  8
0
100
AcDbSpline
 62
7
  6
CONTINUOUS
 70
0
 71
3
 72
13
 73
9
 74
0
 42
0.0000001
 43
0.0000001
 44
0.0000000001
 40
0.0
 40
0.0
 40
0.0
 40
0.0
 40
0.2680782262
 40
0.5231815334
 40
0.6459686261
 40
0.7658128409
 40
0.883485265
 40
1.0
 40
1.0
 40
1.0
 40
1.0
 10
77.6656292158
 20
224.9324986857
 30
0.0
 10
77.7675571932
 20
224.2524802765
 30
0.0
 10
78.1404941561
 20
222.9435417407
 30
0.0
 10
79.0432570526
 20
221.5214074976
 30
0.0
 10
79.971176318
 20
220.636847524
 30
0.0
 10
80.7421140713
 20
220.1185295124
 30
0.0
 10
81.5775731448
 20
219.7508901657
 30
0.0
 10
82.1661558565
 20
219.6122120644
 30
0.0
 10
82.4621220345
 20
219.5707389128
 30
0.0
  0
SPLINE
  5
33A
100
AcDbEntity
  8
0
100
AcDbSpline
 62
7
  6
CONTINUOUS
 70
0
 71
3
 72
13
 73
9
 74
0
 42
0.0000001
 43
0.0000001
 44
0.0000000001
 40
0.0
 40
0.0
 40
0.0
 40
0.0
 40
0.2680782188
 40
0.5231815284
 40
0.6459686276
 40
0.7658128544
 40
0.8834852826
 40
1.0
 40
1.0
 40
1.0
 40
1.0
 10
86.1534069298
 20
239.8481257022
 30
0.0
 10
86.2557117856
 20
239.1655929268
 30
0.0
 10
86.6300276989
 20
237.8518145754
 30
0.0
 10
87.5361285644
 20
236.4244219381
 30
0.0
 10
88.467478883
 20
235.5365912497
 30
0.0
 10
89.2412672546
 20
235.0163567297
 30
0.0
 10
90.0798154463
 20
234.6473579955
 30
0.0
 10
90.6705744369
 20
234.5081671976
 30
0.0
 10
90.9676349114
 20
234.4665406955
 30
0.0
  0
SPLINE
  5
33B
100
AcDbEntity
  8
0
100
AcDbSpline
 62
7
  6
CONTINUOUS
 70
0
 71
3
 72
13
 73
9
 74
0
 42
0.0000001
 43
0.0000001
 44
0.0000000001
 40
0.0
 40
0.0
 40
0.0
 40
0.0
 40
0.2680782262
 40
0.5231815334
 40
0.6459686261
 40
0.7658128409
 40
0.883485265
 40
1.0
 40
1.0
 40
1.0
 40
1.0
 10
98.3267869515
 20
230.4708352952
 30
0.0
 10
98.4287149289
 20
229.7908168861
 30
0.0
 10
98.8016518918
 20
228.4818783503
 30
0.0
 10
99.7044147882
 20
227.0597441072
 30
0.0
 10
100.6323340537
 20
226.1751841335
 30
0.0
 10
101.403271807
 20
225.6568661219
 30
0.0
 10
102.2387308805
 20
225.2892267752
 30
0.0
 10
102.8273135922
 20
225.1505486739
 30
0.0
 10
103.1232797702
 20
225.1090755223
 30
0.0
  0
SPLINE
  5
33C
100
AcDbEntity
  8
0
100
AcDbSpline
 62
7
  6
CONTINUOUS
 70
0
 71
3
 72
13
 73
9
 74
0
 42
0.0000001
 43
0.0000001
 44
0.0000000001
 40
0.0
 40
0.0
 40
0.0
 40
0.0
 40
0.1126084257
 40
0.227816271
 40
0.3475015298
 40
0.4724025418
 40
0.7336674034
 40
1.0
 40
1.0
 40
1.0
 40
1.0
 10
95.1387975178
 20
221.851873013
 30
0.0
 10
94.8320894686
 20
221.8948252695
 30
0.0
 10
94.195451373
 20
221.8916518934
 30
0.0
 10
93.2679555868
 20
221.6179356006
 30
0.0
 10
92.4148706356
 20
221.0955832763
 30
0.0
 10
91.4276134449
 20
220.0994469579
 30
0.0
 10
90.6243352865
 20
218.4337627851
 30
0.0
 10
90.5422932838
 20
216.9411057418
 30
0.0
 10
90.650871864
 20
216.2167174503
 30
0.0
  0
SPLINE
  5
33D
100
AcDbEntity
  8
0
100
AcDbSpline
 62
7
  6
CONTINUOUS
 70
0
 71
3
 72
11
 73
7
 74
0
 42
0.0000001
 43
0.0000001
 44
0.0000000001
 40
0.0
 40
0.0
 40
0.0
 40
0.0
 40
0.2372801692
 40
0.4807048743
 40
0.7345138971
 40
1.0
 40
1.0
 40
1.0
 40
1.0
 10
101.6057796468
 20
236.0494704828
 30
0.0
 10
101.3496096183
 20
236.0853214194
 30
0.0
 10
100.8161033482
 20
236.0777000905
 30
0.0
 10
100.0442986613
 20
235.8271383049
 30
0.0
 10
99.3454897239
 20
235.3593745102
 30
0.0
 10
98.9640862165
 20
234.9324311644
 30
0.0
 10
98.7968125196
 20
234.6962524645
 30
0.0
  0
SPLINE
  5
33E
100
AcDbEntity
  8
0
100
AcDbSpline
 62
7
  6
CONTINUOUS
 70
0
 71
3
 72
15
 73
11
 74
0
 42
0.0000001
 43
0.0000001
 44
0.0000000001
 40
0.0
 40
0.0
 40
0.0
 40
0.0
 40
0.1122971141
 40
0.2271854932
 40
0.346538784
 40
0.4710939575
 40
0.6004021822
 40
0.7330568959
 40
0.8670061248
 40
1.0
 40
1.0
 40
1.0
 40
1.0
 10
105.0579187644
 20
238.9226380529
 30
0.0
 10
104.5979148361
 20
238.9870974881
 30
0.0
 10
103.6430719793
 20
238.982305787
 30
0.0
 10
102.2519588376
 20
238.5717296237
 30
0.0
 10
100.9726591936
 20
237.7885142718
 30
0.0
 10
99.8765018537
 20
236.6822418441
 30
0.0
 10
99.0206895211
 20
235.317498053
 30
0.0
 10
98.4502880819
 20
233.77032596
 30
0.0
 10
98.1950434954
 20
232.1268453301
 30
0.0
 10
98.2452423494
 20
231.0148648351
 30
0.0
 10
98.3267869515
 20
230.4708352952
 30
0.0
  0
SPLINE
  5
33F
100
AcDbEntity
  8
0
100
AcDbSpline
 62
7
  6
CONTINUOUS
 70
0
 71
3
 72
11
 73
7
 74
0
 42
0.0000001
 43
0.0000001
 44
0.0000000001
 40
0.0
 40
0.0
 40
0.0
 40
0.0
 40
0.2368873289
 40
0.4801586028
 40
0.7341388668
 40
1.0
 40
1.0
 40
1.0
 40
1.0
 10
89.4537114753
 20
245.4324736481
 30
0.0
 10
89.1919542801
 20
245.4691065074
 30
0.0
 10
88.6461305879
 20
245.4594448711
 30
0.0
 10
87.8587025807
 20
245.1953372489
 30
0.0
 10
87.1498961505
 20
244.7057624092
 30
0.0
 10
86.767138731
 20
244.2610291781
 30
0.0
 10
86.6005891025
 20
244.0155622337
 30
0.0
  0
SPLINE
  5
340
100
AcDbEntity
  8
0
100
AcDbSpline
 62
7
  6
CONTINUOUS
 70
0
 71
3
 72
15
 73
11
 74
0
 42
0.0000001
 43
0.0000001
 44
0.0000000001
 40
0.0
 40
0.0
 40
0.0
 40
0.0
 40
0.1122971039
 40
0.2271854702
 40
0.3465387474
 40
0.4710939192
 40
0.6004021558
 40
0.7330568714
 40
0.8670061138
 40
1.0
 40
1.0
 40
1.0
 40
1.0
 10
92.9094272802
 20
248.3311792103
 30
0.0
 10
92.4477225189
 20
248.3958769936
 30
0.0
 10
91.4893492022
 20
248.3910675903
 30
0.0
 10
90.0930925168
 20
247.9789734166
 30
0.0
 10
88.8090626773
 20
247.1928622523
 30
0.0
 10
87.708852217
 20
246.0824994212
 30
0.0
 10
86.8498753826
 20
244.7127094638
 30
0.0
 10
86.2773647581
 20
243.1598165775
 30
0.0
 10
86.0211763538
 20
241.5102590276
 30
0.0
 10
86.0715608076
 20
240.394166851
 30
0.0
 10
86.1534069298
 20
239.8481257022
 30
0.0
  0
SPLINE
  5
341
100
AcDbEntity
  8
0
100
AcDbSpline
 62
7
  6
CONTINUOUS
 70
0
 71
3
 72
11
 73
7
 74
0
 42
0.0000001
 43
0.0000001
 44
0.0000000001
 40
0.0
 40
0.0
 40
0.0
 40
0.0
 40
0.2372801692
 40
0.4807048743
 40
0.7345138971
 40
1.0
 40
1.0
 40
1.0
 40
1.0
 10
80.9446219112
 20
230.5111338733
 30
0.0
 10
80.6884518826
 20
230.5469848098
 30
0.0
 10
80.1549456125
 20
230.539363481
 30
0.0
 10
79.3831409257
 20
230.2888016953
 30
0.0
 10
78.6843319883
 20
229.8210379006
 30
0.0
 10
78.3029284808
 20
229.3940945548
 30
0.0
 10
78.135654784
 20
229.1579158549
 30
0.0
  0
SPLINE
  5
342
100
AcDbEntity
  8
0
100
AcDbSpline
 62
7
  6
CONTINUOUS
 70
0
 71
3
 72
15
 73
11
 74
0
 42
0.0000001
 43
0.0000001
 44
0.0000000001
 40
0.0
 40
0.0
 40
0.0
 40
0.0
 40
0.1122971141
 40
0.2271854932
 40
0.346538784
 40
0.4710939575
 40
0.6004021822
 40
0.7330568959
 40
0.8670061248
 40
1.0
 40
1.0
 40
1.0
 40
1.0
 10
84.3967610287
 20
233.3843014434
 30
0.0
 10
83.9367571005
 20
233.4487608786
 30
0.0
 10
82.9819142437
 20
233.4439691774
 30
0.0
 10
81.590801102
 20
233.0333930142
 30
0.0
 10
80.311501458
 20
232.2501776623
 30
0.0
 10
79.2153441181
 20
231.1439052345
 30
0.0
 10
78.3595317854
 20
229.7791614435
 30
0.0
 10
77.7891303462
 20
228.2319893505
 30
0.0
 10
77.5338857597
 20
226.5885087206
 30
0.0
 10
77.5840846137
 20
225.4765282255
 30
0.0
 10
77.6656292158
 20
224.9324986857
 30
0.0
  0
SPLINE
  5
343
100
AcDbEntity
  8
0
100
AcDbSpline
 62
7
  6
CONTINUOUS
 70
0
 71
3
 72
11
 73
7
 74
0
 42
0.0000001
 43
0.0000001
 44
0.0000000001
 40
0.0
 40
0.0
 40
0.0
 40
0.0
 40
0.2632910783
 40
0.516264249
 40
0.7605899591
 40
1.0
 40
1.0
 40
1.0
 40
1.0
 10
77.7590416546
 20
224.9772634316
 30
0.0
 10
77.8678631155
 20
224.7506009641
 30
0.0
 10
78.1285885956
 20
224.3266750221
 30
0.0
 10
78.6449553651
 20
223.8062262301
 30
0.0
 10
79.2547343006
 20
223.4404800694
 30
0.0
 10
79.7056974862
 20
223.3134146554
 30
0.0
 10
79.9321174006
 20
223.2817272405
 30
0.0
  0
SPLINE
  5
344
100
AcDbEntity
  8
0
100
AcDbSpline
 62
7
  6
CONTINUOUS
 70
0
 71
3
 72
11
 73
7
 74
0
 42
0.0000001
 43
0.0000001
 44
0.0000000001
 40
0.0
 40
0.0
 40
0.0
 40
0.0
 40
0.2633182613
 40
0.5163008835
 40
0.7606152343
 40
1.0
 40
1.0
 40
1.0
 40
1.0
 10
86.2660632323
 20
239.9029178746
 30
0.0
 10
86.3747768703
 20
239.6757122828
 30
0.0
 10
86.6354438643
 20
239.250727671
 30
0.0
 10
87.1522044254
 20
238.7288981158
 30
0.0
 10
87.762765534
 20
238.3621718839
 30
0.0
 10
88.2144353229
 20
238.2348036544
 30
0.0
 10
88.4412069648
 20
238.2030670153
 30
0.0
  0
SPLINE
  5
345
100
AcDbEntity
  8
0
100
AcDbSpline
 62
7
  6
CONTINUOUS
 70
0
 71
3
 72
11
 73
7
 74
0
 42
0.0000001
 43
0.0000001
 44
0.0000000001
 40
0.0
 40
0.0
 40
0.0
 40
0.0
 40
0.2632910783
 40
0.516264249
 40
0.7605899591
 40
1.0
 40
1.0
 40
1.0
 40
1.0
 10
98.4201993902
 20
230.5156000412
 30
0.0
 10
98.5290208512
 20
230.2889375736
 30
0.0
 10
98.7897463313
 20
229.8650116317
 30
0.0
 10
99.3061131007
 20
229.3445628396
 30
0.0
 10
99.9158920363
 20
228.978816679
 30
0.0
 10
100.3668552218
 20
228.851751265
 30
0.0
 10
100.5932751363
 20
228.82006385
 30
0.0
  0
SPLINE
  5
346
100
AcDbEntity
  8
0
100
AcDbSpline
 62
7
  6
CONTINUOUS
 70
0
 71
3
 72
11
 73
7
 74
0
 42
0.0000001
 43
0.0000001
 44
0.0000000001
 40
0.0
 40
0.0
 40
0.0
 40
0.0
 40
0.2685754896
 40
0.5241420781
 40
0.7663548172
 40
1.0
 40
1.0
 40
1.0
 40
1.0
 10
90.650871864
 20
216.2167174503
 30
0.0
 10
90.7188323418
 20
215.7633151836
 30
0.0
 10
90.9678797513
 20
214.890252525
 30
0.0
 10
91.6789544385
 20
213.7688709571
 30
0.0
 10
92.6638504463
 20
212.9639368842
 30
0.0
 10
93.4539112268
 20
212.6971380075
 30
0.0
 10
93.8488968879
 20
212.6418231063
 30
0.0
  0
SPLINE
  5
347
100
AcDbEntity
  8
0
100
AcDbSpline
 62
7
  6
CONTINUOUS
 70
0
 71
3
 72
13
 73
9
 74
0
 42
0.0000001
 43
0.0000001
 44
0.0000000001
 40
0.0
 40
0.0
 40
0.0
 40
0.0
 40
0.1165686736
 40
0.2350949597
 40
0.3560377779
 40
0.4796816488
 40
0.7348633616
 40
1.0
 40
1.0
 40
1.0
 40
1.0
 10
101.1905855407
 20
250.8233977951
 30
0.0
 10
101.9380196418
 20
250.4973984035
 30
0.0
 10
103.3988842662
 20
249.7273594169
 30
0.0
 10
105.420918447
 20
248.2601429417
 30
0.0
 10
107.259132034
 20
246.4956509432
 30
0.0
 10
109.4478304308
 20
243.7584612664
 30
0.0
 10
111.5683483763
 20
239.7315265106
 30
0.0
 10
112.4933536835
 20
236.1761818219
 30
0.0
 10
112.7682855163
 20
234.3419581636
 30
0.0
  0
SPLINE
  5
348
100
AcDbEntity
  8
0
100
AcDbSpline
 62
7
  6
CONTINUOUS
 70
0
 71
3
 72
13
 73
9
 74
0
 42
0.0000001
 43
0.0000001
 44
0.0000000001
 40
0.0
 40
0.0
 40
0.0
 40
0.0
 40
0.2680782188
 40
0.5231815284
 40
0.6459686276
 40
0.7658128544
 40
0.8834852826
 40
1.0
 40
1.0
 40
1.0
 40
1.0
 10
97.7236552618
 20
242.9495942036
 30
0.0
 10
97.621350406
 20
243.632126979
 30
0.0
 10
97.2470344928
 20
244.9459053303
 30
0.0
 10
96.3409336272
 20
246.3732979677
 30
0.0
 10
95.4095833087
 20
247.2611286561
 30
0.0
 10
94.635794937
 20
247.7813631761
 30
0.0
 10
93.7972467453
 20
248.1503619103
 30
0.0
 10
93.2064877548
 20
248.2895527082
 30
0.0
 10
92.9094272802
 20
248.3311792103
 30
0.0
  0
SPLINE
  5
349
100
AcDbEntity
  8
0
100
AcDbSpline
 62
7
  6
CONTINUOUS
 70
0
 71
3
 72
13
 73
9
 74
0
 42
0.0000001
 43
0.0000001
 44
0.0000000001
 40
0.0
 40
0.0
 40
0.0
 40
0.0
 40
0.2680782262
 40
0.5231815334
 40
0.6459686261
 40
0.7658128409
 40
0.883485265
 40
1.0
 40
1.0
 40
1.0
 40
1.0
 10
89.1932538474
 20
228.0225416704
 30
0.0
 10
89.0913258701
 20
228.7025600796
 30
0.0
 10
88.7183889071
 20
230.0114986154
 30
0.0
 10
87.8156260107
 20
231.4336328585
 30
0.0
 10
86.8877067453
 20
232.3181928321
 30
0.0
 10
86.116768992
 20
232.8365108438
 30
0.0
 10
85.2813099185
 20
233.2041501905
 30
0.0
 10
84.6927272067
 20
233.3428282917
 30
0.0
 10
84.3967610287
 20
233.3843014434
 30
0.0
  0
SPLINE
  5
34A
100
AcDbEntity
  8
0
100
AcDbSpline
 62
7
  6
CONTINUOUS
 70
0
 71
3
 72
13
 73
9
 74
0
 42
0.0000001
 43
0.0000001
 44
0.0000000001
 40
0.0
 40
0.0
 40
0.0
 40
0.0
 40
0.2680782262
 40
0.5231815334
 40
0.6459686261
 40
0.7658128409
 40
0.883485265
 40
1.0
 40
1.0
 40
1.0
 40
1.0
 10
109.8544115831
 20
233.56087828
 30
0.0
 10
109.7524836057
 20
234.2408966892
 30
0.0
 10
109.3795466428
 20
235.549835225
 30
0.0
 10
108.4767837464
 20
236.9719694681
 30
0.0
 10
107.5488644809
 20
237.8565294417
 30
0.0
 10
106.7779267276
 20
238.3748474533
 30
0.0
 10
105.9424676541
 20
238.7424868
 30
0.0
 10
105.3538849424
 20
238.8811649013
 30
0.0
 10
105.0579187644
 20
238.9226380529
 30
0.0
  0
SPLINE
  5
34B
100
AcDbEntity
  8
0
100
AcDbSpline
 62
7
  6
CONTINUOUS
 70
0
 71
3
 72
20
 73
16
 74
0
 42
0.0000001
 43
0.0000001
 44
0.0000000001
 40
0.0
 40
0.0
 40
0.0
 40
0.0
 40
0.1300136163
 40
0.192217698
 40
0.2522860574
 40
0.3105656576
 40
0.3677207161
 40
0.4246267227
 40
0.4822092815
 40
0.5412627119
 40
0.6023106671
 40
0.7302582667
 40
0.7971234122
 40
0.8649526997
 40
1.0
 40
1.0
 40
1.0
 40
1.0
 10
90.0856417454
 20
215.6213194746
 30
0.0
 10
90.2086895854
 20
214.8003986781
 30
0.0
 10
90.5970070901
 20
213.599460271
 30
0.0
 10
91.5107218867
 20
212.2630785474
 30
0.0
 10
92.34598441
 20
211.4556867296
 30
0.0
 10
93.3092352527
 20
210.8650802878
 30
0.0
 10
94.3633162415
 20
210.5158272113
 30
0.0
 10
95.4655822854
 20
210.4234906392
 30
0.0
 10
96.5707021692
 20
210.5913254106
 30
0.0
 10
97.6345431134
 20
211.0113060367
 30
0.0
 10
98.9613274121
 20
211.8934054873
 30
0.0
 10
100.0237913232
 20
213.1918876341
 30
0.0
 10
100.7249619089
 20
214.7213313675
 30
0.0
 10
101.177622066
 20
216.3890300257
 30
0.0
 10
101.205189491
 20
217.7150104993
 30
0.0
 10
101.0773776608
 20
218.5677145509
 30
0.0
  0
SPLINE
  5
34C
100
AcDbEntity
  8
0
100
AcDbSpline
 62
7
  6
CONTINUOUS
 70
0
 71
3
 72
13
 73
9
 74
0
 42
0.0000001
 43
0.0000001
 44
0.0000000001
 40
0.0
 40
0.0
 40
0.0
 40
0.0
 40
0.1126064723
 40
0.2278109263
 40
0.3474931952
 40
0.4723914513
 40
0.7336564517
 40
1.0
 40
1.0
 40
1.0
 40
1.0
 10
100.5932751363
 20
228.82006385
 30
0.0
 10
100.8340235528
 20
228.7863711646
 30
0.0
 10
101.3337341345
 20
228.7888296284
 30
0.0
 10
102.0617547229
 20
229.0036847991
 30
0.0
 10
102.7313672555
 20
229.4136828013
 30
0.0
 10
103.5063182934
 20
230.1955731504
 30
0.0
 10
104.1368889954
 20
231.5030496114
 30
0.0
 10
104.2012883402
 20
232.6747346222
 30
0.0
 10
104.116056421
 20
233.2433643114
 30
0.0
  0
SPLINE
  5
34D
100
AcDbEntity
  8
0
100
AcDbSpline
 62
7
  6
CONTINUOUS
 70
0
 71
3
 72
20
 73
16
 74
0
 42
0.0000001
 43
0.0000001
 44
0.0000000001
 40
0.0
 40
0.0
 40
0.0
 40
0.0
 40
0.1300136163
 40
0.192217698
 40
0.2522860574
 40
0.3105656576
 40
0.3677207161
 40
0.4246267227
 40
0.4822092815
 40
0.5412627119
 40
0.6023106671
 40
0.7302582667
 40
0.7971234122
 40
0.8649526997
 40
1.0
 40
1.0
 40
1.0
 40
1.0
 10
101.0773776608
 20
218.5677145509
 30
0.0
 10
100.9543298234
 20
219.3886353479
 30
0.0
 10
100.5660123155
 20
220.5895737545
 30
0.0
 10
99.6522975196
 20
221.9259554782
 30
0.0
 10
98.8170349962
 20
222.7333472959
 30
0.0
 10
97.8537841536
 20
223.3239537378
 30
0.0
 10
96.7997031647
 20
223.6732068143
 30
0.0
 10
95.6974371208
 20
223.7655433864
 30
0.0
 10
94.592317237
 20
223.597708615
 30
0.0
 10
93.5284762928
 20
223.1777279889
 30
0.0
 10
92.2016919941
 20
222.2956285382
 30
0.0
 10
91.1392280831
 20
220.9971463914
 30
0.0
 10
90.4380574972
 20
219.4677026581
 30
0.0
 10
89.985397341
 20
217.8000039999
 30
0.0
 10
89.9578299126
 20
216.4740235259
 30
0.0
 10
90.0856417454
 20
215.6213194746
 30
0.0
  0
SPLINE
  5
34E
100
AcDbEntity
  8
0
100
AcDbSpline
 62
7
  6
CONTINUOUS
 70
0
 71
3
 72
13
 73
9
 74
0
 42
0.0000001
 43
0.0000001
 44
0.0000000001
 40
0.0
 40
0.0
 40
0.0
 40
0.0
 40
0.2620352514
 40
0.5218290612
 40
0.6477006196
 40
0.7693200866
 40
0.8865472593
 40
1.0
 40
1.0
 40
1.0
 40
1.0
 10
86.2021819717
 20
228.4414520493
 30
0.0
 10
86.3424256719
 20
227.5058080742
 30
0.0
 10
86.2891016598
 20
225.5797688582
 30
0.0
 10
85.43224253
 20
223.3497698487
 30
0.0
 10
84.3312543145
 20
221.873888059
 30
0.0
 10
83.3475471654
 20
220.9845018335
 30
0.0
 10
82.2388319925
 20
220.3418042883
 30
0.0
 10
81.434242524
 20
220.0940421084
 30
0.0
 10
81.0310711746
 20
220.0215944102
 30
0.0
  0
SPLINE
  5
34F
100
AcDbEntity
  8
0
100
AcDbSpline
 62
7
  6
CONTINUOUS
 70
0
 71
3
 72
11
 73
7
 74
0
 42
0.0000001
 43
0.0000001
 44
0.0000000001
 40
0.0
 40
0.0
 40
0.0
 40
0.0
 40
0.2350656353
 40
0.4796604125
 40
0.7350314606
 40
1.0
 40
1.0
 40
1.0
 40
1.0
 10
103.5124067624
 20
238.9043582957
 30
0.0
 10
103.9494136681
 20
238.6953596618
 30
0.0
 10
104.7832410208
 20
238.137430924
 30
0.0
 10
105.7869428812
 20
236.9823704124
 30
0.0
 10
106.5130449296
 20
235.5677227146
 30
0.0
 10
106.7823987034
 20
234.5197912582
 30
0.0
 10
106.8633397074
 20
233.9797886588
 30
0.0
  0
SPLINE
  5
350
100
AcDbEntity
  8
0
100
AcDbSpline
 62
7
  6
CONTINUOUS
 70
0
 71
3
 72
15
 73
11
 74
0
 42
0.0000001
 43
0.0000001
 44
0.0000000001
 40
0.0
 40
0.0
 40
0.0
 40
0.0
 40
0.1122971141
 40
0.2271854932
 40
0.346538784
 40
0.4710939575
 40
0.6004021822
 40
0.7330568959
 40
0.8670061248
 40
1.0
 40
1.0
 40
1.0
 40
1.0
 10
103.1232797702
 20
225.1090755223
 30
0.0
 10
103.5832836985
 20
225.0446160871
 30
0.0
 10
104.5381265553
 20
225.0494077883
 30
0.0
 10
105.929239697
 20
225.4599839515
 30
0.0
 10
107.208539341
 20
226.2431993034
 30
0.0
 10
108.3046966809
 20
227.3494717312
 30
0.0
 10
109.1605090136
 20
228.7142155222
 30
0.0
 10
109.7309104527
 20
230.2613876152
 30
0.0
 10
109.9861550392
 20
231.9048682451
 30
0.0
 10
109.9359561852
 20
233.0168487402
 30
0.0
 10
109.8544115831
 20
233.56087828
 30
0.0
  0
SPLINE
  5
351
100
AcDbEntity
  8
0
100
AcDbSpline
 62
7
  6
CONTINUOUS
 70
0
 71
3
 72
11
 73
7
 74
0
 42
0.0000001
 43
0.0000001
 44
0.0000000001
 40
0.0
 40
0.0
 40
0.0
 40
0.0
 40
0.2685843536
 40
0.5241471176
 40
0.7663573238
 40
1.0
 40
1.0
 40
1.0
 40
1.0
 10
83.4548986853
 20
227.7050277019
 30
0.0
 10
83.4015517724
 20
228.0609347238
 30
0.0
 10
83.2060747061
 20
228.7462544426
 30
0.0
 10
82.647859466
 20
229.6264442727
 30
0.0
 10
81.8748024607
 20
230.2582624543
 30
0.0
 10
81.2546640722
 20
230.4677435442
 30
0.0
 10
80.9446219112
 20
230.5111338733
 30
0.0
  0
SPLINE
  5
352
100
AcDbEntity
  8
0
100
AcDbSpline
 62
7
  6
CONTINUOUS
 70
0
 71
3
 72
13
 73
9
 74
0
 42
0.0000001
 43
0.0000001
 44
0.0000000001
 40
0.0
 40
0.0
 40
0.0
 40
0.0
 40
0.2620510381
 40
0.5218520799
 40
0.6477214612
 40
0.7693347217
 40
0.8865537736
 40
1.0
 40
1.0
 40
1.0
 40
1.0
 10
94.7325833861
 20
243.3685045824
 30
0.0
 10
94.8734239901
 20
242.4288783292
 30
0.0
 10
94.8196887278
 20
240.4946316984
 30
0.0
 10
93.9585489833
 20
238.2553889634
 30
0.0
 10
92.8522374867
 20
236.7738270273
 30
0.0
 10
91.8638853354
 20
235.8813502539
 30
0.0
 10
90.7500612944
 20
235.2368649936
 30
0.0
 10
89.9418905228
 20
234.9888648774
 30
0.0
 10
89.5369732169
 20
234.916550681
 30
0.0
  0
SPLINE
  5
353
100
AcDbEntity
  8
0
100
AcDbSpline
 62
7
  6
CONTINUOUS
 70
0
 71
3
 72
13
 73
9
 74
0
 42
0.0000001
 43
0.0000001
 44
0.0000000001
 40
0.0
 40
0.0
 40
0.0
 40
0.0
 40
0.1126064723
 40
0.2278109263
 40
0.3474931952
 40
0.4723914513
 40
0.7336564517
 40
1.0
 40
1.0
 40
1.0
 40
1.0
 10
88.4412069648
 20
238.2030670153
 30
0.0
 10
88.6819553813
 20
238.1693743298
 30
0.0
 10
89.181665963
 20
238.1718327937
 30
0.0
 10
89.9096865514
 20
238.3866879644
 30
0.0
 10
90.579299084
 20
238.7966859666
 30
0.0
 10
91.3542501219
 20
239.5785763157
 30
0.0
 10
91.9848208239
 20
240.8860527766
 30
0.0
 10
92.0492201687
 20
242.0577377875
 30
0.0
 10
91.9639882495
 20
242.6263674767
 30
0.0
  0
SPLINE
  5
354
100
AcDbEntity
  8
0
100
AcDbSpline
 62
7
  6
CONTINUOUS
 70
0
 71
3
 72
11
 73
7
 74
0
 42
0.0000001
 43
0.0000001
 44
0.0000000001
 40
0.0
 40
0.0
 40
0.0
 40
0.0
 40
0.2685843536
 40
0.5241471176
 40
0.7663573238
 40
1.0
 40
1.0
 40
1.0
 40
1.0
 10
91.9639882495
 20
242.6263674767
 30
0.0
 10
91.9106413365
 20
242.9822744986
 30
0.0
 10
91.7151642703
 20
243.6675942174
 30
0.0
 10
91.1569490302
 20
244.5477840475
 30
0.0
 10
90.3838920249
 20
245.1796022291
 30
0.0
 10
89.7637536364
 20
245.389083319
 30
0.0
 10
89.4537114753
 20
245.4324736481
 30
0.0
  0
SPLINE
  5
355
100
AcDbEntity
  8
0
100
AcDbSpline
 62
7
  6
CONTINUOUS
 70
0
 71
3
 72
13
 73
9
 74
0
 42
0.0000001
 43
0.0000001
 44
0.0000000001
 40
0.0
 40
0.0
 40
0.0
 40
0.0
 40
0.2620352514
 40
0.5218290612
 40
0.6477006196
 40
0.7693200866
 40
0.8865472593
 40
1.0
 40
1.0
 40
1.0
 40
1.0
 10
106.8633397074
 20
233.9797886588
 30
0.0
 10
107.0035834076
 20
233.0441446838
 30
0.0
 10
106.9502593955
 20
231.1181054678
 30
0.0
 10
106.0934002656
 20
228.8881064582
 30
0.0
 10
104.9924120502
 20
227.4122246685
 30
0.0
 10
104.0087049011
 20
226.5228384431
 30
0.0
 10
102.8999897282
 20
225.8801408979
 30
0.0
 10
102.0954002596
 20
225.6323787179
 30
0.0
 10
101.6922289102
 20
225.5599310197
 30
0.0
  0
SPLINE
  5
356
100
AcDbEntity
  8
0
100
AcDbSpline
 62
7
  6
CONTINUOUS
 70
0
 71
3
 72
11
 73
7
 74
0
 42
0.0000001
 43
0.0000001
 44
0.0000000001
 40
0.0
 40
0.0
 40
0.0
 40
0.0
 40
0.2350538094
 40
0.47963923
 40
0.7350137892
 40
1.0
 40
1.0
 40
1.0
 40
1.0
 10
91.3633977384
 20
248.3140821123
 30
0.0
 10
91.8027204812
 20
248.1046624397
 30
0.0
 10
92.6411022943
 20
247.544996558
 30
0.0
 10
93.6503764344
 20
246.3851619403
 30
0.0
 10
94.3804881162
 20
244.9640347334
 30
0.0
 10
94.6512533607
 20
243.9111025611
 30
0.0
 10
94.7325833861
 20
243.3685045824
 30
0.0
  0
SPLINE
  5
357
100
AcDbEntity
  8
0
100
AcDbSpline
 62
7
  6
CONTINUOUS
 70
0
 71
3
 72
11
 73
7
 74
0
 42
0.0000001
 43
0.0000001
 44
0.0000000001
 40
0.0
 40
0.0
 40
0.0
 40
0.0
 40
0.2685843536
 40
0.5241471176
 40
0.7663573238
 40
1.0
 40
1.0
 40
1.0
 40
1.0
 10
104.116056421
 20
233.2433643114
 30
0.0
 10
104.062709508
 20
233.5992713334
 30
0.0
 10
103.8672324418
 20
234.2845910522
 30
0.0
 10
103.3090172017
 20
235.1647808822
 30
0.0
 10
102.5359601963
 20
235.7965990638
 30
0.0
 10
101.9158218079
 20
236.0060801538
 30
0.0
 10
101.6057796468
 20
236.0494704828
 30
0.0
  0
SPLINE
  5
358
100
AcDbEntity
  8
0
100
AcDbSpline
 62
7
  6
CONTINUOUS
 70
0
 71
3
 72
11
 73
7
 74
0
 42
0.0000001
 43
0.0000001
 44
0.0000000001
 40
0.0
 40
0.0
 40
0.0
 40
0.0
 40
0.2685754896
 40
0.5241420781
 40
0.7663548172
 40
1.0
 40
1.0
 40
1.0
 40
1.0
 10
98.3368225434
 20
218.2769786575
 30
0.0
 10
98.2688620662
 20
218.7303809253
 30
0.0
 10
98.0198146582
 20
219.6034435866
 30
0.0
 10
97.308739971
 20
220.7248251582
 30
0.0
 10
96.3238439619
 20
221.5297592341
 30
0.0
 10
95.5337831798
 20
221.7965581117
 30
0.0
 10
95.1387975178
 20
221.851873013
 30
0.0
  0
SPLINE
  5
359
100
AcDbEntity
  8
0
100
AcDbSpline
 62
7
  6
CONTINUOUS
 70
0
 71
3
 72
15
 73
11
 74
0
 42
0.0000001
 43
0.0000001
 44
0.0000000001
 40
0.0
 40
0.0
 40
0.0
 40
0.0
 40
0.1122971039
 40
0.2271854702
 40
0.3465387474
 40
0.4710939192
 40
0.6004021558
 40
0.7330568714
 40
0.8670061138
 40
1.0
 40
1.0
 40
1.0
 40
1.0
 10
90.9676349114
 20
234.4665406955
 30
0.0
 10
91.4293396728
 20
234.4018429122
 30
0.0
 10
92.3877129895
 20
234.4066523155
 30
0.0
 10
93.7839696748
 20
234.8187464892
 30
0.0
 10
95.0679995143
 20
235.6048576535
 30
0.0
 10
96.1682099747
 20
236.7152204846
 30
0.0
 10
97.027186809
 20
238.085010442
 30
0.0
 10
97.5996974335
 20
239.6379033283
 30
0.0
 10
97.8558858378
 20
241.2874608782
 30
0.0
 10
97.8055013841
 20
242.4035530548
 30
0.0
 10
97.7236552618
 20
242.9495942036
 30
0.0
  0
SPLINE
  5
35A
100
AcDbEntity
  8
0
100
AcDbSpline
 62
7
  6
CONTINUOUS
 70
0
 71
3
 72
15
 73
11
 74
0
 42
0.0000001
 43
0.0000001
 44
0.0000000001
 40
0.0
 40
0.0
 40
0.0
 40
0.0
 40
0.130598494
 40
0.2622778569
 40
0.3934203931
 40
0.5224611743
 40
0.6481155803
 40
0.7695775212
 40
0.8866818642
 40
1.0
 40
1.0
 40
1.0
 40
1.0
 10
74.7517552827
 20
224.1514188021
 30
0.0
 10
74.5222904157
 20
225.6823069624
 30
0.0
 10
74.3340784067
 20
228.8038871537
 30
0.0
 10
74.8507044303
 20
233.4598141231
 30
0.0
 10
76.1414592731
 20
237.9455813123
 30
0.0
 10
78.1560572002
 20
242.0778469698
 30
0.0
 10
80.8151494436
 20
245.6888633014
 30
0.0
 10
84.0156998854
 20
248.6295631045
 30
0.0
 10
87.6288084563
 20
250.7740267968
 30
0.0
 10
90.2560160242
 20
251.620034919
 30
0.0
 10
91.5745900176
 20
251.8758764284
 30
0.0
  0
SPLINE
  5
35B
100
AcDbEntity
  8
0
100
AcDbSpline
 62
7
  6
CONTINUOUS
 70
0
 71
3
 72
15
 73
11
 74
0
 42
0.0000001
 43
0.0000001
 44
0.0000000001
 40
0.0
 40
0.0
 40
0.0
 40
0.0
 40
0.1163524923
 40
0.2338611465
 40
0.3535429407
 40
0.4761630491
 40
0.6021667038
 40
0.7316646168
 40
0.8644432968
 40
1.0
 40
1.0
 40
1.0
 40
1.0
 10
90.5699262836
 20
206.4690221402
 30
0.0
 10
89.5938770583
 20
206.6057555574
 30
0.0
 10
87.6528656416
 20
207.0631573567
 30
0.0
 10
84.8975184912
 20
208.2754764609
 30
0.0
 10
82.3552290529
 20
209.9846154491
 30
0.0
 10
80.0871969386
 20
212.1474498624
 30
0.0
 10
78.1453309098
 20
214.7109898903
 30
0.0
 10
76.5736608363
 20
217.6139493836
 30
0.0
 10
75.4076549717
 20
220.7870449861
 30
0.0
 10
74.9219653769
 20
223.0158522923
 30
0.0
 10
74.7517552827
 20
224.1514188021
 30
0.0
  0
SPLINE
  5
35C
100
AcDbEntity
  8
0
100
AcDbSpline
 62
7
  6
CONTINUOUS
 70
0
 71
3
 72
13
 73
9
 74
0
 42
0.0000001
 43
0.0000001
 44
0.0000000001
 40
0.0
 40
0.0
 40
0.0
 40
0.0
 40
0.1126064723
 40
0.2278109263
 40
0.3474931952
 40
0.4723914513
 40
0.7336564517
 40
1.0
 40
1.0
 40
1.0
 40
1.0
 10
79.9321174006
 20
223.2817272405
 30
0.0
 10
80.1728658171
 20
223.248034555
 30
0.0
 10
80.6725763988
 20
223.2504930188
 30
0.0
 10
81.4005969872
 20
223.4653481896
 30
0.0
 10
82.0702095199
 20
223.8753461917
 30
0.0
 10
82.8451605577
 20
224.6572365409
 30
0.0
 10
83.4757312598
 20
225.9647130018
 30
0.0
 10
83.5401306045
 20
227.1363980127
 30
0.0
 10
83.4548986853
 20
227.7050277019
 30
0.0
  0
SPLINE
  5
35D
100
AcDbEntity
  8
0
100
AcDbSpline
 62
7
  6
CONTINUOUS
 70
0
 71
3
 72
13
 73
9
 74
0
 42
0.0000001
 43
0.0000001
 44
0.0000000001
 40
0.0
 40
0.0
 40
0.0
 40
0.0
 40
0.1126084257
 40
0.227816271
 40
0.3475015298
 40
0.4724025418
 40
0.7336674034
 40
1.0
 40
1.0
 40
1.0
 40
1.0
 10
93.8488968879
 20
212.6418231063
 30
0.0
 10
94.1556049366
 20
212.5988708498
 30
0.0
 10
94.7922430314
 20
212.6020442258
 30
0.0
 10
95.7197388165
 20
212.8757605177
 30
0.0
 10
96.5728237668
 20
213.3981128405
 30
0.0
 10
97.5600809571
 20
214.3942491563
 30
0.0
 10
98.3633591165
 20
216.0599333256
 30
0.0
 10
98.4454011223
 20
217.5525903667
 30
0.0
 10
98.3368225434
 20
218.2769786575
 30
0.0
  0
SPLINE
  5
35E
100
AcDbEntity
  8
0
100
AcDbSpline
 62
7
  6
CONTINUOUS
 70
0
 71
3
 72
11
 73
7
 74
0
 42
0.0000001
 43
0.0000001
 44
0.0000000001
 40
0.0
 40
0.0
 40
0.0
 40
0.0
 40
0.2350656353
 40
0.4796604125
 40
0.7350314606
 40
1.0
 40
1.0
 40
1.0
 40
1.0
 10
82.8512490267
 20
233.3660216862
 30
0.0
 10
83.2882559324
 20
233.1570230522
 30
0.0
 10
84.1220832851
 20
232.5990943145
 30
0.0
 10
85.1257851455
 20
231.4440338029
 30
0.0
 10
85.8518871939
 20
230.0293861051
 30
0.0
 10
86.1212409678
 20
228.9814546487
 30
0.0
 10
86.2021819717
 20
228.4414520493
 30
0.0
  0
SPLINE
  5
35F
100
AcDbEntity
  8
0
100
AcDbSpline
 62
7
  6
CONTINUOUS
 70
0
 71
3
 72
15
 73
11
 74
0
 42
0.0000001
 43
0.0000001
 44
0.0000000001
 40
0.0
 40
0.0
 40
0.0
 40
0.0
 40
0.1122971141
 40
0.2271854932
 40
0.346538784
 40
0.4710939575
 40
0.6004021822
 40
0.7330568959
 40
0.8670061248
 40
1.0
 40
1.0
 40
1.0
 40
1.0
 10
82.4621220345
 20
219.5707389128
 30
0.0
 10
82.9221259628
 20
219.5062794776
 30
0.0
 10
83.8769688196
 20
219.5110711787
 30
0.0
 10
85.2680819613
 20
219.921647342
 30
0.0
 10
86.5473816053
 20
220.7048626938
 30
0.0
 10
87.6435389452
 20
221.8111351216
 30
0.0
 10
88.4993512779
 20
223.1758789127
 30
0.0
 10
89.069752717
 20
224.7230510057
 30
0.0
 10
89.3249973036
 20
226.3665316355
 30
0.0
 10
89.2747984496
 20
227.4785121306
 30
0.0
 10
89.1932538474
 20
228.0225416704
 30
0.0
  0
SPLINE
  5
360
100
AcDbEntity
  8
0
100
AcDbSpline
 62
7
  6
CONTINUOUS
 70
0
 71
3
 72
15
 73
11
 74
0
 42
0.0000001
 43
0.0000001
 44
0.0000000001
 40
0.0
 40
0.0
 40
0.0
 40
0.0
 40
0.0649805687
 40
0.1312910421
 40
0.2192089647
 40
0.3327805492
 40
0.4704272533
 40
0.6294071944
 40
0.8068701496
 40
1.0
 40
1.0
 40
1.0
 40
1.0
 10
69.137743028
 20
205.5426511357
 30
0.0
 10
69.1740216367
 20
205.552373398
 30
0.0
 10
69.2467675305
 20
205.5952288951
 30
0.0
 10
69.2752800559
 20
205.7280473159
 30
0.0
 10
69.2441217203
 20
205.8805183921
 30
0.0
 10
69.1711490317
 20
206.0633121751
 30
0.0
 10
69.0581511026
 20
206.2720542198
 30
0.0
 10
68.9103395229
 20
206.5030122873
 30
0.0
 10
68.7313129326
 20
206.7514323938
 30
0.0
 10
68.5984777962
 20
206.9195632247
 30
0.0
 10
68.5276303766
 20
207.0058283825
 30
0.0
  0
SPLINE
  5
361
100
AcDbEntity
  8
0
100
AcDbSpline
 62
7
  6
CONTINUOUS
 70
0
 71
3
 72
9
 73
5
 74
0
 42
0.0000001
 43
0.0000001
 44
0.0000000001
 40
0.0
 40
0.0
 40
0.0
 40
0.0
 40
0.2693852278
 40
1.0
 40
1.0
 40
1.0
 40
1.0
 10
49.6881797374
 20
245.6340140658
 30
0.0
 10
49.7094392607
 20
245.6397116887
 30
0.0
 10
49.7890841206
 20
245.6576289595
 30
0.0
 10
49.8728043435
 20
245.6608587492
 30
0.0
 10
49.9317043617
 20
245.6511553926
 30
0.0
  0
SPLINE
  5
362
100
AcDbEntity
  8
0
100
AcDbSpline
 62
7
  6
CONTINUOUS
 70
0
 71
3
 72
16
 73
12
 74
0
 42
0.0000001
 43
0.0000001
 44
0.0000000001
 40
0.0
 40
0.0
 40
0.0
 40
0.0
 40
0.0845966678
 40
0.1344271136
 40
0.1900629507
 40
0.3176484217
 40
0.4617926671
 40
0.612614321
 40
0.7589147597
 40
0.8903588337
 40
1.0
 40
1.0
 40
1.0
 40
1.0
 10
70.5765064648
 20
262.380650823
 30
0.0
 10
70.6858828226
 20
262.4324911833
 30
0.0
 10
70.8319449675
 20
262.5744502862
 30
0.0
 10
70.959376287
 20
262.8148160606
 30
0.0
 10
71.0655583517
 20
263.1326396207
 30
0.0
 10
71.117906973
 20
263.6027536702
 30
0.0
 10
71.0688465657
 20
264.2081034502
 30
0.0
 10
70.9142915367
 20
264.823142904
 30
0.0
 10
70.6688067942
 20
265.3885686284
 30
0.0
 10
70.3570387601
 20
265.8504898321
 30
0.0
 10
70.0951939899
 20
266.0856102834
 30
0.0
 10
69.95935157
 20
266.1640703423
 30
0.0
  0
SPLINE
  5
363
100
AcDbEntity
  8
0
100
AcDbSpline
 62
7
  6
CONTINUOUS
 70
0
 71
3
 72
9
 73
5
 74
0
 42
0.0000001
 43
0.0000001
 44
0.0000000001
 40
0.0
 40
0.0
 40
0.0
 40
0.0
 40
0.2524730622
 40
1.0
 40
1.0
 40
1.0
 40
1.0
 10
40.4047910504
 20
226.2635927816
 30
0.0
 10
40.4860810183
 20
225.7212620491
 30
0.0
 10
40.858237822
 20
223.581088607
 30
0.0
 10
41.4320157207
 20
221.4753547557
 30
0.0
 10
41.974981713
 20
219.9451497208
 30
0.0
  0
SPLINE
  5
364
100
AcDbEntity
  8
0
100
AcDbSpline
 62
7
  6
CONTINUOUS
 70
0
 71
3
 72
13
 73
9
 74
0
 42
0.0000001
 43
0.0000001
 44
0.0000000001
 40
0.0
 40
0.0
 40
0.0
 40
0.0
 40
0.2646852465
 40
0.51828761
 40
0.6414133459
 40
0.7623714139
 40
0.881686605
 40
1.0
 40
1.0
 40
1.0
 40
1.0
 10
41.974981713
 20
219.9451497208
 30
0.0
 10
42.7587034502
 20
217.736438742
 30
0.0
 10
44.7683170937
 20
213.5601083718
 30
0.0
 10
48.4159937465
 20
209.1243237311
 30
0.0
 10
51.8377829675
 20
206.3290114735
 30
0.0
 10
54.5912425977
 20
204.6436350329
 30
0.0
 10
57.5137755179
 20
203.3770419559
 30
0.0
 10
59.5525771725
 20
202.8230200534
 30
0.0
 10
60.5807791473
 20
202.6223723233
 30
0.0
  0
SPLINE
  5
365
100
AcDbEntity
  8
0
100
AcDbSpline
 62
7
  6
CONTINUOUS
 70
0
 71
3
 72
11
 73
7
 74
0
 42
0.0000001
 43
0.0000001
 44
0.0000000001
 40
0.0
 40
0.0
 40
0.0
 40
0.0
 40
0.26857793
 40
0.524145667
 40
0.7663529814
 40
1.0
 40
1.0
 40
1.0
 40
1.0
 10
65.7289614034
 20
200.6923704278
 30
0.0
 10
65.8166529936
 20
200.1073309009
 30
0.0
 10
66.1380079911
 20
198.9807923336
 30
0.0
 10
67.0555310994
 20
197.5338607188
 30
0.0
 10
68.3263609392
 20
196.4952465509
 30
0.0
 10
69.3457857757
 20
196.1509962778
 30
0.0
 10
69.8554476738
 20
196.0796205032
 30
0.0
  0
SPLINE
  5
366
100
AcDbEntity
  8
0
100
AcDbSpline
 62
7
  6
CONTINUOUS
 70
0
 71
3
 72
8
 73
4
 74
0
 42
0.0000001
 43
0.0000001
 44
0.0000000001
 40
0.0
 40
0.0
 40
0.0
 40
0.0
 40
1.0
 40
1.0
 40
1.0
 40
1.0
 10
63.2706595816
 20
243.456231209
 30
0.0
 10
58.8242091472
 20
244.1870697938
 30
0.0
 10
54.3778852731
 20
244.9186789034
 30
0.0
 10
49.9317043617
 20
245.6511553926
 30
0.0
  0
SPLINE
  5
367
100
AcDbEntity
  8
0
100
AcDbSpline
 62
7
  6
CONTINUOUS
 70
0
 71
3
 72
13
 73
9
 74
0
 42
0.0000001
 43
0.0000001
 44
0.0000000001
 40
0.0
 40
0.0
 40
0.0
 40
0.0
 40
0.2575614247
 40
0.5149717042
 40
0.6412023585
 40
0.7643892362
 40
0.8840213982
 40
1.0
 40
1.0
 40
1.0
 40
1.0
 10
120.6195254558
 20
236.4465260752
 30
0.0
 10
121.1705071895
 20
232.7706195019
 30
0.0
 10
121.1654303087
 20
225.2179045478
 30
0.0
 10
118.5065025234
 20
216.2117341312
 30
0.0
 10
114.9165916609
 20
209.8104808008
 30
0.0
 10
111.6062699405
 20
205.6079292637
 30
0.0
 10
107.7609594159
 20
202.1053806933
 30
0.0
 10
104.8667316653
 20
200.2787530857
 30
0.0
 10
103.3731648109
 20
199.5233458567
 30
0.0
  0
SPLINE
  5
368
100
AcDbEntity
  8
0
100
AcDbSpline
 62
7
  6
CONTINUOUS
 70
0
 71
3
 72
13
 73
9
 74
0
 42
0.0000001
 43
0.0000001
 44
0.0000000001
 40
0.0
 40
0.0
 40
0.0
 40
0.0
 40
0.2663344783
 40
0.5275954283
 40
0.6524973912
 40
0.7721836894
 40
0.8873916941
 40
1.0
 40
1.0
 40
1.0
 40
1.0
 10
103.3817108733
 20
199.4663303062
 30
0.0
 10
103.5218129669
 20
198.5316310677
 30
0.0
 10
103.4159469914
 20
196.6056316044
 30
0.0
 10
102.3794582003
 20
194.4563756319
 30
0.0
 10
101.1055883126
 20
193.1710427569
 30
0.0
 10
100.0048293129
 20
192.4970370831
 30
0.0
 10
98.8080593082
 20
192.1438527898
 30
0.0
 10
97.9865929914
 20
192.13976034
 30
0.0
 10
97.5908414561
 20
192.1951791886
 30
0.0
  0
SPLINE
  5
369
100
AcDbEntity
  8
0
100
AcDbSpline
 62
7
  6
CONTINUOUS
 70
0
 71
3
 72
11
 73
7
 74
0
 42
0.0000001
 43
0.0000001
 44
0.0000000001
 40
0.0
 40
0.0
 40
0.0
 40
0.0
 40
0.2685863187
 40
0.5241478096
 40
0.7663609521
 40
1.0
 40
1.0
 40
1.0
 40
1.0
 10
95.5304709338
 20
197.3617623942
 30
0.0
 10
95.581625639
 20
197.0204808137
 30
0.0
 10
95.7690594658
 20
196.3633206424
 30
0.0
 10
96.3043531355
 20
195.5193244722
 30
0.0
 10
97.0456430589
 20
194.913447809
 30
0.0
 10
97.6403067963
 20
194.7126917293
 30
0.0
 10
97.9375905845
 20
194.6710077125
 30
0.0
  0
SPLINE
  5
36A
100
AcDbEntity
  8
0
100
AcDbSpline
 62
7
  6
CONTINUOUS
 70
0
 71
3
 72
15
 73
11
 74
0
 42
0.0000001
 43
0.0000001
 44
0.0000000001
 40
0.0
 40
0.0
 40
0.0
 40
0.0
 40
0.1355589416
 40
0.2683335931
 40
0.3978337174
 40
0.523839062
 40
0.6464592006
 40
0.7661407765
 40
0.8836511463
 40
1.0
 40
1.0
 40
1.0
 40
1.0
 10
69.3798542714
 20
222.7114512836
 30
0.0
 10
69.5981707335
 20
221.2549403524
 30
0.0
 10
70.2210937396
 20
218.3962653839
 30
0.0
 10
71.7166828769
 20
214.3264464921
 30
0.0
 10
73.7324766273
 20
210.6030658353
 30
0.0
 10
76.2231915305
 20
207.3150370997
 30
0.0
 10
79.1321995501
 20
204.5409638242
 30
0.0
 10
82.3929733469
 20
202.3487828325
 30
0.0
 10
85.9270100925
 20
200.7939518911
 30
0.0
 10
88.4165191082
 20
200.2071593202
 30
0.0
 10
89.6683738659
 20
200.0318265241
 30
0.0
  0
SPLINE
  5
36B
100
AcDbEntity
  8
0
100
AcDbSpline
 62
7
  6
CONTINUOUS
 70
0
 71
3
 72
13
 73
9
 74
0
 42
0.0000001
 43
0.0000001
 44
0.0000000001
 40
0.0
 40
0.0
 40
0.0
 40
0.0
 40
0.117578244
 40
0.2384278657
 40
0.3622552961
 40
0.488506398
 40
0.7445737653
 40
1.0
 40
1.0
 40
1.0
 40
1.0
 10
82.1077382015
 20
254.4818201676
 30
0.0
 10
80.9502341619
 20
253.6809884671
 30
0.0
 10
78.7329567943
 20
251.8614722326
 30
0.0
 10
75.8283953045
 20
248.6212221157
 30
0.0
 10
73.3638562279
 20
244.9089236966
 30
0.0
 10
70.7343939923
 20
239.4320698369
 30
0.0
 10
68.8453956746
 20
231.9402983897
 30
0.0
 10
68.9265968061
 20
225.7353847361
 30
0.0
 10
69.3798542714
 20
222.7114512836
 30
0.0
  0
SPLINE
  5
36C
100
AcDbEntity
  8
0
100
AcDbSpline
 62
7
  6
CONTINUOUS
 70
0
 71
3
 72
9
 73
5
 74
0
 42
0.0000001
 43
0.0000001
 44
0.0000000001
 40
0.0
 40
0.0
 40
0.0
 40
0.0
 40
0.5212697185
 40
1.0
 40
1.0
 40
1.0
 40
1.0
 10
72.7652105326
 20
270.1052152205
 30
0.0
 10
72.5909914335
 20
270.1774617381
 30
0.0
 10
72.2364359476
 20
270.2758366498
 30
0.0
 10
71.8665427145
 20
270.2489415984
 30
0.0
 10
71.699236739
 20
270.2040905636
 30
0.0
  0
SPLINE
  5
36D
100
AcDbEntity
  8
0
100
AcDbSpline
 62
7
  6
CONTINUOUS
 70
0
 71
3
 72
11
 73
7
 74
0
 42
0.0000001
 43
0.0000001
 44
0.0000000001
 40
0.0
 40
0.0
 40
0.0
 40
0.0
 40
0.2711589291
 40
0.5264080859
 40
0.7682316882
 40
1.0
 40
1.0
 40
1.0
 40
1.0
 10
53.9941996914
 20
254.9971959921
 30
0.0
 10
54.9405060059
 20
256.5865698266
 30
0.0
 10
56.94464257
 20
259.5777434481
 30
0.0
 10
60.3913227499
 20
263.5455068393
 30
0.0
 10
64.1581413647
 20
266.8170209473
 30
0.0
 10
66.9103596189
 20
268.540593979
 30
0.0
 10
68.3164076646
 20
269.2636028777
 30
0.0
  0
SPLINE
  5
36E
100
AcDbEntity
  8
0
100
AcDbSpline
 62
7
  6
CONTINUOUS
 70
0
 71
3
 72
9
 73
5
 74
0
 42
0.0000001
 43
0.0000001
 44
0.0000000001
 40
0.0
 40
0.0
 40
0.0
 40
0.0
 40
0.268272445
 40
1.0
 40
1.0
 40
1.0
 40
1.0
 10
69.95935157
 20
266.1640703423
 30
0.0
 10
69.9328666825
 20
266.1793675215
 30
0.0
 10
69.8318727755
 20
266.2320877007
 30
0.0
 10
69.7200744864
 20
266.2662524046
 30
0.0
 10
69.6370396882
 20
266.2742880534
 30
0.0
  0
SPLINE
  5
36F
100
AcDbEntity
  8
0
100
AcDbSpline
 62
7
  6
CONTINUOUS
 70
0
 71
3
 72
9
 73
5
 74
0
 42
0.0000001
 43
0.0000001
 44
0.0000000001
 40
0.0
 40
0.0
 40
0.0
 40
0.0
 40
0.2558559529
 40
1.0
 40
1.0
 40
1.0
 40
1.0
 10
69.6370396882
 20
266.2742880534
 30
0.0
 10
69.6197879865
 20
266.2759575777
 30
0.0
 10
69.5521271822
 20
266.2796840652
 30
0.0
 10
69.4837422379
 20
266.2714090423
 30
0.0
 10
69.4350504096
 20
266.258359726
 30
0.0
  0
SPLINE
  5
370
100
AcDbEntity
  8
0
100
AcDbSpline
 62
7
  6
CONTINUOUS
 70
0
 71
3
 72
9
 73
5
 74
0
 42
0.0000001
 43
0.0000001
 44
0.0000000001
 40
0.0
 40
0.0
 40
0.0
 40
0.0
 40
0.4919462278
 40
1.0
 40
1.0
 40
1.0
 40
1.0
 10
116.0946311879
 20
249.1361142729
 30
0.0
 10
117.2533365114
 20
247.2422044711
 30
0.0
 10
119.1932799392
 20
243.1265806778
 30
0.0
 10
120.2796332336
 20
238.7141367371
 30
0.0
 10
120.6195254558
 20
236.4465260752
 30
0.0
  0
SPLINE
  5
371
100
AcDbEntity
  8
0
100
AcDbSpline
 62
7
  6
CONTINUOUS
 70
0
 71
3
 72
15
 73
11
 74
0
 42
0.0000001
 43
0.0000001
 44
0.0000000001
 40
0.0
 40
0.0
 40
0.0
 40
0.0
 40
0.1144621305
 40
0.2327611011
 40
0.3550613366
 40
0.4809778712
 40
0.6096706356
 40
0.7399751066
 40
0.8705387148
 40
1.0
 40
1.0
 40
1.0
 40
1.0
 10
59.8468321736
 20
262.7567076585
 30
0.0
 10
58.240383672
 20
262.1962124248
 30
0.0
 10
55.0880624776
 20
260.701408916
 30
0.0
 10
50.8349516109
 20
257.5250048165
 30
0.0
 10
47.1235424224
 20
253.4963154204
 30
0.0
 10
44.0816472999
 20
248.7599102363
 30
0.0
 10
41.8105549811
 20
243.4813420259
 30
0.0
 10
40.3871744626
 20
237.8433430744
 30
0.0
 10
39.8591954315
 20
232.0426928337
 30
0.0
 10
40.1195330521
 20
228.166708052
 30
0.0
 10
40.4047910504
 20
226.2635927816
 30
0.0
  0
SPLINE
  5
372
100
AcDbEntity
  8
0
100
AcDbSpline
 62
7
  6
CONTINUOUS
 70
0
 71
3
 72
9
 73
5
 74
0
 42
0.0000001
 43
0.0000001
 44
0.0000000001
 40
0.0
 40
0.0
 40
0.0
 40
0.0
 40
0.5010517091
 40
1.0
 40
1.0
 40
1.0
 40
1.0
 10
63.2706595816
 20
243.456231209
 30
0.0
 10
63.3144925707
 20
243.4490266218
 30
0.0
 10
63.4005431099
 20
243.4210931494
 30
0.0
 10
63.4723697739
 20
243.366321779
 30
0.0
 10
63.503430572
 20
243.3348268385
 30
0.0
  0
SPLINE
  5
373
100
AcDbEntity
  8
0
100
AcDbSpline
 62
7
  6
CONTINUOUS
 70
0
 71
3
 72
12
 73
8
 74
0
 42
0.0000001
 43
0.0000001
 44
0.0000000001
 40
0.0
 40
0.0
 40
0.0
 40
0.0
 40
0.1820373995
 40
0.2941623872
 40
0.4186181887
 40
0.6964418016
 40
1.0
 40
1.0
 40
1.0
 40
1.0
 10
63.503430572
 20
243.3348268385
 30
0.0
 10
63.6048745055
 20
243.2319650052
 30
0.0
 10
63.6917201958
 20
242.9972409208
 30
0.0
 10
63.7277093601
 20
242.6691515848
 30
0.0
 10
63.7221312328
 20
242.259168541
 30
0.0
 10
63.6345416647
 20
241.7039630529
 30
0.0
 10
63.5068221065
 20
241.2593728508
 30
0.0
 10
63.4274603263
 20
241.0319084986
 30
0.0
  0
SPLINE
  5
374
100
AcDbEntity
  8
0
100
AcDbSpline
 62
7
  6
CONTINUOUS
 70
0
 71
3
 72
9
 73
5
 74
0
 42
0.0000001
 43
0.0000001
 44
0.0000000001
 40
0.0
 40
0.0
 40
0.0
 40
0.0
 40
0.5011449802
 40
1.0
 40
1.0
 40
1.0
 40
1.0
 10
63.4274603263
 20
241.0319084986
 30
0.0
 10
62.4164198238
 20
238.1340945575
 30
0.0
 10
61.1006087625
 20
232.0851666599
 30
0.0
 10
61.2524052073
 20
225.8950120042
 30
0.0
 10
61.7052752857
 20
222.873663026
 30
0.0
  0
SPLINE
  5
375
100
AcDbEntity
  8
0
100
AcDbSpline
 62
7
  6
CONTINUOUS
 70
0
 71
3
 72
10
 73
6
 74
0
 42
0.0000001
 43
0.0000001
 44
0.0000000001
 40
0.0
 40
0.0
 40
0.0
 40
0.0
 40
0.5107428962
 40
0.7584636173
 40
1.0
 40
1.0
 40
1.0
 40
1.0
 10
61.7052752857
 20
222.873663026
 30
0.0
 10
62.1456501728
 20
219.9356764407
 30
0.0
 10
63.3405740168
 20
215.6211823867
 30
0.0
 10
65.9925354682
 20
210.4301213392
 30
0.0
 10
67.635965464
 20
208.0915364392
 30
0.0
 10
68.5276303766
 20
207.0058283825
 30
0.0
  0
SPLINE
  5
376
100
AcDbEntity
  8
0
100
AcDbSpline
 62
7
  6
CONTINUOUS
 70
0
 71
3
 72
9
 73
5
 74
0
 42
0.0000001
 43
0.0000001
 44
0.0000000001
 40
0.0
 40
0.0
 40
0.0
 40
0.0
 40
0.2408805075
 40
1.0
 40
1.0
 40
1.0
 40
1.0
 10
49.8006822344
 20
245.6377734964
 30
0.0
 10
49.7857374077
 20
245.6300660796
 30
0.0
 10
49.724309427
 20
245.5968809839
 30
0.0
 10
49.665286572
 20
245.5593297758
 30
0.0
 10
49.6217908886
 20
245.5290594616
 30
0.0
  0
SPLINE
  5
377
100
AcDbEntity
  8
0
100
AcDbSpline
 62
7
  6
CONTINUOUS
 70
0
 71
3
 72
10
 73
6
 74
0
 42
0.0000001
 43
0.0000001
 44
0.0000000001
 40
0.0
 40
0.0
 40
0.0
 40
0.0
 40
0.2270138675
 40
0.4774447567
 40
1.0
 40
1.0
 40
1.0
 40
1.0
 10
49.6217908886
 20
245.5290594616
 30
0.0
 10
49.4759951923
 20
245.4275946448
 30
0.0
 10
49.1976881274
 20
245.1734604349
 30
0.0
 10
48.7105774762
 20
244.5594476294
 30
0.0
 10
48.4289176585
 20
244.0145681342
 30
0.0
 10
48.2860838854
 20
243.6314536786
 30
0.0
  0
SPLINE
  5
378
100
AcDbEntity
  8
0
100
AcDbSpline
 62
7
  6
CONTINUOUS
 70
0
 71
3
 72
13
 73
9
 74
0
 42
0.0000001
 43
0.0000001
 44
0.0000000001
 40
0.0
 40
0.0
 40
0.0
 40
0.0
 40
0.2543071076
 40
0.3825033562
 40
0.5101167034
 40
0.7599721516
 40
0.8814814175
 40
1.0
 40
1.0
 40
1.0
 40
1.0
 10
66.9005153431
 20
222.0468508904
 30
0.0
 10
66.4301904889
 20
225.1846504168
 30
0.0
 10
66.3306172491
 20
230.0210954615
 30
0.0
 10
67.3685314484
 20
236.3121701458
 30
0.0
 10
69.1551921623
 20
242.375820621
 30
0.0
 10
72.0306687656
 20
247.9914402644
 30
0.0
 10
75.8623447959
 20
252.7720834263
 30
0.0
 10
78.0536045379
 20
254.8322503003
 30
0.0
 10
79.2038936013
 20
255.7614251233
 30
0.0
  0
SPLINE
  5
379
100
AcDbEntity
  8
0
100
AcDbSpline
 62
7
  6
CONTINUOUS
 70
0
 71
3
 72
14
 73
10
 74
0
 42
0.0000001
 43
0.0000001
 44
0.0000000001
 40
0.0
 40
0.0
 40
0.0
 40
0.0
 40
0.1124445437
 40
0.2274830372
 40
0.3469930647
 40
0.4717110303
 40
0.601197547
 40
0.7340251568
 40
1.0
 40
1.0
 40
1.0
 40
1.0
 10
97.9375905845
 20
194.6710077125
 30
0.0
 10
98.1684312885
 20
194.6386400956
 30
0.0
 10
98.6476013751
 20
194.6410891299
 30
0.0
 10
99.3457033259
 20
194.8470912895
 30
0.0
 10
99.9876929993
 20
195.2401601819
 30
0.0
 10
100.537830563
 20
195.7951592037
 30
0.0
 10
100.9672794914
 20
196.4805836509
 30
0.0
 10
101.3488530393
 20
197.5124815543
 30
0.0
 10
101.3973267873
 20
198.3672189545
 30
0.0
 10
101.3155950998
 20
198.9124966448
 30
0.0
  0
SPLINE
  5
37A
100
AcDbEntity
  8
0
100
AcDbSpline
 62
7
  6
CONTINUOUS
 70
0
 71
3
 72
11
 73
7
 74
0
 42
0.0000001
 43
0.0000001
 44
0.0000000001
 40
0.0
 40
0.0
 40
0.0
 40
0.0
 40
0.2336419999
 40
0.4758500443
 40
0.7314206735
 40
1.0
 40
1.0
 40
1.0
 40
1.0
 10
97.5908414561
 20
192.1951791886
 30
0.0
 10
97.0811898799
 20
192.2665479667
 30
0.0
 10
96.0617735826
 20
192.6107958665
 30
0.0
 10
94.7909459768
 20
193.6494047244
 30
0.0
 10
93.8734045886
 20
195.0963379473
 30
0.0
 10
93.5520471829
 20
196.2228863211
 30
0.0
 10
93.4643551603
 20
196.8079287328
 30
0.0
  0
SPLINE
  5
37B
100
AcDbEntity
  8
0
100
AcDbSpline
 62
7
  6
CONTINUOUS
 70
0
 71
3
 72
10
 73
6
 74
0
 42
0.0000001
 43
0.0000001
 44
0.0000000001
 40
0.0
 40
0.0
 40
0.0
 40
0.0
 40
0.2099643279
 40
0.4495291814
 40
1.0
 40
1.0
 40
1.0
 40
1.0
 10
69.95935157
 20
269.1289244706
 30
0.0
 10
70.1783683201
 20
269.0024244633
 30
0.0
 10
70.6114215687
 20
268.6684717585
 30
0.0
 10
71.4142109998
 20
267.7650323417
 30
0.0
 10
71.8784734187
 20
266.9177255795
 30
0.0
 10
72.1374220731
 20
266.3072773308
 30
0.0
  0
SPLINE
  5
37C
100
AcDbEntity
  8
0
100
AcDbSpline
 62
7
  6
CONTINUOUS
 70
0
 71
3
 72
13
 73
9
 74
0
 42
0.0000001
 43
0.0000001
 44
0.0000000001
 40
0.0
 40
0.0
 40
0.0
 40
0.0
 40
0.1152188547
 40
0.2342166482
 40
0.357034554
 40
0.4832176241
 40
0.7412962888
 40
1.0
 40
1.0
 40
1.0
 40
1.0
 10
100.9209347656
 20
201.5454959403
 30
0.0
 10
102.3743062112
 20
202.1521431301
 30
0.0
 10
105.2096373662
 20
203.6899489604
 30
0.0
 10
109.0076503352
 20
206.7945911932
 30
0.0
 10
112.3019998405
 20
210.6293829862
 30
0.0
 10
115.903947486
 20
216.582216575
 30
0.0
 10
118.6090306403
 20
225.0953401325
 30
0.0
 10
118.6643661263
 20
232.2848311056
 30
0.0
 10
118.1401865276
 20
235.7819256821
 30
0.0
  0
SPLINE
  5
37D
100
AcDbEntity
  8
0
100
AcDbSpline
 62
7
  6
CONTINUOUS
 70
0
 71
3
 72
9
 73
5
 74
0
 42
0.0000001
 43
0.0000001
 44
0.0000000001
 40
0.0
 40
0.0
 40
0.0
 40
0.0
 40
0.268272445
 40
1.0
 40
1.0
 40
1.0
 40
1.0
 10
69.95935157
 20
262.4407651579
 30
0.0
 10
69.9858364576
 20
262.4254679787
 30
0.0
 10
70.0868303646
 20
262.3727477995
 30
0.0
 10
70.1986286537
 20
262.3385830956
 30
0.0
 10
70.2816634519
 20
262.3305474468
 30
0.0
  0
SPLINE
  5
37E
100
AcDbEntity
  8
0
100
AcDbSpline
 62
7
  6
CONTINUOUS
 70
0
 71
3
 72
9
 73
5
 74
0
 42
0.0000001
 43
0.0000001
 44
0.0000000001
 40
0.0
 40
0.0
 40
0.0
 40
0.0
 40
0.2558559529
 40
1.0
 40
1.0
 40
1.0
 40
1.0
 10
70.2816634519
 20
262.3305474468
 30
0.0
 10
70.2989151536
 20
262.3288779225
 30
0.0
 10
70.3665759579
 20
262.325151435
 30
0.0
 10
70.4349609022
 20
262.3334264579
 30
0.0
 10
70.4836527305
 20
262.3464757742
 30
0.0
  0
SPLINE
  5
37F
100
AcDbEntity
  8
0
100
AcDbSpline
 62
7
  6
CONTINUOUS
 70
0
 71
3
 72
9
 73
5
 74
0
 42
0.0000001
 43
0.0000001
 44
0.0000000001
 40
0.0
 40
0.0
 40
0.0
 40
0.0
 40
0.5097057332
 40
1.0
 40
1.0
 40
1.0
 40
1.0
 10
118.1401865276
 20
235.7819256821
 30
0.0
 10
117.7833928622
 20
238.162295302
 30
0.0
 10
116.5780133842
 20
242.7734684076
 30
0.0
 10
114.3347035489
 20
246.9898579372
 30
0.0
 10
112.9923109867
 20
248.8762761121
 30
0.0
  0
SPLINE
  5
380
100
AcDbEntity
  8
0
100
AcDbSpline
 62
7
  6
CONTINUOUS
 70
0
 71
3
 72
15
 73
11
 74
0
 42
0.0000001
 43
0.0000001
 44
0.0000000001
 40
0.0
 40
0.0
 40
0.0
 40
0.0
 40
0.1162425308
 40
0.2338685706
 40
0.3537661306
 40
0.4765908896
 40
0.602705241
 40
0.7321710821
 40
0.8647581036
 40
1.0
 40
1.0
 40
1.0
 40
1.0
 10
88.0527624976
 20
197.2617093142
 30
0.0
 10
86.7332627271
 20
197.5191977498
 30
0.0
 10
84.119100755
 20
198.2757272129
 30
0.0
 10
80.4300579623
 20
200.0894481576
 30
0.0
 10
77.0379983584
 20
202.5439749821
 30
0.0
 10
74.0184614066
 20
205.5820911971
 30
0.0
 10
71.4354909951
 20
209.1351599301
 30
0.0
 10
69.3437124897
 20
213.1245443757
 30
0.0
 10
67.7868889936
 20
217.4618762106
 30
0.0
 10
67.1323716991
 20
220.5000077722
 30
0.0
 10
66.9005153431
 20
222.0468508904
 30
0.0
  0
SPLINE
  5
381
100
AcDbEntity
  8
0
100
AcDbSpline
 62
7
  6
CONTINUOUS
 70
0
 71
3
 72
8
 73
4
 74
0
 42
0.0000001
 43
0.0000001
 44
0.0000000001
 40
0.0
 40
0.0
 40
0.0
 40
0.0
 40
1.0
 40
1.0
 40
1.0
 40
1.0
 10
53.9941996914
 20
254.9971959921
 30
0.0
 10
61.3339929722
 20
254.4130003971
 30
0.0
 10
68.6735460739
 20
253.825781453
 30
0.0
 10
76.0128898751
 20
253.2359658327
 30
0.0
  0
SPLINE
  5
382
100
AcDbEntity
  8
0
100
AcDbSpline
 62
7
  6
CONTINUOUS
 70
0
 71
3
 72
9
 73
5
 74
0
 42
0.0000001
 43
0.0000001
 44
0.0000000001
 40
0.0
 40
0.0
 40
0.0
 40
0.0
 40
0.253048254
 40
1.0
 40
1.0
 40
1.0
 40
1.0
 10
76.0128898751
 20
253.2359658327
 30
0.0
 10
76.232061739
 20
253.4688269099
 30
0.0
 10
77.1109894849
 20
254.376866665
 30
0.0
 10
78.0427800817
 20
255.2341458436
 30
0.0
 10
78.767746192
 20
255.8386643009
 30
0.0
  0
SPLINE
  5
383
100
AcDbEntity
  8
0
100
AcDbSpline
 62
7
  6
CONTINUOUS
 70
0
 71
3
 72
16
 73
12
 74
0
 42
0.0000001
 43
0.0000001
 44
0.0000000001
 40
0.0
 40
0.0
 40
0.0
 40
0.0
 40
0.0843024072
 40
0.1338452022
 40
0.189104281
 40
0.3157859603
 40
0.459084969
 40
0.6094675164
 40
0.7560292012
 40
0.8885689063
 40
1.0
 40
1.0
 40
1.0
 40
1.0
 10
69.3421966753
 20
266.2241846772
 30
0.0
 10
69.2341927899
 20
266.1729948183
 30
0.0
 10
69.089667838
 20
266.0336692236
 30
0.0
 10
68.9626468194
 20
265.7974078049
 30
0.0
 10
68.8561600178
 20
265.4852817483
 30
0.0
 10
68.8014859825
 20
265.0228464311
 30
0.0
 10
68.8455118839
 20
264.4258056133
 30
0.0
 10
68.9931915875
 20
263.8165628302
 30
0.0
 10
69.2308987302
 20
263.2526426439
 30
0.0
 10
69.5352890007
 20
262.7866658174
 30
0.0
 10
69.7915894993
 20
262.545060263
 30
0.0
 10
69.9254603212
 20
262.4611721616
 30
0.0
  0
SPLINE
  5
384
100
AcDbEntity
  8
0
100
AcDbSpline
 62
7
  6
CONTINUOUS
 70
0
 71
3
 72
8
 73
4
 74
0
 42
0.0000001
 43
0.0000001
 44
0.0000000001
 40
0.0
 40
0.0
 40
0.0
 40
0.0
 40
1.0
 40
1.0
 40
1.0
 40
1.0
 10
55.6147509891
 20
207.7363804061
 30
0.0
 10
60.0609319004
 20
207.0039039168
 30
0.0
 10
64.5072557745
 20
206.2722948072
 30
0.0
 10
68.953706209
 20
205.5414562224
 30
0.0
  0
SPLINE
  5
385
100
AcDbEntity
  8
0
100
AcDbSpline
 62
7
  6
CONTINUOUS
 70
0
 71
3
 72
12
 73
8
 74
0
 42
0.0000001
 43
0.0000001
 44
0.0000000001
 40
0.0
 40
0.0
 40
0.0
 40
0.0
 40
0.276176255
 40
0.547361415
 40
0.796536858
 40
0.905641197
 40
1.0
 40
1.0
 40
1.0
 40
1.0
 10
47.9863563105
 20
243.5511100588
 30
0.0
 10
48.0739166949
 20
243.7900218806
 30
0.0
 10
48.2847066594
 20
244.2508628206
 30
0.0
 10
48.6883058044
 20
244.8664380782
 30
0.0
 10
49.0884690306
 20
245.2939318071
 30
0.0
 10
49.4308993903
 20
245.5342543204
 30
0.0
 10
49.6042067926
 20
245.6115090372
 30
0.0
 10
49.6881797374
 20
245.6340140658
 30
0.0
  0
SPLINE
  5
386
100
AcDbEntity
  8
0
100
AcDbSpline
 62
7
  6
CONTINUOUS
 70
0
 71
3
 72
9
 73
5
 74
0
 42
0.0000001
 43
0.0000001
 44
0.0000000001
 40
0.0
 40
0.0
 40
0.0
 40
0.0
 40
0.2917019943
 40
1.0
 40
1.0
 40
1.0
 40
1.0
 10
68.953706209
 20
205.5414562224
 30
0.0
 10
68.9714284829
 20
205.5385433098
 30
0.0
 10
69.0323187167
 20
205.5306459956
 30
0.0
 10
69.0956195641
 20
205.5313625175
 30
0.0
 10
69.137743028
 20
205.5426511357
 30
0.0
  0
SPLINE
  5
387
100
AcDbEntity
  8
0
100
AcDbSpline
 62
7
  6
CONTINUOUS
 70
0
 71
3
 72
10
 73
6
 74
0
 42
0.0000001
 43
0.0000001
 44
0.0000000001
 40
0.0
 40
0.0
 40
0.0
 40
0.0
 40
0.2307976407
 40
0.4701303382
 40
1.0
 40
1.0
 40
1.0
 40
1.0
 10
68.6000630787
 20
269.3733400721
 30
0.0
 10
68.7050577751
 20
269.40148683
 30
0.0
 10
68.9265029428
 20
269.4338159722
 30
0.0
 10
69.3990141386
 20
269.3956652032
 30
0.0
 10
69.7432477682
 20
269.2537420131
 30
0.0
 10
69.95935157
 20
269.1289244706
 30
0.0
  0
SPLINE
  5
388
100
AcDbEntity
  8
0
100
AcDbSpline
 62
7
  6
CONTINUOUS
 70
0
 71
3
 72
8
 73
4
 74
0
 42
0.0000001
 43
0.0000001
 44
0.0000000001
 40
0.0
 40
0.0
 40
0.0
 40
0.0
 40
1.0
 40
1.0
 40
1.0
 40
1.0
 10
69.1543734002
 20
205.643775092
 30
0.0
 10
64.7468801068
 20
206.36887713
 30
0.0
 10
60.3395102713
 20
207.0947301878
 30
0.0
 10
55.9322914923
 20
207.8214988789
 30
0.0
  0
SPLINE
  5
389
100
AcDbEntity
  8
0
100
AcDbSpline
 62
7
  6
CONTINUOUS
 70
0
 71
3
 72
13
 73
9
 74
0
 42
0.0000001
 43
0.0000001
 44
0.0000000001
 40
0.0
 40
0.0
 40
0.0
 40
0.0
 40
0.2569926707
 40
0.5130450066
 40
0.6389218144
 40
0.7622980958
 40
0.8827267261
 40
1.0
 40
1.0
 40
1.0
 40
1.0
 10
48.2860838854
 20
243.6314536786
 30
0.0
 10
47.2095071263
 20
240.7438164629
 30
0.0
 10
45.7930433506
 20
234.6805214801
 30
0.0
 10
45.9410929449
 20
226.93474293
 30
0.0
 10
47.2248906333
 20
220.9971939396
 30
0.0
 10
48.7365930564
 20
216.8143734575
 30
0.0
 10
50.7687294415
 20
212.9750844069
 30
0.0
 10
52.4660134674
 20
210.668799885
 30
0.0
 10
53.3862539356
 20
209.6053735624
 30
0.0
  0
SPLINE
  5
38A
100
AcDbEntity
  8
0
100
AcDbSpline
 62
7
  6
CONTINUOUS
 70
0
 71
3
 72
9
 73
5
 74
0
 42
0.0000001
 43
0.0000001
 44
0.0000000001
 40
0.0
 40
0.0
 40
0.0
 40
0.0
 40
0.4990217896
 40
1.0
 40
1.0
 40
1.0
 40
1.0
 10
46.1195551136
 20
225.3540994325
 30
0.0
 10
45.6650088855
 20
228.3866309406
 30
0.0
 10
45.5368953799
 20
234.6024642737
 30
0.0
 10
46.9270255901
 20
240.6606861076
 30
0.0
 10
47.9863563105
 20
243.5511100588
 30
0.0
  0
SPLINE
  5
38B
100
AcDbEntity
  8
0
100
AcDbSpline
 62
7
  6
CONTINUOUS
 70
0
 71
3
 72
11
 73
7
 74
0
 42
0.0000001
 43
0.0000001
 44
0.0000000001
 40
0.0
 40
0.0
 40
0.0
 40
0.0
 40
0.2409479919
 40
0.488297216
 40
0.7416163116
 40
1.0
 40
1.0
 40
1.0
 40
1.0
 10
53.0865263607
 20
209.5250299426
 30
0.0
 10
52.1737795485
 20
210.5943771775
 30
0.0
 10
50.4907091898
 20
212.9089935146
 30
0.0
 10
48.4747991317
 20
216.7536981979
 30
0.0
 10
46.9739434382
 20
220.9346531019
 30
0.0
 10
46.3430411463
 20
223.8630994108
 30
0.0
 10
46.1195551136
 20
225.3540994325
 30
0.0
  0
SPLINE
  5
38C
100
AcDbEntity
  8
0
100
AcDbSpline
 62
7
  6
CONTINUOUS
 70
0
 71
3
 72
9
 73
5
 74
0
 42
0.0000001
 43
0.0000001
 44
0.0000000001
 40
0.0
 40
0.0
 40
0.0
 40
0.0
 40
0.2156519914
 40
1.0
 40
1.0
 40
1.0
 40
1.0
 10
55.6147509891
 20
207.7363804061
 30
0.0
 10
55.5909834582
 20
207.7402959367
 30
0.0
 10
55.4815703685
 20
207.7632994748
 30
0.0
 10
55.3758009761
 20
207.801149051
 30
0.0
 10
55.2947465936
 20
207.8344014133
 30
0.0
  0
SPLINE
  5
38D
100
AcDbEntity
  8
0
100
AcDbSpline
 62
7
  6
CONTINUOUS
 70
0
 71
3
 72
11
 73
7
 74
0
 42
0.0000001
 43
0.0000001
 44
0.0000000001
 40
0.0
 40
0.0
 40
0.0
 40
0.0
 40
0.2279001109
 40
0.4876881215
 40
0.7507222314
 40
1.0
 40
1.0
 40
1.0
 40
1.0
 10
55.2947465936
 20
207.8344014133
 30
0.0
 10
55.0979018683
 20
207.9151564809
 30
0.0
 10
54.6962587876
 20
208.1344660504
 30
0.0
 10
54.1205696189
 20
208.5354321123
 30
0.0
 10
53.570665418
 20
209.003239822
 30
0.0
 10
53.2376144933
 20
209.3480195443
 30
0.0
 10
53.0865263607
 20
209.5250299426
 30
0.0
  0
SPLINE
  5
38E
100
AcDbEntity
  8
0
100
AcDbSpline
 62
7
  6
CONTINUOUS
 70
0
 71
3
 72
11
 73
7
 74
0
 42
0.0000001
 43
0.0000001
 44
0.0000000001
 40
0.0
 40
0.0
 40
0.0
 40
0.0
 40
0.2489352389
 40
0.5118536668
 40
0.7718043784
 40
1.0
 40
1.0
 40
1.0
 40
1.0
 10
53.3862539356
 20
209.6053735624
 30
0.0
 10
53.5389024598
 20
209.4289735188
 30
0.0
 10
53.8750910589
 20
209.085353527
 30
0.0
 10
54.4294419488
 20
208.619056266
 30
0.0
 10
55.0094382539
 20
208.2191440222
 30
0.0
 10
55.4136156068
 20
208.0000996731
 30
0.0
 10
55.611622879
 20
207.9193419217
 30
0.0
  0
SPLINE
  5
38F
100
AcDbEntity
  8
0
100
AcDbSpline
 62
7
  6
CONTINUOUS
 70
0
 71
3
 72
9
 73
5
 74
0
 42
0.0000001
 43
0.0000001
 44
0.0000000001
 40
0.0
 40
0.0
 40
0.0
 40
0.0
 40
0.283876083
 40
1.0
 40
1.0
 40
1.0
 40
1.0
 10
55.611622879
 20
207.9193419217
 30
0.0
 10
55.6410268569
 20
207.9073494372
 30
0.0
 10
55.7453964943
 20
207.867319813
 30
0.0
 10
55.8532504577
 20
207.834533074
 30
0.0
 10
55.9322914923
 20
207.8214988789
 30
0.0
  0
SPLINE
  5
390
100
AcDbEntity
  8
0
100
AcDbSpline
 62
7
  6
CONTINUOUS
 70
0
 71
3
 72
15
 73
11
 74
0
 42
0.0000001
 43
0.0000001
 44
0.0000000001
 40
0.0
 40
0.0
 40
0.0
 40
0.0
 40
0.1134112209
 40
0.230161169
 40
0.3509281328
 40
0.475776707
 40
0.6042055084
 40
0.7352570118
 40
0.8676590999
 40
1.0
 40
1.0
 40
1.0
 40
1.0
 10
61.8163067277
 20
271.9264848124
 30
0.0
 10
59.7222793285
 20
271.6070135713
 30
0.0
 10
55.533258627
 20
270.4744093599
 30
0.0
 10
49.6709838339
 20
267.4457923957
 30
0.0
 10
44.3557425325
 20
263.187990531
 30
0.0
 10
39.7767746746
 20
257.8622246727
 30
0.0
 10
36.0906466659
 20
251.6626719455
 30
0.0
 10
33.4249273426
 20
244.810886155
 30
0.0
 10
31.8712654372
 20
237.5531015176
 30
0.0
 10
31.6126182152
 20
232.5901316361
 30
0.0
 10
31.6833490981
 20
230.1193246061
 30
0.0
  0
SPLINE
  5
391
100
AcDbEntity
  8
0
100
AcDbSpline
 62
7
  6
CONTINUOUS
 70
0
 71
3
 72
14
 73
10
 74
0
 42
0.0000001
 43
0.0000001
 44
0.0000000001
 40
0.0
 40
0.0
 40
0.0
 40
0.0
 40
0.1090461103
 40
0.2247991457
 40
0.3473617863
 40
0.4756428846
 40
0.6076781749
 40
0.7409820679
 40
1.0
 40
1.0
 40
1.0
 40
1.0
 10
18.498368101
 20
268.3471147864
 30
0.0
 10
16.7601619816
 20
268.424741669
 30
0.0
 10
13.1438303352
 20
268.1001135232
 30
0.0
 10
7.8490537899
 20
266.3267242129
 30
0.0
 10
2.7656091751
 20
263.3571409504
 30
0.0
 10
-1.875682368
 20
259.3367918854
 30
0.0
 10
-5.8707826983
 20
254.4483372248
 30
0.0
 10
-10.0434535313
 20
247.1721923024
 30
0.0
 10
-11.8040017074
 20
240.9917913103
 30
0.0
 10
-12.1664135638
 20
236.8748243701
 30
0.0
  0
SPLINE
  5
392
100
AcDbEntity
  8
0
100
AcDbSpline
 62
7
  6
CONTINUOUS
 70
0
 71
3
 72
11
 73
7
 74
0
 42
0.0000001
 43
0.0000001
 44
0.0000000001
 40
0.0
 40
0.0
 40
0.0
 40
0.0
 40
0.2127105858
 40
0.442600076
 40
0.7025916255
 40
1.0
 40
1.0
 40
1.0
 40
1.0
 10
-9.03172689
 20
228.1846965213
 30
0.0
 10
-9.0317006745
 20
228.2516046149
 30
0.0
 10
-9.0082046308
 20
228.3916229357
 30
0.0
 10
-8.9072581297
 20
228.5911146044
 30
0.0
 10
-8.7452308732
 20
228.7806984583
 30
0.0
 10
-8.6086400829
 20
228.8919297385
 30
0.0
 10
-8.5324240222
 20
228.9461761556
 30
0.0
  0
SPLINE
  5
393
100
AcDbEntity
  8
0
100
AcDbSpline
 62
7
  6
CONTINUOUS
 70
0
 71
3
 72
11
 73
7
 74
0
 42
0.0000001
 43
0.0000001
 44
0.0000000001
 40
0.0
 40
0.0
 40
0.0
 40
0.0
 40
0.2105082605
 40
0.440672095
 40
0.7020045542
 40
1.0
 40
1.0
 40
1.0
 40
1.0
 10
-9.0303709809
 20
221.7081958644
 30
0.0
 10
-9.0259425463
 20
221.641397779
 30
0.0
 10
-8.9932159246
 20
221.5024413281
 30
0.0
 10
-8.8812481988
 20
221.3066405688
 30
0.0
 10
-8.7100882046
 20
221.1208138635
 30
0.0
 10
-8.5686686471
 20
221.0117074452
 30
0.0
 10
-8.4901977779
 20
220.9585746566
 30
0.0
  0
SPLINE
  5
394
100
AcDbEntity
  8
0
100
AcDbSpline
 62
7
  6
CONTINUOUS
 70
0
 71
3
 72
15
 73
11
 74
0
 42
0.0000001
 43
0.0000001
 44
0.0000000001
 40
0.0
 40
0.0
 40
0.0
 40
0.0
 40
0.112580736
 40
0.2288031216
 40
0.3495468102
 40
0.4748553566
 40
0.6040118603
 40
0.7357137603
 40
0.8682997167
 40
1.0
 40
1.0
 40
1.0
 40
1.0
 10
52.5708635353
 20
268.8074097797
 30
0.0
 10
50.5573360779
 20
268.6603371262
 30
0.0
 10
46.4878006346
 20
267.8408555626
 30
0.0
 10
40.7579562112
 20
265.17430503
 30
0.0
 10
35.565069424
 20
261.189765567
 30
0.0
 10
31.1318587665
 20
256.0716266198
 30
0.0
 10
27.6400025398
 20
250.0464175719
 30
0.0
 10
25.2348624982
 20
243.3739993473
 30
0.0
 10
24.0159026738
 20
236.3436345337
 30
0.0
 10
24.0301896915
 20
231.5749226346
 30
0.0
 10
24.2500199964
 20
229.2234164586
 30
0.0
  0
SPLINE
  5
395
100
AcDbEntity
  8
0
100
AcDbSpline
 62
7
  6
CONTINUOUS
 70
0
 71
3
 72
13
 73
9
 74
0
 42
0.0000001
 43
0.0000001
 44
0.0000000001
 40
0.0
 40
0.0
 40
0.0
 40
0.0
 40
0.2634547116
 40
0.5221427086
 40
0.647347483
 40
0.7686644402
 40
0.8860475562
 40
1.0
 40
1.0
 40
1.0
 40
1.0
 10
33.3148428485
 20
229.890828036
 30
0.0
 10
33.1786152764
 20
234.6495985933
 30
0.0
 10
34.3792837512
 20
244.1786164169
 30
0.0
 10
39.3681403878
 20
254.9905690878
 30
0.0
 10
45.153267863
 20
262.1047033259
 30
0.0
 10
50.1631811193
 20
266.4226609945
 30
0.0
 10
55.7189605346
 20
269.6214735149
 30
0.0
 10
59.7208994064
 20
270.948278152
 30
0.0
 10
61.7337554768
 20
271.3825069841
 30
0.0
  0
SPLINE
  5
396
100
AcDbEntity
  8
0
100
AcDbSpline
 62
7
  6
CONTINUOUS
 70
0
 71
3
 72
14
 73
10
 74
0
 42
0.0000001
 43
0.0000001
 44
0.0000000001
 40
0.0
 40
0.0
 40
0.0
 40
0.0
 40
0.2273794996
 40
0.3489850154
 40
0.4748991075
 40
0.6041737601
 40
0.735638092
 40
0.8680316585
 40
1.0
 40
1.0
 40
1.0
 40
1.0
 10
18.5492609002
 20
268.0156046324
 30
0.0
 10
16.121593422
 20
267.6951235329
 30
0.0
 10
12.4601916752
 20
266.5885854076
 30
0.0
 10
7.927104587
 20
264.2081298582
 30
0.0
 10
4.5767428941
 20
261.8998453448
 30
0.0
 10
1.4302620814
 20
259.1602352512
 30
0.0
 10
-1.4491181719
 20
256.0450968676
 30
0.0
 10
-4.0011386397
 20
252.6213473314
 30
0.0
 10
-5.4562176712
 20
250.1668680375
 30
0.0
 10
-6.1140951176
 20
248.9070882991
 30
0.0
  0
SPLINE
  5
397
100
AcDbEntity
  8
0
100
AcDbSpline
 62
7
  6
CONTINUOUS
 70
0
 71
3
 72
15
 73
11
 74
0
 42
0.0000001
 43
0.0000001
 44
0.0000000001
 40
0.0
 40
0.0
 40
0.0
 40
0.0
 40
0.1129196226
 40
0.2288047019
 40
0.3488684536
 40
0.4734961971
 40
0.6022459913
 40
0.7340004706
 40
0.8671773129
 40
1.0
 40
1.0
 40
1.0
 40
1.0
 10
51.201391524
 20
268.9979918554
 30
0.0
 10
49.1520772275
 20
268.9434847862
 30
0.0
 10
44.9966694016
 20
268.2940166105
 30
0.0
 10
39.1144007938
 20
265.7954294585
 30
0.0
 10
33.7871060424
 20
261.8982051289
 30
0.0
 10
29.2546267863
 20
256.7924186984
 30
0.0
 10
25.7108350172
 20
250.7150977747
 30
0.0
 10
23.3092402655
 20
243.9402400233
 30
0.0
 10
22.1536889813
 20
236.774651019
 30
0.0
 10
22.2499410623
 20
231.9149939674
 30
0.0
 10
22.5193883429
 20
229.5187190356
 30
0.0
  0
SPLINE
  5
398
100
AcDbEntity
  8
0
100
AcDbSpline
 62
7
  6
CONTINUOUS
 70
0
 71
3
 72
9
 73
5
 74
0
 42
0.0000001
 43
0.0000001
 44
0.0000000001
 40
0.0
 40
0.0
 40
0.0
 40
0.0
 40
0.2568319243
 40
1.0
 40
1.0
 40
1.0
 40
1.0
 10
-8.0024110796
 20
244.6994529122
 30
0.0
 10
-8.269264841
 20
243.9930481102
 30
0.0
 10
-9.2241332204
 20
241.2121003648
 30
0.0
 10
-9.8346355292
 20
238.3085298014
 30
0.0
 10
-10.0492201506
 20
236.1340553123
 30
0.0
  0
SPLINE
  5
399
100
AcDbEntity
  8
0
100
AcDbSpline
 62
7
  6
CONTINUOUS
 70
0
 71
3
 72
30
 73
26
 74
0
 42
0.0000001
 43
0.0000001
 44
0.0000000001
 40
0.0
 40
0.0
 40
0.0
 40
0.0
 40
0.1217929516
 40
0.1817849975
 40
0.2408844836
 40
0.2986666612
 40
0.326824409
 40
0.3542526087
 40
0.3806061064
 40
0.3931935056
 40
0.4052125468
 40
0.4164450001
 40
0.4265725837
 40
0.4353680762
 40
0.4442430701
 40
0.4566000858
 40
0.4721021569
 40
0.4890037329
 40
0.5064633831
 40
0.5419397433
 40
0.5775940089
 40
0.6487650204
 40
0.7195870756
 40
0.8602759609
 40
1.0
 40
1.0
 40
1.0
 40
1.0
 10
-2.5122274907
 20
231.5151365549
 30
0.0
 10
-2.47613482
 20
231.7264853478
 30
0.0
 10
-2.4197982434
 20
232.0415395302
 30
0.0
 10
-2.3369911475
 20
232.4574537689
 30
0.0
 10
-2.270707121
 20
232.7617097759
 30
0.0
 10
-2.2099168959
 20
233.0097581146
 30
0.0
 10
-2.1560696782
 20
233.2019581429
 30
0.0
 10
-2.1128684277
 20
233.3396124072
 30
0.0
 10
-2.0728476013
 20
233.44946625
 30
0.0
 10
-2.0370615918
 20
233.5317854644
 30
0.0
 10
-2.008624879
 20
233.5881068262
 30
0.0
 10
-1.977414258
 20
233.6382321787
 30
0.0
 10
-1.9431585014
 20
233.6784909862
 30
0.0
 10
-1.8992784076
 20
233.7065919771
 30
0.0
 10
-1.8427100869
 20
233.6923323825
 30
0.0
 10
-1.8026359387
 20
233.6383993898
 30
0.0
 10
-1.7684524216
 20
233.5678563033
 30
0.0
 10
-1.7399489343
 20
233.4844820753
 30
0.0
 10
-1.7075454981
 20
233.3659218737
 30
0.0
 10
-1.6758173264
 20
233.213065637
 30
0.0
 10
-1.6353075385
 20
232.965840098
 30
0.0
 10
-1.5972608184
 20
232.6553113245
 30
0.0
 10
-1.5505963916
 20
232.1598427913
 30
0.0
 10
-1.5092971345
 20
231.542800036
 30
0.0
 10
-1.4857318729
 20
231.0497039256
 30
0.0
 10
-1.4755771752
 20
230.8039386539
 30
0.0
  0
SPLINE
  5
39A
100
AcDbEntity
  8
0
100
AcDbSpline
 62
7
  6
CONTINUOUS
 70
0
 71
3
 72
11
 73
7
 74
0
 42
0.0000001
 43
0.0000001
 44
0.0000000001
 40
0.0
 40
0.0
 40
0.0
 40
0.0
 40
0.299701509
 40
0.5606648746
 40
0.7895471865
 40
1.0
 40
1.0
 40
1.0
 40
1.0
 10
-8.490197778
 20
227.3939003268
 30
0.0
 10
-8.5724920827
 20
227.4496219716
 30
0.0
 10
-8.7200592383
 20
227.5641375289
 30
0.0
 10
-8.8959929103
 20
227.7605774273
 30
0.0
 10
-9.0060179444
 20
227.9683256202
 30
0.0
 10
-9.0317542341
 20
228.114908017
 30
0.0
 10
-9.03172689
 20
228.1846965213
 30
0.0
  0
SPLINE
  5
39B
100
AcDbEntity
  8
0
100
AcDbSpline
 62
7
  6
CONTINUOUS
 70
0
 71
3
 72
14
 73
10
 74
0
 42
0.0000001
 43
0.0000001
 44
0.0000000001
 40
0.0
 40
0.0
 40
0.0
 40
0.0
 40
0.097819767
 40
0.2105731542
 40
0.3354232957
 40
0.4687254316
 40
0.7433985011
 40
0.8761172534
 40
1.0
 40
1.0
 40
1.0
 40
1.0
 10
38.0909470198
 20
172.7207356957
 30
0.0
 10
38.3917417665
 20
172.5470022363
 30
0.0
 10
39.0753962351
 20
172.2353381045
 30
0.0
 10
40.215166642
 20
171.8824979286
 30
0.0
 10
41.5083094207
 20
171.6215250232
 30
0.0
 10
43.3898455112
 20
171.4083280745
 30
0.0
 10
45.3192990054
 20
171.4146772847
 30
0.0
 10
47.1936393179
 20
171.6412497831
 30
0.0
 10
48.0869983661
 20
171.8294316523
 30
0.0
 10
48.5119108862
 20
171.943331783
 30
0.0
  0
SPLINE
  5
39C
100
AcDbEntity
  8
0
100
AcDbSpline
 62
7
  6
CONTINUOUS
 70
0
 71
3
 72
13
 73
9
 74
0
 42
0.0000001
 43
0.0000001
 44
0.0000000001
 40
0.0
 40
0.0
 40
0.0
 40
0.0
 40
0.3343767527
 40
0.6101555838
 40
0.7252558297
 40
0.8263525407
 40
0.916327021
 40
1.0
 40
1.0
 40
1.0
 40
1.0
 10
110.4953840932
 20
188.5583416116
 30
0.0
 10
110.9614196743
 20
188.6832650043
 30
0.0
 10
111.7994436876
 20
188.9614189458
 30
0.0
 10
112.7316116866
 20
189.4586469284
 30
0.0
 10
113.2749833267
 20
189.9198965816
 30
0.0
 10
113.5569356957
 20
190.2640792097
 30
0.0
 10
113.7321983681
 20
190.624540096
 30
0.0
 10
113.7727179164
 20
190.8765106777
 30
0.0
 10
113.7726898698
 20
190.9972464555
 30
0.0
  0
SPLINE
  5
39D
100
AcDbEntity
  8
0
100
AcDbSpline
 62
7
  6
CONTINUOUS
 70
0
 71
3
 72
11
 73
7
 74
0
 42
0.0000001
 43
0.0000001
 44
0.0000000001
 40
0.0
 40
0.0
 40
0.0
 40
0.0
 40
0.2032339246
 40
0.4288952144
 40
0.6924084714
 40
1.0
 40
1.0
 40
1.0
 40
1.0
 10
40.7128927169
 20
181.5153800517
 30
0.0
 10
40.7128714683
 20
181.4607034335
 30
0.0
 10
40.7363311619
 20
181.3445020756
 30
0.0
 10
40.8347446262
 20
181.1832028024
 30
0.0
 10
40.9899604455
 20
181.0330640219
 30
0.0
 10
41.1184622976
 20
180.9475516455
 30
0.0
 10
41.1901206801
 20
180.9061630946
 30
0.0
  0
SPLINE
  5
39E
100
AcDbEntity
  8
0
100
AcDbSpline
 62
7
  6
CONTINUOUS
 70
0
 71
3
 72
11
 73
7
 74
0
 42
0.0000001
 43
0.0000001
 44
0.0000000001
 40
0.0
 40
0.0
 40
0.0
 40
0.0
 40
0.2032237194
 40
0.4289289409
 40
0.6925283262
 40
1.0
 40
1.0
 40
1.0
 40
1.0
 10
-18.4037618447
 20
215.6600486582
 30
0.0
 10
-18.4037938052
 20
215.6053748508
 30
0.0
 10
-18.3802811761
 20
215.4891729221
 30
0.0
 10
-18.2818799238
 20
215.3278342415
 30
0.0
 10
-18.1266078528
 20
215.177743376
 30
0.0
 10
-17.9981413414
 20
215.092204011
 30
0.0
 10
-17.9265109596
 20
215.0508316328
 30
0.0
  0
SPLINE
  5
39F
100
AcDbEntity
  8
0
100
AcDbSpline
 62
7
  6
CONTINUOUS
 70
0
 71
3
 72
11
 73
7
 74
0
 42
0.0000001
 43
0.0000001
 44
0.0000000001
 40
0.0
 40
0.0
 40
0.0
 40
0.0
 40
0.307716659
 40
0.5710984383
 40
0.7967334285
 40
1.0
 40
1.0
 40
1.0
 40
1.0
 10
112.4711148682
 20
200.0134243975
 30
0.0
 10
112.6666285824
 20
199.9004993072
 30
0.0
 10
113.0171810273
 20
199.6673913969
 30
0.0
 10
113.4403027777
 20
199.2577690541
 30
0.0
 10
113.7087700623
 20
198.8179897126
 30
0.0
 10
113.7726552241
 20
198.5010670966
 30
0.0
 10
113.7726898698
 20
198.3519233629
 30
0.0
  0
SPLINE
  5
3A0
100
AcDbEntity
  8
0
100
AcDbSpline
 62
7
  6
CONTINUOUS
 70
0
 71
3
 72
9
 73
5
 74
0
 42
0.0000001
 43
0.0000001
 44
0.0000000001
 40
0.0
 40
0.0
 40
0.0
 40
0.0
 40
0.7447565962
 40
1.0
 40
1.0
 40
1.0
 40
1.0
 10
-9.091181045
 20
221.7640967756
 30
0.0
 10
-9.0888685113
 20
221.8100714611
 30
0.0
 10
-9.0787596975
 20
221.8717074583
 30
0.0
 10
-9.0604772199
 20
221.9307617662
 30
0.0
 10
-9.0553192875
 20
221.9456711669
 30
0.0
  0
SPLINE
  5
3A1
100
AcDbEntity
  8
0
100
AcDbSpline
 62
7
  6
CONTINUOUS
 70
0
 71
3
 72
12
 73
8
 74
0
 42
0.0000001
 43
0.0000001
 44
0.0000000001
 40
0.0
 40
0.0
 40
0.0
 40
0.0
 40
0.3349279859
 40
0.6112472304
 40
0.7265199304
 40
0.8278001376
 40
1.0
 40
1.0
 40
1.0
 40
1.0
 10
108.6475065903
 20
197.6791917507
 30
0.0
 10
108.8183655455
 20
197.7249914304
 30
0.0
 10
109.1256242394
 20
197.8271108978
 30
0.0
 10
109.4674711021
 20
198.0090480929
 30
0.0
 10
109.6666488573
 20
198.1787331105
 30
0.0
 10
109.7977945722
 20
198.3371298474
 30
0.0
 10
109.8491338271
 20
198.4825102711
 30
0.0
 10
109.8491691711
 20
198.573456949
 30
0.0
  0
SPLINE
  5
3A2
100
AcDbEntity
  8
0
100
AcDbSpline
 62
7
  6
CONTINUOUS
 70
0
 71
3
 72
9
 73
5
 74
0
 42
0.0000001
 43
0.0000001
 44
0.0000000001
 40
0.0
 40
0.0
 40
0.0
 40
0.0
 40
0.5188324426
 40
1.0
 40
1.0
 40
1.0
 40
1.0
 10
103.1684506983
 20
196.4977291983
 30
0.0
 10
103.4751407345
 20
196.4884193238
 30
0.0
 10
104.0679113096
 20
196.5088716047
 30
0.0
 10
104.6536447932
 20
196.6086151989
 30
0.0
 10
104.9284981979
 20
196.682291161
 30
0.0
  0
SPLINE
  5
3A3
100
AcDbEntity
  8
0
100
AcDbSpline
 62
7
  6
CONTINUOUS
 70
0
 71
3
 72
17
 73
13
 74
0
 42
0.0000001
 43
0.0000001
 44
0.0000000001
 40
0.0
 40
0.0
 40
0.0
 40
0.0
 40
0.1179824722
 40
0.260576598
 40
0.4170373008
 40
0.5742978923
 40
0.719183279
 40
0.8405142201
 40
0.8902234175
 40
0.9324220067
 40
0.9681667655
 40
1.0
 40
1.0
 40
1.0
 40
1.0
 10
-15.3929410322
 20
213.5874886955
 30
0.0
 10
-15.2059617435
 20
213.4794929309
 30
0.0
 10
-14.7563706086
 20
213.3058899641
 30
0.0
 10
-14.006499481
 20
213.154143099
 30
0.0
 10
-13.170928145
 20
213.0974677225
 30
0.0
 10
-12.3305262843
 20
213.1421258981
 30
0.0
 10
-11.5665343565
 20
213.2834819634
 30
0.0
 10
-11.0174001887
 20
213.4802997101
 30
0.0
 10
-10.6836025433
 20
213.6853970353
 30
0.0
 10
-10.5088673203
 20
213.843157386
 30
0.0
 10
-10.3972772249
 20
214.0138812938
 30
0.0
 10
-10.3702695021
 20
214.138445849
 30
0.0
 10
-10.3702354453
 20
214.1967057241
 30
0.0
  0
SPLINE
  5
3A4
100
AcDbEntity
  8
0
100
AcDbSpline
 62
7
  6
CONTINUOUS
 70
0
 71
3
 72
12
 73
8
 74
0
 42
0.0000001
 43
0.0000001
 44
0.0000000001
 40
0.0
 40
0.0
 40
0.0
 40
0.0
 40
0.3349279859
 40
0.6112472304
 40
0.7265199304
 40
0.8278001376
 40
1.0
 40
1.0
 40
1.0
 40
1.0
 10
48.7301491569
 20
181.618015583
 30
0.0
 10
48.9010081121
 20
181.6638152627
 30
0.0
 10
49.208266806
 20
181.7659347301
 30
0.0
 10
49.5501136687
 20
181.9478719253
 30
0.0
 10
49.7492914239
 20
182.1175569429
 30
0.0
 10
49.8804371388
 20
182.2759536797
 30
0.0
 10
49.9317763936
 20
182.4213341034
 30
0.0
 10
49.9318117376
 20
182.5122807813
 30
0.0
  0
SPLINE
  5
3A5
100
AcDbEntity
  8
0
100
AcDbSpline
 62
7
  6
CONTINUOUS
 70
0
 71
3
 72
12
 73
8
 74
0
 42
0.0000001
 43
0.0000001
 44
0.0000000001
 40
0.0
 40
0.0
 40
0.0
 40
0.0
 40
0.0978508246
 40
0.2106902249
 40
0.4687113837
 40
0.7435104759
 40
1.0
 40
1.0
 40
1.0
 40
1.0
 10
41.1901206801
 20
180.9061630946
 30
0.0
 10
41.3003915162
 20
180.8424727076
 30
0.0
 10
41.5510853961
 20
180.7281796277
 30
0.0
 10
42.1347950621
 20
180.5477265707
 30
0.0
 10
42.9711469305
 20
180.4247514183
 30
0.0
 10
44.0010544284
 20
180.4280225911
 30
0.0
 10
44.6887289943
 20
180.5346907506
 30
0.0
 10
45.0111407645
 20
180.6211149933
 30
0.0
  0
SPLINE
  5
3A6
100
AcDbEntity
  8
0
100
AcDbSpline
 62
7
  6
CONTINUOUS
 70
0
 71
3
 72
11
 73
7
 74
0
 42
0.0000001
 43
0.0000001
 44
0.0000000001
 40
0.0
 40
0.0
 40
0.0
 40
0.0
 40
0.2032665715
 40
0.4289015617
 40
0.692283341
 40
1.0
 40
1.0
 40
1.0
 40
1.0
 10
-22.3272596215
 20
208.5269052685
 30
0.0
 10
-22.3272249758
 20
208.3777615348
 30
0.0
 10
-22.263339814
 20
208.0608389189
 30
0.0
 10
-21.9948725294
 20
207.6210595774
 30
0.0
 10
-21.5717507791
 20
207.2114372346
 30
0.0
 10
-21.2211983341
 20
206.9783293242
 30
0.0
 10
-21.0256846199
 20
206.8654042339
 30
0.0
  0
SPLINE
  5
3A7
100
AcDbEntity
  8
0
100
AcDbSpline
 62
7
  6
CONTINUOUS
 70
0
 71
3
 72
13
 73
9
 74
0
 42
0.0000001
 43
0.0000001
 44
0.0000000001
 40
0.0
 40
0.0
 40
0.0
 40
0.0
 40
0.083672979
 40
0.1736474593
 40
0.2747441703
 40
0.3898444162
 40
0.6656232473
 40
1.0
 40
1.0
 40
1.0
 40
1.0
 10
-22.3272596215
 20
215.881582176
 30
0.0
 10
-22.3272876681
 20
216.0023179537
 30
0.0
 10
-22.2867681199
 20
216.2542885354
 30
0.0
 10
-22.1115054474
 20
216.6147494218
 30
0.0
 10
-21.8295530784
 20
216.9589320498
 30
0.0
 10
-21.2861814384
 20
217.420181703
 30
0.0
 10
-20.3540134394
 20
217.9174096857
 30
0.0
 10
-19.5159894261
 20
218.1955636272
 30
0.0
 10
-19.0499538449
 20
218.3204870198
 30
0.0
  0
SPLINE
  5
3A8
100
AcDbEntity
  8
0
100
AcDbSpline
 62
7
  6
CONTINUOUS
 70
0
 71
3
 72
11
 73
7
 74
0
 42
0.0000001
 43
0.0000001
 44
0.0000000001
 40
0.0
 40
0.0
 40
0.0
 40
0.0
 40
0.2105004058
 40
0.4394049442
 40
0.7003534942
 40
1.0
 40
1.0
 40
1.0
 40
1.0
 10
-9.0919638163
 20
212.5398612852
 30
0.0
 10
-9.0919911875
 20
212.4701354946
 30
0.0
 10
-9.0663054627
 20
212.3236955331
 30
0.0
 10
-8.9564795657
 20
212.1161234028
 30
0.0
 10
-8.7808473062
 20
211.9198338944
 30
0.0
 10
-8.6335229821
 20
211.8053865764
 30
0.0
 10
-8.5513650209
 20
211.749695419
 30
0.0
  0
SPLINE
  5
3A9
100
AcDbEntity
  8
0
100
AcDbSpline
 62
7
  6
CONTINUOUS
 70
0
 71
3
 72
12
 73
8
 74
0
 42
0.0000001
 43
0.0000001
 44
0.0000000001
 40
0.0
 40
0.0
 40
0.0
 40
0.0
 40
0.0978508246
 40
0.2106902249
 40
0.4687113837
 40
0.7435104759
 40
1.0
 40
1.0
 40
1.0
 40
1.0
 10
109.3719412078
 20
199.1826739061
 30
0.0
 10
109.2616703718
 20
199.2463642931
 30
0.0
 10
109.0109764919
 20
199.3606573731
 30
0.0
 10
108.4272668259
 20
199.54111043
 30
0.0
 10
107.5909149575
 20
199.6640855824
 30
0.0
 10
106.5610074596
 20
199.6608144097
 30
0.0
 10
105.8733328937
 20
199.5541462501
 30
0.0
 10
105.5509211235
 20
199.4677220074
 30
0.0
  0
SPLINE
  5
3AA
100
AcDbEntity
  8
0
100
AcDbSpline
 62
7
  6
CONTINUOUS
 70
0
 71
3
 72
17
 73
13
 74
0
 42
0.0000001
 43
0.0000001
 44
0.0000000001
 40
0.0
 40
0.0
 40
0.0
 40
0.0
 40
0.1179824722
 40
0.260576598
 40
0.4170373008
 40
0.5742978923
 40
0.719183279
 40
0.8405142201
 40
0.8902234175
 40
0.9324220067
 40
0.9681667655
 40
1.0
 40
1.0
 40
1.0
 40
1.0
 10
-13.3810562577
 20
216.2692656869
 30
0.0
 10
-13.5680355464
 20
216.3772614515
 30
0.0
 10
-14.0176266813
 20
216.5508644183
 30
0.0
 10
-14.7674978089
 20
216.7026112834
 30
0.0
 10
-15.6030691449
 20
216.7592866599
 30
0.0
 10
-16.4434710056
 20
216.7146284842
 30
0.0
 10
-17.2074629334
 20
216.5732724189
 30
0.0
 10
-17.7565971012
 20
216.3764546723
 30
0.0
 10
-18.0903947466
 20
216.171357347
 30
0.0
 10
-18.2651299696
 20
216.0135969964
 30
0.0
 10
-18.376720065
 20
215.8428730886
 30
0.0
 10
-18.4037277878
 20
215.7183085333
 30
0.0
 10
-18.4037618447
 20
215.6600486582
 30
0.0
  0
SPLINE
  5
3AB
100
AcDbEntity
  8
0
100
AcDbSpline
 62
7
  6
CONTINUOUS
 70
0
 71
3
 72
11
 73
7
 74
0
 42
0.0000001
 43
0.0000001
 44
0.0000000001
 40
0.0
 40
0.0
 40
0.0
 40
0.0
 40
0.2032237194
 40
0.4289289409
 40
0.6925283262
 40
1.0
 40
1.0
 40
1.0
 40
1.0
 10
-10.3702354453
 20
214.1967057241
 30
0.0
 10
-10.3702034847
 20
214.2513795316
 30
0.0
 10
-10.3937161138
 20
214.3675814602
 30
0.0
 10
-10.4921173661
 20
214.5289201409
 30
0.0
 10
-10.6473894371
 20
214.6790110063
 30
0.0
 10
-10.7758559485
 20
214.7645503713
 30
0.0
 10
-10.8474863303
 20
214.8059227496
 30
0.0
  0
SPLINE
  5
3AC
100
AcDbEntity
  8
0
100
AcDbSpline
 62
7
  6
CONTINUOUS
 70
0
 71
3
 72
12
 73
8
 74
0
 42
0.0000001
 43
0.0000001
 44
0.0000000001
 40
0.0
 40
0.0
 40
0.0
 40
0.0
 40
0.0978508246
 40
0.2106902249
 40
0.4687113837
 40
0.7435104759
 40
1.0
 40
1.0
 40
1.0
 40
1.0
 10
49.4545837744
 20
183.1214977384
 30
0.0
 10
49.3443129384
 20
183.1851881254
 30
0.0
 10
49.0936190585
 20
183.2994812054
 30
0.0
 10
48.5099093924
 20
183.4799342623
 30
0.0
 10
47.673557524
 20
183.6029094147
 30
0.0
 10
46.6436500261
 20
183.599638242
 30
0.0
 10
45.9559754603
 20
183.4929700824
 30
0.0
 10
45.6335636901
 20
183.4065458398
 30
0.0
  0
SPLINE
  5
3AD
100
AcDbEntity
  8
0
100
AcDbSpline
 62
7
  6
CONTINUOUS
 70
0
 71
3
 72
12
 73
8
 74
0
 42
0.0000001
 43
0.0000001
 44
0.0000000001
 40
0.0
 40
0.0
 40
0.0
 40
0.0
 40
0.3349279859
 40
0.6112472304
 40
0.7265199304
 40
0.8278001376
 40
1.0
 40
1.0
 40
1.0
 40
1.0
 10
41.9145552976
 20
182.40964525
 30
0.0
 10
41.7436963425
 20
182.3638455703
 30
0.0
 10
41.4364376486
 20
182.2617261029
 30
0.0
 10
41.0945907858
 20
182.0797889078
 30
0.0
 10
40.8954130307
 20
181.9101038902
 30
0.0
 10
40.7642673158
 20
181.7517071534
 30
0.0
 10
40.7129280609
 20
181.6063267296
 30
0.0
 10
40.7128927169
 20
181.5153800517
 30
0.0
  0
SPLINE
  5
3AE
100
AcDbEntity
  8
0
100
AcDbSpline
 62
7
  6
CONTINUOUS
 70
0
 71
3
 72
11
 73
7
 74
0
 42
0.0000001
 43
0.0000001
 44
0.0000000001
 40
0.0
 40
0.0
 40
0.0
 40
0.0
 40
0.2032339246
 40
0.4288952144
 40
0.6924084714
 40
1.0
 40
1.0
 40
1.0
 40
1.0
 10
49.9318117376
 20
182.5122807813
 30
0.0
 10
49.9318329863
 20
182.5669573995
 30
0.0
 10
49.9083732926
 20
182.6831587575
 30
0.0
 10
49.8099598283
 20
182.8444580306
 30
0.0
 10
49.654744009
 20
182.9945968111
 30
0.0
 10
49.5262421569
 20
183.0801091875
 30
0.0
 10
49.4545837744
 20
183.1214977384
 30
0.0
  0
SPLINE
  5
3AF
100
AcDbEntity
  8
0
100
AcDbSpline
 62
7
  6
CONTINUOUS
 70
0
 71
3
 72
11
 73
7
 74
0
 42
0.0000001
 43
0.0000001
 44
0.0000000001
 40
0.0
 40
0.0
 40
0.0
 40
0.0
 40
0.2032339246
 40
0.4288952144
 40
0.6924084714
 40
1.0
 40
1.0
 40
1.0
 40
1.0
 10
109.8491691711
 20
198.573456949
 30
0.0
 10
109.8491904197
 20
198.6281335672
 30
0.0
 10
109.825730726
 20
198.7443349252
 30
0.0
 10
109.7273172618
 20
198.9056341983
 30
0.0
 10
109.5721014424
 20
199.0557729788
 30
0.0
 10
109.4435995903
 20
199.1412853552
 30
0.0
 10
109.3719412078
 20
199.1826739061
 30
0.0
  0
SPLINE
  5
3B0
100
AcDbEntity
  8
0
100
AcDbSpline
 62
7
  6
CONTINUOUS
 70
0
 71
3
 72
13
 73
9
 74
0
 42
0.0000001
 43
0.0000001
 44
0.0000000001
 40
0.0
 40
0.0
 40
0.0
 40
0.0
 40
0.083672979
 40
0.1736474593
 40
0.2747441703
 40
0.3898444162
 40
0.6656232473
 40
1.0
 40
1.0
 40
1.0
 40
1.0
 10
113.7726898698
 20
198.3519233629
 30
0.0
 10
113.7727179164
 20
198.2311875852
 30
0.0
 10
113.7321983681
 20
197.9792170035
 30
0.0
 10
113.5569356957
 20
197.6187561171
 30
0.0
 10
113.2749833267
 20
197.2745734891
 30
0.0
 10
112.7316116866
 20
196.8133238359
 30
0.0
 10
111.7994436876
 20
196.3160958532
 30
0.0
 10
110.9614196743
 20
196.0379419117
 30
0.0
 10
110.4953840932
 20
195.9130185191
 30
0.0
  0
SPLINE
  5
3B1
100
AcDbEntity
  8
0
100
AcDbSpline
 62
7
  6
CONTINUOUS
 70
0
 71
3
 72
14
 73
10
 74
0
 42
0.0000001
 43
0.0000001
 44
0.0000000001
 40
0.0
 40
0.0
 40
0.0
 40
0.0
 40
0.1238827466
 40
0.2566014989
 40
0.5312745684
 40
0.6645767043
 40
0.7894268458
 40
0.902180233
 40
1.0
 40
1.0
 40
1.0
 40
1.0
 10
48.5119108862
 20
179.2980086904
 30
0.0
 10
48.0869983661
 20
179.1841085598
 30
0.0
 10
47.1936393179
 20
178.9959266905
 30
0.0
 10
45.3192990054
 20
178.7693541922
 30
0.0
 10
43.3898455112
 20
178.763004982
 30
0.0
 10
41.5083094207
 20
178.9762019306
 30
0.0
 10
40.215166642
 20
179.2371748361
 30
0.0
 10
39.0753962351
 20
179.590015012
 30
0.0
 10
38.3917417665
 20
179.9016791437
 30
0.0
 10
38.0909470198
 20
180.0754126032
 30
0.0
  0
SPLINE
  5
3B2
100
AcDbEntity
  8
0
100
AcDbSpline
 62
7
  6
CONTINUOUS
 70
0
 71
3
 72
11
 73
7
 74
0
 42
0.0000001
 43
0.0000001
 44
0.0000000001
 40
0.0
 40
0.0
 40
0.0
 40
0.0
 40
0.307716659
 40
0.5710984383
 40
0.7967334285
 40
1.0
 40
1.0
 40
1.0
 40
1.0
 10
-21.0256846199
 20
214.2200811414
 30
0.0
 10
-21.2211983341
 20
214.3330062317
 30
0.0
 10
-21.5717507791
 20
214.5661141421
 30
0.0
 10
-21.9948725294
 20
214.9757364848
 30
0.0
 10
-22.263339814
 20
215.4155158264
 30
0.0
 10
-22.3272249758
 20
215.7324384423
 30
0.0
 10
-22.3272596215
 20
215.881582176
 30
0.0
  0
SPLINE
  5
3B3
100
AcDbEntity
  8
0
100
AcDbSpline
 62
7
  6
CONTINUOUS
 70
0
 71
3
 72
11
 73
7
 74
0
 42
0.0000001
 43
0.0000001
 44
0.0000000001
 40
0.0
 40
0.0
 40
0.0
 40
0.0
 40
0.2979619994
 40
0.5592724026
 40
0.7894439377
 40
1.0
 40
1.0
 40
1.0
 40
1.0
 10
-8.5514425757
 20
220.9430941262
 30
0.0
 10
-8.629816919
 20
220.9962205405
 30
0.0
 10
-8.7710528298
 20
221.105313236
 30
0.0
 10
-8.9419432591
 20
221.2911057585
 30
0.0
 10
-9.0536756689
 20
221.486855503
 30
0.0
 10
-9.0862652695
 20
221.6257494268
 30
0.0
 10
-9.0906397129
 20
221.6925147124
 30
0.0
  0
ENDSEC
  0
SECTION
  2
OBJECTS
  0
DICTIONARY
  5
C
100
AcDbDictionary
280
0
281
1
  3
ACAD_GROUP
350
D
  3
ACAD_MLINESTYLE
350
17
  3
ACAD_LAYOUT
350
1A
  3
ACAD_PLOTSETTINGS
350
19
  3
ACAD_PLOTSTYLENAME
350
E
  0
DICTIONARY
  5
D
102
{ACAD_REACTORS
330
C
102
}
100
AcDbDictionary
280
0
281
1
  0
ACDBDICTIONARYWDFLT
  5
E
102
{ACAD_REACTORS
330
C
102
}
100
AcDbDictionary
281
1
  3
Normal
350
F
100
AcDbDictionaryWithDefault
340
F
  0
DICTIONARY
  5
17
102
{ACAD_REACTORS
330
C
102
}
100
AcDbDictionary
280
0
281
1
  3
Standard
350
18
  0
DICTIONARY
  5
19
102
{ACAD_REACTORS
330
C
102
}
100
AcDbDictionary
281
1
  0
DICTIONARY
  5
1A
102
{ACAD_REACTORS
330
C
102
}
100
AcDbDictionary
281
1
  3
Model
350
3B4
  3
Layout1
350
3B5
  0
ACDBPLACEHOLDER
  5
F
102
{ACAD_REACTORS
330
E
102
}
  0
MLINESTYLE
  5
18
102
{ACAD_REACTORS
330
17
102
}
100
AcDbMlineStyle
  2
STANDARD
 70
0
  3

 62
256
 51
90.0
 52
90.0
 71
2
 49
0.5
 62
256
  6
BYLAYER
 49
-0.5
 62
256
  6
BYLAYER
  0
LAYOUT
  5
3B4
102
{ACAD_REACTORS
330
1A
102
}
100
AcDbPlotSettings
  1

  2
none_device
  4
ANSI_C_(22.00_x_17.00_Inches)
  6

 40
0.0
 41
0.0
 42
0.0
 43
0.0
 44
558.8
 45
431.8
 46
0.0
 47
0.0
 48
0.0
 49
0.0
140
0.0
141
0.0
142
1.0
143
1.0
 70
1024
 72
1
 73
0
 74
0
  7

 75
0
147
1.0
148
0.0
149
0.0
100
AcDbLayout
  1
Model
 70
0
 71
0
 10
0.0
 20
0.0
 11
558.8
 21
431.8
 12
0.0
 22
0.0
 32
0.0
 14
0.0
 24
0.0
 34
0.0
 15
0.0
 25
0.0
 35
0.0
146
0.0
 13
0.0
 23
0.0
 33
0.0
 16
1.0
 26
0.0
 36
0.0
 17
0.0
 27
1.0
 37
0.0
 76
0
330
216
345
0
346
0
  0
LAYOUT
  5
3B5
102
{ACAD_REACTORS
330
1A
102
}
100
AcDbPlotSettings
  1

  2
none_device
  4
ANSI_C_(22.00_x_17.00_Inches)
  6

 40
0.0
 41
0.0
 42
0.0
 43
0.0
 44
558.8
 45
431.8
 46
0.0
 47
0.0
 48
0.0
 49
0.0
140
0.0
141
0.0
142
1.0
143
1.0
 70
0
 72
1
 73
0
 74
0
  7

 75
0
147
1.0
148
0.0
149
0.0
100
AcDbLayout
  1
Layout1
 70
0
 71
1
 10
0.0
 20
0.0
 11
558.8
 21
431.8
 12
0.0
 22
0.0
 32
0.0
 14
0.0
 24
0.0
 34
0.0
 15
0.0
 25
0.0
 35
0.0
146
0.0
 13
0.0
 23
0.0
 33
0.0
 16
1.0
 26
0.0
 36
0.0
 17
0.0
 27
1.0
 37
0.0
 76
0
330
217
345
0
346
0
  0
ENDSEC
  0
EOF
