999
DXF file: Y:\3D PRATIKA-KAEDRA_OLGA\TRAVAIL_PHASE_6\CAD3D\PKF32W435_3D-Simplified\PKF32W435_2D-isometric.dxf
999
Pro/ENGINEER 2018260 by Parametric Technology Corporation
  0
SECTION
  2
HEADER
  9
$ACADVER
  1
AC1027
  9
$DWGCODEPAGE
  3
ANSI_1252
  9
$EXTMAX
 10
558.8
 20
431.8
 30
0.0
  9
$EXTMIN
 10
0.0
 20
0.0
 30
0.0
  9
$LIMMIN
 10
0.0
 20
0.0
  9
$LIMMAX
 10
558.8
 20
431.8
  9
$VIEWCTR
 10
279.4
 20
215.9
  9
$VIEWSIZE
 40
431.8
  9
$CLAYER
  8
0
  9
$LTSCALE
 40
30.734
  9
$CELTYPE
  6
BYLAYER
  9
$DIMSCALE
 40
1.0
  9
$DIMASZ
 40
0.1875
  9
$DIMEXO
 40
0.0625
  9
$DIMDLI
 40
21.2344
  9
$DIMEXE
 40
0.125
  9
$DIMCEN
 40
5.0292
  9
$DIMLFAC
 40
1.0
  9
$DIMBLK
  1
_CLOSED
  9
$DIMALT
 70
0
  9
$DIMALTF
 40
0.0393700787
  9
$DIMTXT
 40
0.15625
  9
$DIMTOL
 70
0
  9
$DIMLIM
 70
0
  9
$DIMTFAC
 40
1.0
  9
$DIMGAP
 40
0.625
  9
$DIMDSEP
 70
46
  9
$AUNITS
 70
0
  9
$PDMODE
 70
3
  9
$PDSIZE
 40
0.3125
  9
$HANDSEED
  5
3BB
  9
$TILEMODE
 70
1
  9
$MEASUREMENT
 70
1
  9
$INSUNITS
 70
4
  0
ENDSEC
  0
SECTION
  2
CLASSES
  0
CLASS
  1
ACDBDICTIONARYWDFLT
  2
AcDbDictionaryWithDefault
  3
AutoCAD 2000
 90
0
 91
1
280
0
281
0
  0
CLASS
  1
ACDBPLACEHOLDER
  2
AcDbPlaceHolder
  3
AutoCAD 2000
 90
0
 91
1
280
0
281
0
  0
CLASS
  1
LAYOUT
  2
AcDbLayout
  3
AutoCAD 2000
 90
0
 91
0
280
0
281
0
  0
ENDSEC
  0
SECTION
  2
TABLES
  0
TABLE
  2
VPORT
  5
8
100
AcDbSymbolTable
 70
2
  0
VPORT
  5
1F4
100
AcDbSymbolTableRecord
100
AcDbViewportTableRecord
  2
*ACTIVE
 70
0
 10
0.0
 20
0.0
 11
1.0
 21
1.0
 12
279.4
 22
215.9
 13
0.0
 23
0.0
 14
1.0
 24
1.0
 15
0.0
 25
0.0
 16
0.0
 26
0.0
 36
1.0
 17
0.0
 27
0.0
 37
0.0
 40
431.8
 41
1.2941176471
 42
50.0
 43
0.0
 44
0.0
 50
0.0
 51
0.0
 71
0
 72
100
 73
1
 74
1
 75
0
 76
0
 77
0
 78
0
  0
ENDTAB
  0
TABLE
  2
LTYPE
  5
5
100
AcDbSymbolTable
 70
6
  0
LTYPE
  5
14
100
AcDbSymbolTableRecord
100
AcDbLinetypeTableRecord
  2
BYBLOCK
 70
0
  3

 72
65
 73
0
 40
0.0
  0
LTYPE
  5
15
100
AcDbSymbolTableRecord
100
AcDbLinetypeTableRecord
  2
BYLAYER
 70
0
  3

 72
65
 73
0
 40
0.0
  0
LTYPE
  5
16
100
AcDbSymbolTableRecord
100
AcDbLinetypeTableRecord
  2
CONTINUOUS
 70
64
  3
Solid line
 72
65
 73
0
 40
0.0
  0
LTYPE
  5
1F5
100
AcDbSymbolTableRecord
100
AcDbLinetypeTableRecord
  2
CENTER
 70
64
  3
____ _ ____ _ ____ _ ____ _ ____ _ ____ _ ____
 72
65
 73
4
 40
0.6
 49
0.375
 74
0
 49
-0.075
 74
0
 49
0.075
 74
0
 49
-0.075
 74
0
  0
LTYPE
  5
1F6
100
AcDbSymbolTableRecord
100
AcDbLinetypeTableRecord
  2
HIDDEN
 70
64
  3
- - - - - - - - - - - - - - - - - - - -
 72
65
 73
2
 40
0.2
 49
0.1
 74
0
 49
-0.1
 74
0
  0
LTYPE
  5
1F7
100
AcDbSymbolTableRecord
100
AcDbLinetypeTableRecord
  2
PHANTOM
 70
64
  3
_____ _ _ _____ _ _ _____ _ _ _____
 72
65
 73
6
 40
0.8
 49
0.45
 74
0
 49
-0.05
 74
0
 49
0.1
 74
0
 49
-0.05
 74
0
 49
0.1
 74
0
 49
-0.05
 74
0
  0
LTYPE
  5
1F8
100
AcDbSymbolTableRecord
100
AcDbLinetypeTableRecord
  2
DOT
 70
64
  3
. . . . . . . . . . . . . . . . . . . .
 72
65
 73
2
 40
0.2
 49
0.1
 74
0
 49
-0.1
 74
0
  0
LTYPE
  5
1F9
100
AcDbSymbolTableRecord
100
AcDbLinetypeTableRecord
  2
DASHED
 70
64
  3
- - - - - - - - - - - - - - - - - - - -
 72
65
 73
2
 40
0.2
 49
0.1
 74
0
 49
-0.1
 74
0
  0
ENDTAB
  0
TABLE
  2
LAYER
  5
2
100
AcDbSymbolTable
 70
36
  0
LAYER
  5
10
100
AcDbSymbolTableRecord
100
AcDbLayerTableRecord
  2
0
 70
0
 62
7
  6
CONTINUOUS
370
-3
390
F
  0
LAYER
  5
1FA
100
AcDbSymbolTableRecord
100
AcDbLayerTableRecord
  2
DEFAULT_1
 70
0
 62
7
  6
CENTER
370
-3
390
F
  0
LAYER
  5
1FB
100
AcDbSymbolTableRecord
100
AcDbLayerTableRecord
  2
DEFAULT_2
 70
0
 62
8
  6
HIDDEN
370
-3
390
F
  0
LAYER
  5
1FC
100
AcDbSymbolTableRecord
100
AcDbLayerTableRecord
  2
DEFAULT_3
 70
0
 62
7
  6
PHANTOM
370
-3
390
F
  0
LAYER
  5
1FD
100
AcDbSymbolTableRecord
100
AcDbLayerTableRecord
  2
01_ALL_DTM_PLN
 70
0
 62
7
  6
CONTINUOUS
370
-3
390
F
  0
LAYER
  5
1FE
100
AcDbSymbolTableRecord
100
AcDbLayerTableRecord
  2
01__ASM_ALL_DTM_PLN
 70
0
 62
7
  6
CONTINUOUS
370
-3
390
F
  0
LAYER
  5
1FF
100
AcDbSymbolTableRecord
100
AcDbLayerTableRecord
  2
01__ASM_DEF_DTM_PLN
 70
0
 62
7
  6
CONTINUOUS
370
-3
390
F
  0
LAYER
  5
200
100
AcDbSymbolTableRecord
100
AcDbLayerTableRecord
  2
01___PRT_ALL_DTM_PLN
 70
0
 62
7
  6
CONTINUOUS
370
-3
390
F
  0
LAYER
  5
201
100
AcDbSymbolTableRecord
100
AcDbLayerTableRecord
  2
01___PRT_DEF_DTM_PLN
 70
0
 62
7
  6
CONTINUOUS
370
-3
390
F
  0
LAYER
  5
202
100
AcDbSymbolTableRecord
100
AcDbLayerTableRecord
  2
02_ALL_AXES
 70
0
 62
7
  6
CONTINUOUS
370
-3
390
F
  0
LAYER
  5
203
100
AcDbSymbolTableRecord
100
AcDbLayerTableRecord
  2
02__ASM_ALL_AXES
 70
0
 62
7
  6
CONTINUOUS
370
-3
390
F
  0
LAYER
  5
204
100
AcDbSymbolTableRecord
100
AcDbLayerTableRecord
  2
02___PRT_ALL_AXES
 70
0
 62
7
  6
CONTINUOUS
370
-3
390
F
  0
LAYER
  5
205
100
AcDbSymbolTableRecord
100
AcDbLayerTableRecord
  2
03_ALL_CURVES
 70
0
 62
7
  6
CONTINUOUS
370
-3
390
F
  0
LAYER
  5
206
100
AcDbSymbolTableRecord
100
AcDbLayerTableRecord
  2
03__ASM_ALL_CURVES
 70
0
 62
7
  6
CONTINUOUS
370
-3
390
F
  0
LAYER
  5
207
100
AcDbSymbolTableRecord
100
AcDbLayerTableRecord
  2
03___PRT_ALL_CURVES
 70
0
 62
7
  6
CONTINUOUS
370
-3
390
F
  0
LAYER
  5
208
100
AcDbSymbolTableRecord
100
AcDbLayerTableRecord
  2
04_ALL_DTM_PNT
 70
0
 62
7
  6
CONTINUOUS
370
-3
390
F
  0
LAYER
  5
209
100
AcDbSymbolTableRecord
100
AcDbLayerTableRecord
  2
04__ASM_ALL_DTM_PNT
 70
0
 62
7
  6
CONTINUOUS
370
-3
390
F
  0
LAYER
  5
20A
100
AcDbSymbolTableRecord
100
AcDbLayerTableRecord
  2
04___PRT_ALL_DTM_PNT
 70
0
 62
7
  6
CONTINUOUS
370
-3
390
F
  0
LAYER
  5
20B
100
AcDbSymbolTableRecord
100
AcDbLayerTableRecord
  2
05_ALL_DTM_CSYS
 70
0
 62
7
  6
CONTINUOUS
370
-3
390
F
  0
LAYER
  5
20C
100
AcDbSymbolTableRecord
100
AcDbLayerTableRecord
  2
05__ASM_ALL_DTM_CSYS
 70
0
 62
7
  6
CONTINUOUS
370
-3
390
F
  0
LAYER
  5
20D
100
AcDbSymbolTableRecord
100
AcDbLayerTableRecord
  2
05__ASM_DEF_DTM_CSYS
 70
0
 62
7
  6
CONTINUOUS
370
-3
390
F
  0
LAYER
  5
20E
100
AcDbSymbolTableRecord
100
AcDbLayerTableRecord
  2
05___PRT_ALL_DTM_CSYS
 70
0
 62
7
  6
CONTINUOUS
370
-3
390
F
  0
LAYER
  5
20F
100
AcDbSymbolTableRecord
100
AcDbLayerTableRecord
  2
05___PRT_DEF_DTM_CSYS
 70
0
 62
7
  6
CONTINUOUS
370
-3
390
F
  0
LAYER
  5
210
100
AcDbSymbolTableRecord
100
AcDbLayerTableRecord
  2
06_ALL_SURFS
 70
0
 62
7
  6
CONTINUOUS
370
-3
390
F
  0
LAYER
  5
211
100
AcDbSymbolTableRecord
100
AcDbLayerTableRecord
  2
06__ASM_ALL_SURFS
 70
0
 62
7
  6
CONTINUOUS
370
-3
390
F
  0
LAYER
  5
212
100
AcDbSymbolTableRecord
100
AcDbLayerTableRecord
  2
06___PRT_ALL_SURFS
 70
0
 62
7
  6
CONTINUOUS
370
-3
390
F
  0
LAYER
  5
213
100
AcDbSymbolTableRecord
100
AcDbLayerTableRecord
  2
07__ASM_ALL_SKELETONS
 70
0
 62
7
  6
CONTINUOUS
370
-3
390
F
  0
ENDTAB
  0
TABLE
  2
STYLE
  5
3
100
AcDbSymbolTable
 70
1
  0
STYLE
  5
11
100
AcDbSymbolTableRecord
100
AcDbTextStyleTableRecord
  2
STANDARD
 70
0
 40
0.0
 41
0.8
 50
0.0
 71
0
 42
0.2
  3
txt
  4

  0
STYLE
  5
214
100
AcDbSymbolTableRecord
100
AcDbTextStyleTableRecord
  2
TEXTSTYLE_1
 70
0
 40
0.0
 41
0.8
 50
0.0
 71
0
 42
0.2
  3
gdt
  4

  0
ENDTAB
  0
TABLE
  2
VIEW
  5
6
100
AcDbSymbolTable
 70
0
  0
ENDTAB
  0
TABLE
  2
UCS
  5
7
100
AcDbSymbolTable
 70
0
  0
ENDTAB
  0
TABLE
  2
APPID
  5
9
100
AcDbSymbolTable
 70
1
  0
APPID
  5
215
100
AcDbSymbolTableRecord
100
AcDbRegAppTableRecord
  2
ACAD
 70
0
  0
ENDTAB
  0
TABLE
  2
BLOCK_RECORD
  5
1
100
AcDbSymbolTable
 70
0
  0
BLOCK_RECORD
  5
216
100
AcDbSymbolTableRecord
100
AcDbBlockTableRecord
  2
*Model_Space
  0
BLOCK_RECORD
  5
217
100
AcDbSymbolTableRecord
100
AcDbBlockTableRecord
  2
*Paper_Space
  0
BLOCK_RECORD
  5
218
100
AcDbSymbolTableRecord
100
AcDbBlockTableRecord
  2
_CLOSED
  0
ENDTAB
  0
TABLE
  2
DIMSTYLE
  5
A
100
AcDbSymbolTable
 70
1
100
AcDbDimStyleTable
 71
0
  0
DIMSTYLE
105
219
100
AcDbSymbolTableRecord
100
AcDbDimStyleTableRecord
  2
STANDARD
 70
0
  3

  4

 40
1.0
 41
0.1875
 42
0.0625
 43
0.38
 44
0.125
 45
0.0
 46
0.0
 47
0.01
 48
0.01
140
0.15625
141
0.09
142
0.0
143
25.4
144
1.0
145
0.0
146
1.0
147
0.625
 71
0.0
 72
0.0
 73
1
 74
1
 75
0
 76
0
 77
0
 78
8
 79
2
170
0
171
1
172
0
173
0
174
0
175
0
176
0
177
0
178
0
270
2
179
2
271
2
272
2
273
2
274
2
275
0
280
0
281
0
282
0
283
1
284
8
285
0
286
0
287
3
288
0
340
11
278
46
341
218
342
218
343
218
344
218
  0
ENDTAB
  0
ENDSEC
  0
SECTION
  2
BLOCKS
  0
BLOCK
  5
20
100
AcDbEntity
  8
0
100
AcDbBlockBegin
  2
*Model_Space
 70
0
 10
0.0
 20
0.0
 30
0.0
  3
*Model_Space
  1

  0
ENDBLK
  5
21
100
AcDbEntity
  8
0
100
AcDbBlockEnd
  0
BLOCK
  5
1C
100
AcDbEntity
  8
0
100
AcDbBlockBegin
  2
*Paper_Space
 70
0
 10
0.0
 20
0.0
 30
0.0
  3
*Paper_Space
  1

  0
ENDBLK
  5
1D
100
AcDbEntity
  8
0
100
AcDbBlockEnd
  0
BLOCK
  5
21A
100
AcDbEntity
  8
0
100
AcDbBlockBegin
  2
_CLOSED
 70
64
 10
0.0
 20
0.0
  3
_CLOSED
  1

  0
LINE
  5
21B
100
AcDbEntity
  8
0
  6
BYBLOCK
 62
0
100
AcDbLine
 10
0.0
 20
0.0
 11
-1.0
 21
0.1666666667
  0
LINE
  5
21C
100
AcDbEntity
  8
0
  6
BYBLOCK
 62
0
100
AcDbLine
 10
-1.0
 20
0.1666666667
 11
-1.0
 21
-0.1666666667
  0
LINE
  5
21D
100
AcDbEntity
  8
0
  6
BYBLOCK
 62
0
100
AcDbLine
 10
-1.0
 20
-0.1666666667
 11
0.0
 21
0.0
  0
LINE
  5
21E
100
AcDbEntity
  8
0
  6
BYBLOCK
 62
0
100
AcDbLine
 10
-1.0
 20
0.0
 11
0.0
 21
0.0
  0
ENDBLK
  5
21F
100
AcDbEntity
  8
0
  6
BYBLOCK
 62
0
100
AcDbBlockEnd
  0
ENDSEC
  0
SECTION
  2
ENTITIES
  0
LINE
  5
220
100
AcDbEntity
  8
0
100
AcDbLine
 62
7
  6
CONTINUOUS
 10
90.7076384885
 20
182.1653306135
 11
28.7241652815
 21
165.5503207849
  0
LINE
  5
221
100
AcDbEntity
  8
0
100
AcDbLine
 62
7
  6
CONTINUOUS
 10
90.7076384885
 20
189.520007521
 11
82.2387345252
 21
187.2498713813
  0
LINE
  5
222
100
AcDbEntity
  8
0
100
AcDbLine
 62
7
  6
CONTINUOUS
 10
76.0029740576
 20
185.5783415993
 11
28.7241652815
 21
172.9049976923
  0
LINE
  5
223
100
AcDbEntity
  8
0
100
AcDbLine
 62
7
  6
CONTINUOUS
 10
25.2233951598
 20
174.2281039951
 11
28.9424035522
 21
175.2250045849
  0
LINE
  5
224
100
AcDbEntity
  8
0
100
AcDbLine
 62
7
  6
CONTINUOUS
 10
85.1407525932
 20
190.2892801628
 11
88.8597609856
 21
191.2861807525
  0
LINE
  5
225
100
AcDbEntity
  8
0
100
AcDbLine
 62
7
  6
CONTINUOUS
 10
85.7631755188
 20
193.0747110093
 11
83.6854461683
 21
192.5177642654
  0
LINE
  5
226
100
AcDbEntity
  8
0
100
AcDbLine
 62
7
  6
CONTINUOUS
 10
25.8458180853
 20
177.0135348416
 11
22.1268096929
 21
176.0166342519
  0
LINE
  5
227
100
AcDbEntity
  8
0
100
AcDbLine
 62
7
  6
CONTINUOUS
 10
15.4464723235
 20
175.50711365
 11
60.9058477248
 21
187.6927484655
  0
LINE
  5
228
100
AcDbEntity
  8
0
100
AcDbLine
 62
7
  6
CONTINUOUS
 10
85.7977374287
 20
194.3651559749
 11
89.4134170172
 21
195.3343587122
  0
LINE
  5
229
100
AcDbEntity
  8
0
100
AcDbLine
 62
7
  6
CONTINUOUS
 10
13.937884037
 20
185.5717478473
 11
20.8613883723
 21
187.4276818351
  0
LINE
  5
22A
100
AcDbEntity
  8
0
100
AcDbLine
 62
7
  6
CONTINUOUS
 10
7.1727050116
 20
197.1605076741
 11
7.8086591908
 21
197.3309786786
  0
LINE
  5
22B
100
AcDbEntity
  8
0
100
AcDbLine
 62
7
  6
CONTINUOUS
 10
8.0696714461
 20
197.980428587
 11
9.6681481868
 21
198.4089090413
  0
LINE
  5
22C
100
AcDbEntity
  8
0
100
AcDbLine
 62
7
  6
CONTINUOUS
 10
9.0488310934
 20
198.7666150927
 11
7.4503543527
 21
198.3381346384
  0
LINE
  5
22D
100
AcDbEntity
  8
0
100
AcDbLine
 62
7
  6
CONTINUOUS
 10
47.5785447831
 20
269.1882036292
 11
47.8651667075
 21
269.2993699321
  0
LINE
  5
22E
100
AcDbEntity
  8
0
100
AcDbLine
 62
7
  6
CONTINUOUS
 10
9.6681481868
 20
198.4089090413
 11
10.0967688515
 21
198.470196891
  0
LINE
  5
22F
100
AcDbEntity
  8
0
100
AcDbLine
 62
7
  6
CONTINUOUS
 10
10.7404113723
 20
198.7057391105
 11
10.6031899061
 21
198.6861180113
  0
LINE
  5
230
100
AcDbEntity
  8
0
100
AcDbLine
 62
7
  6
CONTINUOUS
 10
9.3859437418
 20
198.4505882735
 11
9.4685781016
 21
198.4484915517
  0
LINE
  5
231
100
AcDbEntity
  8
0
100
AcDbLine
 62
7
  6
CONTINUOUS
 10
9.4254332866
 20
199.0011870541
 11
8.3393792833
 21
199.0287440308
  0
LINE
  5
232
100
AcDbEntity
  8
0
100
AcDbLine
 62
7
  6
CONTINUOUS
 10
104.6789062512
 20
245.6411291029
 11
101.3731210135
 21
244.7549952454
  0
LINE
  5
233
100
AcDbEntity
  8
0
100
AcDbLine
 62
7
  6
CONTINUOUS
 10
-38.8376994497
 20
211.9274760217
 11
-33.5891439881
 21
213.3343800893
  0
LINE
  5
234
100
AcDbEntity
  8
0
100
AcDbLine
 62
7
  6
CONTINUOUS
 10
-29.3070784723
 20
221.8996390195
 11
-28.6711242931
 21
222.0701100239
  0
LINE
  5
235
100
AcDbEntity
  8
0
100
AcDbLine
 62
7
  6
CONTINUOUS
 10
-25.1886570133
 20
223.0036044715
 11
-25.0937660998
 21
223.0290405011
  0
LINE
  5
236
100
AcDbEntity
  8
0
100
AcDbLine
 62
7
  6
CONTINUOUS
 10
8.3393792833
 20
199.0287440308
 11
9.3506685756
 21
198.9011305541
  0
LINE
  5
237
100
AcDbEntity
  8
0
100
AcDbLine
 62
7
  6
CONTINUOUS
 10
11.0317873517
 20
194.3038317787
 11
12.6632811021
 21
194.0753352084
  0
LINE
  5
238
100
AcDbEntity
  8
0
100
AcDbLine
 62
7
  6
CONTINUOUS
 10
50.1405538024
 20
189.2004666156
 11
77.8759475592
 21
185.316024921
  0
LINE
  5
239
100
AcDbEntity
  8
0
100
AcDbLine
 62
7
  6
CONTINUOUS
 10
73.749469154
 20
189.9288307006
 11
69.658123588
 21
190.5018383891
  0
LINE
  5
23A
100
AcDbEntity
  8
0
100
AcDbLine
 62
7
  6
CONTINUOUS
 10
67.3009365983
 20
190.8319709205
 11
46.0140753761
 21
193.8132725357
  0
LINE
  5
23B
100
AcDbEntity
  8
0
100
AcDbLine
 62
7
  6
CONTINUOUS
 10
75.4541120193
 20
192.8942518215
 11
81.6007090672
 21
192.0333987879
  0
LINE
  5
23C
100
AcDbEntity
  8
0
100
AcDbLine
 62
7
  6
CONTINUOUS
 10
63.0989318827
 20
195.2988674785
 11
75.3508849243
 21
193.5829373694
  0
LINE
  5
23D
100
AcDbEntity
  8
0
100
AcDbLine
 62
7
  6
CONTINUOUS
 10
-27.9871273257
 20
203.1714166908
 11
-18.139997722
 21
201.7045851268
  0
LINE
  5
23E
100
AcDbEntity
  8
0
100
AcDbLine
 62
7
  6
CONTINUOUS
 10
18.3032014151
 20
166.3277246976
 11
-40.8134302247
 21
200.4723932358
  0
LINE
  5
23F
100
AcDbEntity
  8
0
100
AcDbLine
 62
7
  6
CONTINUOUS
 10
-27.1291149083
 20
223.6402618994
 11
-27.4309523905
 21
223.505746438
  0
LINE
  5
240
100
AcDbEntity
  8
0
100
AcDbLine
 62
7
  6
CONTINUOUS
 10
-26.9839233527
 20
223.1284235393
 11
-27.0854964288
 21
223.0831569637
  0
LINE
  5
241
100
AcDbEntity
  8
0
100
AcDbLine
 62
7
  6
CONTINUOUS
 10
-24.9833079462
 20
223.5845272877
 11
-24.6814704641
 21
223.7190427492
  0
LINE
  5
242
100
AcDbEntity
  8
0
100
AcDbLine
 62
7
  6
CONTINUOUS
 10
-25.1284995019
 20
222.9931641118
 11
-25.0954225504
 21
223.0079050292
  0
LINE
  5
243
100
AcDbEntity
  8
0
100
AcDbLine
 62
7
  6
CONTINUOUS
 10
-28.4101120378
 20
222.7195599324
 11
-26.8116352971
 21
223.1480403867
  0
LINE
  5
244
100
AcDbEntity
  8
0
100
AcDbLine
 62
7
  6
CONTINUOUS
 10
-24.6814704641
 20
223.7190427492
 11
-23.0829937234
 21
224.1475232034
  0
LINE
  5
245
100
AcDbEntity
  8
0
100
AcDbLine
 62
7
  6
CONTINUOUS
 10
-23.7023108168
 20
224.5052292548
 11
-25.3007875574
 21
224.0767488005
  0
LINE
  5
246
100
AcDbEntity
  8
0
100
AcDbLine
 62
7
  6
CONTINUOUS
 10
-27.4309523905
 20
223.505746438
 11
-29.0294291312
 21
223.0772659837
  0
LINE
  5
247
100
AcDbEntity
  8
0
100
AcDbLine
 62
7
  6
CONTINUOUS
 10
-26.8116352971
 20
223.1480403867
 11
-26.3830146324
 21
223.2093282364
  0
LINE
  5
248
100
AcDbEntity
  8
0
100
AcDbLine
 62
7
  6
CONTINUOUS
 10
-25.7323559599
 20
223.4458736852
 11
-25.8765935778
 21
223.4252493566
  0
LINE
  5
249
100
AcDbEntity
  8
0
100
AcDbLine
 62
7
  6
CONTINUOUS
 10
-25.3007875574
 20
224.0767488005
 11
-25.7294082222
 21
224.0154609508
  0
LINE
  5
24A
100
AcDbEntity
  8
0
100
AcDbLine
 62
7
  6
CONTINUOUS
 10
-27.0938397421
 20
223.1897196188
 11
-27.0112053823
 21
223.187622897
  0
LINE
  5
24B
100
AcDbEntity
  8
0
100
AcDbLine
 62
7
  6
CONTINUOUS
 10
-25.0580726573
 20
223.4844707877
 11
-23.972018654
 21
223.456913811
  0
LINE
  5
24C
100
AcDbEntity
  8
0
100
AcDbLine
 62
7
  6
CONTINUOUS
 10
-27.0543501973
 20
223.7403183995
 11
-28.1404042006
 21
223.7678753761
  0
LINE
  5
24D
100
AcDbEntity
  8
0
100
AcDbLine
 62
7
  6
CONTINUOUS
 10
81.1360090903
 20
195.1336716201
 11
57.9670448688
 21
198.3785684271
  0
LINE
  5
24E
100
AcDbEntity
  8
0
100
AcDbLine
 62
7
  6
CONTINUOUS
 10
54.0811371422
 20
201.988754876
 11
69.8943644388
 21
199.7742488297
  0
LINE
  5
24F
100
AcDbEntity
  8
0
100
AcDbLine
 62
7
  6
CONTINUOUS
 10
-18.139997722
 20
210.8979312611
 11
-27.9871273257
 21
212.3647628251
  0
LINE
  5
250
100
AcDbEntity
  8
0
100
AcDbLine
 62
7
  6
CONTINUOUS
 10
-17.3616316808
 20
217.2216176006
 11
-27.976732954
 21
218.8028464693
  0
LINE
  5
251
100
AcDbEntity
  8
0
100
AcDbLine
 62
7
  6
CONTINUOUS
 10
39.8290533938
 20
196.1934291938
 11
67.3010352295
 21
190.832757596
  0
LINE
  5
252
100
AcDbEntity
  8
0
100
AcDbLine
 62
7
  6
CONTINUOUS
 10
10.3607765067
 20
198.4609501811
 11
10.6575294895
 21
198.3886970279
  0
LINE
  5
253
100
AcDbEntity
  8
0
100
AcDbLine
 62
7
  6
CONTINUOUS
 10
10.6031899061
 20
198.6861180113
 11
10.4731645749
 21
198.7177764637
  0
LINE
  5
254
100
AcDbEntity
  8
0
100
AcDbLine
 62
7
  6
CONTINUOUS
 10
10.4863676065
 20
199.2855763153
 11
10.1896146237
 21
199.3578294686
  0
LINE
  5
255
100
AcDbEntity
  8
0
100
AcDbLine
 62
7
  6
CONTINUOUS
 10
18.3032014151
 20
173.682401605
 11
-40.8134302247
 21
207.8270701432
  0
LINE
  5
256
100
AcDbEntity
  8
0
100
AcDbLine
 62
7
  6
CONTINUOUS
 10
5.2789478159
 20
181.3796869773
 11
15.4464723235
 21
175.50711365
  0
LINE
  5
257
100
AcDbEntity
  8
0
100
AcDbLine
 62
7
  6
CONTINUOUS
 10
-37.7142565643
 20
208.6578206347
 11
-35.1806866369
 21
207.1944776973
  0
LINE
  5
258
100
AcDbEntity
  8
0
100
AcDbLine
 62
7
  6
CONTINUOUS
 10
-30.635231935
 20
208.4129117514
 11
-33.1688018625
 21
209.8762546888
  0
LINE
  5
259
100
AcDbEntity
  8
0
100
AcDbLine
 62
7
  6
CONTINUOUS
 10
5.2789478159
 20
190.5729472331
 11
13.9378781933
 21
185.5717098583
  0
LINE
  5
25A
100
AcDbEntity
  8
0
100
AcDbLine
 62
7
  6
CONTINUOUS
 10
2.3552520166
 20
186.2761887572
 11
5.2789478159
 21
184.4880689673
  0
LINE
  5
25B
100
AcDbEntity
  8
0
100
AcDbLine
 62
7
  6
CONTINUOUS
 10
-30.0693264144
 20
204.7388527197
 11
-27.9871273257
 21
203.1714166908
  0
LINE
  5
25C
100
AcDbEntity
  8
0
100
AcDbLine
 62
7
  6
CONTINUOUS
 10
-42.115082904
 20
209.4885711261
 11
-42.115082904
 21
202.1338942187
  0
LINE
  5
25D
100
AcDbEntity
  8
0
100
AcDbLine
 62
7
  6
CONTINUOUS
 10
-40.8134302247
 20
207.8270701432
 11
-40.8134302247
 21
200.4723932358
  0
LINE
  5
25E
100
AcDbEntity
  8
0
100
AcDbLine
 62
7
  6
CONTINUOUS
 10
-33.5891439881
 20
213.3343800893
 11
-33.5891439881
 21
222.5277262236
  0
LINE
  5
25F
100
AcDbEntity
  8
0
100
AcDbLine
 62
7
  6
CONTINUOUS
 10
-33.1688018625
 20
209.8762546888
 11
-33.1688018625
 21
206.7296720724
  0
LINE
  5
260
100
AcDbEntity
  8
0
100
AcDbLine
 62
7
  6
CONTINUOUS
 10
-30.635231935
 20
207.2042488409
 11
-30.635231935
 21
208.4129117514
  0
LINE
  5
261
100
AcDbEntity
  8
0
100
AcDbLine
 62
7
  6
CONTINUOUS
 10
-33.1275360829
 20
230.3483315073
 11
-33.5947131137
 21
222.5261861321
  0
LINE
  5
262
100
AcDbEntity
  8
0
100
AcDbLine
 62
7
  6
CONTINUOUS
 10
-30.9588915136
 20
229.5869655388
 11
-31.9874128816
 21
221.3225868821
  0
LINE
  5
263
100
AcDbEntity
  8
0
100
AcDbLine
 62
7
  6
CONTINUOUS
 10
-25.6610652723
 20
224.4324757693
 11
-25.9934158774
 21
224.0247076607
  0
LINE
  5
264
100
AcDbEntity
  8
0
100
AcDbLine
 62
7
  6
CONTINUOUS
 10
-26.006618909
 20
223.456907809
 11
-25.7305459069
 21
223.7956277156
  0
LINE
  5
265
100
AcDbEntity
  8
0
100
AcDbLine
 62
7
  6
CONTINUOUS
 10
-26.4513575823
 20
222.7923134179
 11
-26.1190069772
 21
223.2000815265
  0
LINE
  5
266
100
AcDbEntity
  8
0
100
AcDbLine
 62
7
  6
CONTINUOUS
 10
49.9618437956
 20
262.4073611117
 11
49.7293154504
 21
262.3450306139
  0
LINE
  5
267
100
AcDbEntity
  8
0
100
AcDbLine
 62
7
  6
CONTINUOUS
 10
48.9667500974
 20
266.1783052024
 11
48.7195476045
 21
266.1120412188
  0
LINE
  5
268
100
AcDbEntity
  8
0
100
AcDbLine
 62
7
  6
CONTINUOUS
 10
50.9643023182
 20
270.1302622221
 11
47.8651286579
 21
269.2995117306
  0
LINE
  5
269
100
AcDbEntity
  8
0
100
AcDbLine
 62
7
  6
CONTINUOUS
 10
-0.6678978311
 20
227.3583823344
 11
-30.9588406583
 21
229.5869692848
  0
LINE
  5
26A
100
AcDbEntity
  8
0
100
AcDbLine
 62
7
  6
CONTINUOUS
 10
1.7901642121
 20
227.0886136968
 11
-0.6691878979
 21
227.35835559
  0
LINE
  5
26B
100
AcDbEntity
  8
0
100
AcDbLine
 62
7
  6
CONTINUOUS
 10
-28.1404042006
 20
223.7678753761
 11
-27.1291149083
 21
223.6402618994
  0
LINE
  5
26C
100
AcDbEntity
  8
0
100
AcDbLine
 62
7
  6
CONTINUOUS
 10
-23.972018654
 20
223.456913811
 11
-24.9833079462
 21
223.5845272877
  0
LINE
  5
26D
100
AcDbEntity
  8
0
100
AcDbLine
 62
7
  6
CONTINUOUS
 10
10.6609559854
 20
224.3250820493
 11
9.029462235
 21
224.5535786196
  0
LINE
  5
26E
100
AcDbEntity
  8
0
100
AcDbLine
 62
7
  6
CONTINUOUS
 10
1.7968220194
 20
227.0895475614
 11
9.0242707263
 21
226.0748494797
  0
LINE
  5
26F
100
AcDbEntity
  8
0
100
AcDbLine
 62
7
  6
CONTINUOUS
 10
-26.1190069772
 20
223.2000815265
 11
-25.8222539944
 21
223.1278283732
  0
LINE
  5
270
100
AcDbEntity
  8
0
100
AcDbLine
 62
7
  6
CONTINUOUS
 10
-25.8765935778
 20
223.4252493566
 11
-26.006618909
 21
223.456907809
  0
LINE
  5
271
100
AcDbEntity
  8
0
100
AcDbLine
 62
7
  6
CONTINUOUS
 10
-25.9934158774
 20
224.0247076607
 11
-26.2901688602
 21
224.0969608139
  0
LINE
  5
272
100
AcDbEntity
  8
0
100
AcDbLine
 62
7
  6
CONTINUOUS
 10
-30.9582164482
 20
229.5869741667
 11
-33.1272560842
 21
230.3474503807
  0
LINE
  5
273
100
AcDbEntity
  8
0
100
AcDbLine
 62
7
  6
CONTINUOUS
 10
20.8613883723
 20
187.4276818351
 11
20.5986731158
 21
187.5794212881
  0
LINE
  5
274
100
AcDbEntity
  8
0
100
AcDbLine
 62
7
  6
CONTINUOUS
 10
11.133230087
 20
193.6270506899
 11
5.2789478159
 21
197.0083754056
  0
LINE
  5
275
100
AcDbEntity
  8
0
100
AcDbLine
 62
7
  6
CONTINUOUS
 10
10.7655262942
 20
198.3263201922
 11
10.6575294895
 21
198.3886970279
  0
LINE
  5
276
100
AcDbEntity
  8
0
100
AcDbLine
 62
7
  6
CONTINUOUS
 10
9.3631683143
 20
199.1362960042
 11
8.8330426954
 21
199.4424866278
  0
LINE
  5
277
100
AcDbEntity
  8
0
100
AcDbLine
 62
7
  6
CONTINUOUS
 10
9.659562653
 20
199.6639782598
 11
10.1896146237
 21
199.3578294686
  0
LINE
  5
278
100
AcDbEntity
  8
0
100
AcDbLine
 62
7
  6
CONTINUOUS
 10
-25.2922020247
 20
222.8216807542
 11
-25.8222539944
 21
223.1278283732
  0
LINE
  5
279
100
AcDbEntity
  8
0
100
AcDbLine
 62
7
  6
CONTINUOUS
 10
-27.1166151696
 20
223.8754273495
 11
-27.6467407885
 21
224.1816179731
  0
LINE
  5
27A
100
AcDbEntity
  8
0
100
AcDbLine
 62
7
  6
CONTINUOUS
 10
-24.995807685
 20
223.3493618376
 11
-24.4656820656
 21
223.0431710268
  0
LINE
  5
27B
100
AcDbEntity
  8
0
100
AcDbLine
 62
7
  6
CONTINUOUS
 10
-26.8202208308
 20
224.4031096052
 11
-26.2901688602
 21
224.0969608139
  0
LINE
  5
27C
100
AcDbEntity
  8
0
100
AcDbLine
 62
7
  6
CONTINUOUS
 10
5.2789478159
 20
193.6814151016
 11
2.3552520166
 21
195.4695348915
  0
LINE
  5
27D
100
AcDbEntity
  8
0
100
AcDbLine
 62
7
  6
CONTINUOUS
 10
5.2789478159
 20
193.696378998
 11
2.7031363766
 21
195.2773471762
  0
LINE
  5
27E
100
AcDbEntity
  8
0
100
AcDbLine
 62
7
  6
CONTINUOUS
 10
5.3945880066
 20
200.5765673421
 11
7.3125075631
 21
199.3989844997
  0
LINE
  5
27F
100
AcDbEntity
  8
0
100
AcDbLine
 62
7
  6
CONTINUOUS
 10
2.0213642131
 20
195.7219979678
 11
2.7078694341
 21
195.2777252323
  0
LINE
  5
280
100
AcDbEntity
  8
0
100
AcDbLine
 62
7
  6
CONTINUOUS
 10
-33.5891439881
 20
213.3343800893
 11
-30.5243829932
 21
211.0272919586
  0
LINE
  5
281
100
AcDbEntity
  8
0
100
AcDbLine
 62
7
  6
CONTINUOUS
 10
-18.139997722
 20
201.7045851268
 11
2.3552520166
 21
186.2761887572
  0
LINE
  5
282
100
AcDbEntity
  8
0
100
AcDbLine
 62
7
  6
CONTINUOUS
 10
-27.9871273257
 20
212.3647628251
 11
-30.0693264144
 21
213.932198854
  0
LINE
  5
283
100
AcDbEntity
  8
0
100
AcDbLine
 62
7
  6
CONTINUOUS
 10
2.3552520166
 20
195.4695348915
 11
-18.139997722
 21
210.8979312611
  0
LINE
  5
284
100
AcDbEntity
  8
0
100
AcDbLine
 62
7
  6
CONTINUOUS
 10
-30.5142453775
 20
220.2130067073
 11
-33.5947131582
 21
222.5261475362
  0
LINE
  5
285
100
AcDbEntity
  8
0
100
AcDbLine
 62
7
  6
CONTINUOUS
 10
-27.976732954
 20
218.8028464693
 11
-30.0590679674
 21
220.3701658996
  0
LINE
  5
286
100
AcDbEntity
  8
0
100
AcDbLine
 62
7
  6
CONTINUOUS
 10
-26.981824901
 20
223.1024201302
 11
-26.9839233527
 21
223.1284235393
  0
LINE
  5
287
100
AcDbEntity
  8
0
100
AcDbLine
 62
7
  6
CONTINUOUS
 10
-27.0854964288
 20
223.0831569637
 11
-27.1291149083
 21
223.6402618994
  0
LINE
  5
288
100
AcDbEntity
  8
0
100
AcDbLine
 62
7
  6
CONTINUOUS
 10
-27.0112053823
 20
223.187622897
 11
-27.0543501973
 21
223.7403183995
  0
LINE
  5
289
100
AcDbEntity
  8
0
100
AcDbLine
 62
7
  6
CONTINUOUS
 10
-26.3811865949
 20
222.8784077122
 11
-26.3830146324
 21
223.2093282364
  0
LINE
  5
28A
100
AcDbEntity
  8
0
100
AcDbLine
 62
7
  6
CONTINUOUS
 10
-30.5243829932
 20
205.4679402153
 11
-30.5243829932
 21
214.6612863496
  0
LINE
  5
28B
100
AcDbEntity
  8
0
100
AcDbLine
 62
7
  6
CONTINUOUS
 10
-30.5142453775
 20
221.0993460871
 11
-30.5142453775
 21
214.664003793
  0
LINE
  5
28C
100
AcDbEntity
  8
0
100
AcDbLine
 62
7
  6
CONTINUOUS
 10
-30.0693264144
 20
213.932198854
 11
-30.0693264144
 21
204.7388527197
  0
LINE
  5
28D
100
AcDbEntity
  8
0
100
AcDbLine
 62
7
  6
CONTINUOUS
 10
-30.0590132396
 20
213.934742505
 11
-30.0590695894
 21
220.3701653801
  0
LINE
  5
28E
100
AcDbEntity
  8
0
100
AcDbLine
 62
7
  6
CONTINUOUS
 10
-27.9871273257
 20
203.1714166908
 11
-27.9871273257
 21
212.3647628251
  0
LINE
  5
28F
100
AcDbEntity
  8
0
100
AcDbLine
 62
7
  6
CONTINUOUS
 10
-27.976732954
 20
212.367456465
 11
-27.976732954
 21
218.8028464693
  0
LINE
  5
290
100
AcDbEntity
  8
0
100
AcDbLine
 62
7
  6
CONTINUOUS
 10
-18.139997722
 20
201.7045851268
 11
-18.139997722
 21
210.8979312611
  0
LINE
  5
291
100
AcDbEntity
  8
0
100
AcDbLine
 62
7
  6
CONTINUOUS
 10
-25.7323559599
 20
223.4458736852
 11
-25.7294082222
 21
224.0154609508
  0
LINE
  5
292
100
AcDbEntity
  8
0
100
AcDbLine
 62
7
  6
CONTINUOUS
 10
-25.8789743907
 20
223.1416386051
 11
-25.8765935778
 21
223.4252493566
  0
LINE
  5
293
100
AcDbEntity
  8
0
100
AcDbLine
 62
7
  6
CONTINUOUS
 10
-26.006618909
 20
223.456907809
 11
-25.9934158774
 21
224.0247076607
  0
LINE
  5
294
100
AcDbEntity
  8
0
100
AcDbLine
 62
7
  6
CONTINUOUS
 10
-29.6251293502
 20
223.3672105067
 11
-29.6949630871
 21
221.5289520343
  0
LINE
  5
295
100
AcDbEntity
  8
0
100
AcDbLine
 62
7
  6
CONTINUOUS
 10
-26.3524077507
 20
222.9137170953
 11
-26.2901688602
 21
224.0969608139
  0
LINE
  5
296
100
AcDbEntity
  8
0
100
AcDbLine
 62
7
  6
CONTINUOUS
 10
-25.0299327331
 20
222.8696131613
 11
-24.995807685
 21
223.3493618376
  0
LINE
  5
297
100
AcDbEntity
  8
0
100
AcDbLine
 62
7
  6
CONTINUOUS
 10
-25.1012174723
 20
222.933964754
 11
-25.0580726573
 21
223.4844707877
  0
LINE
  5
298
100
AcDbEntity
  8
0
100
AcDbLine
 62
7
  6
CONTINUOUS
 10
-24.9914348308
 20
223.4827799537
 11
-24.9833079462
 21
223.5845272877
  0
LINE
  5
299
100
AcDbEntity
  8
0
100
AcDbLine
 62
7
  6
CONTINUOUS
 10
-25.1405040296
 20
222.8470418993
 11
-25.1284995019
 21
222.9931641118
  0
LINE
  5
29A
100
AcDbEntity
  8
0
100
AcDbLine
 62
7
  6
CONTINUOUS
 10
-26.3830146324
 20
223.2093282364
 11
-26.4513575823
 21
222.7923134179
  0
LINE
  5
29B
100
AcDbEntity
  8
0
100
AcDbLine
 62
7
  6
CONTINUOUS
 10
-25.7294082222
 20
224.0154609508
 11
-25.6610652723
 21
224.4324757693
  0
LINE
  5
29C
100
AcDbEntity
  8
0
100
AcDbLine
 62
7
  6
CONTINUOUS
 10
-25.5626913526
 20
222.9779100835
 11
-25.3007875574
 21
224.0767488005
  0
LINE
  5
29D
100
AcDbEntity
  8
0
100
AcDbLine
 62
7
  6
CONTINUOUS
 10
9.3506685756
 20
198.9011305541
 11
9.0488310934
 21
198.7666150927
  0
LINE
  5
29E
100
AcDbEntity
  8
0
100
AcDbLine
 62
7
  6
CONTINUOUS
 10
50.6732945173
 20
274.3202117247
 11
58.7346644528
 21
276.4816363314
  0
LINE
  5
29F
100
AcDbEntity
  8
0
100
AcDbLine
 62
7
  6
CONTINUOUS
 10
74.6162563354
 20
281.0037840887
 11
73.7077328403
 21
280.7602493847
  0
LINE
  5
2A0
100
AcDbEntity
  8
0
100
AcDbLine
 62
7
  6
CONTINUOUS
 10
60.3074789188
 20
277.1682378517
 11
48.1699744337
 21
273.9147132285
  0
LINE
  5
2A1
100
AcDbEntity
  8
0
100
AcDbLine
 62
7
  6
CONTINUOUS
 10
75.9182127435
 20
281.0858394667
 11
77.1298728951
 21
281.4104083601
  0
LINE
  5
2A2
100
AcDbEntity
  8
0
100
AcDbLine
 62
7
  6
CONTINUOUS
 10
40.8223147132
 20
271.2113502436
 11
40.7869358714
 21
271.2049306897
  0
LINE
  5
2A3
100
AcDbEntity
  8
0
100
AcDbLine
 62
7
  6
CONTINUOUS
 10
-27.0112053823
 20
223.187622897
 11
-26.9839233527
 21
223.1284235393
  0
LINE
  5
2A4
100
AcDbEntity
  8
0
100
AcDbLine
 62
7
  6
CONTINUOUS
 10
-27.1166151696
 20
223.8754273495
 11
-27.0543501973
 21
223.7403183995
  0
LINE
  5
2A5
100
AcDbEntity
  8
0
100
AcDbLine
 62
7
  6
CONTINUOUS
 10
-25.1012174723
 20
222.933964754
 11
-25.1284995019
 21
222.9931641118
  0
LINE
  5
2A6
100
AcDbEntity
  8
0
100
AcDbLine
 62
7
  6
CONTINUOUS
 10
-24.995807685
 20
223.3493618376
 11
-25.0580726573
 21
223.4844707877
  0
LINE
  5
2A7
100
AcDbEntity
  8
0
100
AcDbLine
 62
7
  6
CONTINUOUS
 10
-27.2976070245
 20
223.0177730007
 11
-27.4309523905
 21
223.505746438
  0
LINE
  5
2A8
100
AcDbEntity
  8
0
100
AcDbLine
 62
7
  6
CONTINUOUS
 10
9.4958601312
 20
198.389292194
 11
9.3942870551
 21
198.3440256184
  0
LINE
  5
2A9
100
AcDbEntity
  8
0
100
AcDbLine
 62
7
  6
CONTINUOUS
 10
40.8133168354
 20
271.3224824444
 11
40.7778184691
 21
271.3163447214
  0
LINE
  5
2AA
100
AcDbEntity
  8
0
100
AcDbLine
 62
7
  6
CONTINUOUS
 10
26.4258048416
 20
267.8287824591
 11
-1.5395975266
 21
263.2240507654
  0
LINE
  5
2AB
100
AcDbEntity
  8
0
100
AcDbLine
 62
7
  6
CONTINUOUS
 10
49.282392054
 20
270.2544342339
 11
43.6681673757
 21
269.7553909799
  0
LINE
  5
2AC
100
AcDbEntity
  8
0
100
AcDbLine
 62
7
  6
CONTINUOUS
 10
-0.43062381
 20
263.4066294904
 11
-3.3803780566
 21
263.2013066545
  0
LINE
  5
2AD
100
AcDbEntity
  8
0
100
AcDbLine
 62
7
  6
CONTINUOUS
 10
-0.6701571287
 20
227.3581153338
 11
2.0213687264
 21
195.7220314237
  0
LINE
  5
2AE
100
AcDbEntity
  8
0
100
AcDbLine
 62
7
  6
CONTINUOUS
 10
2.3552520166
 20
186.2761887572
 11
2.3552520166
 21
195.4695348915
  0
LINE
  5
2AF
100
AcDbEntity
  8
0
100
AcDbLine
 62
7
  6
CONTINUOUS
 10
5.2789478159
 20
181.3796869773
 11
5.2789478159
 21
197.0083754056
  0
LINE
  5
2B0
100
AcDbEntity
  8
0
100
AcDbLine
 62
7
  6
CONTINUOUS
 10
5.2789478159
 20
197.0083754056
 11
5.3945880066
 21
200.5765673421
  0
LINE
  5
2B1
100
AcDbEntity
  8
0
100
AcDbLine
 62
7
  6
CONTINUOUS
 10
6.8546541337
 20
198.6280791614
 11
6.7848203968
 21
196.789820689
  0
LINE
  5
2B2
100
AcDbEntity
  8
0
100
AcDbLine
 62
7
  6
CONTINUOUS
 10
10.6858309685
 20
199.5303022061
 11
10.4863676065
 21
199.2855763153
  0
LINE
  5
2B3
100
AcDbEntity
  8
0
100
AcDbLine
 62
7
  6
CONTINUOUS
 10
10.4731645749
 20
198.7177764637
 11
10.7196005865
 21
199.0201341089
  0
LINE
  5
2B4
100
AcDbEntity
  8
0
100
AcDbLine
 62
7
  6
CONTINUOUS
 10
10.0284259016
 20
198.0531820726
 11
10.3607765067
 21
198.4609501811
  0
LINE
  5
2B5
100
AcDbEntity
  8
0
100
AcDbLine
 62
7
  6
CONTINUOUS
 10
31.7350912559
 20
268.1979620586
 11
30.4507504012
 21
268.184646226
  0
LINE
  5
2B6
100
AcDbEntity
  8
0
100
AcDbLine
 62
7
  6
CONTINUOUS
 10
89.3847463495
 20
195.5256367334
 11
92.6833692635
 21
193.6204133994
  0
LINE
  5
2B7
100
AcDbEntity
  8
0
100
AcDbLine
 62
7
  6
CONTINUOUS
 10
9.4685781016
 20
198.4484915517
 11
9.4958601312
 21
198.389292194
  0
LINE
  5
2B8
100
AcDbEntity
  8
0
100
AcDbLine
 62
7
  6
CONTINUOUS
 10
9.3631683143
 20
199.1362960042
 11
9.4254332866
 21
199.0011870541
  0
LINE
  5
2B9
100
AcDbEntity
  8
0
100
AcDbLine
 62
7
  6
CONTINUOUS
 10
9.1821764593
 20
198.2786416554
 11
9.0488310934
 21
198.7666150927
  0
LINE
  5
2BA
100
AcDbEntity
  8
0
100
AcDbLine
 62
7
  6
CONTINUOUS
 10
11.133230087
 20
193.6270506899
 11
11.0317873517
 21
194.3038317787
  0
LINE
  5
2BB
100
AcDbEntity
  8
0
100
AcDbLine
 62
7
  6
CONTINUOUS
 10
9.4979585829
 20
198.3632887849
 11
9.4958601312
 21
198.389292194
  0
LINE
  5
2BC
100
AcDbEntity
  8
0
100
AcDbLine
 62
7
  6
CONTINUOUS
 10
9.3942870551
 20
198.3440256184
 11
9.3506685756
 21
198.9011305541
  0
LINE
  5
2BD
100
AcDbEntity
  8
0
100
AcDbLine
 62
7
  6
CONTINUOUS
 10
9.4685781016
 20
198.4484915517
 11
9.4254332866
 21
199.0011870541
  0
LINE
  5
2BE
100
AcDbEntity
  8
0
100
AcDbLine
 62
7
  6
CONTINUOUS
 10
9.029462235
 20
224.5535786195
 11
11.0317873517
 21
194.3038317787
  0
LINE
  5
2BF
100
AcDbEntity
  8
0
100
AcDbLine
 62
7
  6
CONTINUOUS
 10
12.6632811021
 20
194.0753352084
 11
10.6609559854
 21
224.3250820493
  0
LINE
  5
2C0
100
AcDbEntity
  8
0
100
AcDbLine
 62
7
  6
CONTINUOUS
 10
18.8569008028
 20
217.0386756433
 11
20.6116063959
 21
187.3606758262
  0
LINE
  5
2C1
100
AcDbEntity
  8
0
100
AcDbLine
 62
7
  6
CONTINUOUS
 10
20.8613883723
 20
187.4276818351
 11
19.1626971134
 21
216.1583391646
  0
LINE
  5
2C2
100
AcDbEntity
  8
0
100
AcDbLine
 62
7
  6
CONTINUOUS
 10
10.098596889
 20
198.1392763669
 11
10.0967688515
 21
198.470196891
  0
LINE
  5
2C3
100
AcDbEntity
  8
0
100
AcDbLine
 62
7
  6
CONTINUOUS
 10
18.3032014151
 20
166.3277246976
 11
18.3032014151
 21
173.682401605
  0
LINE
  5
2C4
100
AcDbEntity
  8
0
100
AcDbLine
 62
7
  6
CONTINUOUS
 10
10.6008090931
 20
198.4025072597
 11
10.6031899061
 21
198.6861180113
  0
LINE
  5
2C5
100
AcDbEntity
  8
0
100
AcDbLine
 62
7
  6
CONTINUOUS
 10
10.4731645749
 20
198.7177764637
 11
10.4863676065
 21
199.2855763153
  0
LINE
  5
2C6
100
AcDbEntity
  8
0
100
AcDbLine
 62
7
  6
CONTINUOUS
 10
10.1273757331
 20
198.17458575
 11
10.1896146237
 21
199.3578294686
  0
LINE
  5
2C7
100
AcDbEntity
  8
0
100
AcDbLine
 62
7
  6
CONTINUOUS
 10
10.0967688515
 20
198.470196891
 11
10.0284259016
 21
198.0531820726
  0
LINE
  5
2C8
100
AcDbEntity
  8
0
100
AcDbLine
 62
7
  6
CONTINUOUS
 10
12.6632811021
 20
194.0753352084
 11
15.4464723235
 21
175.50711365
  0
LINE
  5
2C9
100
AcDbEntity
  8
0
100
AcDbLine
 62
7
  6
CONTINUOUS
 10
22.1268096929
 20
176.0166342519
 11
22.1268096929
 21
174.2389348247
  0
LINE
  5
2CA
100
AcDbEntity
  8
0
100
AcDbLine
 62
7
  6
CONTINUOUS
 10
25.8458180853
 20
174.3949478729
 11
25.8458180853
 21
177.0135348416
  0
LINE
  5
2CB
100
AcDbEntity
  8
0
100
AcDbLine
 62
7
  6
CONTINUOUS
 10
28.7241652815
 20
172.9049976923
 11
28.7241652815
 21
165.5503207849
  0
LINE
  5
2CC
100
AcDbEntity
  8
0
100
AcDbLine
 62
7
  6
CONTINUOUS
 10
40.8223147132
 20
272.8502522194
 11
40.8223147132
 21
271.0110302798
  0
LINE
  5
2CD
100
AcDbEntity
  8
0
100
AcDbLine
 62
7
  6
CONTINUOUS
 10
42.2107442378
 20
271.7155520965
 11
42.2107442378
 21
269.8103674233
  0
LINE
  5
2CE
100
AcDbEntity
  8
0
100
AcDbLine
 62
7
  6
CONTINUOUS
 10
40.8431445834
 20
273.0717267955
 11
40.8223147133
 21
272.8486396023
  0
LINE
  5
2CF
100
AcDbEntity
  8
0
100
AcDbLine
 62
7
  6
CONTINUOUS
 10
45.8329169682
 20
195.0218813552
 11
46.0140753709
 21
193.8132725709
  0
LINE
  5
2D0
100
AcDbEntity
  8
0
100
AcDbLine
 62
7
  6
CONTINUOUS
 10
49.6157074986
 20
270.2492358098
 11
49.6157074986
 21
269.7687639867
  0
LINE
  5
2D1
100
AcDbEntity
  8
0
100
AcDbLine
 62
7
  6
CONTINUOUS
 10
50.9170552193
 20
267.7537061462
 11
50.9170552193
 21
262.2376984656
  0
LINE
  5
2D2
100
AcDbEntity
  8
0
100
AcDbLine
 62
7
  6
CONTINUOUS
 10
94.752704869
 20
246.2412059682
 11
91.0358225255
 21
248.388008181
  0
LINE
  5
2D3
100
AcDbEntity
  8
0
100
AcDbLine
 62
7
  6
CONTINUOUS
 10
101.3731210135
 20
244.7549952454
 11
100.4534581468
 21
245.2861754375
  0
LINE
  5
2D4
100
AcDbEntity
  8
0
100
AcDbLine
 62
7
  6
CONTINUOUS
 10
73.6750480399
 20
190.4253354768
 11
73.749469154
 21
189.9288307006
  0
LINE
  5
2D5
100
AcDbEntity
  8
0
100
AcDbLine
 62
7
  6
CONTINUOUS
 10
75.3508849243
 20
193.5829373694
 11
75.8155849012
 21
190.4826645372
  0
LINE
  5
2D6
100
AcDbEntity
  8
0
100
AcDbLine
 62
7
  6
CONTINUOUS
 10
81.6007090672
 20
192.0333987879
 11
81.1360090903
 21
195.1336716201
  0
LINE
  5
2D7
100
AcDbEntity
  8
0
100
AcDbLine
 62
7
  6
CONTINUOUS
 10
83.6668248406
 20
192.5872324501
 11
83.5924037531
 21
193.0837370494
  0
LINE
  5
2D8
100
AcDbEntity
  8
0
100
AcDbLine
 62
7
  6
CONTINUOUS
 10
85.7631755188
 20
190.4561240406
 11
85.7631755188
 21
193.0747110093
  0
LINE
  5
2D9
100
AcDbEntity
  8
0
100
AcDbLine
 62
7
  6
CONTINUOUS
 10
90.7076384885
 20
182.1653306135
 11
90.7076384885
 21
189.520007521
  0
LINE
  5
2DA
100
AcDbEntity
  8
0
100
AcDbLine
 62
7
  6
CONTINUOUS
 10
91.0358225255
 20
252.0653466347
 11
91.0358225255
 21
248.388008181
  0
LINE
  5
2DB
100
AcDbEntity
  8
0
100
AcDbLine
 62
7
  6
CONTINUOUS
 10
93.9850219428
 20
191.9589124165
 11
93.9850219428
 21
184.6042355091
  0
LINE
  5
2DC
100
AcDbEntity
  8
0
100
AcDbLine
 62
7
  6
CONTINUOUS
 10
94.752704869
 20
246.2412059682
 11
94.752704869
 21
248.0798751951
  0
LINE
  5
2DD
100
AcDbEntity
  8
0
100
AcDbLine
 62
7
  6
CONTINUOUS
 10
89.4134170172
 20
195.3343587122
 11
89.2048280523
 21
196.7259720822
  0
LINE
  5
2DE
100
AcDbEntity
  8
0
100
AcDbLine
 62
7
  6
CONTINUOUS
 10
101.3731210135
 20
244.7549952454
 11
101.3731210135
 21
247.0354980937
  0
LINE
  5
2DF
100
AcDbEntity
  8
0
100
AcDbLine
 62
7
  6
CONTINUOUS
 10
104.6789062512
 20
245.6411291029
 11
104.6789062512
 21
247.5856460949
  0
LINE
  5
2E0
100
AcDbEntity
  8
0
100
AcDbLine
 62
7
  6
CONTINUOUS
 10
100.4534581468
 20
245.2861754375
 11
100.2200159447
 21
246.8435986196
  0
LINE
  5
2E1
100
AcDbEntity
  8
0
100
AcDbLine
 62
7
  6
CONTINUOUS
 10
121.1989867707
 20
255.1689460553
 11
121.1989867707
 21
253.3302768284
  0
LINE
  5
2E2
100
AcDbEntity
  8
0
100
AcDbLine
 62
7
  6
CONTINUOUS
 10
121.9170552193
 20
267.7537061462
 11
121.9170552193
 21
262.2376984656
  0
ARC
  5
2E3
100
AcDbEntity
  8
0
100
AcDbCircle
 62
7
  6
CONTINUOUS
 10
335.0453773633
 20
159.7337929481
 40
327.4202199051
100
AcDbArc
 50
172.4453339481
 51
172.9044496597
  0
ARC
  5
2E4
100
AcDbEntity
  8
0
100
AcDbCircle
 62
7
  6
CONTINUOUS
 10
92.7631745171
 20
314.072112887
 40
65.7324632073
100
AcDbArc
 50
285.005605987
 51
285.1403782917
  0
ARC
  5
2E5
100
AcDbEntity
  8
0
100
AcDbCircle
 62
7
  6
CONTINUOUS
 10
-82.269976622
 20
248.1829384029
 40
62.3881070838
100
AcDbArc
 50
336.018307741
 51
336.1970823424
  0
ARC
  5
2E6
100
AcDbEntity
  8
0
100
AcDbCircle
 62
7
  6
CONTINUOUS
 10
-5.5295955221
 20
242.2294151553
 40
61.7812332991
100
AcDbArc
 50
10.102590611
 51
12.8861381195
  0
ARC
  5
2E7
100
AcDbEntity
  8
0
100
AcDbCircle
 62
7
  6
CONTINUOUS
 10
55.9425047786
 20
227.8540951375
 40
38.6690875115
100
AcDbArc
 50
187.5042841344
 51
188.5238775788
  0
ARC
  5
2E8
100
AcDbEntity
  8
0
100
AcDbCircle
 62
7
  6
CONTINUOUS
 10
55.13446379
 20
227.7235300424
 40
37.8506205923
100
AcDbArc
 50
188.5097184145
 51
196.4187744542
  0
ARC
  5
2E9
100
AcDbEntity
  8
0
100
AcDbCircle
 62
7
  6
CONTINUOUS
 10
79.3780750938
 20
228.1530286251
 40
34.651672004
100
AcDbArc
 50
130.483824238
 51
134.0305008993
  0
ARC
  5
2EA
100
AcDbEntity
  8
0
100
AcDbCircle
 62
7
  6
CONTINUOUS
 10
44.4675975383
 20
224.0447555096
 40
27.2409440096
100
AcDbArc
 50
295.9987715873
 51
303.0291028391
  0
ARC
  5
2EB
100
AcDbEntity
  8
0
100
AcDbCircle
 62
7
  6
CONTINUOUS
 10
30.7350412613
 20
241.7205878485
 40
26.4613912545
100
AcDbArc
 50
90.6145935338
 51
99.3723398447
  0
ARC
  5
2EC
100
AcDbEntity
  8
0
100
AcDbCircle
 62
7
  6
CONTINUOUS
 10
2.5423516004
 20
238.5325185821
 40
25.0269931388
100
AcDbArc
 50
99.3870706381
 51
103.429176701
  0
ARC
  5
2ED
100
AcDbEntity
  8
0
100
AcDbCircle
 62
7
  6
CONTINUOUS
 10
72.0629973073
 20
215.268517453
 40
24.8954292645
100
AcDbArc
 50
258.9725926165
 51
273.7126642924
  0
ARC
  5
2EE
100
AcDbEntity
  8
0
100
AcDbCircle
 62
7
  6
CONTINUOUS
 10
72.1941474914
 20
216.2996039712
 40
22.9349500265
100
AcDbArc
 50
262.0634467347
 51
277.9112327745
  0
ARC
  5
2EF
100
AcDbEntity
  8
0
100
AcDbCircle
 62
7
  6
CONTINUOUS
 10
44.5705522067
 20
263.5212052693
 40
7.3395161141
100
AcDbArc
 50
30.1196228925
 51
33.7910671892
  0
ARC
  5
2F0
100
AcDbEntity
  8
0
100
AcDbCircle
 62
7
  6
CONTINUOUS
 10
76.7872326645
 20
239.7643015512
 40
3.7142781007
100
AcDbArc
 50
199.8578742901
 51
205.5394707396
  0
ARC
  5
2F1
100
AcDbEntity
  8
0
100
AcDbCircle
 62
7
  6
CONTINUOUS
 10
62.068312204
 20
235.8188142226
 40
3.7142781007
100
AcDbArc
 50
199.8578742901
 51
205.5394707397
  0
ARC
  5
2F2
100
AcDbEntity
  8
0
100
AcDbCircle
 62
7
  6
CONTINUOUS
 10
59.9879076398
 20
218.1329453921
 40
3.7140802216
100
AcDbArc
 50
199.8649151432
 51
205.5449523895
  0
ARC
  5
2F3
100
AcDbEntity
  8
0
100
AcDbCircle
 62
7
  6
CONTINUOUS
 10
83.7837041114
 20
224.5081364634
 40
3.692339543
100
AcDbArc
 50
201.1970269327
 51
205.6302082345
  0
ARC
  5
2F4
100
AcDbEntity
  8
0
100
AcDbCircle
 62
7
  6
CONTINUOUS
 10
-25.7892933827
 20
220.7904470849
 40
2.2932138292
100
AcDbArc
 50
73.2594627768
 51
74.8160381667
  0
ARC
  5
2F5
100
AcDbEntity
  8
0
100
AcDbCircle
 62
7
  6
CONTINUOUS
 10
-28.830088965
 20
220.1953781425
 40
2.0438993187
100
AcDbArc
 50
125.8769903729
 51
126.5867962916
  0
ARC
  5
2F6
100
AcDbEntity
  8
0
100
AcDbCircle
 62
7
  6
CONTINUOUS
 10
49.7743029551
 20
263.318437061
 40
1.0990055055
100
AcDbArc
 50
237.9152175151
 51
239.9778035089
  0
ARC
  5
2F7
100
AcDbEntity
  8
0
100
AcDbCircle
 62
7
  6
CONTINUOUS
 10
48.7211140407
 20
265.1500111421
 40
1.0061637288
100
AcDbArc
 50
59.9845056359
 51
61.5535264713
  0
ARC
  5
2F8
100
AcDbEntity
  8
0
100
AcDbCircle
 62
7
  6
CONTINUOUS
 10
49.6062212107
 20
262.803027646
 40
0.5492444238
100
AcDbArc
 50
285.0385109946
 51
295.3740175536
  0
ARC
  5
2F9
100
AcDbEntity
  8
0
100
AcDbCircle
 62
7
  6
CONTINUOUS
 10
48.8426418441
 20
265.6540441868
 40
0.5492444238
100
AcDbArc
 50
105.0385109945
 51
115.3740175537
  0
SPLINE
  5
2FA
100
AcDbEntity
  8
0
100
AcDbSpline
 62
7
  6
CONTINUOUS
 70
0
 71
3
 72
26
 73
22
 74
0
 42
0.0000001
 43
0.0000001
 44
0.0000000001
 40
0.0
 40
0.0
 40
0.0
 40
0.0
 40
0.0610299083
 40
0.1269639244
 40
0.197034038
 40
0.2701929652
 40
0.3452279066
 40
0.4208288444
 40
0.4956587479
 40
0.568418186
 40
0.6379140002
 40
0.7031369535
 40
0.7633583246
 40
0.8182571694
 40
0.8680913768
 40
0.891414399
 40
0.9139109065
 40
0.9358181521
 40
0.9573691686
 40
0.9786602907
 40
1.0
 40
1.0
 40
1.0
 40
1.0
 10
-23.5695661247
 20
224.4992115465
 30
0.0
 10
-23.6959516718
 20
224.5516192819
 30
0.0
 10
-23.9648775519
 20
224.6464267006
 30
0.0
 10
-24.3928436174
 20
224.7574372261
 30
0.0
 10
-24.8544980686
 20
224.8417866781
 30
0.0
 10
-25.3408851803
 20
224.8980982521
 30
0.0
 10
-25.8421589137
 20
224.9253753783
 30
0.0
 10
-26.3479070674
 20
224.9230965745
 30
0.0
 10
-26.8475587091
 20
224.8913076337
 30
0.0
 10
-27.3307628321
 20
224.8306069345
 30
0.0
 10
-27.7877842587
 20
224.7420671884
 30
0.0
 10
-28.2098885793
 20
224.6270699304
 30
0.0
 10
-28.5898019591
 20
224.4868966503
 30
0.0
 10
-28.9217969859
 20
224.3222091235
 30
0.0
 10
-29.1602777399
 20
224.1598763638
 30
0.0
 10
-29.3190983609
 20
224.015296677
 30
0.0
 10
-29.4201075005
 20
223.9014793903
 30
0.0
 10
-29.5038935959
 20
223.7791159278
 30
0.0
 10
-29.5683743548
 20
223.6484497548
 30
0.0
 10
-29.6111663276
 20
223.5104131773
 30
0.0
 10
-29.6233132373
 20
223.4150166959
 30
0.0
 10
-29.6251293502
 20
223.3672105067
 30
0.0
  0
SPLINE
  5
2FB
100
AcDbEntity
  8
0
100
AcDbSpline
 62
7
  6
CONTINUOUS
 70
0
 71
3
 72
11
 73
7
 74
0
 42
0.0000001
 43
0.0000001
 44
0.0000000001
 40
0.0
 40
0.0
 40
0.0
 40
0.0
 40
0.241018736
 40
0.4842115308
 40
0.7358971751
 40
1.0
 40
1.0
 40
1.0
 40
1.0
 10
-22.9047579736
 20
224.1139233654
 30
0.0
 10
-22.9163545633
 20
224.1236324786
 30
0.0
 10
-22.9423171333
 20
224.1401893926
 30
0.0
 10
-22.986800429
 20
224.1542860274
 30
0.0
 10
-23.0347772301
 20
224.1571543112
 30
0.0
 10
-23.0669858768
 20
224.1518141945
 30
0.0
 10
-23.0829937234
 20
224.1475232034
 30
0.0
  0
LINE
  5
2FC
100
AcDbEntity
  8
0
100
AcDbLine
 62
7
  6
CONTINUOUS
 10
-28.6877613789
 20
221.5419329681
 11
-28.6611703248
 21
222.3860872926
  0
SPLINE
  5
2FD
100
AcDbEntity
  8
0
100
AcDbSpline
 62
7
  6
CONTINUOUS
 70
0
 71
3
 72
9
 73
5
 74
0
 42
0.0000001
 43
0.0000001
 44
0.0000000001
 40
0.0
 40
0.0
 40
0.0
 40
0.0
 40
0.2590168828
 40
1.0
 40
1.0
 40
1.0
 40
1.0
 10
-25.2921461497
 20
222.8216431724
 30
0.0
 10
-25.2532215357
 20
222.827466061
 30
0.0
 10
-25.1032456681
 20
222.8518751681
 30
0.0
 10
-24.9544813606
 20
222.884089927
 30
0.0
 10
-24.8457280175
 20
222.9132418568
 30
0.0
  0
SPLINE
  5
2FE
100
AcDbEntity
  8
0
100
AcDbSpline
 62
7
  6
CONTINUOUS
 70
0
 71
3
 72
9
 73
5
 74
0
 42
0.0000001
 43
0.0000001
 44
0.0000000001
 40
0.0
 40
0.0
 40
0.0
 40
0.0
 40
0.5192878938
 40
1.0
 40
1.0
 40
1.0
 40
1.0
 10
-24.8457280175
 20
222.9132418568
 30
0.0
 10
-24.7785332706
 20
222.9312537772
 30
0.0
 10
-24.6501424909
 20
222.9698660831
 30
0.0
 10
-24.5247993337
 20
223.0176077472
 30
0.0
 10
-24.4656939672
 20
223.0431773114
 30
0.0
  0
SPLINE
  5
2FF
100
AcDbEntity
  8
0
100
AcDbSpline
 62
7
  6
CONTINUOUS
 70
0
 71
3
 72
12
 73
8
 74
0
 42
0.0000001
 43
0.0000001
 44
0.0000000001
 40
0.0
 40
0.0
 40
0.0
 40
0.0
 40
0.2344666549
 40
0.4880789296
 40
0.6187053667
 40
0.7490045805
 40
1.0
 40
1.0
 40
1.0
 40
1.0
 10
-28.4101120378
 20
222.7195599324
 30
0.0
 10
-28.4435414194
 20
222.7105990034
 30
0.0
 10
-28.5095523491
 20
222.6775901991
 30
0.0
 10
-28.5753766082
 20
222.6123375425
 30
0.0
 10
-28.6166871332
 20
222.5483003761
 30
0.0
 10
-28.6481280577
 20
222.4794191971
 30
0.0
 10
-28.6600037157
 20
222.4231182899
 30
0.0
 10
-28.6611703248
 20
222.3860872926
 30
0.0
  0
SPLINE
  5
300
100
AcDbEntity
  8
0
100
AcDbSpline
 62
7
  6
CONTINUOUS
 70
0
 71
3
 72
26
 73
22
 74
0
 42
0.0000001
 43
0.0000001
 44
0.0000000001
 40
0.0
 40
0.0
 40
0.0
 40
0.0
 40
0.0213314047
 40
0.0425701982
 40
0.0639892872
 40
0.085638259
 40
0.1076827683
 40
0.1303365034
 40
0.1781779442
 40
0.2303749426
 40
0.2874775858
 40
0.3494929648
 40
0.416022593
 40
0.4863760935
 40
0.5596581016
 40
0.6348355033
 40
0.7107931542
 40
0.7863837641
 40
0.860474488
 40
0.9319979845
 40
1.0
 40
1.0
 40
1.0
 40
1.0
 10
-29.6949630878
 20
221.5289520169
 30
0.0
 10
-29.696665695
 20
221.484133681
 30
0.0
 10
-29.6927107954
 20
221.3942290892
 30
0.0
 10
-29.6647401792
 20
221.2620687519
 30
0.0
 10
-29.6166472127
 20
221.135169902
 30
0.0
 10
-29.5503971237
 20
221.0148906859
 30
0.0
 10
-29.4678020535
 20
220.9020542855
 30
0.0
 10
-29.335984137
 20
220.7584941148
 30
0.0
 10
-29.1342741489
 20
220.5954178526
 30
0.0
 10
-28.8490037612
 20
220.4271142493
 30
0.0
 10
-28.5193696409
 20
220.2803199633
 30
0.0
 10
-28.1492534687
 20
220.1549099252
 30
0.0
 10
-27.7436374005
 20
220.0516328269
 30
0.0
 10
-27.3087497153
 20
219.9716363752
 30
0.0
 10
-26.8517913044
 20
219.9160181622
 30
0.0
 10
-26.3806770362
 20
219.8856315185
 30
0.0
 10
-25.9037597239
 20
219.8809661463
 30
0.0
 10
-25.429573674
 20
219.9020991538
 30
0.0
 10
-24.9665545851
 20
219.9486863415
 30
0.0
 10
-24.522844072
 20
220.01999274
 30
0.0
 10
-24.2365392623
 20
220.0852243236
 30
0.0
 10
-24.0984361562
 20
220.1222436184
 30
0.0
  0
SPLINE
  5
301
100
AcDbEntity
  8
0
100
AcDbSpline
 62
7
  6
CONTINUOUS
 70
0
 71
3
 72
14
 73
10
 74
0
 42
0.0000001
 43
0.0000001
 44
0.0000000001
 40
0.0
 40
0.0
 40
0.0
 40
0.0
 40
0.2961110668
 40
0.4317963414
 40
0.5590544998
 40
0.6782858533
 40
0.7904632887
 40
0.8970655365
 40
1.0
 40
1.0
 40
1.0
 40
1.0
 10
-24.0984361562
 20
220.1222436184
 30
0.0
 10
-23.9151809387
 20
220.1713661841
 30
0.0
 10
-23.6509440358
 20
220.2563620754
 30
0.0
 10
-23.3229118505
 20
220.4009057618
 30
0.0
 10
-23.1070760808
 20
220.517209759
 30
0.0
 10
-22.9155360186
 20
220.6448981735
 30
0.0
 10
-22.7496576629
 20
220.7850369977
 30
0.0
 10
-22.6115638435
 20
220.9390470201
 30
0.0
 10
-22.5394730203
 20
221.0533986676
 30
0.0
 10
-22.5101655782
 20
221.1124815449
 30
0.0
  0
SPLINE
  5
302
100
AcDbEntity
  8
0
100
AcDbSpline
 62
7
  6
CONTINUOUS
 70
0
 71
3
 72
9
 73
5
 74
0
 42
0.0000001
 43
0.0000001
 44
0.0000000001
 40
0.0
 40
0.0
 40
0.0
 40
0.0
 40
0.2516183193
 40
1.0
 40
1.0
 40
1.0
 40
1.0
 10
-22.5101655782
 20
221.1124815449
 30
0.0
 10
-22.5016682376
 20
221.129611915
 30
0.0
 10
-22.4699133894
 20
221.1986645645
 30
0.0
 10
-22.446549566
 20
221.2716518939
 30
0.0
 10
-22.4347789151
 20
221.3272948715
 30
0.0
  0
SPLINE
  5
303
100
AcDbEntity
  8
0
100
AcDbSpline
 62
7
  6
CONTINUOUS
 70
0
 71
3
 72
12
 73
8
 74
0
 42
0.0000001
 43
0.0000001
 44
0.0000000001
 40
0.0
 40
0.0
 40
0.0
 40
0.0
 40
0.2905429741
 40
0.5479843343
 40
0.7802136125
 40
0.8908237745
 40
1.0
 40
1.0
 40
1.0
 40
1.0
 10
-29.2804874181
 20
222.743793344
 30
0.0
 10
-29.3354600938
 20
222.7893459448
 30
0.0
 10
-29.4336368188
 20
222.8825045495
 30
0.0
 10
-29.5470869307
 20
223.0386336267
 30
0.0
 10
-29.6042819586
 20
223.1765984499
 30
0.0
 10
-29.6242422299
 20
223.2861985346
 30
0.0
 10
-29.6261453908
 20
223.340402551
 30
0.0
 10
-29.6251272557
 20
223.3672104944
 30
0.0
  0
SPLINE
  5
304
100
AcDbEntity
  8
0
100
AcDbSpline
 62
7
  6
CONTINUOUS
 70
0
 71
3
 72
22
 73
18
 74
0
 42
0.0000001
 43
0.0000001
 44
0.0000000001
 40
0.0
 40
0.0
 40
0.0
 40
0.0
 40
0.0591862557
 40
0.113083191
 40
0.1624987497
 40
0.2087016298
 40
0.2533260883
 40
0.2982232729
 40
0.3452078666
 40
0.3958108696
 40
0.4511669134
 40
0.5120134843
 40
0.5787614426
 40
0.6515621118
 40
0.7303552502
 40
0.8149385146
 40
1.0
 40
1.0
 40
1.0
 40
1.0
 10
-29.0294291312
 20
223.0772659837
 30
0.0
 10
-29.0676212275
 20
223.1101193557
 30
0.0
 10
-29.1372697723
 20
223.1769826829
 30
0.0
 10
-29.2231918972
 20
223.2860330373
 30
0.0
 10
-29.2845316102
 20
223.3983479022
 30
0.0
 10
-29.3203389554
 20
223.5131456311
 30
0.0
 10
-29.32981211
 20
223.6292806874
 30
0.0
 10
-29.3126274826
 20
223.7451799779
 30
0.0
 10
-29.2692997452
 20
223.8593476955
 30
0.0
 10
-29.2007391885
 20
223.9707794787
 30
0.0
 10
-29.1078367845
 20
224.0787946097
 30
0.0
 10
-28.9914647524
 20
224.1828205304
 30
0.0
 10
-28.8525156696
 20
224.2822329642
 30
0.0
 10
-28.6920225299
 20
224.3763626934
 30
0.0
 10
-28.5111831436
 20
224.4645679656
 30
0.0
 10
-28.2364516766
 20
224.5767192987
 30
0.0
 10
-28.0165742197
 20
224.644478975
 30
0.0
 10
-27.8641640318
 20
224.6842796766
 30
0.0
  0
SPLINE
  5
305
100
AcDbEntity
  8
0
100
AcDbSpline
 62
7
  6
CONTINUOUS
 70
0
 71
3
 72
15
 73
11
 74
0
 42
0.0000001
 43
0.0000001
 44
0.0000000001
 40
0.0
 40
0.0
 40
0.0
 40
0.0
 40
0.1205728177
 40
0.2489056039
 40
0.381869958
 40
0.5161068773
 40
0.6482071997
 40
0.7748576287
 40
0.8929937519
 40
1.0
 40
1.0
 40
1.0
 40
1.0
 10
-27.8641640318
 20
224.6842796766
 30
0.0
 10
-27.6998792525
 20
224.7271813327
 30
0.0
 10
-27.3564323749
 20
224.7996964497
 30
0.0
 10
-26.8227786871
 20
224.8695577228
 30
0.0
 10
-26.2663029713
 20
224.9025970946
 30
0.0
 10
-25.7035870998
 20
224.8977745635
 30
0.0
 10
-25.1513607063
 20
224.8552464171
 30
0.0
 10
-24.6259856474
 20
224.7763149378
 30
0.0
 10
-24.143049434
 20
224.6634421225
 30
0.0
 10
-23.8418251636
 20
224.5621766501
 30
0.0
 10
-23.7023108168
 20
224.5052292548
 30
0.0
  0
SPLINE
  5
306
100
AcDbEntity
  8
0
100
AcDbSpline
 62
7
  6
CONTINUOUS
 70
0
 71
3
 72
9
 73
5
 74
0
 42
0.0000001
 43
0.0000001
 44
0.0000000001
 40
0.0
 40
0.0
 40
0.0
 40
0.0
 40
0.2590168828
 40
1.0
 40
1.0
 40
1.0
 40
1.0
 10
-26.8202767049
 20
224.4031460147
 30
0.0
 10
-26.8592013189
 20
224.3973231262
 30
0.0
 10
-27.0091771865
 20
224.3729140191
 30
0.0
 10
-27.157941494
 20
224.3406992602
 30
0.0
 10
-27.266694837
 20
224.3115473303
 30
0.0
  0
SPLINE
  5
307
100
AcDbEntity
  8
0
100
AcDbSpline
 62
7
  6
CONTINUOUS
 70
0
 71
3
 72
9
 73
5
 74
0
 42
0.0000001
 43
0.0000001
 44
0.0000000001
 40
0.0
 40
0.0
 40
0.0
 40
0.0
 40
0.5192878938
 40
1.0
 40
1.0
 40
1.0
 40
1.0
 10
-27.266694837
 20
224.3115473303
 30
0.0
 10
-27.333889584
 20
224.29353541
 30
0.0
 10
-27.4622803636
 20
224.254923104
 30
0.0
 10
-27.5876235209
 20
224.2071814399
 30
0.0
 10
-27.6467288873
 20
224.1816118757
 30
0.0
  0
SPLINE
  5
308
100
AcDbEntity
  8
0
100
AcDbSpline
 62
7
  6
CONTINUOUS
 70
0
 71
3
 72
9
 73
5
 74
0
 42
0.0000001
 43
0.0000001
 44
0.0000000001
 40
0.0
 40
0.0
 40
0.0
 40
0.0
 40
0.5153768913
 40
1.0
 40
1.0
 40
1.0
 40
1.0
 10
-23.7023108168
 20
224.5052292548
 30
0.0
 10
-23.679960222
 20
224.5112204542
 30
0.0
 10
-23.6346437414
 20
224.5170406288
 30
0.0
 10
-23.5896819546
 20
224.50750908
 30
0.0
 10
-23.5695761651
 20
224.4991901274
 30
0.0
  0
SPLINE
  5
309
100
AcDbEntity
  8
0
100
AcDbSpline
 62
7
  6
CONTINUOUS
 70
0
 71
3
 72
25
 73
21
 74
0
 42
0.0000001
 43
0.0000001
 44
0.0000000001
 40
0.0
 40
0.0
 40
0.0
 40
0.0
 40
0.0156170212
 40
0.031539555
 40
0.0656188233
 40
0.0844238161
 40
0.1046382195
 40
0.1496984334
 40
0.2012856509
 40
0.2592818811
 40
0.3231988564
 40
0.3922874953
 40
0.4656101129
 40
0.5420929704
 40
0.620568738
 40
0.6998138834
 40
0.7785836972
 40
0.8556465053
 40
0.9298184515
 40
1.0
 40
1.0
 40
1.0
 40
1.0
 10
-29.6949630796
 20
221.5289520361
 30
0.0
 10
-29.6962003985
 20
221.4963762702
 30
0.0
 10
-29.6929256503
 20
221.4302223047
 30
0.0
 10
-29.6627058585
 20
221.2960432287
 30
0.0
 10
-29.5965027479
 20
221.165836685
 30
0.0
 10
-29.5031760468
 20
221.0449232251
 30
0.0
 10
-29.3810569053
 20
220.9183730259
 30
0.0
 10
-29.1867401984
 20
220.7688397946
 30
0.0
 10
-28.9051219882
 20
220.6095530432
 30
0.0
 10
-28.5716571711
 20
220.4667060696
 30
0.0
 10
-28.1922413801
 20
220.3428154984
 30
0.0
 10
-27.7736085344
 20
220.2401207329
 30
0.0
 10
-27.3233703859
 20
220.1605412595
 30
0.0
 10
-26.8497709179
 20
220.1055726408
 30
0.0
 10
-26.3615279694
 20
220.0762534169
 30
0.0
 10
-25.8676475808
 20
220.0731380903
 30
0.0
 10
-25.3772508495
 20
220.096285186
 30
0.0
 10
-24.8993772629
 20
220.1452585553
 30
0.0
 10
-24.4428641804
 20
220.2191266495
 30
0.0
 10
-24.1488115173
 20
220.2862116424
 30
0.0
 10
-24.0073088366
 20
220.3241422118
 30
0.0
  0
LINE
  5
30A
100
AcDbEntity
  8
0
100
AcDbLine
 62
7
  6
CONTINUOUS
 10
-29.2804874181
 20
222.743793344
 11
-29.3070784723
 21
221.8996390195
  0
SPLINE
  5
30B
100
AcDbEntity
  8
0
100
AcDbSpline
 62
7
  6
CONTINUOUS
 70
0
 71
3
 72
14
 73
10
 74
0
 42
0.0000001
 43
0.0000001
 44
0.0000000001
 40
0.0
 40
0.0
 40
0.0
 40
0.0
 40
0.3045638031
 40
0.4440577532
 40
0.5742788827
 40
0.6949178211
 40
0.8058770796
 40
0.9073723575
 40
1.0
 40
1.0
 40
1.0
 40
1.0
 10
-24.0073088366
 20
220.3241422118
 30
0.0
 10
-23.8446075708
 20
220.3677551781
 30
0.0
 10
-23.6097648349
 20
220.4415730989
 30
0.0
 10
-23.3159658182
 20
220.5626635977
 30
0.0
 10
-23.1219044388
 20
220.6576705022
 30
0.0
 10
-22.9490014623
 20
220.7588279698
 30
0.0
 10
-22.7984552534
 20
220.8655009713
 30
0.0
 10
-22.671345715
 20
220.9769621916
 30
0.0
 10
-22.5997574082
 20
221.0575186877
 30
0.0
 10
-22.5688141268
 20
221.0983474266
 30
0.0
  0
SPLINE
  5
30C
100
AcDbEntity
  8
0
100
AcDbSpline
 62
7
  6
CONTINUOUS
 70
0
 71
3
 72
9
 73
5
 74
0
 42
0.0000001
 43
0.0000001
 44
0.0000000001
 40
0.0
 40
0.0
 40
0.0
 40
0.0
 40
0.2625271766
 40
1.0
 40
1.0
 40
1.0
 40
1.0
 10
-22.5688141268
 20
221.0983474266
 30
0.0
 10
-22.5571826138
 20
221.1136948618
 30
0.0
 10
-22.5146170395
 20
221.1734240261
 30
0.0
 10
-22.4794506896
 20
221.2386517658
 30
0.0
 10
-22.4596870614
 20
221.2890079177
 30
0.0
  0
SPLINE
  5
30D
100
AcDbEntity
  8
0
100
AcDbSpline
 62
7
  6
CONTINUOUS
 70
0
 71
3
 72
16
 73
12
 74
0
 42
0.0000001
 43
0.0000001
 44
0.0000000001
 40
0.0
 40
0.0
 40
0.0
 40
0.0
 40
0.0416464699
 40
0.0839422325
 40
0.1734195354
 40
0.2738609049
 40
0.3884238396
 40
0.5185424308
 40
0.6644029502
 40
0.8253272274
 40
1.0
 40
1.0
 40
1.0
 40
1.0
 10
-22.4872950675
 20
223.3672104975
 30
0.0
 10
-22.4861983376
 20
223.3383162644
 30
0.0
 10
-22.4885917326
 20
223.2797966731
 30
0.0
 10
-22.5122366223
 20
223.1613071225
 30
0.0
 10
-22.5796210802
 20
223.0123674619
 30
0.0
 10
-22.7118086929
 20
222.8454604445
 30
0.0
 10
-22.8934914556
 20
222.6876147165
 30
0.0
 10
-23.1220064974
 20
222.540352719
 30
0.0
 10
-23.3942084122
 20
222.4053320667
 30
0.0
 10
-23.7062445926
 20
222.2844261713
 30
0.0
 10
-23.9294912934
 20
222.2169228643
 30
0.0
 10
-24.0466307079
 20
222.185523002
 30
0.0
  0
SPLINE
  5
30E
100
AcDbEntity
  8
0
100
AcDbSpline
 62
7
  6
CONTINUOUS
 70
0
 71
3
 72
15
 73
11
 74
0
 42
0.0000001
 43
0.0000001
 44
0.0000000001
 40
0.0
 40
0.0
 40
0.0
 40
0.0
 40
0.1203286417
 40
0.2487402757
 40
0.3819880433
 40
0.5165808123
 40
0.6489687993
 40
0.775704718
 40
0.8936132624
 40
1.0
 40
1.0
 40
1.0
 40
1.0
 10
-24.0466307079
 20
222.185523002
 30
0.0
 10
-24.2282206273
 20
222.1368468285
 30
0.0
 10
-24.6086470146
 20
222.054578183
 30
0.0
 10
-25.2006931895
 20
221.975282166
 30
0.0
 10
-25.8191746221
 20
221.9376357085
 30
0.0
 10
-26.4449616719
 20
221.9428667518
 30
0.0
 10
-27.0587475277
 20
221.9907933137
 30
0.0
 10
-27.6416641399
 20
222.0798959334
 30
0.0
 10
-28.175765279
 20
222.2072901989
 30
0.0
 10
-28.5079234233
 20
222.3217149296
 30
0.0
 10
-28.6611703248
 20
222.3860872926
 30
0.0
  0
SPLINE
  5
30F
100
AcDbEntity
  8
0
100
AcDbSpline
 62
7
  6
CONTINUOUS
 70
0
 71
3
 72
9
 73
5
 74
0
 42
0.0000001
 43
0.0000001
 44
0.0000000001
 40
0.0
 40
0.0
 40
0.0
 40
0.0
 40
0.5355482671
 40
1.0
 40
1.0
 40
1.0
 40
1.0
 10
-28.6877613789
 20
221.5419329681
 30
0.0
 10
-28.8057254543
 20
221.5916214848
 30
0.0
 10
-29.0215531635
 20
221.6956144148
 30
0.0
 10
-29.2214787271
 20
221.8289588825
 30
0.0
 10
-29.3070784723
 20
221.8996390195
 30
0.0
  0
SPLINE
  5
310
100
AcDbEntity
  8
0
100
AcDbSpline
 62
7
  6
CONTINUOUS
 70
0
 71
3
 72
22
 73
18
 74
0
 42
0.0000001
 43
0.0000001
 44
0.0000000001
 40
0.0
 40
0.0
 40
0.0
 40
0.0
 40
0.0591862557
 40
0.113083191
 40
0.1624987497
 40
0.2087016298
 40
0.2533260883
 40
0.2982232729
 40
0.3452078666
 40
0.3958108696
 40
0.4511669134
 40
0.5120134843
 40
0.5787614426
 40
0.6515621118
 40
0.7303552502
 40
0.8149385146
 40
1.0
 40
1.0
 40
1.0
 40
1.0
 10
-23.0829937234
 20
224.1475232034
 30
0.0
 10
-23.0448016271
 20
224.1146698314
 30
0.0
 10
-22.9751530823
 20
224.0478065043
 30
0.0
 10
-22.8892309573
 20
223.9387561499
 30
0.0
 10
-22.8278912444
 20
223.8264412849
 30
0.0
 10
-22.7920838992
 20
223.711643556
 30
0.0
 10
-22.7826107445
 20
223.5955084998
 30
0.0
 10
-22.7997953719
 20
223.4796092092
 30
0.0
 10
-22.8431231094
 20
223.3654414917
 30
0.0
 10
-22.9116836661
 20
223.2540097085
 30
0.0
 10
-23.0045860701
 20
223.1459945775
 30
0.0
 10
-23.1209581021
 20
223.0419686568
 30
0.0
 10
-23.259907185
 20
222.942556223
 30
0.0
 10
-23.4204003247
 20
222.8484264938
 30
0.0
 10
-23.6012397109
 20
222.7602212216
 30
0.0
 10
-23.875971178
 20
222.6480698885
 30
0.0
 10
-24.0958486349
 20
222.5803102122
 30
0.0
 10
-24.2482588228
 20
222.5405095106
 30
0.0
  0
SPLINE
  5
311
100
AcDbEntity
  8
0
100
AcDbSpline
 62
7
  6
CONTINUOUS
 70
0
 71
3
 72
15
 73
11
 74
0
 42
0.0000001
 43
0.0000001
 44
0.0000000001
 40
0.0
 40
0.0
 40
0.0
 40
0.0
 40
0.1205728177
 40
0.2489056039
 40
0.381869958
 40
0.5161068773
 40
0.6482071997
 40
0.7748576287
 40
0.8929937519
 40
1.0
 40
1.0
 40
1.0
 40
1.0
 10
-24.2482588228
 20
222.5405095106
 30
0.0
 10
-24.412543602
 20
222.4976078545
 30
0.0
 10
-24.7559904796
 20
222.4250927375
 30
0.0
 10
-25.2896441675
 20
222.3552314643
 30
0.0
 10
-25.8461198833
 20
222.3221920925
 30
0.0
 10
-26.4088357548
 20
222.3270146236
 30
0.0
 10
-26.9610621482
 20
222.3695427701
 30
0.0
 10
-27.4864372071
 20
222.4484742494
 30
0.0
 10
-27.9693734205
 20
222.5613470647
 30
0.0
 10
-28.270597691
 20
222.6626125371
 30
0.0
 10
-28.4101120378
 20
222.7195599324
 30
0.0
  0
SPLINE
  5
312
100
AcDbEntity
  8
0
100
AcDbSpline
 62
7
  6
CONTINUOUS
 70
0
 71
3
 72
12
 73
8
 74
0
 42
0.0000001
 43
0.0000001
 44
0.0000000001
 40
0.0
 40
0.0
 40
0.0
 40
0.0
 40
0.25100946
 40
0.381291321
 40
0.5119156772
 40
0.7655193973
 40
1.0
 40
1.0
 40
1.0
 40
1.0
 10
-29.2804874181
 20
222.743793344
 30
0.0
 10
-29.2793207375
 20
222.7808266149
 30
0.0
 10
-29.2674609535
 20
222.8371290138
 30
0.0
 10
-29.2360178846
 20
222.9060137018
 30
0.0
 10
-29.1946471215
 20
222.9700031213
 30
0.0
 10
-29.1289008071
 20
223.0353312967
 30
0.0
 10
-29.0628606838
 20
223.0683044728
 30
0.0
 10
-29.0294291312
 20
223.0772659837
 30
0.0
  0
SPLINE
  5
313
100
AcDbEntity
  8
0
100
AcDbSpline
 62
7
  6
CONTINUOUS
 70
0
 71
3
 72
9
 73
5
 74
0
 42
0.0000001
 43
0.0000001
 44
0.0000000001
 40
0.0
 40
0.0
 40
0.0
 40
0.0
 40
0.4999897262
 40
1.0
 40
1.0
 40
1.0
 40
1.0
 10
-26.5617590704
 20
223.1837632739
 30
0.0
 10
-26.6050096493
 20
223.3869464372
 30
0.0
 10
-26.6913661549
 20
223.7933523649
 30
0.0
 10
-26.777218358
 20
224.199865061
 30
0.0
 10
-26.8202208308
 20
224.4031096052
 30
0.0
  0
SPLINE
  5
314
100
AcDbEntity
  8
0
100
AcDbSpline
 62
7
  6
CONTINUOUS
 70
0
 71
3
 72
20
 73
16
 74
0
 42
0.0000001
 43
0.0000001
 44
0.0000000001
 40
0.0
 40
0.0
 40
0.0
 40
0.0
 40
0.1585342471
 40
0.3134507303
 40
0.4598106186
 40
0.5284937062
 40
0.5936361919
 40
0.654993275
 40
0.7124896608
 40
0.7662596997
 40
0.8166833315
 40
0.8644166412
 40
0.9103523569
 40
0.9552988853
 40
1.0
 40
1.0
 40
1.0
 40
1.0
 10
10.6432815113
 20
200.181127541
 30
0.0
 10
10.4104329299
 20
200.1870802534
 30
0.0
 10
9.9493436801
 20
200.1802222626
 30
0.0
 10
9.2762020267
 20
200.1151146156
 30
0.0
 10
8.7409596985
 20
200.0150680855
 30
0.0
 10
8.3434410822
 20
199.9073707196
 30
0.0
 10
8.0713444264
 20
199.816217988
 30
0.0
 10
7.821090202
 20
199.7133726261
 30
0.0
 10
7.5943978822
 20
199.5989742852
 30
0.0
 10
7.3927074894
 20
199.4726902218
 30
0.0
 10
7.2174253559
 20
199.3335928301
 30
0.0
 10
7.0703792693
 20
199.1801703981
 30
0.0
 10
6.95559289
 20
199.0105237916
 30
0.0
 10
6.8784805602
 20
198.8252327205
 30
0.0
 10
6.8571473289
 20
198.6937084312
 30
0.0
 10
6.8546541337
 20
198.6280791614
 30
0.0
  0
LINE
  5
315
100
AcDbEntity
  8
0
100
AcDbLine
 62
7
  6
CONTINUOUS
 10
7.792022105
 20
196.8028016228
 11
7.8186131591
 21
197.6469559473
  0
SPLINE
  5
316
100
AcDbEntity
  8
0
100
AcDbSpline
 62
7
  6
CONTINUOUS
 70
0
 71
3
 72
12
 73
8
 74
0
 42
0.0000001
 43
0.0000001
 44
0.0000000001
 40
0.0
 40
0.0
 40
0.0
 40
0.0
 40
0.2344666549
 40
0.4880789296
 40
0.6187053667
 40
0.7490045805
 40
1.0
 40
1.0
 40
1.0
 40
1.0
 10
8.0696714461
 20
197.980428587
 30
0.0
 10
8.0362420645
 20
197.971467658
 30
0.0
 10
7.9702311348
 20
197.9384588538
 30
0.0
 10
7.9044068757
 20
197.8732061971
 30
0.0
 10
7.8630963507
 20
197.8091690308
 30
0.0
 10
7.8316554262
 20
197.7402878518
 30
0.0
 10
7.8197797682
 20
197.6839869446
 30
0.0
 10
7.8186131591
 20
197.6469559473
 30
0.0
  0
SPLINE
  5
317
100
AcDbEntity
  8
0
100
AcDbSpline
 62
7
  6
CONTINUOUS
 70
0
 71
3
 72
21
 73
17
 74
0
 42
0.0000001
 43
0.0000001
 44
0.0000000001
 40
0.0
 40
0.0
 40
0.0
 40
0.0
 40
0.022147058
 40
0.044150426
 40
0.088453507
 40
0.1336761531
 40
0.180807768
 40
0.2308536379
 40
0.284536269
 40
0.3422624756
 40
0.4041263368
 40
0.4699782724
 40
0.5394811823
 40
0.6873586028
 40
0.8428252426
 40
1.0
 40
1.0
 40
1.0
 40
1.0
 10
6.7848203961
 20
196.7898206715
 30
0.0
 10
6.7834523118
 20
196.7538081005
 30
0.0
 10
6.7854595456
 20
196.6817358496
 30
0.0
 10
6.8084231755
 20
196.539301281
 30
0.0
 10
6.8715022247
 20
196.3670500671
 30
0.0
 10
6.9932985482
 20
196.1792329931
 30
0.0
 10
7.1534851798
 20
196.0103572549
 30
0.0
 10
7.3472185806
 20
195.8584662454
 30
0.0
 10
7.5720271146
 20
195.72156116
 30
0.0
 10
7.8261285115
 20
195.5985435449
 30
0.0
 10
8.1076663686
 20
195.4891834432
 30
0.0
 10
8.4142986622
 20
195.3937301296
 30
0.0
 10
8.8620366132
 20
195.2834864659
 30
0.0
 10
9.4621849453
 20
195.1870459195
 30
0.0
 10
10.2107132318
 20
195.1364128265
 30
0.0
 10
10.7201435339
 20
195.1460462291
 30
0.0
 10
10.9753888509
 20
195.1622768199
 30
0.0
  0
SPLINE
  5
318
100
AcDbEntity
  8
0
100
AcDbSpline
 62
7
  6
CONTINUOUS
 70
0
 71
3
 72
12
 73
8
 74
0
 42
0.0000001
 43
0.0000001
 44
0.0000000001
 40
0.0
 40
0.0
 40
0.0
 40
0.0
 40
0.2905429741
 40
0.5479843343
 40
0.7802136125
 40
0.8908237745
 40
1.0
 40
1.0
 40
1.0
 40
1.0
 10
7.1992960657
 20
198.0046619987
 30
0.0
 10
7.1443233901
 20
198.0502145994
 30
0.0
 10
7.0461466651
 20
198.1433732041
 30
0.0
 10
6.9326965532
 20
198.2995022814
 30
0.0
 10
6.8755015252
 20
198.4374671045
 30
0.0
 10
6.855541254
 20
198.5470671893
 30
0.0
 10
6.8536380931
 20
198.6012712056
 30
0.0
 10
6.8546562281
 20
198.6280791491
 30
0.0
  0
SPLINE
  5
319
100
AcDbEntity
  8
0
100
AcDbSpline
 62
7
  6
CONTINUOUS
 70
0
 71
3
 72
22
 73
18
 74
0
 42
0.0000001
 43
0.0000001
 44
0.0000000001
 40
0.0
 40
0.0
 40
0.0
 40
0.0
 40
0.0591862557
 40
0.113083191
 40
0.1624987497
 40
0.2087016298
 40
0.2533260883
 40
0.2982232729
 40
0.3452078666
 40
0.3958108696
 40
0.4511669134
 40
0.5120134843
 40
0.5787614426
 40
0.6515621118
 40
0.7303552502
 40
0.8149385146
 40
1.0
 40
1.0
 40
1.0
 40
1.0
 10
7.4503543527
 20
198.3381346384
 30
0.0
 10
7.4121622564
 20
198.3709880104
 30
0.0
 10
7.3425137116
 20
198.4378513375
 30
0.0
 10
7.2565915866
 20
198.5469016919
 30
0.0
 10
7.1952518737
 20
198.6592165569
 30
0.0
 10
7.1594445285
 20
198.7740142858
 30
0.0
 10
7.1499713739
 20
198.890149342
 30
0.0
 10
7.1671560013
 20
199.0060486326
 30
0.0
 10
7.2104837387
 20
199.1202163501
 30
0.0
 10
7.2790442954
 20
199.2316481333
 30
0.0
 10
7.3719466994
 20
199.3396632643
 30
0.0
 10
7.4883187315
 20
199.4436891851
 30
0.0
 10
7.6272678143
 20
199.5431016188
 30
0.0
 10
7.787760954
 20
199.6372313481
 30
0.0
 10
7.9686003403
 20
199.7254366202
 30
0.0
 10
8.2433318073
 20
199.8375879534
 30
0.0
 10
8.4632092642
 20
199.9053476297
 30
0.0
 10
8.6156194521
 20
199.9451483312
 30
0.0
  0
SPLINE
  5
31A
100
AcDbEntity
  8
0
100
AcDbSpline
 62
7
  6
CONTINUOUS
 70
0
 71
3
 72
11
 73
7
 74
0
 42
0.0000001
 43
0.0000001
 44
0.0000000001
 40
0.0
 40
0.0
 40
0.0
 40
0.0
 40
0.2336769118
 40
0.4818600849
 40
0.7392154056
 40
1.0
 40
1.0
 40
1.0
 40
1.0
 10
8.6156194521
 20
199.9451483312
 30
0.0
 10
8.7698486194
 20
199.9854240447
 30
0.0
 10
9.0916729618
 20
200.0543278198
 30
0.0
 10
9.5915832
 20
200.1232226539
 30
0.0
 10
10.113423198
 20
200.1596126957
 30
0.0
 10
10.4671478852
 20
200.1615281888
 30
0.0
 10
10.6449771381
 20
200.1567802903
 30
0.0
  0
SPLINE
  5
31B
100
AcDbEntity
  8
0
100
AcDbSpline
 62
7
  6
CONTINUOUS
 70
0
 71
3
 72
9
 73
5
 74
0
 42
0.0000001
 43
0.0000001
 44
0.0000000001
 40
0.0
 40
0.0
 40
0.0
 40
0.0
 40
0.2590168828
 40
1.0
 40
1.0
 40
1.0
 40
1.0
 10
9.659506779
 20
199.6640146694
 30
0.0
 10
9.620582165
 20
199.6581917808
 30
0.0
 10
9.4706062974
 20
199.6337826738
 30
0.0
 10
9.3218419899
 20
199.6015679149
 30
0.0
 10
9.2130886468
 20
199.572415985
 30
0.0
  0
SPLINE
  5
31C
100
AcDbEntity
  8
0
100
AcDbSpline
 62
7
  6
CONTINUOUS
 70
0
 71
3
 72
9
 73
5
 74
0
 42
0.0000001
 43
0.0000001
 44
0.0000000001
 40
0.0
 40
0.0
 40
0.0
 40
0.0
 40
0.5192878938
 40
1.0
 40
1.0
 40
1.0
 40
1.0
 10
9.2130886468
 20
199.572415985
 30
0.0
 10
9.1458938999
 20
199.5544040647
 30
0.0
 10
9.0175031203
 20
199.5157917587
 30
0.0
 10
8.892159963
 20
199.4680500946
 30
0.0
 10
8.8330545966
 20
199.4424805304
 30
0.0
  0
SPLINE
  5
31D
100
AcDbEntity
  8
0
100
AcDbSpline
 62
7
  6
CONTINUOUS
 70
0
 71
3
 72
20
 73
16
 74
0
 42
0.0000001
 43
0.0000001
 44
0.0000000001
 40
0.0
 40
0.0
 40
0.0
 40
0.0
 40
0.0329242882
 40
0.0675943193
 40
0.1056922171
 40
0.1483613013
 40
0.1962398356
 40
0.2495734723
 40
0.308319494
 40
0.3722242326
 40
0.44087589
 40
0.5137412404
 40
0.6694820624
 40
0.8337087009
 40
1.0
 40
1.0
 40
1.0
 40
1.0
 10
6.7848204043
 20
196.7898206908
 30
0.0
 10
6.7828490953
 20
196.7379206519
 30
0.0
 10
6.7939393328
 20
196.6302586317
 30
0.0
 10
6.8550811192
 20
196.4733819808
 30
0.0
 10
6.9583583742
 20
196.3218663664
 30
0.0
 10
7.1016137819
 20
196.1769190339
 30
0.0
 10
7.2830086689
 20
196.0394856984
 30
0.0
 10
7.5005529945
 20
195.910772132
 30
0.0
 10
7.7518750433
 20
195.7920732238
 30
0.0
 10
8.0341759797
 20
195.6846958277
 30
0.0
 10
8.3442589078
 20
195.5898548104
 30
0.0
 10
8.8001530891
 20
195.4791848285
 30
0.0
 10
9.4131951463
 20
195.3814139444
 30
0.0
 10
10.1792923851
 20
195.3287234516
 30
0.0
 10
10.7013715531
 20
195.3368792367
 30
0.0
 10
10.9632377227
 20
195.3523282429
 30
0.0
  0
LINE
  5
31E
100
AcDbEntity
  8
0
100
AcDbLine
 62
7
  6
CONTINUOUS
 10
7.1992960657
 20
198.0046619987
 11
7.1727050116
 21
197.1605076741
  0
SPLINE
  5
31F
100
AcDbEntity
  8
0
100
AcDbSpline
 62
7
  6
CONTINUOUS
 70
0
 71
3
 72
13
 73
9
 74
0
 42
0.0000001
 43
0.0000001
 44
0.0000000001
 40
0.0
 40
0.0
 40
0.0
 40
0.0
 40
0.2707661627
 40
0.5353235151
 40
0.6615488113
 40
0.7818569928
 40
0.8950267589
 40
1.0
 40
1.0
 40
1.0
 40
1.0
 10
10.839791086
 20
197.2122274078
 30
0.0
 10
10.5626297373
 20
197.1994213517
 30
0.0
 10
10.0132171002
 20
197.1994369419
 30
0.0
 10
9.3370350087
 20
197.261226538
 30
0.0
 10
8.820453438
 20
197.3487182891
 30
0.0
 10
8.4607739015
 20
197.4302688459
 30
0.0
 10
8.127668341
 20
197.5276139993
 30
0.0
 10
7.9177862133
 20
197.6052976574
 30
0.0
 10
7.8186131591
 20
197.6469559473
 30
0.0
  0
SPLINE
  5
320
100
AcDbEntity
  8
0
100
AcDbSpline
 62
7
  6
CONTINUOUS
 70
0
 71
3
 72
9
 73
5
 74
0
 42
0.0000001
 43
0.0000001
 44
0.0000000001
 40
0.0
 40
0.0
 40
0.0
 40
0.0
 40
0.5355482671
 40
1.0
 40
1.0
 40
1.0
 40
1.0
 10
7.792022105
 20
196.8028016228
 30
0.0
 10
7.6740580295
 20
196.8524901395
 30
0.0
 10
7.4582303203
 20
196.9564830694
 30
0.0
 10
7.2583047568
 20
197.0898275372
 30
0.0
 10
7.1727050116
 20
197.1605076741
 30
0.0
  0
SPLINE
  5
321
100
AcDbEntity
  8
0
100
AcDbSpline
 62
7
  6
CONTINUOUS
 70
0
 71
3
 72
13
 73
9
 74
0
 42
0.0000001
 43
0.0000001
 44
0.0000000001
 40
0.0
 40
0.0
 40
0.0
 40
0.0
 40
0.2699080517
 40
0.5340041789
 40
0.6602410539
 40
0.780759294
 40
0.8943678698
 40
1.0
 40
1.0
 40
1.0
 40
1.0
 10
10.8145392652
 20
197.5960239325
 30
0.0
 10
10.5637375427
 20
197.5841394411
 30
0.0
 10
10.0662166462
 20
197.5833030439
 30
0.0
 10
9.4534508669
 20
197.6375394797
 30
0.0
 10
8.9843873801
 20
197.7149718661
 30
0.0
 10
8.6568839099
 20
197.7874094013
 30
0.0
 10
8.3527366367
 20
197.8740829274
 30
0.0
 10
8.1606490031
 20
197.9432930879
 30
0.0
 10
8.0696714461
 20
197.980428587
 30
0.0
  0
SPLINE
  5
322
100
AcDbEntity
  8
0
100
AcDbSpline
 62
7
  6
CONTINUOUS
 70
0
 71
3
 72
12
 73
8
 74
0
 42
0.0000001
 43
0.0000001
 44
0.0000000001
 40
0.0
 40
0.0
 40
0.0
 40
0.0
 40
0.25100946
 40
0.381291321
 40
0.5119156772
 40
0.7655193973
 40
1.0
 40
1.0
 40
1.0
 40
1.0
 10
7.1992960657
 20
198.0046619987
 30
0.0
 10
7.2004627464
 20
198.0416952695
 30
0.0
 10
7.2123225304
 20
198.0979976684
 30
0.0
 10
7.2437655993
 20
198.1668823565
 30
0.0
 10
7.2851363624
 20
198.2308717759
 30
0.0
 10
7.3508826768
 20
198.2961999513
 30
0.0
 10
7.4169228001
 20
198.3291731274
 30
0.0
 10
7.4503543527
 20
198.3381346384
 30
0.0
  0
SPLINE
  5
323
100
AcDbEntity
  8
0
100
AcDbSpline
 62
7
  6
CONTINUOUS
 70
0
 71
3
 72
9
 73
5
 74
0
 42
0.0000001
 43
0.0000001
 44
0.0000000001
 40
0.0
 40
0.0
 40
0.0
 40
0.0
 40
0.4999897262
 40
1.0
 40
1.0
 40
1.0
 40
1.0
 10
9.9180244135
 20
198.4446319286
 30
0.0
 10
9.8747738346
 20
198.6478150919
 30
0.0
 10
9.788417329
 20
199.0542210196
 30
0.0
 10
9.7025651259
 20
199.4607337156
 30
0.0
 10
9.659562653
 20
199.6639782598
 30
0.0
  0
SPLINE
  5
324
100
AcDbEntity
  8
0
100
AcDbSpline
 62
7
  6
CONTINUOUS
 70
0
 71
3
 72
20
 73
16
 74
0
 42
0.0000001
 43
0.0000001
 44
0.0000000001
 40
0.0
 40
0.0
 40
0.0
 40
0.0
 40
0.0527859979
 40
0.1117095356
 40
0.1763665245
 40
0.2459440795
 40
0.3948277645
 40
0.5471735128
 40
0.6908579799
 40
0.7562118821
 40
0.8159005576
 40
0.8694870558
 40
0.9171655745
 40
0.9599859003
 40
1.0
 40
1.0
 40
1.0
 40
1.0
 10
49.2244315274
 20
262.4358334202
 30
0.0
 10
49.1599183367
 20
262.473095041
 30
0.0
 10
49.0317097611
 20
262.5666392448
 30
0.0
 10
48.8559508158
 20
262.7439610902
 30
0.0
 10
48.6903467106
 20
262.9613777624
 30
0.0
 10
48.484421806
 20
263.3045404235
 30
0.0
 10
48.282680688
 20
263.7909241617
 30
0.0
 10
48.1415244801
 20
264.4054149203
 30
0.0
 10
48.1143063469
 20
264.918375913
 30
0.0
 10
48.1566439878
 20
265.2960780264
 30
0.0
 10
48.2165198202
 20
265.5418291006
 30
0.0
 10
48.3041028853
 20
265.7526394958
 30
0.0
 10
48.4179917126
 20
265.9231083192
 30
0.0
 10
48.556473891
 20
266.0479709942
 30
0.0
 10
48.6650042387
 20
266.0973976155
 30
0.0
 10
48.7195507327
 20
266.1120296824
 30
0.0
  0
SPLINE
  5
325
100
AcDbEntity
  8
0
100
AcDbSpline
 62
7
  6
CONTINUOUS
 70
0
 71
3
 72
10
 73
6
 74
0
 42
0.0000001
 43
0.0000001
 44
0.0000000001
 40
0.0
 40
0.0
 40
0.0
 40
0.0
 40
0.2307026797
 40
0.4700767113
 40
1.0
 40
1.0
 40
1.0
 40
1.0
 10
49.7293123221
 20
262.3450421503
 30
0.0
 10
49.6903320588
 20
262.3345857162
 30
0.0
 10
49.608086724
 20
262.3226034785
 30
0.0
 10
49.4325835084
 20
262.3367415675
 30
0.0
 10
49.3047066782
 20
262.389467984
 30
0.0
 10
49.2244315274
 20
262.4358334202
 30
0.0
  0
SPLINE
  5
326
100
AcDbEntity
  8
0
100
AcDbSpline
 62
7
  6
CONTINUOUS
 70
0
 71
3
 72
10
 73
6
 74
0
 42
0.0000001
 43
0.0000001
 44
0.0000000001
 40
0.0
 40
0.0
 40
0.0
 40
0.0
 40
0.2321258149
 40
0.4722166886
 40
1.0
 40
1.0
 40
1.0
 40
1.0
 10
48.7195507327
 20
266.1120296824
 30
0.0
 10
48.7567276124
 20
266.1220023598
 30
0.0
 10
48.8349050619
 20
266.1338336853
 30
0.0
 10
49.0013588467
 20
266.123008994
 30
0.0
 10
49.1234328127
 20
266.0763733893
 30
0.0
 10
49.2003876058
 20
266.0346931748
 30
0.0
  0
SPLINE
  5
327
100
AcDbEntity
  8
0
100
AcDbSpline
 62
7
  6
CONTINUOUS
 70
0
 71
3
 72
20
 73
16
 74
0
 42
0.0000001
 43
0.0000001
 44
0.0000000001
 40
0.0
 40
0.0
 40
0.0
 40
0.0
 40
0.0527859979
 40
0.1117095356
 40
0.1763665245
 40
0.2459440795
 40
0.3948277645
 40
0.5471735128
 40
0.6908579799
 40
0.7562118821
 40
0.8159005576
 40
0.8694870558
 40
0.9171655745
 40
0.9599859003
 40
1.0
 40
1.0
 40
1.0
 40
1.0
 10
49.2244315274
 20
266.0212384126
 30
0.0
 10
49.2889447182
 20
265.9839767917
 30
0.0
 10
49.4171532938
 20
265.8904325879
 30
0.0
 10
49.5929122391
 20
265.7131107426
 30
0.0
 10
49.7585163442
 20
265.4956940703
 30
0.0
 10
49.9644412488
 20
265.1525314092
 30
0.0
 10
50.1661823668
 20
264.666147671
 30
0.0
 10
50.3073385747
 20
264.0516569124
 30
0.0
 10
50.334556708
 20
263.5386959197
 30
0.0
 10
50.2922190671
 20
263.1609938064
 30
0.0
 10
50.2323432346
 20
262.9152427321
 30
0.0
 10
50.1447601695
 20
262.7044323369
 30
0.0
 10
50.0308713422
 20
262.5339635136
 30
0.0
 10
49.8923891638
 20
262.4091008386
 30
0.0
 10
49.7838588162
 20
262.3596742172
 30
0.0
 10
49.7293123221
 20
262.3450421503
 30
0.0
  0
SPLINE
  5
328
100
AcDbEntity
  8
0
100
AcDbSpline
 62
7
  6
CONTINUOUS
 70
0
 71
3
 72
9
 73
5
 74
0
 42
0.0000001
 43
0.0000001
 44
0.0000000001
 40
0.0
 40
0.0
 40
0.0
 40
0.0
 40
0.255179189
 40
1.0
 40
1.0
 40
1.0
 40
1.0
 10
51.5337486542
 20
270.1869368302
 30
0.0
 10
51.343878308
 20
270.2142476592
 30
0.0
 10
50.597111122
 20
270.3010945416
 30
0.0
 10
49.8400932497
 20
270.3040077789
 30
0.0
 10
49.282392054
 20
270.2544342339
 30
0.0
  0
SPLINE
  5
329
100
AcDbEntity
  8
0
100
AcDbSpline
 62
7
  6
CONTINUOUS
 70
0
 71
3
 72
9
 73
5
 74
0
 42
0.0000001
 43
0.0000001
 44
0.0000000001
 40
0.0
 40
0.0
 40
0.0
 40
0.0
 40
0.2454862731
 40
1.0
 40
1.0
 40
1.0
 40
1.0
 10
43.6681673757
 20
269.7553909799
 30
0.0
 10
43.5491202535
 20
269.744808991
 30
0.0
 10
43.0628485957
 20
269.7173596403
 30
0.0
 10
42.5735414434
 20
269.7527773217
 30
0.0
 10
42.2107442378
 20
269.8103674233
 30
0.0
  0
SPLINE
  5
32A
100
AcDbEntity
  8
0
100
AcDbSpline
 62
7
  6
CONTINUOUS
 70
0
 71
3
 72
9
 73
5
 74
0
 42
0.0000001
 43
0.0000001
 44
0.0000000001
 40
0.0
 40
0.0
 40
0.0
 40
0.0
 40
0.5074859058
 40
1.0
 40
1.0
 40
1.0
 40
1.0
 10
45.9865687438
 20
272.8451342698
 30
0.0
 10
46.3073525929
 20
273.1062721137
 30
0.0
 10
47.0081769147
 20
273.5408250864
 30
0.0
 10
47.782225663
 20
273.8107748295
 30
0.0
 10
48.1699703284
 20
273.914712128
 30
0.0
  0
SPLINE
  5
32B
100
AcDbEntity
  8
0
100
AcDbSpline
 62
7
  6
CONTINUOUS
 70
0
 71
3
 72
11
 73
7
 74
0
 42
0.0000001
 43
0.0000001
 44
0.0000000001
 40
0.0
 40
0.0
 40
0.0
 40
0.0
 40
0.2273364942
 40
0.4710475915
 40
0.7291583702
 40
1.0
 40
1.0
 40
1.0
 40
1.0
 10
42.8696243564
 20
275.149063102
 30
0.0
 10
44.0293986755
 20
275.7173223444
 30
0.0
 10
46.4918546678
 20
276.7775933937
 30
0.0
 10
50.4460574228
 20
278.033352164
 30
0.0
 10
54.7412580218
 20
278.9650987763
 30
0.0
 10
57.7210630241
 20
279.3720814536
 30
0.0
 10
59.2505303104
 20
279.5400547542
 30
0.0
  0
SPLINE
  5
32C
100
AcDbEntity
  8
0
100
AcDbSpline
 62
7
  6
CONTINUOUS
 70
0
 71
3
 72
9
 73
5
 74
0
 42
0.0000001
 43
0.0000001
 44
0.0000000001
 40
0.0
 40
0.0
 40
0.0
 40
0.0
 40
0.2405817002
 40
1.0
 40
1.0
 40
1.0
 40
1.0
 10
66.0458089142
 20
279.1726593466
 30
0.0
 10
65.9164034567
 20
279.191733761
 30
0.0
 10
65.3783993546
 20
279.2701872156
 30
0.0
 10
64.839619287
 20
279.3435334472
 30
0.0
 10
64.4298063157
 20
279.3938792821
 30
0.0
  0
SPLINE
  5
32D
100
AcDbEntity
  8
0
100
AcDbSpline
 62
7
  6
CONTINUOUS
 70
0
 71
3
 72
9
 73
5
 74
0
 42
0.0000001
 43
0.0000001
 44
0.0000000001
 40
0.0
 40
0.0
 40
0.0
 40
0.0
 40
0.5032334086
 40
1.0
 40
1.0
 40
1.0
 40
1.0
 10
64.4298063157
 20
279.3938792821
 30
0.0
 10
63.5657432139
 20
279.5000300908
 30
0.0
 10
61.8422147003
 20
279.6630576957
 30
0.0
 10
60.1047659748
 20
279.633870938
 30
0.0
 10
59.2505303104
 20
279.5400547542
 30
0.0
  0
SPLINE
  5
32E
100
AcDbEntity
  8
0
100
AcDbSpline
 62
7
  6
CONTINUOUS
 70
0
 71
3
 72
11
 73
7
 74
0
 42
0.0000001
 43
0.0000001
 44
0.0000000001
 40
0.0
 40
0.0
 40
0.0
 40
0.0
 40
0.3051862701
 40
0.5602689506
 40
0.7824143811
 40
1.0
 40
1.0
 40
1.0
 40
1.0
 10
42.2107442378
 20
269.8103674232
 30
0.0
 10
42.0096400038
 20
269.8422905281
 30
0.0
 10
41.6433928184
 20
269.9325693947
 30
0.0
 10
41.1799619296
 20
270.1923053346
 30
0.0
 10
40.8826864212
 20
270.566866227
 30
0.0
 10
40.8223703306
 20
270.8658711237
 30
0.0
 10
40.8223545288
 20
271.0110456122
 30
0.0
  0
SPLINE
  5
32F
100
AcDbEntity
  8
0
100
AcDbSpline
 62
7
  6
CONTINUOUS
 70
0
 71
3
 72
11
 73
7
 74
0
 42
0.0000001
 43
0.0000001
 44
0.0000000001
 40
0.0
 40
0.0
 40
0.0
 40
0.0
 40
0.3089682758
 40
0.5786854895
 40
0.8082838593
 40
1.0
 40
1.0
 40
1.0
 40
1.0
 10
42.8696243564
 20
275.149063102
 30
0.0
 10
42.5930060933
 20
275.0135273499
 30
0.0
 10
42.0911423222
 20
274.7233766836
 30
0.0
 10
41.4693556296
 20
274.2031482978
 30
0.0
 10
41.0404543684
 20
273.6569993907
 30
0.0
 10
40.8776893707
 20
273.2597183159
 30
0.0
 10
40.8431445834
 20
273.0717267955
 30
0.0
  0
SPLINE
  5
330
100
AcDbEntity
  8
0
100
AcDbSpline
 62
7
  6
CONTINUOUS
 70
0
 71
3
 72
9
 73
5
 74
0
 42
0.0000001
 43
0.0000001
 44
0.0000000001
 40
0.0
 40
0.0
 40
0.0
 40
0.0
 40
0.491617604
 40
1.0
 40
1.0
 40
1.0
 40
1.0
 10
44.0734521339
 20
271.8502026089
 30
0.0
 10
44.4166994783
 20
271.9422103549
 30
0.0
 10
45.0958811564
 20
272.2084234877
 30
0.0
 10
45.7015778119
 20
272.6131340679
 30
0.0
 10
45.986568744
 20
272.8451342694
 30
0.0
  0
SPLINE
  5
331
100
AcDbEntity
  8
0
100
AcDbSpline
 62
7
  6
CONTINUOUS
 70
0
 71
3
 72
12
 73
8
 74
0
 42
0.0000001
 43
0.0000001
 44
0.0000000001
 40
0.0
 40
0.0
 40
0.0
 40
0.0
 40
0.1004885254
 40
0.2039616296
 40
0.429437048
 40
0.6924212155
 40
1.0
 40
1.0
 40
1.0
 40
1.0
 10
50.9170942482
 20
262.2376984539
 30
0.0
 10
50.9170820237
 20
261.8883950477
 30
0.0
 10
50.9856616334
 20
261.1776637237
 30
0.0
 10
51.403859559
 20
259.7369516938
 30
0.0
 10
52.4903979594
 20
257.9482466512
 30
0.0
 10
54.49293188
 20
256.0116027787
 30
0.0
 10
56.1523841524
 20
254.9080010086
 30
0.0
 10
57.0782112347
 20
254.37326048
 30
0.0
  0
SPLINE
  5
332
100
AcDbEntity
  8
0
100
AcDbSpline
 62
7
  6
CONTINUOUS
 70
0
 71
3
 72
9
 73
5
 74
0
 42
0.0000001
 43
0.0000001
 44
0.0000000001
 40
0.0
 40
0.0
 40
0.0
 40
0.0
 40
0.4921177355
 40
1.0
 40
1.0
 40
1.0
 40
1.0
 10
50.9170712446
 20
267.753706146
 30
0.0
 10
50.9170937239
 20
268.1170337939
 30
0.0
 10
50.991327201
 20
268.8570687881
 30
0.0
 10
51.2064441637
 20
269.5682068698
 30
0.0
 10
51.3452145416
 20
269.9165496098
 30
0.0
  0
SPLINE
  5
333
100
AcDbEntity
  8
0
100
AcDbSpline
 62
7
  6
CONTINUOUS
 70
0
 71
3
 72
15
 73
11
 74
0
 42
0.0000001
 43
0.0000001
 44
0.0000000001
 40
0.0
 40
0.0
 40
0.0
 40
0.0
 40
0.1693796152
 40
0.2201574824
 40
0.2745555842
 40
0.3942467891
 40
0.5280841734
 40
0.674872385
 40
0.832883097
 40
1.0
 40
1.0
 40
1.0
 40
1.0
 10
51.3452145416
 20
269.9165496098
 30
0.0
 10
51.9012086534
 20
271.3122113877
 30
0.0
 10
53.2367194238
 20
272.8751248138
 30
0.0
 10
55.1393835252
 20
274.3827776617
 30
0.0
 10
56.7954475614
 20
275.5009669373
 30
0.0
 10
59.2098037702
 20
276.7909244743
 30
0.0
 10
62.5023737065
 20
278.1333802822
 30
0.0
 10
66.2205734234
 20
279.2919071605
 30
0.0
 10
70.2991663209
 20
280.2462406192
 30
0.0
 10
73.1452219169
 20
280.7236922625
 30
0.0
 10
74.6134227537
 20
280.9273797083
 30
0.0
  0
SPLINE
  5
334
100
AcDbEntity
  8
0
100
AcDbSpline
 62
7
  6
CONTINUOUS
 70
0
 71
3
 72
15
 73
11
 74
0
 42
0.0000001
 43
0.0000001
 44
0.0000000001
 40
0.0
 40
0.0
 40
0.0
 40
0.0
 40
0.1343009764
 40
0.2719207956
 40
0.4097511536
 40
0.5446755861
 40
0.6736941637
 40
0.7940576183
 40
0.9034096403
 40
1.0
 40
1.0
 40
1.0
 40
1.0
 10
74.6134227537
 20
280.9273797083
 30
0.0
 10
76.4799747124
 20
281.1863314751
 30
0.0
 10
80.2791426305
 20
281.5744603648
 30
0.0
 10
86.0284626422
 20
281.7830774894
 30
0.0
 10
91.7884073502
 20
281.6237945416
 30
0.0
 10
97.405784155
 20
281.1009549615
 30
0.0
 10
102.7319260151
 20
280.2289967207
 30
0.0
 10
107.6272701462
 20
279.0314472526
 30
0.0
 10
111.9634782263
 20
277.5412782652
 30
0.0
 10
114.5822953603
 20
276.295995916
 30
0.0
 10
115.755899204
 20
275.6181441317
 30
0.0
  0
SPLINE
  5
335
100
AcDbEntity
  8
0
100
AcDbSpline
 62
7
  6
CONTINUOUS
 70
0
 71
3
 72
14
 73
10
 74
0
 42
0.0000001
 43
0.0000001
 44
0.0000000001
 40
0.0
 40
0.0
 40
0.0
 40
0.0
 40
0.0969996034
 40
0.2050896555
 40
0.3231298008
 40
0.449577137
 40
0.5825976121
 40
0.7201516617
 40
1.0
 40
1.0
 40
1.0
 40
1.0
 10
57.0782112347
 20
254.37326048
 30
0.0
 10
58.0546951218
 20
253.8092615218
 30
0.0
 10
60.2000172188
 20
252.7548665638
 30
0.0
 10
63.7233614873
 20
251.4393103125
 30
0.0
 10
67.6717680242
 20
250.3238844202
 30
0.0
 10
71.9716152781
 20
249.4300789746
 30
0.0
 10
76.5433995771
 20
248.77472981
 30
0.0
 10
82.9216189883
 20
248.2334830121
 30
0.0
 10
87.7868011346
 20
248.2202527817
 30
0.0
 10
91.0358225255
 20
248.388008181
 30
0.0
  0
SPLINE
  5
336
100
AcDbEntity
  8
0
100
AcDbSpline
 62
7
  6
CONTINUOUS
 70
0
 71
3
 72
12
 73
8
 74
0
 42
0.0000001
 43
0.0000001
 44
0.0000000001
 40
0.0
 40
0.0
 40
0.0
 40
0.0
 40
0.2859322548
 40
0.552802976
 40
0.7927254636
 40
0.9007241343
 40
1.0
 40
1.0
 40
1.0
 40
1.0
 10
94.752704869
 20
246.2412059682
 30
0.0
 10
97.373754749
 20
246.4526658022
 30
0.0
 10
102.4284547272
 20
247.0595044788
 30
0.0
 10
109.5717783817
 20
248.561539825
 30
0.0
 10
114.969900101
 20
250.2944031988
 30
0.0
 10
118.736934334
 20
251.9524340024
 30
0.0
 10
120.417683101
 20
252.8579316737
 30
0.0
 10
121.1989867707
 20
253.3302768284
 30
0.0
  0
SPLINE
  5
337
100
AcDbEntity
  8
0
100
AcDbSpline
 62
7
  6
CONTINUOUS
 70
0
 71
3
 72
11
 73
7
 74
0
 42
0.0000001
 43
0.0000001
 44
0.0000000001
 40
0.0
 40
0.0
 40
0.0
 40
0.0
 40
0.2805047646
 40
0.5360708072
 40
0.7730592308
 40
1.0
 40
1.0
 40
1.0
 40
1.0
 10
119.5468308857
 20
257.2192476957
 30
0.0
 10
119.9186028842
 20
257.599197439
 30
0.0
 10
120.5836311051
 20
258.3729720611
 30
0.0
 10
121.3460478739
 20
259.6332612504
 30
0.0
 10
121.8116973325
 20
260.9253177738
 30
0.0
 10
121.9170011393
 20
261.8076275451
 30
0.0
 10
121.9170161905
 20
262.2376984773
 30
0.0
  0
SPLINE
  5
338
100
AcDbEntity
  8
0
100
AcDbSpline
 62
7
  6
CONTINUOUS
 70
0
 71
3
 72
9
 73
5
 74
0
 42
0.0000001
 43
0.0000001
 44
0.0000000001
 40
0.0
 40
0.0
 40
0.0
 40
0.0
 40
0.254254145
 40
1.0
 40
1.0
 40
1.0
 40
1.0
 10
79.0145711736
 20
281.4104919836
 30
0.0
 10
78.8555365937
 20
281.4270731171
 30
0.0
 10
78.2285395152
 20
281.4765835332
 30
0.0
 10
77.596133287
 20
281.4610962009
 30
0.0
 10
77.1298920199
 20
281.4104088216
 30
0.0
  0
SPLINE
  5
339
100
AcDbEntity
  8
0
100
AcDbSpline
 62
7
  6
CONTINUOUS
 70
0
 71
3
 72
9
 73
5
 74
0
 42
0.0000001
 43
0.0000001
 44
0.0000000001
 40
0.0
 40
0.0
 40
0.0
 40
0.0
 40
0.2510293468
 40
1.0
 40
1.0
 40
1.0
 40
1.0
 10
77.1298925437
 20
281.4104064884
 30
0.0
 10
76.9180289599
 20
281.3870569363
 30
0.0
 10
76.0746180465
 20
281.2937666267
 30
0.0
 10
75.2305095819
 20
281.1684383891
 30
0.0
 10
74.6162521181
 20
281.0037829582
 30
0.0
  0
SPLINE
  5
33A
100
AcDbEntity
  8
0
100
AcDbSpline
 62
7
  6
CONTINUOUS
 70
0
 71
3
 72
12
 73
8
 74
0
 42
0.0000001
 43
0.0000001
 44
0.0000000001
 40
0.0
 40
0.0
 40
0.0
 40
0.0
 40
0.3075767546
 40
0.5705632506
 40
0.7960383134
 40
0.8995111166
 40
1.0
 40
1.0
 40
1.0
 40
1.0
 10
115.755899204
 20
275.6181441317
 30
0.0
 10
116.6817212428
 20
275.0834065162
 30
0.0
 10
118.341177659
 20
273.9798017238
 30
0.0
 10
120.3437134166
 20
272.0431677186
 30
0.0
 10
121.4302985487
 20
270.2544654368
 30
0.0
 10
121.8484297407
 20
268.8137386799
 30
0.0
 10
121.9170608058
 20
268.103011199
 30
0.0
 10
121.9170391941
 20
267.7537061463
 30
0.0
  0
SPLINE
  5
33B
100
AcDbEntity
  8
0
100
AcDbSpline
 62
7
  6
CONTINUOUS
 70
0
 71
3
 72
9
 73
5
 74
0
 42
0.0000001
 43
0.0000001
 44
0.0000000001
 40
0.0
 40
0.0
 40
0.0
 40
0.0
 40
0.4724892102
 40
1.0
 40
1.0
 40
1.0
 40
1.0
 10
117.4821044271
 20
259.1544174949
 30
0.0
 10
118.1683934687
 20
258.6345669453
 30
0.0
 10
119.5150511809
 20
257.3919147925
 30
0.0
 10
120.6511358102
 20
255.9587454505
 30
0.0
 10
121.1989867707
 20
255.1689460553
 30
0.0
  0
SPLINE
  5
33C
100
AcDbEntity
  8
0
100
AcDbSpline
 62
7
  6
CONTINUOUS
 70
0
 71
3
 72
25
 73
21
 74
0
 42
0.0000001
 43
0.0000001
 44
0.0000000001
 40
0.0
 40
0.0
 40
0.0
 40
0.0
 40
0.0157125946
 40
0.0319508393
 40
0.0491800611
 40
0.0677692804
 40
0.1099237461
 40
0.1595828588
 40
0.2167957405
 40
0.2809669136
 40
0.3510756885
 40
0.4258104919
 40
0.5036623642
 40
0.5829998461
 40
0.6621355104
 40
0.739389548
 40
0.8131532869
 40
0.8819584442
 40
0.944550602
 40
1.0
 40
1.0
 40
1.0
 40
1.0
 10
121.9170391941
 20
267.7537061463
 30
0.0
 10
121.9170162034
 20
267.3821125959
 30
0.0
 10
121.8392027783
 20
266.6244178894
 30
0.0
 10
121.4932392932
 20
265.5071008203
 30
0.0
 10
120.9233937912
 20
264.4092433169
 30
0.0
 10
119.8273489357
 20
262.9187621929
 30
0.0
 10
117.8708324852
 20
261.1527272754
 30
0.0
 10
114.8593760267
 20
259.2988291044
 30
0.0
 10
111.153108824
 20
257.6539617011
 30
0.0
 10
106.8384475694
 20
256.2571332104
 30
0.0
 10
102.0175189696
 20
255.1417662463
 30
0.0
 10
96.8085268747
 20
254.3363914872
 30
0.0
 10
91.3404182433
 20
253.8615945352
 30
0.0
 10
85.7494185934
 20
253.7296312971
 30
0.0
 10
80.1750967391
 20
253.9438902685
 30
0.0
 10
74.7565316375
 20
254.4988720357
 30
0.0
 10
69.6286739873
 20
255.3802019598
 30
0.0
 10
64.9178585042
 20
256.5655548913
 30
0.0
 10
60.7402604591
 20
258.0243170215
 30
0.0
 10
58.2137559849
 20
259.2333986019
 30
0.0
 10
57.0782112347
 20
259.8892681606
 30
0.0
  0
SPLINE
  5
33D
100
AcDbEntity
  8
0
100
AcDbSpline
 62
7
  6
CONTINUOUS
 70
0
 71
3
 72
12
 73
8
 74
0
 42
0.0000001
 43
0.0000001
 44
0.0000000001
 40
0.0
 40
0.0
 40
0.0
 40
0.0
 40
0.3075767546
 40
0.5705632506
 40
0.7960383134
 40
0.8995111166
 40
1.0
 40
1.0
 40
1.0
 40
1.0
 10
57.0782112347
 20
259.8892681606
 30
0.0
 10
56.1523891959
 20
260.4240057761
 30
0.0
 10
54.4929327797
 20
261.5276105686
 30
0.0
 10
52.4903970221
 20
263.4642445738
 30
0.0
 10
51.40381189
 20
265.2529468555
 30
0.0
 10
50.985680698
 20
266.6936736125
 30
0.0
 10
50.9170496328
 20
267.4044010933
 30
0.0
 10
50.9170712446
 20
267.753706146
 30
0.0
  0
SPLINE
  5
33E
100
AcDbEntity
  8
0
100
AcDbSpline
 62
7
  6
CONTINUOUS
 70
0
 71
3
 72
9
 73
5
 74
0
 42
0.0000001
 43
0.0000001
 44
0.0000000001
 40
0.0
 40
0.0
 40
0.0
 40
0.0
 40
0.2491191142
 40
1.0
 40
1.0
 40
1.0
 40
1.0
 10
48.1699703284
 20
273.914712128
 30
0.0
 10
48.3735224767
 20
273.9692755102
 30
0.0
 10
49.199263249
 20
274.1568261496
 30
0.0
 10
50.041925519
 20
274.2506067546
 30
0.0
 10
50.6732973883
 20
274.3201989361
 30
0.0
  0
SPLINE
  5
33F
100
AcDbEntity
  8
0
100
AcDbSpline
 62
7
  6
CONTINUOUS
 70
0
 71
3
 72
9
 73
5
 74
0
 42
0.0000001
 43
0.0000001
 44
0.0000000001
 40
0.0
 40
0.0
 40
0.0
 40
0.0
 40
0.5063756671
 40
1.0
 40
1.0
 40
1.0
 40
1.0
 10
42.2107442378
 20
271.7155520965
 30
0.0
 10
42.5254924756
 20
271.6813805924
 30
0.0
 10
43.1543508441
 20
271.6668347408
 30
0.0
 10
43.7753505288
 20
271.7702962173
 30
0.0
 10
44.0734521339
 20
271.8502026089
 30
0.0
  0
SPLINE
  5
340
100
AcDbEntity
  8
0
100
AcDbSpline
 62
7
  6
CONTINUOUS
 70
0
 71
3
 72
9
 73
5
 74
0
 42
0.0000001
 43
0.0000001
 44
0.0000000001
 40
0.0
 40
0.0
 40
0.0
 40
0.0
 40
0.5275109608
 40
1.0
 40
1.0
 40
1.0
 40
1.0
 10
94.752704869
 20
248.0798751951
 30
0.0
 10
94.2048537365
 20
248.8696748383
 30
0.0
 10
93.0687685557
 20
250.3028436849
 30
0.0
 10
91.7221113119
 20
251.5454962783
 30
0.0
 10
91.0358225255
 20
252.0653466347
 30
0.0
  0
SPLINE
  5
341
100
AcDbEntity
  8
0
100
AcDbSpline
 62
7
  6
CONTINUOUS
 70
0
 71
3
 72
10
 73
6
 74
0
 42
0.0000001
 43
0.0000001
 44
0.0000000001
 40
0.0
 40
0.0
 40
0.0
 40
0.0
 40
0.2222262224
 40
0.4637837715
 40
1.0
 40
1.0
 40
1.0
 40
1.0
 10
121.1989867707
 20
255.1689460553
 30
0.0
 10
120.4266642419
 20
254.7020305415
 30
0.0
 10
118.7664280984
 20
253.8064161054
 30
0.0
 10
115.0490758942
 20
252.1644212369
 30
0.0
 10
112.0335583213
 20
251.1900740515
 30
0.0
 10
109.9314977588
 20
250.6213020461
 30
0.0
  0
SPLINE
  5
342
100
AcDbEntity
  8
0
100
AcDbSpline
 62
7
  6
CONTINUOUS
 70
0
 71
3
 72
9
 73
5
 74
0
 42
0.0000001
 43
0.0000001
 44
0.0000000001
 40
0.0
 40
0.0
 40
0.0
 40
0.0
 40
0.4827591972
 40
1.0
 40
1.0
 40
1.0
 40
1.0
 10
109.7822001055
 20
250.5810939369
 30
0.0
 10
107.4116218574
 20
249.9456474403
 30
0.0
 10
102.4274935114
 20
248.8981485802
 30
0.0
 10
97.3737559086
 20
248.2913351226
 30
0.0
 10
94.752704869
 20
248.0798751951
 30
0.0
  0
SPLINE
  5
343
100
AcDbEntity
  8
0
100
AcDbSpline
 62
7
  6
CONTINUOUS
 70
0
 71
3
 72
13
 73
9
 74
0
 42
0.0000001
 43
0.0000001
 44
0.0000000001
 40
0.0
 40
0.0
 40
0.0
 40
0.0
 40
0.2914204186
 40
0.5620903214
 40
0.686089926
 40
0.800917467
 40
0.905724214
 40
1.0
 40
1.0
 40
1.0
 40
1.0
 10
91.0358225255
 20
252.0653466347
 30
0.0
 10
93.7215019029
 20
252.204015225
 30
0.0
 10
98.8927441346
 20
252.7059183863
 30
0.0
 10
105.1158109578
 20
253.9481268809
 30
0.0
 10
109.621666806
 20
255.3021003695
 30
0.0
 10
112.5886398675
 20
256.4307992155
 30
0.0
 10
115.2030749749
 20
257.6866812683
 30
0.0
 10
116.7732063635
 20
258.6500962519
 30
0.0
 10
117.4821044271
 20
259.1544174949
 30
0.0
  0
SPLINE
  5
344
100
AcDbEntity
  8
0
100
AcDbSpline
 62
7
  6
CONTINUOUS
 70
0
 71
3
 72
9
 73
5
 74
0
 42
0.0000001
 43
0.0000001
 44
0.0000000001
 40
0.0
 40
0.0
 40
0.0
 40
0.0
 40
0.4860488321
 40
1.0
 40
1.0
 40
1.0
 40
1.0
 10
50.6732952671
 20
274.320208384
 30
0.0
 10
51.311624711
 20
274.3903972907
 30
0.0
 10
52.6449275609
 20
274.3830413676
 30
0.0
 10
53.9447861254
 20
274.0998426374
 30
0.0
 10
54.5932303525
 20
273.89830386
 30
0.0
  0
SPLINE
  5
345
100
AcDbEntity
  8
0
100
AcDbSpline
 62
7
  6
CONTINUOUS
 70
0
 71
3
 72
11
 73
7
 74
0
 42
0.0000001
 43
0.0000001
 44
0.0000000001
 40
0.0
 40
0.0
 40
0.0
 40
0.0
 40
0.2189141367
 40
0.4401414479
 40
0.6943141155
 40
1.0
 40
1.0
 40
1.0
 40
1.0
 10
40.8223519509
 20
272.8502668519
 30
0.0
 10
40.8223649186
 20
272.7065089303
 30
0.0
 10
40.8817732502
 20
272.4113355648
 30
0.0
 10
41.1815529747
 20
272.047146624
 30
0.0
 10
41.6470182879
 20
271.8089213094
 30
0.0
 10
42.0111771928
 20
271.7372186391
 30
0.0
 10
42.2107442378
 20
271.7155520965
 30
0.0
  0
SPLINE
  5
346
100
AcDbEntity
  8
0
100
AcDbSpline
 62
7
  6
CONTINUOUS
 70
0
 71
3
 72
9
 73
5
 74
0
 42
0.0000001
 43
0.0000001
 44
0.0000000001
 40
0.0
 40
0.0
 40
0.0
 40
0.0
 40
0.5030210082
 40
1.0
 40
1.0
 40
1.0
 40
1.0
 10
77.3601906656
 20
200.2510003657
 30
0.0
 10
76.1424442466
 20
199.9245767616
 30
0.0
 10
73.652198835
 20
199.508154625
 30
0.0
 10
71.1279201069
 20
199.6014909873
 30
0.0
 10
69.8943700139
 20
199.7742878655
 30
0.0
  0
SPLINE
  5
347
100
AcDbEntity
  8
0
100
AcDbSpline
 62
7
  6
CONTINUOUS
 70
0
 71
3
 72
13
 73
9
 74
0
 42
0.0000001
 43
0.0000001
 44
0.0000000001
 40
0.0
 40
0.0
 40
0.0
 40
0.0
 40
0.2680784454
 40
0.5231817203
 40
0.6459686937
 40
0.7658127052
 40
0.8834850388
 40
1.0
 40
1.0
 40
1.0
 40
1.0
 10
56.5242066631
 20
216.4764916056
 30
0.0
 10
56.6265151568
 20
215.7939519811
 30
0.0
 10
57.0008410645
 20
214.4801617522
 30
0.0
 10
57.9069610387
 20
213.0527611271
 30
0.0
 10
58.8383268097
 20
212.1649298536
 30
0.0
 10
59.61212648
 20
211.6446976548
 30
0.0
 10
60.4506866687
 20
211.2757044945
 30
0.0
 10
61.0414532146
 20
211.1365179531
 30
0.0
 10
61.3385177289
 20
211.0948946811
 30
0.0
  0
SPLINE
  5
348
100
AcDbEntity
  8
0
100
AcDbSpline
 62
7
  6
CONTINUOUS
 70
0
 71
3
 72
13
 73
9
 74
0
 42
0.0000001
 43
0.0000001
 44
0.0000000001
 40
0.0
 40
0.0
 40
0.0
 40
0.0
 40
0.2680784773
 40
0.5231817456
 40
0.6459687058
 40
0.7658126985
 40
0.8834850232
 40
1.0
 40
1.0
 40
1.0
 40
1.0
 10
80.3612320947
 20
222.8661369633
 30
0.0
 10
80.4631637059
 20
222.1861116682
 30
0.0
 10
80.8361106518
 20
220.8771612445
 30
0.0
 10
81.7388926571
 20
219.4550190477
 30
0.0
 10
82.666827296
 20
218.5704585356
 30
0.0
 10
83.4377762753
 20
218.0521428736
 30
0.0
 10
84.2732472734
 20
217.6845091068
 30
0.0
 10
84.8618374937
 20
217.5458352407
 30
0.0
 10
85.157807692
 20
217.5043653116
 30
0.0
  0
SPLINE
  5
349
100
AcDbEntity
  8
0
100
AcDbSpline
 62
7
  6
CONTINUOUS
 70
0
 71
3
 72
13
 73
9
 74
0
 42
0.0000001
 43
0.0000001
 44
0.0000000001
 40
0.0
 40
0.0
 40
0.0
 40
0.0
 40
0.2680784454
 40
0.5231817203
 40
0.6459686937
 40
0.7658127052
 40
0.8834850388
 40
1.0
 40
1.0
 40
1.0
 40
1.0
 10
73.323237148
 20
238.1080979593
 30
0.0
 10
73.4255456417
 20
237.4255583348
 30
0.0
 10
73.7998715494
 20
236.1117681059
 30
0.0
 10
74.7059915236
 20
234.6843674808
 30
0.0
 10
75.6373572946
 20
233.7965362073
 30
0.0
 10
76.411156965
 20
233.2763040085
 30
0.0
 10
77.2497171536
 20
232.9073108482
 30
0.0
 10
77.8404836996
 20
232.7681243068
 30
0.0
 10
78.1375482138
 20
232.7265010348
 30
0.0
  0
SPLINE
  5
34A
100
AcDbEntity
  8
0
100
AcDbSpline
 62
7
  6
CONTINUOUS
 70
0
 71
3
 72
13
 73
9
 74
0
 42
0.0000001
 43
0.0000001
 44
0.0000000001
 40
0.0
 40
0.0
 40
0.0
 40
0.0
 40
0.2680784454
 40
0.5231817203
 40
0.6459686937
 40
0.7658127052
 40
0.8834850388
 40
1.0
 40
1.0
 40
1.0
 40
1.0
 10
58.6043166875
 20
234.1626106307
 30
0.0
 10
58.7066251812
 20
233.4800710062
 30
0.0
 10
59.0809510889
 20
232.1662807773
 30
0.0
 10
59.9870710631
 20
230.7388801523
 30
0.0
 10
60.9184368341
 20
229.8510488787
 30
0.0
 10
61.6922365044
 20
229.3308166799
 30
0.0
 10
62.5307966931
 20
228.9618235196
 30
0.0
 10
63.121563239
 20
228.8226369783
 30
0.0
 10
63.4186277533
 20
228.7810137062
 30
0.0
  0
SPLINE
  5
34B
100
AcDbEntity
  8
0
100
AcDbSpline
 62
7
  6
CONTINUOUS
 70
0
 71
3
 72
11
 73
7
 74
0
 42
0.0000001
 43
0.0000001
 44
0.0000000001
 40
0.0
 40
0.0
 40
0.0
 40
0.0
 40
0.2633199045
 40
0.5163031672
 40
0.7606163268
 40
1.0
 40
1.0
 40
1.0
 40
1.0
 10
56.6368890044
 20
216.5313630503
 30
0.0
 10
56.7456008954
 20
216.3041381916
 30
0.0
 10
57.0062706667
 20
215.8791172598
 30
0.0
 10
57.5230506981
 20
215.357242739
 30
0.0
 10
58.1336440768
 20
214.99048908
 30
0.0
 10
58.5853399413
 20
214.8631153722
 30
0.0
 10
58.8121245076
 20
214.8313798788
 30
0.0
  0
SPLINE
  5
34C
100
AcDbEntity
  8
0
100
AcDbSpline
 62
7
  6
CONTINUOUS
 70
0
 71
3
 72
11
 73
7
 74
0
 42
0.0000001
 43
0.0000001
 44
0.0000000001
 40
0.0
 40
0.0
 40
0.0
 40
0.0
 40
0.2632926743
 40
0.5162664684
 40
0.7605910071
 40
1.0
 40
1.0
 40
1.0
 40
1.0
 10
80.4546738274
 20
222.9109737701
 30
0.0
 10
80.5634937594
 20
222.6842929451
 30
0.0
 10
80.8242221611
 20
222.2603324542
 30
0.0
 10
81.3406077911
 20
221.7398410059
 30
0.0
 10
81.950417729
 20
221.3740690643
 30
0.0
 10
82.4014058278
 20
221.2469986717
 30
0.0
 10
82.6278380904
 20
221.2153124786
 30
0.0
  0
SPLINE
  5
34D
100
AcDbEntity
  8
0
100
AcDbSpline
 62
7
  6
CONTINUOUS
 70
0
 71
3
 72
13
 73
9
 74
0
 42
0.0000001
 43
0.0000001
 44
0.0000000001
 40
0.0
 40
0.0
 40
0.0
 40
0.0
 40
0.1126085598
 40
0.2278164907
 40
0.3475017602
 40
0.4724027118
 40
0.7336673835
 40
1.0
 40
1.0
 40
1.0
 40
1.0
 10
75.2999066379
 20
215.7994445693
 30
0.0
 10
74.9931992245
 20
215.8423929948
 30
0.0
 10
74.3565638287
 20
215.8392126279
 30
0.0
 10
73.4290746443
 20
215.5654890478
 30
0.0
 10
72.5759979943
 20
215.0431326147
 30
0.0
 10
71.5887531079
 20
214.046994892
 30
0.0
 10
70.7854894644
 20
212.3813148696
 30
0.0
 10
70.7034554399
 20
210.8886656447
 30
0.0
 10
70.8120362019
 20
210.1642812833
 30
0.0
  0
SPLINE
  5
34E
100
AcDbEntity
  8
0
100
AcDbSpline
 62
7
  6
CONTINUOUS
 70
0
 71
3
 72
11
 73
7
 74
0
 42
0.0000001
 43
0.0000001
 44
0.0000000001
 40
0.0
 40
0.0
 40
0.0
 40
0.0
 40
0.2633218679
 40
0.5163058139
 40
0.7606181532
 40
1.0
 40
1.0
 40
1.0
 40
1.0
 10
73.4358822724
 20
238.162954506
 30
0.0
 10
73.5445863295
 20
237.9356903978
 30
0.0
 10
73.805251803
 20
237.510592951
 30
0.0
 10
74.3220602169
 20
236.9886186147
 30
0.0
 10
74.9327100785
 20
236.6217940956
 30
0.0
 10
75.3844569967
 20
236.4943984953
 30
0.0
 10
75.6112669752
 20
236.4626594459
 30
0.0
  0
SPLINE
  5
34F
100
AcDbEntity
  8
0
100
AcDbSpline
 62
7
  6
CONTINUOUS
 70
0
 71
3
 72
11
 73
7
 74
0
 42
0.0000001
 43
0.0000001
 44
0.0000000001
 40
0.0
 40
0.0
 40
0.0
 40
0.0
 40
0.2633218679
 40
0.5163058139
 40
0.7606181532
 40
1.0
 40
1.0
 40
1.0
 40
1.0
 10
58.7169618119
 20
234.2174671774
 30
0.0
 10
58.825665869
 20
233.9902030692
 30
0.0
 10
59.0863313425
 20
233.5651056224
 30
0.0
 10
59.6031397564
 20
233.0431312861
 30
0.0
 10
60.2137896179
 20
232.6763067671
 30
0.0
 10
60.6655365362
 20
232.5489111668
 30
0.0
 10
60.8923465146
 20
232.5171721174
 30
0.0
  0
SPLINE
  5
350
100
AcDbEntity
  8
0
100
AcDbSpline
 62
7
  6
CONTINUOUS
 70
0
 71
3
 72
11
 73
7
 74
0
 42
0.0000001
 43
0.0000001
 44
0.0000000001
 40
0.0
 40
0.0
 40
0.0
 40
0.0
 40
0.236881514
 40
0.4801511187
 40
0.7341340497
 40
1.0
 40
1.0
 40
1.0
 40
1.0
 10
61.9047904911
 20
239.7465871716
 30
0.0
 10
61.6429512177
 20
239.7832281064
 30
0.0
 10
61.0969468185
 20
239.7735296461
 30
0.0
 10
60.309293592
 20
239.5092123201
 30
0.0
 10
59.6003486209
 20
239.0193085174
 30
0.0
 10
59.2175790546
 20
238.5743106364
 30
0.0
 10
59.0510439893
 20
238.3287067641
 30
0.0
  0
SPLINE
  5
351
100
AcDbEntity
  8
0
100
AcDbSpline
 62
7
  6
CONTINUOUS
 70
0
 71
3
 72
11
 73
7
 74
0
 42
0.0000001
 43
0.0000001
 44
0.0000000001
 40
0.0
 40
0.0
 40
0.0
 40
0.0
 40
0.2685754408
 40
0.5241420677
 40
0.7663548315
 40
1.0
 40
1.0
 40
1.0
 40
1.0
 10
70.8120362019
 20
210.1642812833
 30
0.0
 10
70.8799990233
 20
209.7108749516
 30
0.0
 10
71.1290530271
 20
208.8378048402
 30
0.0
 10
71.840142061
 20
207.7164167988
 30
0.0
 10
72.82505471
 20
206.9114829705
 30
0.0
 10
73.6151263131
 20
206.6446899052
 30
0.0
 10
74.0101164465
 20
206.5893791968
 30
0.0
  0
SPLINE
  5
352
100
AcDbEntity
  8
0
100
AcDbSpline
 62
7
  6
CONTINUOUS
 70
0
 71
3
 72
15
 73
11
 74
0
 42
0.0000001
 43
0.0000001
 44
0.0000000001
 40
0.0
 40
0.0
 40
0.0
 40
0.0
 40
0.1122974094
 40
0.2271861007
 40
0.3465396076
 40
0.4710947107
 40
0.6004026055
 40
0.7330571509
 40
0.8670061511
 40
1.0
 40
1.0
 40
1.0
 40
1.0
 10
65.3602539536
 20
242.6456760566
 30
0.0
 10
64.8985494133
 20
242.7103679089
 30
0.0
 10
63.9401784486
 20
242.7055477699
 30
0.0
 10
62.5439294105
 20
242.2934407855
 30
0.0
 10
61.2599113414
 20
241.5073210321
 30
0.0
 10
60.1597156732
 20
240.3969556555
 30
0.0
 10
59.3007543815
 20
239.0271683801
 30
0.0
 10
58.7282577176
 20
237.4742825587
 30
0.0
 10
58.4720797186
 20
235.8247337711
 30
0.0
 10
58.5224689506
 20
234.7086486141
 30
0.0
 10
58.6043166875
 20
234.1626106307
 30
0.0
  0
SPLINE
  5
353
100
AcDbEntity
  8
0
100
AcDbSpline
 62
7
  6
CONTINUOUS
 70
0
 71
3
 72
11
 73
7
 74
0
 42
0.0000001
 43
0.0000001
 44
0.0000000001
 40
0.0
 40
0.0
 40
0.0
 40
0.0
 40
0.236881514
 40
0.4801511187
 40
0.7341340497
 40
1.0
 40
1.0
 40
1.0
 40
1.0
 10
76.6237109516
 20
243.6920745001
 30
0.0
 10
76.3618716782
 20
243.728715435
 30
0.0
 10
75.8158672791
 20
243.7190169746
 30
0.0
 10
75.0282140526
 20
243.4546996486
 30
0.0
 10
74.3192690814
 20
242.964795846
 30
0.0
 10
73.9364995151
 20
242.5197979649
 30
0.0
 10
73.7699644498
 20
242.2741940926
 30
0.0
  0
SPLINE
  5
354
100
AcDbEntity
  8
0
100
AcDbSpline
 62
7
  6
CONTINUOUS
 70
0
 71
3
 72
15
 73
11
 74
0
 42
0.0000001
 43
0.0000001
 44
0.0000000001
 40
0.0
 40
0.0
 40
0.0
 40
0.0
 40
0.1122974094
 40
0.2271861007
 40
0.3465396076
 40
0.4710947107
 40
0.6004026055
 40
0.7330571509
 40
0.8670061511
 40
1.0
 40
1.0
 40
1.0
 40
1.0
 10
80.0791744142
 20
246.5911633852
 30
0.0
 10
79.6174698738
 20
246.6558552375
 30
0.0
 10
78.6590989092
 20
246.6510350985
 30
0.0
 10
77.2628498711
 20
246.2389281141
 30
0.0
 10
75.9788318019
 20
245.4528083607
 30
0.0
 10
74.8786361338
 20
244.342442984
 30
0.0
 10
74.019674842
 20
242.9726557086
 30
0.0
 10
73.4471781781
 20
241.4197698873
 30
0.0
 10
73.1910001791
 20
239.7702210996
 30
0.0
 10
73.2413894111
 20
238.6541359427
 30
0.0
 10
73.323237148
 20
238.1080979593
 30
0.0
  0
SPLINE
  5
355
100
AcDbEntity
  8
0
100
AcDbSpline
 62
7
  6
CONTINUOUS
 70
0
 71
3
 72
11
 73
7
 74
0
 42
0.0000001
 43
0.0000001
 44
0.0000000001
 40
0.0
 40
0.0
 40
0.0
 40
0.0
 40
0.2372775136
 40
0.4807017322
 40
0.7345120099
 40
1.0
 40
1.0
 40
1.0
 40
1.0
 10
83.6402820669
 20
228.4447275328
 30
0.0
 10
83.3840756704
 20
228.4805802212
 30
0.0
 10
82.8504897998
 20
228.4729398431
 30
0.0
 10
82.0785862355
 20
228.2222828809
 30
0.0
 10
81.3797162772
 20
227.7543726092
 30
0.0
 10
80.9983069878
 20
227.3273121032
 30
0.0
 10
80.83103918
 20
227.09107303
 30
0.0
  0
SPLINE
  5
356
100
AcDbEntity
  8
0
100
AcDbSpline
 62
7
  6
CONTINUOUS
 70
0
 71
3
 72
15
 73
11
 74
0
 42
0.0000001
 43
0.0000001
 44
0.0000000001
 40
0.0
 40
0.0
 40
0.0
 40
0.0
 40
0.1122974219
 40
0.2271861324
 40
0.3465396545
 40
0.471094754
 40
0.6004026277
 40
0.7330571644
 40
0.8670061515
 40
1.0
 40
1.0
 40
1.0
 40
1.0
 10
87.0922811318
 20
231.3179516006
 30
0.0
 10
86.6322774132
 20
231.3824051223
 30
0.0
 10
85.6774368633
 20
231.3776027249
 30
0.0
 10
84.286331302
 20
230.9670137651
 30
0.0
 10
83.0070433879
 20
230.1837898285
 30
0.0
 10
81.9109008429
 20
229.0775148841
 30
0.0
 10
81.0551040407
 20
227.7127738434
 30
0.0
 10
80.4847165192
 20
226.1656088558
 30
0.0
 10
80.2294822699
 20
224.522136943
 30
0.0
 10
80.2796858773
 20
223.4101633933
 30
0.0
 10
80.3612320947
 20
222.8661369633
 30
0.0
  0
SPLINE
  5
357
100
AcDbEntity
  8
0
100
AcDbSpline
 62
7
  6
CONTINUOUS
 70
0
 71
3
 72
11
 73
7
 74
0
 42
0.0000001
 43
0.0000001
 44
0.0000000001
 40
0.0
 40
0.0
 40
0.0
 40
0.0
 40
0.2368851863
 40
0.4801562036
 40
0.7341375128
 40
1.0
 40
1.0
 40
1.0
 40
1.0
 10
59.824568484
 20
222.0607949331
 30
0.0
 10
59.5627816194
 20
222.097428534
 30
0.0
 10
59.0168929328
 20
222.0877496315
 30
0.0
 10
58.2293856873
 20
221.823560994
 30
0.0
 10
57.5205326896
 20
221.3338636411
 30
0.0
 10
57.1377737701
 20
220.8890335886
 30
0.0
 10
56.9712306823
 20
220.6435171495
 30
0.0
  0
SPLINE
  5
358
100
AcDbEntity
  8
0
100
AcDbSpline
 62
7
  6
CONTINUOUS
 70
0
 71
3
 72
15
 73
11
 74
0
 42
0.0000001
 43
0.0000001
 44
0.0000000001
 40
0.0
 40
0.0
 40
0.0
 40
0.0
 40
0.1122974094
 40
0.2271861007
 40
0.3465396076
 40
0.4710947107
 40
0.6004026055
 40
0.7330571509
 40
0.8670061511
 40
1.0
 40
1.0
 40
1.0
 40
1.0
 10
63.2801439292
 20
224.9595570315
 30
0.0
 10
62.8184393889
 20
225.0242488838
 30
0.0
 10
61.8600684242
 20
225.0194287448
 30
0.0
 10
60.4638193861
 20
224.6073217604
 30
0.0
 10
59.179801317
 20
223.821202007
 30
0.0
 10
58.0796056488
 20
222.7108366303
 30
0.0
 10
57.2206443571
 20
221.341049355
 30
0.0
 10
56.6481476932
 20
219.7881635336
 30
0.0
 10
56.3919696942
 20
218.1386147459
 30
0.0
 10
56.4423589262
 20
217.022529589
 30
0.0
 10
56.5242066631
 20
216.4764916056
 30
0.0
  0
SPLINE
  5
359
100
AcDbEntity
  8
0
100
AcDbSpline
 62
7
  6
CONTINUOUS
 70
0
 71
3
 72
19
 73
15
 74
0
 42
0.0000001
 43
0.0000001
 44
0.0000000001
 40
0.0
 40
0.0
 40
0.0
 40
0.0
 40
0.0580130062
 40
0.1175415405
 40
0.1786840797
 40
0.2413939758
 40
0.3704309138
 40
0.5024090947
 40
0.6339351152
 40
0.7617423146
 40
0.8236559858
 40
0.8839607188
 40
0.9426839876
 40
1.0
 40
1.0
 40
1.0
 40
1.0
 10
85.673305567
 20
248.2997333904
 30
0.0
 10
86.5960207633
 20
247.6309536276
 30
0.0
 10
88.3542107281
 20
246.1156164428
 30
0.0
 10
90.6258099363
 20
243.4226210967
 30
0.0
 10
92.5173828479
 20
240.3411757925
 30
0.0
 10
94.4951100453
 20
235.7690155058
 30
0.0
 10
95.7972826487
 20
229.4631789246
 30
0.0
 10
95.4221181925
 20
221.6841076745
 30
0.0
 10
93.1720748001
 20
214.2526129955
 30
0.0
 10
89.834182207
 20
208.800310687
 30
0.0
 10
86.4433277989
 20
205.2271476178
 30
0.0
 10
83.6361304043
 20
203.0242456434
 30
0.0
 10
80.6024355278
 20
201.3238388015
 30
0.0
 10
78.4476979818
 20
200.5425126643
 30
0.0
 10
77.3601906656
 20
200.2510003657
 30
0.0
  0
SPLINE
  5
35A
100
AcDbEntity
  8
0
100
AcDbSpline
 62
7
  6
CONTINUOUS
 70
0
 71
3
 72
11
 73
7
 74
0
 42
0.0000001
 43
0.0000001
 44
0.0000000001
 40
0.0
 40
0.0
 40
0.0
 40
0.0
 40
0.2685863396
 40
0.5241491341
 40
0.7663583784
 40
1.0
 40
1.0
 40
1.0
 40
1.0
 10
79.1340179928
 20
240.885964118
 30
0.0
 10
79.0806702864
 20
241.2418764336
 30
0.0
 10
78.8851900467
 20
241.9272040885
 30
0.0
 10
78.3269635801
 20
242.8073981008
 30
0.0
 10
77.5538976473
 20
243.4392131227
 30
0.0
 10
76.9337545864
 20
243.648688004
 30
0.0
 10
76.6237109516
 20
243.6920745001
 30
0.0
  0
SPLINE
  5
35B
100
AcDbEntity
  8
0
100
AcDbSpline
 62
7
  6
CONTINUOUS
 70
0
 71
3
 72
13
 73
9
 74
0
 42
0.0000001
 43
0.0000001
 44
0.0000000001
 40
0.0
 40
0.0
 40
0.0
 40
0.0
 40
0.1126063134
 40
0.2278108941
 40
0.3474931271
 40
0.4723909798
 40
0.7336555861
 40
1.0
 40
1.0
 40
1.0
 40
1.0
 10
60.8923465146
 20
232.5171721174
 30
0.0
 10
61.1330938995
 20
232.4834827127
 30
0.0
 10
61.6328018915
 20
232.4859464794
 30
0.0
 10
62.3608169178
 20
232.7008071912
 30
0.0
 10
63.0304227801
 20
233.110807471
 30
0.0
 10
63.8053651505
 20
233.8926963609
 30
0.0
 10
64.4359304896
 20
235.2001673038
 30
0.0
 10
64.5003293312
 20
236.3718479028
 30
0.0
 10
64.4150975323
 20
236.9404767895
 30
0.0
  0
SPLINE
  5
35C
100
AcDbEntity
  8
0
100
AcDbSpline
 62
7
  6
CONTINUOUS
 70
0
 71
3
 72
13
 73
9
 74
0
 42
0.0000001
 43
0.0000001
 44
0.0000000001
 40
0.0
 40
0.0
 40
0.0
 40
0.0
 40
0.2620514222
 40
0.5218522836
 40
0.6477213055
 40
0.7693345014
 40
0.8865536211
 40
1.0
 40
1.0
 40
1.0
 40
1.0
 10
67.1836450376
 20
237.6829316699
 30
0.0
 10
67.3244879643
 20
236.7432899208
 30
0.0
 10
67.2707464035
 20
234.8090122234
 30
0.0
 10
66.4095749529
 20
232.5697418759
 30
0.0
 10
65.303228546
 20
231.0881735812
 30
0.0
 10
64.3148464187
 20
230.1957014058
 30
0.0
 10
63.2009899166
 20
229.5512314335
 30
0.0
 10
62.3927984658
 20
229.3032509951
 30
0.0
 10
61.9878721953
 20
229.2309486973
 30
0.0
  0
SPLINE
  5
35D
100
AcDbEntity
  8
0
100
AcDbSpline
 62
7
  6
CONTINUOUS
 70
0
 71
3
 72
11
 73
7
 74
0
 42
0.0000001
 43
0.0000001
 44
0.0000000001
 40
0.0
 40
0.0
 40
0.0
 40
0.0
 40
0.2685863396
 40
0.5241491341
 40
0.7663583784
 40
1.0
 40
1.0
 40
1.0
 40
1.0
 10
64.4150975323
 20
236.9404767895
 30
0.0
 10
64.3617498259
 20
237.296389105
 30
0.0
 10
64.1662695862
 20
237.9817167599
 30
0.0
 10
63.6080431195
 20
238.8619107722
 30
0.0
 10
62.8349771867
 20
239.4937257942
 30
0.0
 10
62.2148341259
 20
239.7032006755
 30
0.0
 10
61.9047904911
 20
239.7465871716
 30
0.0
  0
SPLINE
  5
35E
100
AcDbEntity
  8
0
100
AcDbSpline
 62
7
  6
CONTINUOUS
 70
0
 71
3
 72
13
 73
9
 74
0
 42
0.0000001
 43
0.0000001
 44
0.0000000001
 40
0.0
 40
0.0
 40
0.0
 40
0.0
 40
0.2680784454
 40
0.5231817203
 40
0.6459686937
 40
0.7658127052
 40
0.8834850388
 40
1.0
 40
1.0
 40
1.0
 40
1.0
 10
68.0944549951
 20
219.577960107
 30
0.0
 10
67.9921465013
 20
220.2604997315
 30
0.0
 10
67.6178205936
 20
221.5742899604
 30
0.0
 10
66.7117006194
 20
223.0016905855
 30
0.0
 10
65.7803348485
 20
223.889521859
 30
0.0
 10
65.0065351781
 20
224.4097540578
 30
0.0
 10
64.1679749894
 20
224.7787472181
 30
0.0
 10
63.5772084435
 20
224.9179337594
 30
0.0
 10
63.2801439292
 20
224.9595570315
 30
0.0
  0
SPLINE
  5
35F
100
AcDbEntity
  8
0
100
AcDbSpline
 62
7
  6
CONTINUOUS
 70
0
 71
3
 72
13
 73
9
 74
0
 42
0.0000001
 43
0.0000001
 44
0.0000000001
 40
0.0
 40
0.0
 40
0.0
 40
0.0
 40
0.2680784773
 40
0.5231817456
 40
0.6459687058
 40
0.7658126985
 40
0.8834850232
 40
1.0
 40
1.0
 40
1.0
 40
1.0
 10
91.8888567291
 20
225.9561799488
 30
0.0
 10
91.7869251178
 20
226.6362052439
 30
0.0
 10
91.413978172
 20
227.9451556677
 30
0.0
 10
90.5111961667
 20
229.3672978644
 30
0.0
 10
89.5832615278
 20
230.2518583766
 30
0.0
 10
88.8123125485
 20
230.7701740385
 30
0.0
 10
87.9768415504
 20
231.1378078054
 30
0.0
 10
87.3882513301
 20
231.2764816715
 30
0.0
 10
87.0922811318
 20
231.3179516006
 30
0.0
  0
SPLINE
  5
360
100
AcDbEntity
  8
0
100
AcDbSpline
 62
7
  6
CONTINUOUS
 70
0
 71
3
 72
11
 73
7
 74
0
 42
0.0000001
 43
0.0000001
 44
0.0000000001
 40
0.0
 40
0.0
 40
0.0
 40
0.0
 40
0.2685754407
 40
0.5241420677
 40
0.7663548314
 40
1.0
 40
1.0
 40
1.0
 40
1.0
 10
78.497986881
 20
212.2245424924
 30
0.0
 10
78.4300240581
 20
212.6779488229
 30
0.0
 10
78.1809700545
 20
213.5510189324
 30
0.0
 10
77.46988102
 20
214.6724069705
 30
0.0
 10
76.4849683723
 20
215.4773407965
 30
0.0
 10
75.6948967706
 20
215.744133861
 30
0.0
 10
75.2999066379
 20
215.7994445693
 30
0.0
  0
SPLINE
  5
361
100
AcDbEntity
  8
0
100
AcDbSpline
 62
7
  6
CONTINUOUS
 70
0
 71
3
 72
15
 73
11
 74
0
 42
0.0000001
 43
0.0000001
 44
0.0000000001
 40
0.0
 40
0.0
 40
0.0
 40
0.0
 40
0.1122974094
 40
0.2271861007
 40
0.3465396076
 40
0.4710947107
 40
0.6004026055
 40
0.7330571509
 40
0.8670061511
 40
1.0
 40
1.0
 40
1.0
 40
1.0
 10
63.4186277533
 20
228.7810137062
 30
0.0
 10
63.8803322936
 20
228.7163218539
 30
0.0
 10
64.8387032583
 20
228.7211419929
 30
0.0
 10
66.2349522964
 20
229.1332489773
 30
0.0
 10
67.5189703655
 20
229.9193687307
 30
0.0
 10
68.6191660337
 20
231.0297341074
 30
0.0
 10
69.4781273254
 20
232.3995213827
 30
0.0
 10
70.0506239893
 20
233.9524072041
 30
0.0
 10
70.3068019883
 20
235.6019559918
 30
0.0
 10
70.2564127563
 20
236.7180411487
 30
0.0
 10
70.1745650194
 20
237.2640791321
 30
0.0
  0
SPLINE
  5
362
100
AcDbEntity
  8
0
100
AcDbSpline
 62
7
  6
CONTINUOUS
 70
0
 71
3
 72
13
 73
9
 74
0
 42
0.0000001
 43
0.0000001
 44
0.0000000001
 40
0.0
 40
0.0
 40
0.0
 40
0.0
 40
0.2680784454
 40
0.5231817203
 40
0.6459686937
 40
0.7658127052
 40
0.8834850388
 40
1.0
 40
1.0
 40
1.0
 40
1.0
 10
84.89348548
 20
241.2095664607
 30
0.0
 10
84.7911769862
 20
241.8921060852
 30
0.0
 10
84.4168510785
 20
243.2058963141
 30
0.0
 10
83.5107311043
 20
244.6332969391
 30
0.0
 10
82.5793653334
 20
245.5211282126
 30
0.0
 10
81.805565663
 20
246.0413604115
 30
0.0
 10
80.9670054744
 20
246.4103535718
 30
0.0
 10
80.3762389284
 20
246.5495401131
 30
0.0
 10
80.0791744142
 20
246.5911633852
 30
0.0
  0
SPLINE
  5
363
100
AcDbEntity
  8
0
100
AcDbSpline
 62
7
  6
CONTINUOUS
 70
0
 71
3
 72
11
 73
7
 74
0
 42
0.0000001
 43
0.0000001
 44
0.0000000001
 40
0.0
 40
0.0
 40
0.0
 40
0.0
 40
0.2350538283
 40
0.4796395453
 40
0.7350139692
 40
1.0
 40
1.0
 40
1.0
 40
1.0
 10
63.8145646302
 20
242.6284592483
 30
0.0
 10
64.2538744392
 20
242.4190333739
 30
0.0
 10
65.0922297808
 20
241.8593617664
 30
0.0
 10
66.1014703075
 20
240.6995363168
 30
0.0
 10
66.8315588149
 20
239.2784313621
 30
0.0
 10
67.102316579
 20
238.2255191953
 30
0.0
 10
67.1836450376
 20
237.6829316699
 30
0.0
  0
SPLINE
  5
364
100
AcDbEntity
  8
0
100
AcDbSpline
 62
7
  6
CONTINUOUS
 70
0
 71
3
 72
13
 73
9
 74
0
 42
0.0000001
 43
0.0000001
 44
0.0000000001
 40
0.0
 40
0.0
 40
0.0
 40
0.0
 40
0.1126063134
 40
0.2278108941
 40
0.3474931271
 40
0.4723909798
 40
0.7336555861
 40
1.0
 40
1.0
 40
1.0
 40
1.0
 10
75.6112669752
 20
236.4626594459
 30
0.0
 10
75.85201436
 20
236.4289700413
 30
0.0
 10
76.351722352
 20
236.431433808
 30
0.0
 10
77.0797373783
 20
236.6462945197
 30
0.0
 10
77.7493432407
 20
237.0562947995
 30
0.0
 10
78.5242856111
 20
237.8381836895
 30
0.0
 10
79.1548509501
 20
239.1456546324
 30
0.0
 10
79.2192497917
 20
240.3173352314
 30
0.0
 10
79.1340179928
 20
240.885964118
 30
0.0
  0
SPLINE
  5
365
100
AcDbEntity
  8
0
100
AcDbSpline
 62
7
  6
CONTINUOUS
 70
0
 71
3
 72
13
 73
9
 74
0
 42
0.0000001
 43
0.0000001
 44
0.0000000001
 40
0.0
 40
0.0
 40
0.0
 40
0.0
 40
0.2680784454
 40
0.5231817203
 40
0.6459686937
 40
0.7658127052
 40
0.8834850388
 40
1.0
 40
1.0
 40
1.0
 40
1.0
 10
70.1745650194
 20
237.2640791321
 30
0.0
 10
70.0722565257
 20
237.9466187566
 30
0.0
 10
69.697930618
 20
239.2604089855
 30
0.0
 10
68.7918106438
 20
240.6878096106
 30
0.0
 10
67.8604448729
 20
241.5756408841
 30
0.0
 10
67.0866452025
 20
242.0958730829
 30
0.0
 10
66.2480850138
 20
242.4648662432
 30
0.0
 10
65.6573184679
 20
242.6040527846
 30
0.0
 10
65.3602539536
 20
242.6456760566
 30
0.0
  0
SPLINE
  5
366
100
AcDbEntity
  8
0
100
AcDbSpline
 62
7
  6
CONTINUOUS
 70
0
 71
3
 72
20
 73
16
 74
0
 42
0.0000001
 43
0.0000001
 44
0.0000000001
 40
0.0
 40
0.0
 40
0.0
 40
0.0
 40
0.1300138031
 40
0.1922179011
 40
0.2522862006
 40
0.3105656972
 40
0.3677207887
 40
0.4246269474
 40
0.4822096833
 40
0.5412632537
 40
0.6023112596
 40
0.7302584883
 40
0.7971234491
 40
0.8649526496
 40
1.0
 40
1.0
 40
1.0
 40
1.0
 10
70.2468040487
 20
209.5688968812
 30
0.0
 10
70.36985522
 20
208.7479748133
 30
0.0
 10
70.7581778229
 20
207.5470358587
 30
0.0
 10
71.6718975401
 20
206.2106551979
 30
0.0
 10
72.5071608502
 20
205.4032646754
 30
0.0
 10
73.470411154
 20
204.8126577163
 30
0.0
 10
74.5244928745
 20
204.4634029911
 30
0.0
 10
75.6267618054
 20
204.3710639755
 30
0.0
 10
76.7318857001
 20
204.5388980416
 30
0.0
 10
77.7957297965
 20
204.9588794769
 30
0.0
 10
79.122513253
 20
205.8409802631
 30
0.0
 10
80.1849732732
 20
207.1394631295
 30
0.0
 10
80.8861378761
 20
208.6689063342
 30
0.0
 10
81.3387929524
 20
210.3366061387
 30
0.0
 10
81.3663551172
 20
211.6625874937
 30
0.0
 10
81.2385399641
 20
212.5152919575
 30
0.0
  0
SPLINE
  5
367
100
AcDbEntity
  8
0
100
AcDbSpline
 62
7
  6
CONTINUOUS
 70
0
 71
3
 72
15
 73
11
 74
0
 42
0.0000001
 43
0.0000001
 44
0.0000000001
 40
0.0
 40
0.0
 40
0.0
 40
0.0
 40
0.1122974094
 40
0.2271861007
 40
0.3465396076
 40
0.4710947107
 40
0.6004026055
 40
0.7330571509
 40
0.8670061511
 40
1.0
 40
1.0
 40
1.0
 40
1.0
 10
78.1375482138
 20
232.7265010348
 30
0.0
 10
78.5992527541
 20
232.6618091825
 30
0.0
 10
79.5576237188
 20
232.6666293215
 30
0.0
 10
80.9538727569
 20
233.0787363059
 30
0.0
 10
82.2378908261
 20
233.8648560593
 30
0.0
 10
83.3380864942
 20
234.9752214359
 30
0.0
 10
84.1970477859
 20
236.3450087113
 30
0.0
 10
84.7695444498
 20
237.8978945327
 30
0.0
 10
85.0257224488
 20
239.5474433203
 30
0.0
 10
84.9753332168
 20
240.6635284773
 30
0.0
 10
84.89348548
 20
241.2095664607
 30
0.0
  0
SPLINE
  5
368
100
AcDbEntity
  8
0
100
AcDbSpline
 62
7
  6
CONTINUOUS
 70
0
 71
3
 72
20
 73
16
 74
0
 42
0.0000001
 43
0.0000001
 44
0.0000000001
 40
0.0
 40
0.0
 40
0.0
 40
0.0
 40
0.1300138031
 40
0.1922179011
 40
0.2522862006
 40
0.3105656972
 40
0.3677207887
 40
0.4246269474
 40
0.4822096833
 40
0.5412632537
 40
0.6023112596
 40
0.7302584883
 40
0.7971234491
 40
0.8649526496
 40
1.0
 40
1.0
 40
1.0
 40
1.0
 10
81.2385399641
 20
212.5152919575
 30
0.0
 10
81.1154887965
 20
213.336214026
 30
0.0
 10
80.727166189
 20
214.5371529798
 30
0.0
 10
79.813446473
 20
215.8735336409
 30
0.0
 10
78.9781831626
 20
216.6809241633
 30
0.0
 10
78.0149328589
 20
217.2715311225
 30
0.0
 10
76.9608511384
 20
217.6207858477
 30
0.0
 10
75.8585822075
 20
217.7131248633
 30
0.0
 10
74.7534583127
 20
217.5452907972
 30
0.0
 10
73.6896142164
 20
217.1253093618
 30
0.0
 10
72.3628307599
 20
216.2432085757
 30
0.0
 10
71.3003707398
 20
214.9447257092
 30
0.0
 10
70.5992061365
 20
213.4152825045
 30
0.0
 10
70.1465510615
 20
211.7475827001
 30
0.0
 10
70.1189888918
 20
210.4216013445
 30
0.0
 10
70.2468040487
 20
209.5688968812
 30
0.0
  0
SPLINE
  5
369
100
AcDbEntity
  8
0
100
AcDbSpline
 62
7
  6
CONTINUOUS
 70
0
 71
3
 72
11
 73
7
 74
0
 42
0.0000001
 43
0.0000001
 44
0.0000000001
 40
0.0
 40
0.0
 40
0.0
 40
0.0
 40
0.2350538283
 40
0.4796395453
 40
0.7350139692
 40
1.0
 40
1.0
 40
1.0
 40
1.0
 10
78.5334850907
 20
246.5739465768
 30
0.0
 10
78.9727948997
 20
246.3645207024
 30
0.0
 10
79.8111502413
 20
245.804849095
 30
0.0
 10
80.8203907681
 20
244.6450236453
 30
0.0
 10
81.5504792755
 20
243.2239186906
 30
0.0
 10
81.8212370396
 20
242.1710065239
 30
0.0
 10
81.9025654981
 20
241.6284189985
 30
0.0
  0
SPLINE
  5
36A
100
AcDbEntity
  8
0
100
AcDbSpline
 62
7
  6
CONTINUOUS
 70
0
 71
3
 72
13
 73
9
 74
0
 42
0.0000001
 43
0.0000001
 44
0.0000000001
 40
0.0
 40
0.0
 40
0.0
 40
0.0
 40
0.1126063134
 40
0.2278108941
 40
0.3474931271
 40
0.4723909798
 40
0.7336555861
 40
1.0
 40
1.0
 40
1.0
 40
1.0
 10
82.6278380904
 20
221.2153124786
 30
0.0
 10
82.8685854753
 20
221.181623074
 30
0.0
 10
83.3682934673
 20
221.1840868407
 30
0.0
 10
84.0963084936
 20
221.3989475525
 30
0.0
 10
84.7659143559
 20
221.8089478323
 30
0.0
 10
85.5408567263
 20
222.5908367222
 30
0.0
 10
86.1714220654
 20
223.8983076651
 30
0.0
 10
86.2358209069
 20
225.0699882641
 30
0.0
 10
86.1505891081
 20
225.6386171507
 30
0.0
  0
SPLINE
  5
36B
100
AcDbEntity
  8
0
100
AcDbSpline
 62
7
  6
CONTINUOUS
 70
0
 71
3
 72
15
 73
11
 74
0
 42
0.0000001
 43
0.0000001
 44
0.0000000001
 40
0.0
 40
0.0
 40
0.0
 40
0.0
 40
0.1122974219
 40
0.2271861324
 40
0.3465396545
 40
0.471094754
 40
0.6004026277
 40
0.7330571644
 40
0.8670061515
 40
1.0
 40
1.0
 40
1.0
 40
1.0
 10
85.157807692
 20
217.5043653116
 30
0.0
 10
85.6178114106
 20
217.4399117899
 30
0.0
 10
86.5726519605
 20
217.4447141872
 30
0.0
 10
87.9637575218
 20
217.8553031471
 30
0.0
 10
89.2430454359
 20
218.6385270836
 30
0.0
 10
90.3391879809
 20
219.7448020281
 30
0.0
 10
91.1949847831
 20
221.1095430688
 30
0.0
 10
91.7653723046
 20
222.6567080564
 30
0.0
 10
92.0206065539
 20
224.3001799692
 30
0.0
 10
91.9704029465
 20
225.4121535188
 30
0.0
 10
91.8888567291
 20
225.9561799488
 30
0.0
  0
SPLINE
  5
36C
100
AcDbEntity
  8
0
100
AcDbSpline
 62
7
  6
CONTINUOUS
 70
0
 71
3
 72
13
 73
9
 74
0
 42
0.0000001
 43
0.0000001
 44
0.0000000001
 40
0.0
 40
0.0
 40
0.0
 40
0.0
 40
0.2620513303
 40
0.5218521497
 40
0.6477211844
 40
0.7693344164
 40
0.8865535833
 40
1.0
 40
1.0
 40
1.0
 40
1.0
 10
65.1034706618
 20
219.9968216566
 30
0.0
 10
65.2443131318
 20
219.0571829545
 30
0.0
 10
65.1905728196
 20
217.1229115863
 30
0.0
 10
64.3294078547
 20
214.8836470559
 30
0.0
 10
63.2230687491
 20
213.4020800582
 30
0.0
 10
62.2346924969
 20
212.5096067258
 30
0.0
 10
61.1208418795
 20
211.8651333181
 30
0.0
 10
60.3126539626
 20
211.6171489231
 30
0.0
 10
59.9077291794
 20
211.5448442837
 30
0.0
  0
SPLINE
  5
36D
100
AcDbEntity
  8
0
100
AcDbSpline
 62
7
  6
CONTINUOUS
 70
0
 71
3
 72
11
 73
7
 74
0
 42
0.0000001
 43
0.0000001
 44
0.0000000001
 40
0.0
 40
0.0
 40
0.0
 40
0.0
 40
0.2685863396
 40
0.5241491341
 40
0.7663583784
 40
1.0
 40
1.0
 40
1.0
 40
1.0
 10
62.3348755252
 20
219.2546845509
 30
0.0
 10
62.2815278188
 20
219.6105968665
 30
0.0
 10
62.0860475791
 20
220.2959245214
 30
0.0
 10
61.5278211125
 20
221.1761185337
 30
0.0
 10
60.7547551797
 20
221.8079335556
 30
0.0
 10
60.1346121188
 20
222.0174084369
 30
0.0
 10
59.824568484
 20
222.0607949331
 30
0.0
  0
SPLINE
  5
36E
100
AcDbEntity
  8
0
100
AcDbSpline
 62
7
  6
CONTINUOUS
 70
0
 71
3
 72
11
 73
7
 74
0
 42
0.0000001
 43
0.0000001
 44
0.0000000001
 40
0.0
 40
0.0
 40
0.0
 40
0.0
 40
0.2350657106
 40
0.4796608287
 40
0.7350317212
 40
1.0
 40
1.0
 40
1.0
 40
1.0
 10
85.5470785933
 20
231.2995448058
 30
0.0
 10
85.9840684811
 20
231.0905379739
 30
0.0
 10
86.8178608139
 20
230.5326017253
 30
0.0
 10
87.8215182945
 20
229.377553396
 30
0.0
 10
88.5475895578
 20
227.9629351959
 30
0.0
 10
88.8169334717
 20
226.9150302224
 30
0.0
 10
88.8978723958
 20
226.3750414985
 30
0.0
  0
SPLINE
  5
36F
100
AcDbEntity
  8
0
100
AcDbSpline
 62
7
  6
CONTINUOUS
 70
0
 71
3
 72
13
 73
9
 74
0
 42
0.0000001
 43
0.0000001
 44
0.0000000001
 40
0.0
 40
0.0
 40
0.0
 40
0.0
 40
0.1126063134
 40
0.2278108941
 40
0.3474931271
 40
0.4723909798
 40
0.7336555861
 40
1.0
 40
1.0
 40
1.0
 40
1.0
 10
58.8121245076
 20
214.8313798788
 30
0.0
 10
59.0528718924
 20
214.7976904742
 30
0.0
 10
59.5525798845
 20
214.8001542409
 30
0.0
 10
60.2805949108
 20
215.0150149527
 30
0.0
 10
60.9502007731
 20
215.4250152325
 30
0.0
 10
61.7251431435
 20
216.2069041224
 30
0.0
 10
62.3557084825
 20
217.5143750653
 30
0.0
 10
62.4201073241
 20
218.6860556643
 30
0.0
 10
62.3348755252
 20
219.2546845509
 30
0.0
  0
SPLINE
  5
370
100
AcDbEntity
  8
0
100
AcDbSpline
 62
7
  6
CONTINUOUS
 70
0
 71
3
 72
15
 73
11
 74
0
 42
0.0000001
 43
0.0000001
 44
0.0000000001
 40
0.0
 40
0.0
 40
0.0
 40
0.0
 40
0.1122974094
 40
0.2271861007
 40
0.3465396076
 40
0.4710947107
 40
0.6004026055
 40
0.7330571509
 40
0.8670061511
 40
1.0
 40
1.0
 40
1.0
 40
1.0
 10
61.3385177289
 20
211.0948946811
 30
0.0
 10
61.8002222692
 20
211.0302028288
 30
0.0
 10
62.7585932339
 20
211.0350229678
 30
0.0
 10
64.154842272
 20
211.4471299522
 30
0.0
 10
65.4388603411
 20
212.2332497056
 30
0.0
 10
66.5390560093
 20
213.3436150823
 30
0.0
 10
67.398017301
 20
214.7134023576
 30
0.0
 10
67.9705139649
 20
216.266288179
 30
0.0
 10
68.2266919639
 20
217.9158369666
 30
0.0
 10
68.1763027319
 20
219.0319221236
 30
0.0
 10
68.0944549951
 20
219.577960107
 30
0.0
  0
SPLINE
  5
371
100
AcDbEntity
  8
0
100
AcDbSpline
 62
7
  6
CONTINUOUS
 70
0
 71
3
 72
11
 73
7
 74
0
 42
0.0000001
 43
0.0000001
 44
0.0000000001
 40
0.0
 40
0.0
 40
0.0
 40
0.0
 40
0.2350538968
 40
0.4796396681
 40
0.7350140717
 40
1.0
 40
1.0
 40
1.0
 40
1.0
 10
61.7344242723
 20
224.942333018
 30
0.0
 10
62.173730021
 20
224.7329050986
 30
0.0
 10
63.0120768256
 20
224.1732315934
 30
0.0
 10
64.0213065522
 20
223.0134090569
 30
0.0
 10
64.7513873709
 20
221.5923113442
 30
0.0
 10
65.0221427238
 20
220.539405709
 30
0.0
 10
65.1034706618
 20
219.9968216566
 30
0.0
  0
SPLINE
  5
372
100
AcDbEntity
  8
0
100
AcDbSpline
 62
7
  6
CONTINUOUS
 70
0
 71
3
 72
13
 73
9
 74
0
 42
0.0000001
 43
0.0000001
 44
0.0000000001
 40
0.0
 40
0.0
 40
0.0
 40
0.0
 40
0.2620355622
 40
0.5218291383
 40
0.647700342
 40
0.7693197746
 40
0.8865470637
 40
1.0
 40
1.0
 40
1.0
 40
1.0
 10
88.8978723958
 20
226.3750414985
 30
0.0
 10
89.0381179767
 20
225.4393849764
 30
0.0
 10
88.9847888808
 20
223.5133209143
 30
0.0
 10
88.1279044304
 20
221.2833000475
 30
0.0
 10
87.0268885742
 20
219.807413222
 30
0.0
 10
86.0431572867
 20
218.9180304475
 30
0.0
 10
84.9344154621
 20
218.2753447431
 30
0.0
 10
84.1298087643
 20
218.0275983093
 30
0.0
 10
83.7266298918
 20
217.9551601721
 30
0.0
  0
SPLINE
  5
373
100
AcDbEntity
  8
0
100
AcDbSpline
 62
7
  6
CONTINUOUS
 70
0
 71
3
 72
11
 73
7
 74
0
 42
0.0000001
 43
0.0000001
 44
0.0000000001
 40
0.0
 40
0.0
 40
0.0
 40
0.0
 40
0.2685863396
 40
0.5241491341
 40
0.7663583784
 40
1.0
 40
1.0
 40
1.0
 40
1.0
 10
86.1505891081
 20
225.6386171507
 30
0.0
 10
86.0972414016
 20
225.9945294663
 30
0.0
 10
85.901761162
 20
226.6798571212
 30
0.0
 10
85.3435346953
 20
227.5600511335
 30
0.0
 10
84.5704687625
 20
228.1918661554
 30
0.0
 10
83.9503257016
 20
228.4013410367
 30
0.0
 10
83.6402820669
 20
228.4447275328
 30
0.0
  0
SPLINE
  5
374
100
AcDbEntity
  8
0
100
AcDbSpline
 62
7
  6
CONTINUOUS
 70
0
 71
3
 72
23
 73
19
 74
0
 42
0.0000001
 43
0.0000001
 44
0.0000000001
 40
0.0
 40
0.0
 40
0.0
 40
0.0
 40
0.0561384509
 40
0.1129405176
 40
0.170976722
 40
0.2306466734
 40
0.2921443291
 40
0.3554499002
 40
0.4203517585
 40
0.4864806454
 40
0.5533518211
 40
0.6204138815
 40
0.6870990761
 40
0.7528730558
 40
0.8172838724
 40
0.8800085768
 40
0.9408953936
 40
1.0
 40
1.0
 40
1.0
 40
1.0
 10
69.8943700139
 20
199.7742878655
 30
0.0
 10
68.6753860323
 20
199.9450443088
 30
0.0
 10
66.2509166
 20
200.5387893256
 30
0.0
 10
62.838717069
 20
202.146357388
 30
0.0
 10
59.7352829467
 20
204.4233689469
 30
0.0
 10
57.0294697242
 20
207.3008437221
 30
0.0
 10
54.794451878
 20
210.6945876571
 30
0.0
 10
53.0902010959
 20
214.5077339558
 30
0.0
 10
51.9618790374
 20
218.6331628032
 30
0.0
 10
51.4392227726
 20
222.955919594
 30
0.0
 10
51.5357656248
 20
227.3559615195
 30
0.0
 10
52.2484154625
 20
231.7112153093
 30
0.0
 10
53.5574696338
 20
235.9008292154
 30
0.0
 10
55.4272104086
 20
239.8084182109
 30
0.0
 10
57.8066930883
 20
243.3249910713
 30
0.0
 10
60.6318689845
 20
246.3519735479
 30
0.0
 10
63.8243176957
 20
248.8025487332
 30
0.0
 10
66.1748520633
 20
250.0221276498
 30
0.0
 10
67.3762976975
 20
250.5078647662
 30
0.0
  0
SPLINE
  5
375
100
AcDbEntity
  8
0
100
AcDbSpline
 62
7
  6
CONTINUOUS
 70
0
 71
3
 72
13
 73
9
 74
0
 42
0.0000001
 43
0.0000001
 44
0.0000000001
 40
0.0
 40
0.0
 40
0.0
 40
0.0
 40
0.1126085598
 40
0.2278164907
 40
0.3475017602
 40
0.4724027119
 40
0.7336673836
 40
1.0
 40
1.0
 40
1.0
 40
1.0
 10
74.0101164465
 20
206.5893791968
 30
0.0
 10
74.3168238602
 20
206.5464307712
 30
0.0
 10
74.9534592567
 20
206.5496111383
 30
0.0
 10
75.8809484421
 20
206.8233347191
 30
0.0
 10
76.7340250927
 20
207.3456911535
 30
0.0
 10
77.7212699795
 20
208.3418288783
 30
0.0
 10
78.5245336216
 20
210.0075089035
 30
0.0
 10
78.6065676457
 20
211.5001581306
 30
0.0
 10
78.497986881
 20
212.2245424924
 30
0.0
  0
SPLINE
  5
376
100
AcDbEntity
  8
0
100
AcDbSpline
 62
7
  6
CONTINUOUS
 70
0
 71
3
 72
13
 73
9
 74
0
 42
0.0000001
 43
0.0000001
 44
0.0000000001
 40
0.0
 40
0.0
 40
0.0
 40
0.0
 40
0.2620514222
 40
0.5218522836
 40
0.6477213055
 40
0.7693345014
 40
0.8865536211
 40
1.0
 40
1.0
 40
1.0
 40
1.0
 10
81.9025654981
 20
241.6284189985
 30
0.0
 10
82.0434084248
 20
240.6887772494
 30
0.0
 10
81.9896668641
 20
238.754499552
 30
0.0
 10
81.1284954135
 20
236.5152292045
 30
0.0
 10
80.0221490065
 20
235.0336609098
 30
0.0
 10
79.0337668792
 20
234.1411887343
 30
0.0
 10
77.9199103772
 20
233.4967187621
 30
0.0
 10
77.1117189263
 20
233.2487383237
 30
0.0
 10
76.7067926559
 20
233.1764360259
 30
0.0
  0
SPLINE
  5
377
100
AcDbEntity
  8
0
100
AcDbSpline
 62
7
  6
CONTINUOUS
 70
0
 71
3
 72
13
 73
9
 74
0
 42
0.0000001
 43
0.0000001
 44
0.0000000001
 40
0.0
 40
0.0
 40
0.0
 40
0.0
 40
0.2578306689
 40
0.5154017256
 40
0.641623583
 40
0.7647252107
 40
0.8842068528
 40
1.0
 40
1.0
 40
1.0
 40
1.0
 10
102.8739613465
 20
233.6346366231
 30
0.0
 10
103.4826801463
 20
229.5735338665
 30
0.0
 10
103.4631258606
 20
221.2281732904
 30
0.0
 10
100.4770406099
 20
211.2930108809
 30
0.0
 10
96.4590464045
 20
204.2579438481
 30
0.0
 10
92.761203623
 20
199.6592373619
 30
0.0
 10
88.4733825369
 20
195.8514321757
 30
0.0
 10
85.2521536386
 20
193.8877540406
 30
0.0
 10
83.5924037531
 20
193.0837370494
 30
0.0
  0
SPLINE
  5
378
100
AcDbEntity
  8
0
100
AcDbSpline
 62
7
  6
CONTINUOUS
 70
0
 71
3
 72
13
 73
9
 74
0
 42
0.0000001
 43
0.0000001
 44
0.0000000001
 40
0.0
 40
0.0
 40
0.0
 40
0.0
 40
0.2663348009
 40
0.5275950103
 40
0.652496652
 40
0.7721831326
 40
0.8873914622
 40
1.0
 40
1.0
 40
1.0
 40
1.0
 10
83.6668248407
 20
192.5872324494
 30
0.0
 10
83.8069271038
 20
191.6525320802
 30
0.0
 10
83.7010605739
 20
189.7265340184
 30
0.0
 10
82.6645735713
 20
187.5772806783
 30
0.0
 10
81.3907070826
 20
186.2919489902
 30
0.0
 10
80.2899484507
 20
185.6179414347
 30
0.0
 10
79.0931761609
 20
185.2647552135
 30
0.0
 10
78.2717077975
 20
185.2606624889
 30
0.0
 10
77.8759554412
 20
185.3160814056
 30
0.0
  0
SPLINE
  5
379
100
AcDbEntity
  8
0
100
AcDbSpline
 62
7
  6
CONTINUOUS
 70
0
 71
3
 72
11
 73
7
 74
0
 42
0.0000001
 43
0.0000001
 44
0.0000000001
 40
0.0
 40
0.0
 40
0.0
 40
0.0
 40
0.2685863187
 40
0.5241478096
 40
0.7663609521
 40
1.0
 40
1.0
 40
1.0
 40
1.0
 10
75.8155849012
 20
190.4826645372
 30
0.0
 10
75.8667396064
 20
190.1413829567
 30
0.0
 10
76.0541734333
 20
189.4842227854
 30
0.0
 10
76.5894671029
 20
188.6402266152
 30
0.0
 10
77.3307570263
 20
188.0343499521
 30
0.0
 10
77.9254207637
 20
187.8335938724
 30
0.0
 10
78.2227045519
 20
187.7919098556
 30
0.0
  0
SPLINE
  5
37A
100
AcDbEntity
  8
0
100
AcDbSpline
 62
7
  6
CONTINUOUS
 70
0
 71
3
 72
15
 73
11
 74
0
 42
0.0000001
 43
0.0000001
 44
0.0000000001
 40
0.0
 40
0.0
 40
0.0
 40
0.0
 40
0.1355587454
 40
0.2683336004
 40
0.3978336048
 40
0.5238389343
 40
0.646459022
 40
0.7661405785
 40
0.8836507876
 40
1.0
 40
1.0
 40
1.0
 40
1.0
 10
46.6756123055
 20
218.5703610451
 30
0.0
 10
46.9161301082
 20
216.9657325828
 30
0.0
 10
47.6024026039
 20
213.8163451033
 30
0.0
 10
49.2500806908
 20
209.3326455901
 30
0.0
 10
51.4708723278
 20
205.2306157455
 30
0.0
 10
54.2148770568
 20
201.608211415
 30
0.0
 10
57.4197149568
 20
198.5520283933
 30
0.0
 10
61.0120910672
 20
196.1369154157
 30
0.0
 10
64.9055219697
 20
194.4239630047
 30
0.0
 10
67.6482041564
 20
193.7774930045
 30
0.0
 10
69.027371283
 20
193.5843346318
 30
0.0
  0
SPLINE
  5
37B
100
AcDbEntity
  8
0
100
AcDbSpline
 62
7
  6
CONTINUOUS
 70
0
 71
3
 72
16
 73
12
 74
0
 42
0.0000001
 43
0.0000001
 44
0.0000000001
 40
0.0
 40
0.0
 40
0.0
 40
0.0
 40
0.0845966678
 40
0.1344271136
 40
0.1900629507
 40
0.3176484217
 40
0.4617926671
 40
0.612614321
 40
0.7589147597
 40
0.8903588337
 40
1.0
 40
1.0
 40
1.0
 40
1.0
 10
49.8415864222
 20
262.3067689893
 30
0.0
 10
49.9509627799
 20
262.3586093495
 30
0.0
 10
50.0970249249
 20
262.5005684525
 30
0.0
 10
50.2244562444
 20
262.7409342268
 30
0.0
 10
50.3306383091
 20
263.058757787
 30
0.0
 10
50.3829869303
 20
263.5288718364
 30
0.0
 10
50.3339265231
 20
264.1342216164
 30
0.0
 10
50.1793714941
 20
264.7492610702
 30
0.0
 10
49.9338867516
 20
265.3146867947
 30
0.0
 10
49.6221187174
 20
265.7766079983
 30
0.0
 10
49.3602739473
 20
266.0117284497
 30
0.0
 10
49.2244315274
 20
266.0901885086
 30
0.0
  0
SPLINE
  5
37C
100
AcDbEntity
  8
0
100
AcDbSpline
 62
7
  6
CONTINUOUS
 70
0
 71
3
 72
13
 73
9
 74
0
 42
0.0000001
 43
0.0000001
 44
0.0000000001
 40
0.0
 40
0.0
 40
0.0
 40
0.0
 40
0.2656029744
 40
0.5196217976
 40
0.6426761625
 40
0.7633557934
 40
0.8822289711
 40
1.0
 40
1.0
 40
1.0
 40
1.0
 10
18.8273382682
 20
217.0248331327
 30
0.0
 10
19.6071347408
 20
214.3885345039
 30
0.0
 10
21.7224581778
 20
209.3804530895
 30
0.0
 10
25.7966719459
 20
204.0188013149
 30
0.0
 10
29.7039261694
 20
200.6372642534
 30
0.0
 10
32.8746311283
 20
198.6031537574
 30
0.0
 10
36.2608005544
 20
197.082822508
 30
0.0
 10
38.6325941274
 20
196.4269083328
 30
0.0
 10
39.8290540604
 20
196.1934328591
 30
0.0
  0
SPLINE
  5
37D
100
AcDbEntity
  8
0
100
AcDbSpline
 62
7
  6
CONTINUOUS
 70
0
 71
3
 72
11
 73
7
 74
0
 42
0.0000001
 43
0.0000001
 44
0.0000000001
 40
0.0
 40
0.0
 40
0.0
 40
0.0
 40
0.2685789272
 40
0.5241466404
 40
0.7663533168
 40
1.0
 40
1.0
 40
1.0
 40
1.0
 10
46.0140753709
 20
193.8132725709
 30
0.0
 10
46.1017672965
 20
193.2282308686
 30
0.0
 10
46.4231229932
 20
192.1016899824
 30
0.0
 10
47.3406490706
 20
190.6547593992
 30
0.0
 10
48.6114775819
 20
189.6161472325
 30
0.0
 10
49.6309005498
 20
189.2718987382
 30
0.0
 10
50.1405616527
 20
189.2005225849
 30
0.0
  0
SPLINE
  5
37E
100
AcDbEntity
  8
0
100
AcDbSpline
 62
7
  6
CONTINUOUS
 70
0
 71
3
 72
13
 73
9
 74
0
 42
0.0000001
 43
0.0000001
 44
0.0000000001
 40
0.0
 40
0.0
 40
0.0
 40
0.0
 40
0.1180088087
 40
0.2391638584
 40
0.3631408156
 40
0.4893838731
 40
0.7451011452
 40
1.0
 40
1.0
 40
1.0
 40
1.0
 10
59.8959794205
 20
252.9960948664
 30
0.0
 10
58.6783085803
 20
252.0900660123
 30
0.0
 10
56.3520869102
 20
250.0561471408
 30
0.0
 10
53.3150578884
 20
246.4881956792
 30
0.0
 10
50.7477372342
 20
242.4418966032
 30
0.0
 10
48.0205475966
 20
236.5158311335
 30
0.0
 10
46.0788079791
 20
228.4626296424
 30
0.0
 10
46.1896460983
 20
221.8125127653
 30
0.0
 10
46.6756123055
 20
218.5703610451
 30
0.0
  0
SPLINE
  5
37F
100
AcDbEntity
  8
0
100
AcDbSpline
 62
7
  6
CONTINUOUS
 70
0
 71
3
 72
9
 73
5
 74
0
 42
0.0000001
 43
0.0000001
 44
0.0000000001
 40
0.0
 40
0.0
 40
0.0
 40
0.0
 40
0.2564125044
 40
1.0
 40
1.0
 40
1.0
 40
1.0
 10
51.5247913359
 20
270.1675920488
 30
0.0
 10
51.4769562658
 20
270.1732965254
 30
0.0
 10
51.2895585223
 20
270.1874827856
 30
0.0
 10
51.0992549133
 20
270.1663832865
 30
0.0
 10
50.9643167961
 20
270.1302083572
 30
0.0
  0
SPLINE
  5
380
100
AcDbEntity
  8
0
100
AcDbSpline
 62
7
  6
CONTINUOUS
 70
0
 71
3
 72
11
 73
7
 74
0
 42
0.0000001
 43
0.0000001
 44
0.0000000001
 40
0.0
 40
0.0
 40
0.0
 40
0.0
 40
0.2712243218
 40
0.5265024262
 40
0.7683072089
 40
1.0
 40
1.0
 40
1.0
 40
1.0
 10
33.2611571634
 20
254.8644605833
 30
0.0
 10
34.2063362096
 20
256.458938188
 30
0.0
 10
36.2084725873
 20
259.460079443
 30
0.0
 10
39.6532771393
 20
263.4427722705
 30
0.0
 10
43.4192761042
 20
266.7283383535
 30
0.0
 10
46.1720219622
 20
268.4609654551
 30
0.0
 10
47.5785447831
 20
269.1882036292
 30
0.0
  0
SPLINE
  5
381
100
AcDbEntity
  8
0
100
AcDbSpline
 62
7
  6
CONTINUOUS
 70
0
 71
3
 72
9
 73
5
 74
0
 42
0.0000001
 43
0.0000001
 44
0.0000000001
 40
0.0
 40
0.0
 40
0.0
 40
0.0
 40
0.268272445
 40
1.0
 40
1.0
 40
1.0
 40
1.0
 10
49.2244315274
 20
266.0901885086
 30
0.0
 10
49.1979466399
 20
266.1054856877
 30
0.0
 10
49.0969527329
 20
266.158205867
 30
0.0
 10
48.9851544438
 20
266.1923705708
 30
0.0
 10
48.9021196456
 20
266.2004062196
 30
0.0
  0
SPLINE
  5
382
100
AcDbEntity
  8
0
100
AcDbSpline
 62
7
  6
CONTINUOUS
 70
0
 71
3
 72
9
 73
5
 74
0
 42
0.0000001
 43
0.0000001
 44
0.0000000001
 40
0.0
 40
0.0
 40
0.0
 40
0.0
 40
0.2558559529
 40
1.0
 40
1.0
 40
1.0
 40
1.0
 10
48.9021196456
 20
266.2004062196
 30
0.0
 10
48.8848679439
 20
266.202075744
 30
0.0
 10
48.8172071396
 20
266.2058022315
 30
0.0
 10
48.7488221953
 20
266.1975272086
 30
0.0
 10
48.700130367
 20
266.1844778923
 30
0.0
  0
SPLINE
  5
383
100
AcDbEntity
  8
0
100
AcDbSpline
 62
7
  6
CONTINUOUS
 70
0
 71
3
 72
9
 73
5
 74
0
 42
0.0000001
 43
0.0000001
 44
0.0000000001
 40
0.0
 40
0.0
 40
0.0
 40
0.0
 40
0.4926096899
 40
1.0
 40
1.0
 40
1.0
 40
1.0
 10
98.4153536698
 20
246.6787752512
 30
0.0
 10
99.546562915
 20
244.7068672922
 30
0.0
 10
101.4439612343
 20
240.4647445518
 30
0.0
 10
102.5268643313
 20
235.9503144792
 30
0.0
 10
102.8739613465
 20
233.6346366231
 30
0.0
  0
SPLINE
  5
384
100
AcDbEntity
  8
0
100
AcDbSpline
 62
7
  6
CONTINUOUS
 70
0
 71
3
 72
15
 73
11
 74
0
 42
0.0000001
 43
0.0000001
 44
0.0000000001
 40
0.0
 40
0.0
 40
0.0
 40
0.0
 40
0.1146791543
 40
0.2331239457
 40
0.3554566953
 40
0.4812954627
 40
0.6098405627
 40
0.7399921402
 40
0.870472253
 40
1.0
 40
1.0
 40
1.0
 40
1.0
 10
38.5015501369
 20
261.9586641661
 30
0.0
 10
36.79409614
 20
261.3220932332
 30
0.0
 10
33.4496057743
 20
259.663070796
 30
0.0
 10
28.938914286
 20
256.2128266503
 30
0.0
 10
24.9978073886
 20
251.8822570793
 30
0.0
 10
21.755287031
 20
246.8185584925
 30
0.0
 10
19.3140140307
 20
241.1896550838
 30
0.0
 10
17.7526122263
 20
235.1805423729
 30
0.0
 10
17.1206916923
 20
228.9901678672
 30
0.0
 10
17.3357871858
 20
224.8444703226
 30
0.0
 10
17.6046141786
 20
222.8038997635
 30
0.0
  0
SPLINE
  5
385
100
AcDbEntity
  8
0
100
AcDbSpline
 62
7
  6
CONTINUOUS
 70
0
 71
3
 72
16
 73
12
 74
0
 42
0.0000001
 43
0.0000001
 44
0.0000000001
 40
0.0
 40
0.0
 40
0.0
 40
0.0
 40
0.0843024072
 40
0.1338452022
 40
0.189104281
 40
0.3157859603
 40
0.459084969
 40
0.6094675164
 40
0.7560292012
 40
0.8885689063
 40
1.0
 40
1.0
 40
1.0
 40
1.0
 10
48.6072766327
 20
266.1503028435
 30
0.0
 10
48.4992727473
 20
266.0991129845
 30
0.0
 10
48.3547477954
 20
265.9597873898
 30
0.0
 10
48.2277267768
 20
265.7235259712
 30
0.0
 10
48.1212399752
 20
265.4113999146
 30
0.0
 10
48.0665659399
 20
264.9489645974
 30
0.0
 10
48.1105918413
 20
264.3519237796
 30
0.0
 10
48.2582715448
 20
263.7426809965
 30
0.0
 10
48.4959786876
 20
263.1787608102
 30
0.0
 10
48.8003689581
 20
262.7127839837
 30
0.0
 10
49.0566694567
 20
262.4711784293
 30
0.0
 10
49.1905402786
 20
262.3872903279
 30
0.0
  0
SPLINE
  5
386
100
AcDbEntity
  8
0
100
AcDbSpline
 62
7
  6
CONTINUOUS
 70
0
 71
3
 72
10
 73
6
 74
0
 42
0.0000001
 43
0.0000001
 44
0.0000000001
 40
0.0
 40
0.0
 40
0.0
 40
0.0
 40
0.2307974614
 40
0.4701300846
 40
1.0
 40
1.0
 40
1.0
 40
1.0
 10
47.8651431357
 20
269.2994578657
 30
0.0
 10
47.9701375556
 20
269.3276053291
 30
0.0
 10
48.1915827608
 20
269.3599343495
 30
0.0
 10
48.6640938426
 20
269.3217832938
 30
0.0
 10
49.008327622
 20
269.1798602392
 30
0.0
 10
49.2244315274
 20
269.0550426369
 30
0.0
  0
SPLINE
  5
387
100
AcDbEntity
  8
0
100
AcDbSpline
 62
7
  6
CONTINUOUS
 70
0
 71
3
 72
13
 73
9
 74
0
 42
0.0000001
 43
0.0000001
 44
0.0000000001
 40
0.0
 40
0.0
 40
0.0
 40
0.0
 40
0.254012589
 40
0.3820725025
 40
0.5096012346
 40
0.7595457514
 40
0.8812273522
 40
1.0
 40
1.0
 40
1.0
 40
1.0
 10
44.1962733772
 20
217.905760652
 30
0.0
 10
43.6911220319
 20
221.2759071331
 30
0.0
 10
43.5731944745
 20
226.4681262297
 30
0.0
 10
44.6532467691
 20
233.2312622305
 30
0.0
 10
46.5266440336
 20
239.7630804693
 30
0.0
 10
49.5543933633
 20
245.8327904117
 30
0.0
 10
53.6018205099
 20
251.0387198613
 30
0.0
 10
55.9215986158
 20
253.2995001148
 30
0.0
 10
57.1411211721
 20
254.3250746238
 30
0.0
  0
SPLINE
  5
388
100
AcDbEntity
  8
0
100
AcDbSpline
 62
7
  6
CONTINUOUS
 70
0
 71
3
 72
14
 73
10
 74
0
 42
0.0000001
 43
0.0000001
 44
0.0000000001
 40
0.0
 40
0.0
 40
0.0
 40
0.0
 40
0.1124445437
 40
0.2274830372
 40
0.3469930647
 40
0.4717110303
 40
0.601197547
 40
0.7340251568
 40
1.0
 40
1.0
 40
1.0
 40
1.0
 10
78.2227045519
 20
187.7919098556
 30
0.0
 10
78.4535452559
 20
187.7595422387
 30
0.0
 10
78.9327153425
 20
187.761991273
 30
0.0
 10
79.6308172934
 20
187.9679934326
 30
0.0
 10
80.2728069667
 20
188.361062325
 30
0.0
 10
80.8229445305
 20
188.9160613468
 30
0.0
 10
81.2523934588
 20
189.601485794
 30
0.0
 10
81.6339670068
 20
190.6333836974
 30
0.0
 10
81.6824407547
 20
191.4881210976
 30
0.0
 10
81.6007090672
 20
192.0333987879
 30
0.0
  0
SPLINE
  5
389
100
AcDbEntity
  8
0
100
AcDbSpline
 62
7
  6
CONTINUOUS
 70
0
 71
3
 72
11
 73
7
 74
0
 42
0.0000001
 43
0.0000001
 44
0.0000000001
 40
0.0
 40
0.0
 40
0.0
 40
0.0
 40
0.2336417152
 40
0.4758494238
 40
0.7314200986
 40
1.0
 40
1.0
 40
1.0
 40
1.0
 10
77.8759554412
 20
185.3160814056
 30
0.0
 10
77.3663044997
 20
185.3874500345
 30
0.0
 10
76.346889386
 20
185.7316970209
 30
0.0
 10
75.0760628687
 20
186.7703048204
 30
0.0
 10
74.1585190779
 20
188.2172371586
 30
0.0
 10
73.8371613749
 20
189.343787028
 30
0.0
 10
73.7494691593
 20
189.9288306655
 30
0.0
  0
SPLINE
  5
38A
100
AcDbEntity
  8
0
100
AcDbSpline
 62
7
  6
CONTINUOUS
 70
0
 71
3
 72
9
 73
5
 74
0
 42
0.0000001
 43
0.0000001
 44
0.0000000001
 40
0.0
 40
0.0
 40
0.0
 40
0.0
 40
0.4612908731
 40
1.0
 40
1.0
 40
1.0
 40
1.0
 10
49.2244315274
 20
269.0550426369
 30
0.0
 10
49.4989507409
 20
268.8964854375
 30
0.0
 10
50.0367944358
 20
268.4537126951
 30
0.0
 10
50.4642083976
 20
267.9108122548
 30
0.0
 10
50.6702125942
 20
267.6031949736
 30
0.0
  0
SPLINE
  5
38B
100
AcDbEntity
  8
0
100
AcDbSpline
 62
7
  6
CONTINUOUS
 70
0
 71
3
 72
9
 73
5
 74
0
 42
0.0000001
 43
0.0000001
 44
0.0000000001
 40
0.0
 40
0.0
 40
0.0
 40
0.0
 40
0.268272445
 40
1.0
 40
1.0
 40
1.0
 40
1.0
 10
49.2244315274
 20
262.3668833242
 30
0.0
 10
49.250916415
 20
262.351586145
 30
0.0
 10
49.351910322
 20
262.2988659658
 30
0.0
 10
49.4637086111
 20
262.2647012619
 30
0.0
 10
49.5467434093
 20
262.2566656131
 30
0.0
  0
SPLINE
  5
38C
100
AcDbEntity
  8
0
100
AcDbSpline
 62
7
  6
CONTINUOUS
 70
0
 71
3
 72
9
 73
5
 74
0
 42
0.0000001
 43
0.0000001
 44
0.0000000001
 40
0.0
 40
0.0
 40
0.0
 40
0.0
 40
0.2558559529
 40
1.0
 40
1.0
 40
1.0
 40
1.0
 10
49.5467434093
 20
262.2566656131
 30
0.0
 10
49.563995111
 20
262.2549960888
 30
0.0
 10
49.6316559152
 20
262.2512696013
 30
0.0
 10
49.7000408596
 20
262.2595446242
 30
0.0
 10
49.7487326879
 20
262.2725939404
 30
0.0
  0
SPLINE
  5
38D
100
AcDbEntity
  8
0
100
AcDbSpline
 62
7
  6
CONTINUOUS
 70
0
 71
3
 72
8
 73
4
 74
0
 42
0.0000001
 43
0.0000001
 44
0.0000000001
 40
0.0
 40
0.0
 40
0.0
 40
0.0
 40
1.0
 40
1.0
 40
1.0
 40
1.0
 10
33.2611571634
 20
254.8644605833
 30
0.0
 10
40.6055145488
 20
254.2671748898
 30
0.0
 10
47.9497006871
 20
253.6677806433
 30
0.0
 10
55.2937351885
 20
253.0665378921
 30
0.0
  0
SPLINE
  5
38E
100
AcDbEntity
  8
0
100
AcDbSpline
 62
7
  6
CONTINUOUS
 70
0
 71
3
 72
15
 73
11
 74
0
 42
0.0000001
 43
0.0000001
 44
0.0000000001
 40
0.0
 40
0.0
 40
0.0
 40
0.0
 40
0.116242827
 40
0.2338686954
 40
0.3537662438
 40
0.4765909566
 40
0.6027053047
 40
0.7321710247
 40
0.8647583271
 40
1.0
 40
1.0
 40
1.0
 40
1.0
 10
67.3010360945
 20
190.8327624274
 30
0.0
 10
65.8597312702
 20
191.1140129059
 30
0.0
 10
63.0042610447
 20
191.9403823146
 30
0.0
 10
58.9746901632
 20
193.9215230848
 30
0.0
 10
55.2695185581
 20
196.6026191695
 30
0.0
 10
51.9712559471
 20
199.9211770432
 30
0.0
 10
49.1498605875
 20
203.8022210295
 30
0.0
 10
46.8649919753
 20
208.1598574581
 30
0.0
 10
45.1644675679
 20
212.8975599734
 30
0.0
 10
44.4495314515
 20
216.2161347294
 30
0.0
 10
44.1962733772
 20
217.905760652
 30
0.0
  0
SPLINE
  5
38F
100
AcDbEntity
  8
0
100
AcDbSpline
 62
7
  6
CONTINUOUS
 70
0
 71
3
 72
13
 73
9
 74
0
 42
0.0000001
 43
0.0000001
 44
0.0000000001
 40
0.0
 40
0.0
 40
0.0
 40
0.0
 40
0.1150992809
 40
0.2339924479
 40
0.3567469476
 40
0.4829194046
 40
0.7411058993
 40
1.0
 40
1.0
 40
1.0
 40
1.0
 10
81.1360090903
 20
195.1336716201
 30
0.0
 10
82.7545140969
 20
195.7862183977
 30
0.0
 10
85.9156797533
 20
197.4558216922
 30
0.0
 10
90.1561845553
 20
200.8594263083
 30
0.0
 10
93.8389739791
 20
205.0854440668
 30
0.0
 10
97.8710483606
 20
211.6673759721
 30
0.0
 10
100.9058202542
 20
221.1068032102
 30
0.0
 10
100.9764818375
 20
229.0881273876
 30
0.0
 10
100.3946224182
 20
232.9700362299
 30
0.0
  0
SPLINE
  5
390
100
AcDbEntity
  8
0
100
AcDbSpline
 62
7
  6
CONTINUOUS
 70
0
 71
3
 72
9
 73
5
 74
0
 42
0.0000001
 43
0.0000001
 44
0.0000000001
 40
0.0
 40
0.0
 40
0.0
 40
0.0
 40
0.508675823
 40
1.0
 40
1.0
 40
1.0
 40
1.0
 10
100.3946224182
 20
232.9700362299
 30
0.0
 10
100.0344059612
 20
235.3732412029
 30
0.0
 10
98.8579136227
 20
240.0414917279
 30
0.0
 10
96.7222677609
 20
244.3643584174
 30
0.0
 10
95.4451195415
 20
246.3336343554
 30
0.0
  0
SPLINE
  5
391
100
AcDbEntity
  8
0
100
AcDbSpline
 62
7
  6
CONTINUOUS
 70
0
 71
3
 72
15
 73
11
 74
0
 42
0.0000001
 43
0.0000001
 44
0.0000000001
 40
0.0
 40
0.0
 40
0.0
 40
0.0
 40
0.1133965937
 40
0.2302852588
 40
0.3512918733
 40
0.4763993187
 40
0.6050103626
 40
0.7360698767
 40
0.8682226208
 40
1.0
 40
1.0
 40
1.0
 40
1.0
 10
40.7778184691
 20
271.3163447214
 30
0.0
 10
38.4852396268
 20
270.9185663431
 30
0.0
 10
33.9081623937
 20
269.5720776095
 30
0.0
 10
27.5433164717
 20
266.0850759068
 30
0.0
 10
21.8168483026
 20
261.2483339874
 30
0.0
 10
16.9390562369
 20
255.2505952487
 30
0.0
 10
13.0821941703
 20
248.3173737717
 30
0.0
 10
10.3842761846
 20
240.7046187628
 30
0.0
 10
8.9410958735
 20
232.6950730868
 30
0.0
 10
8.850867231
 20
227.2516687615
 30
0.0
 10
9.029462235
 20
224.5535786195
 30
0.0
  0
SPLINE
  5
392
100
AcDbEntity
  8
0
100
AcDbSpline
 62
7
  6
CONTINUOUS
 70
0
 71
3
 72
14
 73
10
 74
0
 42
0.0000001
 43
0.0000001
 44
0.0000000001
 40
0.0
 40
0.0
 40
0.0
 40
0.0
 40
0.1108065505
 40
0.228065804
 40
0.3514614343
 40
0.4797681223
 40
0.6111176184
 40
0.7432731115
 40
1.0
 40
1.0
 40
1.0
 40
1.0
 10
-3.3802947813
 20
263.2018485582
 30
0.0
 10
-5.1376607692
 20
263.0795678023
 30
0.0
 10
-8.7334852044
 20
262.3892123537
 30
0.0
 10
-13.9130825642
 20
260.2047186168
 30
0.0
 10
-18.827729388
 20
256.9448253481
 30
0.0
 10
-23.2781127293
 20
252.7490095369
 30
0.0
 10
-27.0889480013
 20
247.78568792
 30
0.0
 10
-31.0636645901
 20
240.5115667275
 30
0.0
 10
-32.7533972653
 20
234.4126203296
 30
0.0
 10
-33.1275360829
 20
230.3483315073
 30
0.0
  0
SPLINE
  5
393
100
AcDbEntity
  8
0
100
AcDbSpline
 62
7
  6
CONTINUOUS
 70
0
 71
3
 72
11
 73
7
 74
0
 42
0.0000001
 43
0.0000001
 44
0.0000000001
 40
0.0
 40
0.0
 40
0.0
 40
0.0
 40
0.215073566
 40
0.4461496388
 40
0.7055693212
 40
1.0
 40
1.0
 40
1.0
 40
1.0
 10
-30.5142346557
 20
214.6639179165
 30
0.0
 10
-30.5142452449
 20
214.600161582
 30
0.0
 10
-30.4930520082
 20
214.4671849466
 30
0.0
 10
-30.4014156569
 20
214.2766220823
 30
0.0
 10
-30.2537432372
 20
214.0947413881
 30
0.0
 10
-30.1287137503
 20
213.9871550165
 30
0.0
 10
-30.0589771303
 20
213.9346691634
 30
0.0
  0
SPLINE
  5
394
100
AcDbEntity
  8
0
100
AcDbSpline
 62
7
  6
CONTINUOUS
 70
0
 71
3
 72
11
 73
7
 74
0
 42
0.0000001
 43
0.0000001
 44
0.0000000001
 40
0.0
 40
0.0
 40
0.0
 40
0.0
 40
0.2145188656
 40
0.445261492
 40
0.7046576567
 40
1.0
 40
1.0
 40
1.0
 40
1.0
 10
-30.5142346217
 20
221.099346089
 30
0.0
 10
-30.5142244377
 20
221.1638824947
 30
0.0
 10
-30.4924267575
 20
221.2985629353
 30
0.0
 10
-30.3986328392
 20
221.4912936624
 30
0.0
 10
-30.247531357
 20
221.6751079635
 30
0.0
 10
-30.1196763203
 20
221.7835754316
 30
0.0
 10
-30.048334411
 20
221.836537019
 30
0.0
  0
SPLINE
  5
395
100
AcDbEntity
  8
0
100
AcDbSpline
 62
7
  6
CONTINUOUS
 70
0
 71
3
 72
9
 73
5
 74
0
 42
0.0000001
 43
0.0000001
 44
0.0000000001
 40
0.0
 40
0.0
 40
0.0
 40
0.0
 40
0.2364155433
 40
1.0
 40
1.0
 40
1.0
 40
1.0
 10
-30.0279100327
 20
221.8515028704
 30
0.0
 10
-30.0030789514
 20
221.8694637159
 30
0.0
 10
-29.8963669466
 20
221.943107705
 30
0.0
 10
-29.7836876108
 20
222.0079037527
 30
0.0
 10
-29.6957401861
 20
222.0533195664
 30
0.0
  0
SPLINE
  5
396
100
AcDbEntity
  8
0
100
AcDbSpline
 62
7
  6
CONTINUOUS
 70
0
 71
3
 72
15
 73
11
 74
0
 42
0.0000001
 43
0.0000001
 44
0.0000000001
 40
0.0
 40
0.0
 40
0.0
 40
0.0
 40
0.1139442331
 40
0.2306891242
 40
0.3511060671
 40
0.4754755045
 40
0.6035042813
 40
0.7344033078
 40
0.8670172375
 40
1.0
 40
1.0
 40
1.0
 40
1.0
 10
26.4258125633
 20
267.8287431864
 30
0.0
 10
24.4297294735
 20
267.4999965072
 30
0.0
 10
20.4516752823
 20
266.3691618009
 30
0.0
 10
14.9268194763
 20
263.3881300027
 30
0.0
 10
9.9835345398
 20
259.2270484968
 30
0.0
 10
5.8024771916
 20
254.046821651
 30
0.0
 10
2.529869845
 20
248.0405434921
 30
0.0
 10
0.2818918587
 20
241.4276655917
 30
0.0
 10
-0.862698441
 20
234.451611376
 30
0.0
 10
-0.8618467056
 20
229.7113875525
 30
0.0
 10
-0.6678978311
 20
227.3583823344
 30
0.0
  0
SPLINE
  5
397
100
AcDbEntity
  8
0
100
AcDbSpline
 62
7
  6
CONTINUOUS
 70
0
 71
3
 72
12
 73
8
 74
0
 42
0.0000001
 43
0.0000001
 44
0.0000000001
 40
0.0
 40
0.0
 40
0.0
 40
0.0
 40
0.231428975
 40
0.478905884
 40
0.6073105871
 40
0.7376182245
 40
1.0
 40
1.0
 40
1.0
 40
1.0
 10
-3.2699983635
 20
262.8752171479
 30
0.0
 10
-5.4601887992
 20
262.3536869308
 30
0.0
 10
-9.8626525212
 20
260.6855504058
 30
0.0
 10
-14.8533717084
 20
257.4516891903
 30
0.0
 10
-18.5746760548
 20
254.2169192003
 30
0.0
 10
-22.0812607904
 20
250.5488470853
 30
0.0
 10
-24.3412190583
 20
247.4352519595
 30
0.0
 10
-25.6492354011
 20
245.2433129148
 30
0.0
  0
SPLINE
  5
398
100
AcDbEntity
  8
0
100
AcDbSpline
 62
7
  6
CONTINUOUS
 70
0
 71
3
 72
32
 73
28
 74
0
 42
0.0000001
 43
0.0000001
 44
0.0000000001
 40
0.0
 40
0.0
 40
0.0
 40
0.0
 40
0.2813922795
 40
0.3524301034
 40
0.4237448697
 40
0.4594004265
 40
0.494749744
 40
0.5120361185
 40
0.5286022214
 40
0.5434713071
 40
0.5549252361
 40
0.559338282
 40
0.5634026239
 40
0.5720267162
 40
0.5820645485
 40
0.5932349128
 40
0.6052126826
 40
0.6177763603
 40
0.6441253206
 40
0.6715919335
 40
0.699819639
 40
0.7286024356
 40
0.7578106757
 40
0.8171795327
 40
0.8774852162
 40
0.9384775217
 40
1.0
 40
1.0
 40
1.0
 40
1.0
 10
-22.5658277289
 20
223.677332641
 30
0.0
 10
-22.5756316251
 20
224.3235513613
 30
0.0
 10
-22.5962731595
 20
225.1331875201
 30
0.0
 10
-22.6629424701
 20
226.1041833614
 30
0.0
 10
-22.7026737004
 20
226.511245583
 30
0.0
 10
-22.7478204741
 20
226.8350081855
 30
0.0
 10
-22.7846164939
 20
227.0346305527
 30
0.0
 10
-22.8233819618
 20
227.188756264
 30
0.0
 10
-22.8582784128
 20
227.2954823067
 30
0.0
 10
-22.8995655052
 20
227.3844982019
 30
0.0
 10
-22.9459747884
 20
227.4418942603
 30
0.0
 10
-22.9899546108
 20
227.4585688353
 30
0.0
 10
-23.0302300825
 20
227.4558035297
 30
0.0
 10
-23.0756436606
 20
227.4255578994
 30
0.0
 10
-23.1195720455
 20
227.3729673465
 30
0.0
 10
-23.1600766455
 20
227.3081123272
 30
0.0
 10
-23.1974301026
 20
227.2350559722
 30
0.0
 10
-23.2448384217
 20
227.128164403
 30
0.0
 10
-23.2983953838
 20
226.9853143002
 30
0.0
 10
-23.3567058986
 20
226.8060978282
 30
0.0
 10
-23.4111436661
 20
226.6198426821
 30
0.0
 10
-23.4625610564
 20
226.4285987197
 30
0.0
 10
-23.5281990569
 20
226.1671542855
 30
0.0
 10
-23.6049246747
 20
225.8338921966
 30
0.0
 10
-23.6908297053
 20
225.4279179504
 30
0.0
 10
-23.7723153126
 20
225.0159942351
 30
0.0
 10
-23.824079261
 20
224.7394037943
 30
0.0
 10
-23.8494984769
 20
224.6004060239
 30
0.0
  0
SPLINE
  5
399
100
AcDbEntity
  8
0
100
AcDbSpline
 62
7
  6
CONTINUOUS
 70
0
 71
3
 72
15
 73
11
 74
0
 42
0.0000001
 43
0.0000001
 44
0.0000000001
 40
0.0
 40
0.0
 40
0.0
 40
0.0
 40
0.131370518
 40
0.2631466513
 40
0.3939444332
 40
0.5224724408
 40
0.6477019054
 40
0.7690073207
 40
0.8862811011
 40
1.0
 40
1.0
 40
1.0
 40
1.0
 10
10.6609559854
 20
224.3250820493
 30
0.0
 10
10.4874382357
 20
226.9464685343
 30
0.0
 10
10.5627137265
 20
232.2344129832
 30
0.0
 10
11.9116985413
 20
240.0273457718
 30
0.0
 10
14.4496438844
 20
247.4607982151
 30
0.0
 10
18.0911985065
 20
254.2738900204
 30
0.0
 10
22.7129945085
 20
260.2290530751
 30
0.0
 10
28.1604464858
 20
265.1154929121
 30
0.0
 10
34.244493627
 20
268.7545273946
 30
0.0
 10
38.6493187098
 20
270.2771652311
 30
0.0
 10
40.8672635167
 20
270.7795443404
 30
0.0
  0
LINE
  5
39A
100
AcDbEntity
  8
0
100
AcDbLine
 62
7
  6
CONTINUOUS
 10
2.7031363766
 20
195.2773471762
 11
1.7968220194
 21
227.0895475614
  0
SPLINE
  5
39B
100
AcDbEntity
  8
0
100
AcDbSpline
 62
7
  6
CONTINUOUS
 70
0
 71
3
 72
15
 73
11
 74
0
 42
0.0000001
 43
0.0000001
 44
0.0000000001
 40
0.0
 40
0.0
 40
0.0
 40
0.0
 40
0.1129766507
 40
0.2300270916
 40
0.351553528
 40
0.4772736124
 40
0.6063415022
 40
0.7374983465
 40
0.8692361238
 40
1.0
 40
1.0
 40
1.0
 40
1.0
 10
30.9726725219
 20
267.8702612426
 30
0.0
 10
28.9536492544
 20
267.5315811061
 30
0.0
 10
24.9099612788
 20
266.368619588
 30
0.0
 10
19.2556145623
 20
263.3456944465
 30
0.0
 10
14.1152799825
 20
259.141400853
 30
0.0
 10
9.6766747576
 20
253.9190483267
 30
0.0
 10
6.0956359694
 20
247.874578117
 30
0.0
 10
3.5000322524
 20
241.2300795787
 30
0.0
 10
1.9807708817
 20
234.2311526051
 30
0.0
 10
1.7220595628
 20
229.4569261796
 30
0.0
 10
1.7881448657
 20
227.0882963079
 30
0.0
  0
SPLINE
  5
39C
100
AcDbEntity
  8
0
100
AcDbSpline
 62
7
  6
CONTINUOUS
 70
0
 71
3
 72
9
 73
5
 74
0
 42
0.0000001
 43
0.0000001
 44
0.0000000001
 40
0.0
 40
0.0
 40
0.0
 40
0.0
 40
0.2556652708
 40
1.0
 40
1.0
 40
1.0
 40
1.0
 10
-29.6047580877
 20
236.3672271002
 30
0.0
 10
-29.7764225522
 20
235.8029800164
 30
0.0
 10
-30.3953002606
 20
233.58056378
 30
0.0
 10
-30.7993469732
 20
231.2966806307
 30
0.0
 10
-30.9582164482
 20
229.5869741667
 30
0.0
  0
SPLINE
  5
39D
100
AcDbEntity
  8
0
100
AcDbSpline
 62
7
  6
CONTINUOUS
 70
0
 71
3
 72
9
 73
5
 74
0
 42
0.0000001
 43
0.0000001
 44
0.0000000001
 40
0.0
 40
0.0
 40
0.0
 40
0.0
 40
0.2538607119
 40
1.0
 40
1.0
 40
1.0
 40
1.0
 10
-25.6492354011
 20
245.2433129148
 30
0.0
 10
-26.071113238
 20
244.5361789779
 30
0.0
 10
-27.6512561142
 20
241.7030601733
 30
0.0
 10
-28.9002368165
 20
238.6825804479
 30
0.0
 10
-29.6047580877
 20
236.3672271002
 30
0.0
  0
SPLINE
  5
39E
100
AcDbEntity
  8
0
100
AcDbSpline
 62
7
  6
CONTINUOUS
 70
0
 71
3
 72
8
 73
4
 74
0
 42
0.0000001
 43
0.0000001
 44
0.0000000001
 40
0.0
 40
0.0
 40
0.0
 40
0.0
 40
1.0
 40
1.0
 40
1.0
 40
1.0
 10
-18.1456429119
 20
210.9030034652
 30
0.0
 10
-17.8835451673
 20
213.0091136542
 30
0.0
 10
-17.6222102459
 20
215.1153189116
 30
0.0
 10
-17.3616316808
 20
217.2216176006
 30
0.0
  0
SPLINE
  5
39F
100
AcDbEntity
  8
0
100
AcDbSpline
 62
7
  6
CONTINUOUS
 70
0
 71
3
 72
8
 73
4
 74
0
 42
0.0000001
 43
0.0000001
 44
0.0000000001
 40
0.0
 40
0.0
 40
0.0
 40
0.0
 40
1.0
 40
1.0
 40
1.0
 40
1.0
 10
-17.3616316808
 20
217.2216176006
 30
0.0
 10
-19.0794043058
 20
218.5170232767
 30
0.0
 10
-20.7969807521
 20
219.8126892406
 30
0.0
 10
-22.5141721068
 20
221.1088653506
 30
0.0
  0
SPLINE
  5
3A0
100
AcDbEntity
  8
0
100
AcDbSpline
 62
7
  6
CONTINUOUS
 70
0
 71
3
 72
11
 73
7
 74
0
 42
0.0000001
 43
0.0000001
 44
0.0000000001
 40
0.0
 40
0.0
 40
0.0
 40
0.0
 40
0.2944292942
 40
0.5538437167
 40
0.7849215689
 40
1.0
 40
1.0
 40
1.0
 40
1.0
 10
-30.0590679674
 20
220.3701658996
 30
0.0
 10
-30.1287954168
 20
220.4226448507
 30
0.0
 10
-30.2538041126
 20
220.5302216744
 30
0.0
 10
-30.4014394919
 20
220.7120922812
 30
0.0
 10
-30.4930541107
 20
220.9026351336
 30
0.0
 10
-30.5142446815
 20
221.0355963967
 30
0.0
 10
-30.5142346217
 20
221.099346089
 30
0.0
  0
SPLINE
  5
3A1
100
AcDbEntity
  8
0
100
AcDbSpline
 62
7
  6
CONTINUOUS
 70
0
 71
3
 72
14
 73
10
 74
0
 42
0.0000001
 43
0.0000001
 44
0.0000000001
 40
0.0
 40
0.0
 40
0.0
 40
0.0
 40
0.097819767
 40
0.2105731542
 40
0.3354232957
 40
0.4687254316
 40
0.7433985011
 40
0.8761172534
 40
1.0
 40
1.0
 40
1.0
 40
1.0
 10
18.3032014151
 20
166.3277246976
 30
0.0
 10
18.6039961618
 20
166.1539912381
 30
0.0
 10
19.2876506304
 20
165.8423271064
 30
0.0
 10
20.4274210373
 20
165.4894869305
 30
0.0
 10
21.720563816
 20
165.2285140251
 30
0.0
 10
23.6020999065
 20
165.0153170764
 30
0.0
 10
25.5315534007
 20
165.0216662866
 30
0.0
 10
27.4058937132
 20
165.2482387849
 30
0.0
 10
28.2992527614
 20
165.4364206542
 30
0.0
 10
28.7241652815
 20
165.5503207849
 30
0.0
  0
SPLINE
  5
3A2
100
AcDbEntity
  8
0
100
AcDbSpline
 62
7
  6
CONTINUOUS
 70
0
 71
3
 72
13
 73
9
 74
0
 42
0.0000001
 43
0.0000001
 44
0.0000000001
 40
0.0
 40
0.0
 40
0.0
 40
0.0
 40
0.3343767527
 40
0.6101555838
 40
0.7252558297
 40
0.8263525407
 40
0.916327021
 40
1.0
 40
1.0
 40
1.0
 40
1.0
 10
90.7076384885
 20
182.1653306135
 30
0.0
 10
91.1736740696
 20
182.2902540062
 30
0.0
 10
92.0116980829
 20
182.5684079476
 30
0.0
 10
92.9438660819
 20
183.0656359303
 30
0.0
 10
93.4872377219
 20
183.5268855835
 30
0.0
 10
93.769190091
 20
183.8710682116
 30
0.0
 10
93.9444527634
 20
184.2315290979
 30
0.0
 10
93.9849723117
 20
184.4834996796
 30
0.0
 10
93.9849442651
 20
184.6042354573
 30
0.0
  0
SPLINE
  5
3A3
100
AcDbEntity
  8
0
100
AcDbSpline
 62
7
  6
CONTINUOUS
 70
0
 71
3
 72
11
 73
7
 74
0
 42
0.0000001
 43
0.0000001
 44
0.0000000001
 40
0.0
 40
0.0
 40
0.0
 40
0.0
 40
0.2032339246
 40
0.4288952144
 40
0.6924084714
 40
1.0
 40
1.0
 40
1.0
 40
1.0
 10
20.9251471122
 20
175.1223690535
 30
0.0
 10
20.9251258635
 20
175.0676924354
 30
0.0
 10
20.9485855572
 20
174.9514910774
 30
0.0
 10
21.0469990215
 20
174.7901918043
 30
0.0
 10
21.2022148408
 20
174.6400530238
 30
0.0
 10
21.3307166929
 20
174.5545406474
 30
0.0
 10
21.4023750754
 20
174.5131520965
 30
0.0
  0
SPLINE
  5
3A4
100
AcDbEntity
  8
0
100
AcDbSpline
 62
7
  6
CONTINUOUS
 70
0
 71
3
 72
11
 73
7
 74
0
 42
0.0000001
 43
0.0000001
 44
0.0000000001
 40
0.0
 40
0.0
 40
0.0
 40
0.0
 40
0.2032237194
 40
0.4289289409
 40
0.6925283262
 40
1.0
 40
1.0
 40
1.0
 40
1.0
 10
-38.1915074494
 20
209.2670376601
 30
0.0
 10
-38.1915394099
 20
209.2123638527
 30
0.0
 10
-38.1680267808
 20
209.096161924
 30
0.0
 10
-38.0696255285
 20
208.9348232434
 30
0.0
 10
-37.9143534575
 20
208.7847323779
 30
0.0
 10
-37.7858869461
 20
208.6991930129
 30
0.0
 10
-37.7142565643
 20
208.6578206347
 30
0.0
  0
SPLINE
  5
3A5
100
AcDbEntity
  8
0
100
AcDbSpline
 62
7
  6
CONTINUOUS
 70
0
 71
3
 72
11
 73
7
 74
0
 42
0.0000001
 43
0.0000001
 44
0.0000000001
 40
0.0
 40
0.0
 40
0.0
 40
0.0
 40
0.307716659
 40
0.5710984383
 40
0.7967334285
 40
1.0
 40
1.0
 40
1.0
 40
1.0
 10
92.6833692635
 20
193.6204133994
 30
0.0
 10
92.8788829777
 20
193.5074883091
 30
0.0
 10
93.2294354226
 20
193.2743803987
 30
0.0
 10
93.6525571729
 20
192.8647580559
 30
0.0
 10
93.9210244576
 20
192.4249787144
 30
0.0
 10
93.9849096193
 20
192.1080560985
 30
0.0
 10
93.9849442651
 20
191.9589123648
 30
0.0
  0
SPLINE
  5
3A6
100
AcDbEntity
  8
0
100
AcDbSpline
 62
7
  6
CONTINUOUS
 70
0
 71
3
 72
11
 73
7
 74
0
 42
0.0000001
 43
0.0000001
 44
0.0000000001
 40
0.0
 40
0.0
 40
0.0
 40
0.0
 40
0.2032665715
 40
0.4289015617
 40
0.692283341
 40
1.0
 40
1.0
 40
1.0
 40
1.0
 10
-42.1150052263
 20
202.1338942704
 30
0.0
 10
-42.1149705805
 20
201.9847505367
 30
0.0
 10
-42.0510854188
 20
201.6678279208
 30
0.0
 10
-41.7826181341
 20
201.2280485793
 30
0.0
 10
-41.3594963838
 20
200.8184262365
 30
0.0
 10
-41.0089439389
 20
200.5853183261
 30
0.0
 10
-40.8134302247
 20
200.4723932358
 30
0.0
  0
SPLINE
  5
3A7
100
AcDbEntity
  8
0
100
AcDbSpline
 62
7
  6
CONTINUOUS
 70
0
 71
3
 72
13
 73
9
 74
0
 42
0.0000001
 43
0.0000001
 44
0.0000000001
 40
0.0
 40
0.0
 40
0.0
 40
0.0
 40
0.083672979
 40
0.1736474593
 40
0.2747441703
 40
0.3898444162
 40
0.6656232473
 40
1.0
 40
1.0
 40
1.0
 40
1.0
 10
-42.1150052263
 20
209.4885711779
 30
0.0
 10
-42.1150332729
 20
209.6093069556
 30
0.0
 10
-42.0745137246
 20
209.8612775373
 30
0.0
 10
-41.8992510522
 20
210.2217384236
 30
0.0
 10
-41.6172986831
 20
210.5659210517
 30
0.0
 10
-41.0739270431
 20
211.0271707049
 30
0.0
 10
-40.1417590441
 20
211.5243986876
 30
0.0
 10
-39.3037350308
 20
211.802552629
 30
0.0
 10
-38.8376994497
 20
211.9274760217
 30
0.0
  0
SPLINE
  5
3A8
100
AcDbEntity
  8
0
100
AcDbSpline
 62
7
  6
CONTINUOUS
 70
0
 71
3
 72
13
 73
9
 74
0
 42
0.0000001
 43
0.0000001
 44
0.0000000001
 40
0.0
 40
0.0
 40
0.0
 40
0.0
 40
0.1045925577
 40
0.2283523974
 40
0.5089709511
 40
0.784560557
 40
0.9025033666
 40
1.0
 40
1.0
 40
1.0
 40
1.0
 10
-35.1806866369
 20
207.1944776973
 30
0.0
 10
-35.0350191401
 20
207.1103428564
 30
0.0
 10
-34.6941980892
 20
206.9663863905
 30
0.0
 10
-33.8992988752
 20
206.7637725326
 30
0.0
 10
-32.8008151446
 20
206.6821847226
 30
0.0
 10
-31.7135941037
 20
206.7966134842
 30
0.0
 10
-30.9559097976
 20
207.0258197671
 30
0.0
 10
-30.6426202784
 20
207.1816528046
 30
0.0
 10
-30.5139396431
 20
207.2712608608
 30
0.0
  0
SPLINE
  5
3A9
100
AcDbEntity
  8
0
100
AcDbSpline
 62
7
  6
CONTINUOUS
 70
0
 71
3
 72
9
 73
5
 74
0
 42
0.0000001
 43
0.0000001
 44
0.0000000001
 40
0.0
 40
0.0
 40
0.0
 40
0.0
 40
0.5192078114
 40
1.0
 40
1.0
 40
1.0
 40
1.0
 10
83.5801226587
 20
190.101513714
 30
0.0
 10
83.8527313386
 20
190.1010171424
 30
0.0
 10
84.3782318411
 20
190.1303147258
 30
0.0
 10
84.8969216484
 20
190.2239199412
 30
0.0
 10
85.1407525932
 20
190.2892801628
 30
0.0
  0
SPLINE
  5
3AA
100
AcDbEntity
  8
0
100
AcDbSpline
 62
7
  6
CONTINUOUS
 70
0
 71
3
 72
12
 73
8
 74
0
 42
0.0000001
 43
0.0000001
 44
0.0000000001
 40
0.0
 40
0.0
 40
0.0
 40
0.0
 40
0.3349279859
 40
0.6112472304
 40
0.7265199304
 40
0.8278001376
 40
1.0
 40
1.0
 40
1.0
 40
1.0
 10
88.8597609856
 20
191.2861807525
 30
0.0
 10
89.0306199408
 20
191.3319804322
 30
0.0
 10
89.3378786347
 20
191.4340998996
 30
0.0
 10
89.6797254974
 20
191.6160370948
 30
0.0
 10
89.8789032526
 20
191.7857221124
 30
0.0
 10
90.0100489675
 20
191.9441188492
 30
0.0
 10
90.0613882223
 20
192.089499273
 30
0.0
 10
90.0614235664
 20
192.1804459509
 30
0.0
  0
SPLINE
  5
3AB
100
AcDbEntity
  8
0
100
AcDbSpline
 62
7
  6
CONTINUOUS
 70
0
 71
3
 72
12
 73
8
 74
0
 42
0.0000001
 43
0.0000001
 44
0.0000000001
 40
0.0
 40
0.0
 40
0.0
 40
0.0
 40
0.0978508246
 40
0.2106902249
 40
0.4687113837
 40
0.7435104759
 40
1.0
 40
1.0
 40
1.0
 40
1.0
 10
21.4023750754
 20
174.5131520965
 30
0.0
 10
21.5126459115
 20
174.4494617095
 30
0.0
 10
21.7633397913
 20
174.3351686295
 30
0.0
 10
22.3470494574
 20
174.1547155726
 30
0.0
 10
23.1834013258
 20
174.0317404202
 30
0.0
 10
24.2133088237
 20
174.0350115929
 30
0.0
 10
24.9009833895
 20
174.1416797524
 30
0.0
 10
25.2233951598
 20
174.2281039951
 30
0.0
  0
SPLINE
  5
3AC
100
AcDbEntity
  8
0
100
AcDbSpline
 62
7
  6
CONTINUOUS
 70
0
 71
3
 72
12
 73
8
 74
0
 42
0.0000001
 43
0.0000001
 44
0.0000000001
 40
0.0
 40
0.0
 40
0.0
 40
0.0
 40
0.3349279859
 40
0.6112472304
 40
0.7265199304
 40
0.8278001376
 40
1.0
 40
1.0
 40
1.0
 40
1.0
 10
28.9424035522
 20
175.2250045849
 30
0.0
 10
29.1132625073
 20
175.2708042646
 30
0.0
 10
29.4205212013
 20
175.3729237319
 30
0.0
 10
29.762368064
 20
175.5548609271
 30
0.0
 10
29.9615458191
 20
175.7245459447
 30
0.0
 10
30.092691534
 20
175.8829426815
 30
0.0
 10
30.1440307889
 20
176.0283231053
 30
0.0
 10
30.1440661329
 20
176.1192697832
 30
0.0
  0
SPLINE
  5
3AD
100
AcDbEntity
  8
0
100
AcDbSpline
 62
7
  6
CONTINUOUS
 70
0
 71
3
 72
9
 73
5
 74
0
 42
0.0000001
 43
0.0000001
 44
0.0000000001
 40
0.0
 40
0.0
 40
0.0
 40
0.0
 40
0.2418939745
 40
1.0
 40
1.0
 40
1.0
 40
1.0
 10
-30.5028056373
 20
208.3282596917
 30
0.0
 10
-30.5131387491
 20
208.3356011338
 30
0.0
 10
-30.5562477091
 20
208.3653984541
 30
0.0
 10
-30.600831858
 20
208.3930429058
 30
0.0
 10
-30.635231935
 20
208.4129117514
 30
0.0
  0
SPLINE
  5
3AE
100
AcDbEntity
  8
0
100
AcDbSpline
 62
7
  6
CONTINUOUS
 70
0
 71
3
 72
11
 73
7
 74
0
 42
0.0000001
 43
0.0000001
 44
0.0000000001
 40
0.0
 40
0.0
 40
0.0
 40
0.0
 40
0.2032339246
 40
0.4288952144
 40
0.6924084714
 40
1.0
 40
1.0
 40
1.0
 40
1.0
 10
90.0614235664
 20
192.1804459509
 30
0.0
 10
90.061444815
 20
192.2351225691
 30
0.0
 10
90.0379851213
 20
192.351323927
 30
0.0
 10
89.9395716571
 20
192.5126232002
 30
0.0
 10
89.7843558377
 20
192.6627619807
 30
0.0
 10
89.6558539856
 20
192.7482743571
 30
0.0
 10
89.5841956031
 20
192.789662908
 30
0.0
  0
SPLINE
  5
3AF
100
AcDbEntity
  8
0
100
AcDbSpline
 62
7
  6
CONTINUOUS
 70
0
 71
3
 72
11
 73
7
 74
0
 42
0.0000001
 43
0.0000001
 44
0.0000000001
 40
0.0
 40
0.0
 40
0.0
 40
0.0
 40
0.2150851097
 40
0.4461663188
 40
0.7055799391
 40
1.0
 40
1.0
 40
1.0
 40
1.0
 10
-30.5243722689
 20
205.4679402172
 30
0.0
 10
-30.524382524
 20
205.4041994433
 30
0.0
 10
-30.503199248
 20
205.2712578838
 30
0.0
 10
-30.4116094589
 20
205.0807402318
 30
0.0
 10
-30.2640107433
 20
204.8988941906
 30
0.0
 10
-30.1390347538
 20
204.7913277031
 30
0.0
 10
-30.0693264144
 20
204.7388527197
 30
0.0
  0
SPLINE
  5
3B0
100
AcDbEntity
  8
0
100
AcDbSpline
 62
7
  6
CONTINUOUS
 70
0
 71
3
 72
13
 73
9
 74
0
 42
0.0000001
 43
0.0000001
 44
0.0000000001
 40
0.0
 40
0.0
 40
0.0
 40
0.0
 40
0.083672979
 40
0.1736474593
 40
0.2747441703
 40
0.3898444162
 40
0.6656232473
 40
1.0
 40
1.0
 40
1.0
 40
1.0
 10
93.9849442651
 20
191.9589123648
 30
0.0
 10
93.9849723117
 20
191.838176587
 30
0.0
 10
93.9444527634
 20
191.5862060054
 30
0.0
 10
93.769190091
 20
191.225745119
 30
0.0
 10
93.4872377219
 20
190.881562491
 30
0.0
 10
92.9438660819
 20
190.4203128378
 30
0.0
 10
92.0116980829
 20
189.9230848551
 30
0.0
 10
91.1736740696
 20
189.6449309136
 30
0.0
 10
90.7076384885
 20
189.520007521
 30
0.0
  0
SPLINE
  5
3B1
100
AcDbEntity
  8
0
100
AcDbSpline
 62
7
  6
CONTINUOUS
 70
0
 71
3
 72
14
 73
10
 74
0
 42
0.0000001
 43
0.0000001
 44
0.0000000001
 40
0.0
 40
0.0
 40
0.0
 40
0.0
 40
0.1238827466
 40
0.2566014989
 40
0.5312745684
 40
0.6645767043
 40
0.7894268458
 40
0.902180233
 40
1.0
 40
1.0
 40
1.0
 40
1.0
 10
28.7241652815
 20
172.9049976923
 30
0.0
 10
28.2992527614
 20
172.7910975617
 30
0.0
 10
27.4058937132
 20
172.6029156924
 30
0.0
 10
25.5315534007
 20
172.376343194
 30
0.0
 10
23.6020999065
 20
172.3699939838
 30
0.0
 10
21.720563816
 20
172.5831909325
 30
0.0
 10
20.4274210373
 20
172.844163838
 30
0.0
 10
19.2876506304
 20
173.1970040139
 30
0.0
 10
18.6039961618
 20
173.5086681456
 30
0.0
 10
18.3032014151
 20
173.682401605
 30
0.0
  0
SPLINE
  5
3B2
100
AcDbEntity
  8
0
100
AcDbSpline
 62
7
  6
CONTINUOUS
 70
0
 71
3
 72
11
 73
7
 74
0
 42
0.0000001
 43
0.0000001
 44
0.0000000001
 40
0.0
 40
0.0
 40
0.0
 40
0.0
 40
0.307716659
 40
0.5710984383
 40
0.7967334285
 40
1.0
 40
1.0
 40
1.0
 40
1.0
 10
-40.8134302247
 20
207.8270701432
 30
0.0
 10
-41.0089439389
 20
207.9399952335
 30
0.0
 10
-41.3594963838
 20
208.1731031439
 30
0.0
 10
-41.7826181341
 20
208.5827254867
 30
0.0
 10
-42.0510854188
 20
209.0225048282
 30
0.0
 10
-42.1149705805
 20
209.3394274442
 30
0.0
 10
-42.1150052263
 20
209.4885711779
 30
0.0
  0
SPLINE
  5
3B3
100
AcDbEntity
  8
0
100
AcDbSpline
 62
7
  6
CONTINUOUS
 70
0
 71
3
 72
17
 73
13
 74
0
 42
0.0000001
 43
0.0000001
 44
0.0000000001
 40
0.0
 40
0.0
 40
0.0
 40
0.0
 40
0.1179824722
 40
0.260576598
 40
0.4170373008
 40
0.5742978923
 40
0.719183279
 40
0.8405142201
 40
0.8902234175
 40
0.9324220067
 40
0.9681667655
 40
1.0
 40
1.0
 40
1.0
 40
1.0
 10
-33.1688018625
 20
209.8762546888
 30
0.0
 10
-33.3557811511
 20
209.9842504534
 30
0.0
 10
-33.805372286
 20
210.1578534202
 30
0.0
 10
-34.5552434136
 20
210.3096002852
 30
0.0
 10
-35.3908147496
 20
210.3662756617
 30
0.0
 10
-36.2312166103
 20
210.3216174861
 30
0.0
 10
-36.9952085381
 20
210.1802614208
 30
0.0
 10
-37.5443427059
 20
209.9834436742
 30
0.0
 10
-37.8781403514
 20
209.7783463489
 30
0.0
 10
-38.0528755743
 20
209.6205859983
 30
0.0
 10
-38.1644656697
 20
209.4498620905
 30
0.0
 10
-38.1914733925
 20
209.3252975352
 30
0.0
 10
-38.1915074494
 20
209.2670376601
 30
0.0
  0
SPLINE
  5
3B4
100
AcDbEntity
  8
0
100
AcDbSpline
 62
7
  6
CONTINUOUS
 70
0
 71
3
 72
12
 73
8
 74
0
 42
0.0000001
 43
0.0000001
 44
0.0000000001
 40
0.0
 40
0.0
 40
0.0
 40
0.0
 40
0.0978508246
 40
0.2106902249
 40
0.4687113837
 40
0.7435104759
 40
1.0
 40
1.0
 40
1.0
 40
1.0
 10
89.5841956031
 20
192.789662908
 30
0.0
 10
89.4739247671
 20
192.853353295
 30
0.0
 10
89.2232308872
 20
192.9676463749
 30
0.0
 10
88.6395212211
 20
193.1480994318
 30
0.0
 10
87.8031693527
 20
193.2710745842
 30
0.0
 10
86.7732618548
 20
193.2678034115
 30
0.0
 10
86.085587289
 20
193.161135252
 30
0.0
 10
85.7631755188
 20
193.0747110093
 30
0.0
  0
SPLINE
  5
3B5
100
AcDbEntity
  8
0
100
AcDbSpline
 62
7
  6
CONTINUOUS
 70
0
 71
3
 72
12
 73
8
 74
0
 42
0.0000001
 43
0.0000001
 44
0.0000000001
 40
0.0
 40
0.0
 40
0.0
 40
0.0
 40
0.0978508246
 40
0.2106902249
 40
0.4687113837
 40
0.7435104759
 40
1.0
 40
1.0
 40
1.0
 40
1.0
 10
29.6668381697
 20
176.7284867403
 30
0.0
 10
29.5565673336
 20
176.7921771273
 30
0.0
 10
29.3058734537
 20
176.9064702072
 30
0.0
 10
28.7221637877
 20
177.0869232641
 30
0.0
 10
27.8858119193
 20
177.2098984166
 30
0.0
 10
26.8559044214
 20
177.2066272438
 30
0.0
 10
26.1682298555
 20
177.0999590843
 30
0.0
 10
25.8458180853
 20
177.0135348416
 30
0.0
  0
SPLINE
  5
3B6
100
AcDbEntity
  8
0
100
AcDbSpline
 62
7
  6
CONTINUOUS
 70
0
 71
3
 72
12
 73
8
 74
0
 42
0.0000001
 43
0.0000001
 44
0.0000000001
 40
0.0
 40
0.0
 40
0.0
 40
0.0
 40
0.3349279859
 40
0.6112472304
 40
0.7265199304
 40
0.8278001376
 40
1.0
 40
1.0
 40
1.0
 40
1.0
 10
22.1268096929
 20
176.0166342519
 30
0.0
 10
21.9559507377
 20
175.9708345722
 30
0.0
 10
21.6486920438
 20
175.8687151048
 30
0.0
 10
21.3068451811
 20
175.6867779096
 30
0.0
 10
21.107667426
 20
175.517092892
 30
0.0
 10
20.9765217111
 20
175.3586961552
 30
0.0
 10
20.9251824562
 20
175.2133157315
 30
0.0
 10
20.9251471122
 20
175.1223690535
 30
0.0
  0
SPLINE
  5
3B7
100
AcDbEntity
  8
0
100
AcDbSpline
 62
7
  6
CONTINUOUS
 70
0
 71
3
 72
11
 73
7
 74
0
 42
0.0000001
 43
0.0000001
 44
0.0000000001
 40
0.0
 40
0.0
 40
0.0
 40
0.0
 40
0.2944201063
 40
0.553833685
 40
0.7849148677
 40
1.0
 40
1.0
 40
1.0
 40
1.0
 10
-30.0693264144
 20
213.932198854
 30
0.0
 10
-30.1390347651
 20
213.9846738459
 30
0.0
 10
-30.264010772
 20
214.0922403169
 30
0.0
 10
-30.4116094774
 20
214.2740863659
 30
0.0
 10
-30.5031992385
 20
214.4646040117
 30
0.0
 10
-30.5243825388
 20
214.5975455703
 30
0.0
 10
-30.5243722701
 20
214.6612863515
 30
0.0
  0
SPLINE
  5
3B8
100
AcDbEntity
  8
0
100
AcDbSpline
 62
7
  6
CONTINUOUS
 70
0
 71
3
 72
11
 73
7
 74
0
 42
0.0000001
 43
0.0000001
 44
0.0000000001
 40
0.0
 40
0.0
 40
0.0
 40
0.0
 40
0.2032339246
 40
0.4288952144
 40
0.6924084714
 40
1.0
 40
1.0
 40
1.0
 40
1.0
 10
30.1440661329
 20
176.1192697832
 30
0.0
 10
30.1440873815
 20
176.1739464014
 30
0.0
 10
30.1206276879
 20
176.2901477593
 30
0.0
 10
30.0222142236
 20
176.4514470325
 30
0.0
 10
29.8669984043
 20
176.601585813
 30
0.0
 10
29.7384965522
 20
176.6870981894
 30
0.0
 10
29.6668381697
 20
176.7284867403
 30
0.0
  0
ENDSEC
  0
SECTION
  2
OBJECTS
  0
DICTIONARY
  5
C
100
AcDbDictionary
280
0
281
1
  3
ACAD_GROUP
350
D
  3
ACAD_MLINESTYLE
350
17
  3
ACAD_LAYOUT
350
1A
  3
ACAD_PLOTSETTINGS
350
19
  3
ACAD_PLOTSTYLENAME
350
E
  0
DICTIONARY
  5
D
102
{ACAD_REACTORS
330
C
102
}
100
AcDbDictionary
280
0
281
1
  0
ACDBDICTIONARYWDFLT
  5
E
102
{ACAD_REACTORS
330
C
102
}
100
AcDbDictionary
281
1
  3
Normal
350
F
100
AcDbDictionaryWithDefault
340
F
  0
DICTIONARY
  5
17
102
{ACAD_REACTORS
330
C
102
}
100
AcDbDictionary
280
0
281
1
  3
Standard
350
18
  0
DICTIONARY
  5
19
102
{ACAD_REACTORS
330
C
102
}
100
AcDbDictionary
281
1
  0
DICTIONARY
  5
1A
102
{ACAD_REACTORS
330
C
102
}
100
AcDbDictionary
281
1
  3
Model
350
3B9
  3
Layout1
350
3BA
  0
ACDBPLACEHOLDER
  5
F
102
{ACAD_REACTORS
330
E
102
}
  0
MLINESTYLE
  5
18
102
{ACAD_REACTORS
330
17
102
}
100
AcDbMlineStyle
  2
STANDARD
 70
0
  3

 62
256
 51
90.0
 52
90.0
 71
2
 49
0.5
 62
256
  6
BYLAYER
 49
-0.5
 62
256
  6
BYLAYER
  0
LAYOUT
  5
3B9
102
{ACAD_REACTORS
330
1A
102
}
100
AcDbPlotSettings
  1

  2
none_device
  4
ANSI_C_(22.00_x_17.00_Inches)
  6

 40
0.0
 41
0.0
 42
0.0
 43
0.0
 44
558.8
 45
431.8
 46
0.0
 47
0.0
 48
0.0
 49
0.0
140
0.0
141
0.0
142
1.0
143
1.0
 70
1024
 72
1
 73
0
 74
0
  7

 75
0
147
1.0
148
0.0
149
0.0
100
AcDbLayout
  1
Model
 70
0
 71
0
 10
0.0
 20
0.0
 11
558.8
 21
431.8
 12
0.0
 22
0.0
 32
0.0
 14
0.0
 24
0.0
 34
0.0
 15
0.0
 25
0.0
 35
0.0
146
0.0
 13
0.0
 23
0.0
 33
0.0
 16
1.0
 26
0.0
 36
0.0
 17
0.0
 27
1.0
 37
0.0
 76
0
330
216
345
0
346
0
  0
LAYOUT
  5
3BA
102
{ACAD_REACTORS
330
1A
102
}
100
AcDbPlotSettings
  1

  2
none_device
  4
ANSI_C_(22.00_x_17.00_Inches)
  6

 40
0.0
 41
0.0
 42
0.0
 43
0.0
 44
558.8
 45
431.8
 46
0.0
 47
0.0
 48
0.0
 49
0.0
140
0.0
141
0.0
142
1.0
143
1.0
 70
0
 72
1
 73
0
 74
0
  7

 75
0
147
1.0
148
0.0
149
0.0
100
AcDbLayout
  1
Layout1
 70
0
 71
1
 10
0.0
 20
0.0
 11
558.8
 21
431.8
 12
0.0
 22
0.0
 32
0.0
 14
0.0
 24
0.0
 34
0.0
 15
0.0
 25
0.0
 35
0.0
146
0.0
 13
0.0
 23
0.0
 33
0.0
 16
1.0
 26
0.0
 36
0.0
 17
0.0
 27
1.0
 37
0.0
 76
0
330
217
345
0
346
0
  0
ENDSEC
  0
EOF
