999
DXF file: Y:\3D PRATIKA-KAEDRA_OLGA\TRAVAIL_PHASE_6\CAD3D\PKF32W723_3D-Simplified\PKF32W723_2D-isometric.dxf
999
Pro/ENGINEER 2018260 by Parametric Technology Corporation
  0
SECTION
  2
HEADER
  9
$ACADVER
  1
AC1027
  9
$DWGCODEPAGE
  3
ANSI_1252
  9
$EXTMAX
 10
558.8
 20
431.8
 30
0.0
  9
$EXTMIN
 10
0.0
 20
0.0
 30
0.0
  9
$LIMMIN
 10
0.0
 20
0.0
  9
$LIMMAX
 10
558.8
 20
431.8
  9
$VIEWCTR
 10
279.4
 20
215.9
  9
$VIEWSIZE
 40
431.8
  9
$CLAYER
  8
0
  9
$LTSCALE
 40
30.734
  9
$CELTYPE
  6
BYLAYER
  9
$DIMSCALE
 40
1.0
  9
$DIMASZ
 40
0.1875
  9
$DIMEXO
 40
0.0625
  9
$DIMDLI
 40
21.2344
  9
$DIMEXE
 40
0.125
  9
$DIMCEN
 40
5.0292
  9
$DIMLFAC
 40
1.0
  9
$DIMBLK
  1
_CLOSED
  9
$DIMALT
 70
0
  9
$DIMALTF
 40
0.0393700787
  9
$DIMTXT
 40
0.15625
  9
$DIMTOL
 70
0
  9
$DIMLIM
 70
0
  9
$DIMTFAC
 40
1.0
  9
$DIMGAP
 40
0.625
  9
$DIMDSEP
 70
46
  9
$AUNITS
 70
0
  9
$PDMODE
 70
3
  9
$PDSIZE
 40
0.3125
  9
$HANDSEED
  5
4CD
  9
$TILEMODE
 70
1
  9
$MEASUREMENT
 70
1
  9
$INSUNITS
 70
4
  0
ENDSEC
  0
SECTION
  2
CLASSES
  0
CLASS
  1
ACDBDICTIONARYWDFLT
  2
AcDbDictionaryWithDefault
  3
AutoCAD 2000
 90
0
 91
1
280
0
281
0
  0
CLASS
  1
ACDBPLACEHOLDER
  2
AcDbPlaceHolder
  3
AutoCAD 2000
 90
0
 91
1
280
0
281
0
  0
CLASS
  1
LAYOUT
  2
AcDbLayout
  3
AutoCAD 2000
 90
0
 91
0
280
0
281
0
  0
ENDSEC
  0
SECTION
  2
TABLES
  0
TABLE
  2
VPORT
  5
8
100
AcDbSymbolTable
 70
2
  0
VPORT
  5
1F4
100
AcDbSymbolTableRecord
100
AcDbViewportTableRecord
  2
*ACTIVE
 70
0
 10
0.0
 20
0.0
 11
1.0
 21
1.0
 12
279.4
 22
215.9
 13
0.0
 23
0.0
 14
1.0
 24
1.0
 15
0.0
 25
0.0
 16
0.0
 26
0.0
 36
1.0
 17
0.0
 27
0.0
 37
0.0
 40
431.8
 41
1.2941176471
 42
50.0
 43
0.0
 44
0.0
 50
0.0
 51
0.0
 71
0
 72
100
 73
1
 74
1
 75
0
 76
0
 77
0
 78
0
  0
ENDTAB
  0
TABLE
  2
LTYPE
  5
5
100
AcDbSymbolTable
 70
6
  0
LTYPE
  5
14
100
AcDbSymbolTableRecord
100
AcDbLinetypeTableRecord
  2
BYBLOCK
 70
0
  3

 72
65
 73
0
 40
0.0
  0
LTYPE
  5
15
100
AcDbSymbolTableRecord
100
AcDbLinetypeTableRecord
  2
BYLAYER
 70
0
  3

 72
65
 73
0
 40
0.0
  0
LTYPE
  5
16
100
AcDbSymbolTableRecord
100
AcDbLinetypeTableRecord
  2
CONTINUOUS
 70
64
  3
Solid line
 72
65
 73
0
 40
0.0
  0
LTYPE
  5
1F5
100
AcDbSymbolTableRecord
100
AcDbLinetypeTableRecord
  2
CENTER
 70
64
  3
____ _ ____ _ ____ _ ____ _ ____ _ ____ _ ____
 72
65
 73
4
 40
0.6
 49
0.375
 74
0
 49
-0.075
 74
0
 49
0.075
 74
0
 49
-0.075
 74
0
  0
LTYPE
  5
1F6
100
AcDbSymbolTableRecord
100
AcDbLinetypeTableRecord
  2
HIDDEN
 70
64
  3
- - - - - - - - - - - - - - - - - - - -
 72
65
 73
2
 40
0.2
 49
0.1
 74
0
 49
-0.1
 74
0
  0
LTYPE
  5
1F7
100
AcDbSymbolTableRecord
100
AcDbLinetypeTableRecord
  2
PHANTOM
 70
64
  3
_____ _ _ _____ _ _ _____ _ _ _____
 72
65
 73
6
 40
0.8
 49
0.45
 74
0
 49
-0.05
 74
0
 49
0.1
 74
0
 49
-0.05
 74
0
 49
0.1
 74
0
 49
-0.05
 74
0
  0
LTYPE
  5
1F8
100
AcDbSymbolTableRecord
100
AcDbLinetypeTableRecord
  2
DOT
 70
64
  3
. . . . . . . . . . . . . . . . . . . .
 72
65
 73
2
 40
0.2
 49
0.1
 74
0
 49
-0.1
 74
0
  0
LTYPE
  5
1F9
100
AcDbSymbolTableRecord
100
AcDbLinetypeTableRecord
  2
DASHED
 70
64
  3
- - - - - - - - - - - - - - - - - - - -
 72
65
 73
2
 40
0.2
 49
0.1
 74
0
 49
-0.1
 74
0
  0
ENDTAB
  0
TABLE
  2
LAYER
  5
2
100
AcDbSymbolTable
 70
36
  0
LAYER
  5
10
100
AcDbSymbolTableRecord
100
AcDbLayerTableRecord
  2
0
 70
0
 62
7
  6
CONTINUOUS
370
-3
390
F
  0
LAYER
  5
1FA
100
AcDbSymbolTableRecord
100
AcDbLayerTableRecord
  2
DEFAULT_1
 70
0
 62
7
  6
CENTER
370
-3
390
F
  0
LAYER
  5
1FB
100
AcDbSymbolTableRecord
100
AcDbLayerTableRecord
  2
DEFAULT_2
 70
0
 62
8
  6
HIDDEN
370
-3
390
F
  0
LAYER
  5
1FC
100
AcDbSymbolTableRecord
100
AcDbLayerTableRecord
  2
DEFAULT_3
 70
0
 62
7
  6
PHANTOM
370
-3
390
F
  0
LAYER
  5
1FD
100
AcDbSymbolTableRecord
100
AcDbLayerTableRecord
  2
01_ALL_DTM_PLN
 70
0
 62
7
  6
CONTINUOUS
370
-3
390
F
  0
LAYER
  5
1FE
100
AcDbSymbolTableRecord
100
AcDbLayerTableRecord
  2
01__ASM_ALL_DTM_PLN
 70
0
 62
7
  6
CONTINUOUS
370
-3
390
F
  0
LAYER
  5
1FF
100
AcDbSymbolTableRecord
100
AcDbLayerTableRecord
  2
01__ASM_DEF_DTM_PLN
 70
0
 62
7
  6
CONTINUOUS
370
-3
390
F
  0
LAYER
  5
200
100
AcDbSymbolTableRecord
100
AcDbLayerTableRecord
  2
01___PRT_ALL_DTM_PLN
 70
0
 62
7
  6
CONTINUOUS
370
-3
390
F
  0
LAYER
  5
201
100
AcDbSymbolTableRecord
100
AcDbLayerTableRecord
  2
01___PRT_DEF_DTM_PLN
 70
0
 62
7
  6
CONTINUOUS
370
-3
390
F
  0
LAYER
  5
202
100
AcDbSymbolTableRecord
100
AcDbLayerTableRecord
  2
02_ALL_AXES
 70
0
 62
7
  6
CONTINUOUS
370
-3
390
F
  0
LAYER
  5
203
100
AcDbSymbolTableRecord
100
AcDbLayerTableRecord
  2
02__ASM_ALL_AXES
 70
0
 62
7
  6
CONTINUOUS
370
-3
390
F
  0
LAYER
  5
204
100
AcDbSymbolTableRecord
100
AcDbLayerTableRecord
  2
02___PRT_ALL_AXES
 70
0
 62
7
  6
CONTINUOUS
370
-3
390
F
  0
LAYER
  5
205
100
AcDbSymbolTableRecord
100
AcDbLayerTableRecord
  2
03_ALL_CURVES
 70
0
 62
7
  6
CONTINUOUS
370
-3
390
F
  0
LAYER
  5
206
100
AcDbSymbolTableRecord
100
AcDbLayerTableRecord
  2
03__ASM_ALL_CURVES
 70
0
 62
7
  6
CONTINUOUS
370
-3
390
F
  0
LAYER
  5
207
100
AcDbSymbolTableRecord
100
AcDbLayerTableRecord
  2
03___PRT_ALL_CURVES
 70
0
 62
7
  6
CONTINUOUS
370
-3
390
F
  0
LAYER
  5
208
100
AcDbSymbolTableRecord
100
AcDbLayerTableRecord
  2
04_ALL_DTM_PNT
 70
0
 62
7
  6
CONTINUOUS
370
-3
390
F
  0
LAYER
  5
209
100
AcDbSymbolTableRecord
100
AcDbLayerTableRecord
  2
04__ASM_ALL_DTM_PNT
 70
0
 62
7
  6
CONTINUOUS
370
-3
390
F
  0
LAYER
  5
20A
100
AcDbSymbolTableRecord
100
AcDbLayerTableRecord
  2
04___PRT_ALL_DTM_PNT
 70
0
 62
7
  6
CONTINUOUS
370
-3
390
F
  0
LAYER
  5
20B
100
AcDbSymbolTableRecord
100
AcDbLayerTableRecord
  2
05_ALL_DTM_CSYS
 70
0
 62
7
  6
CONTINUOUS
370
-3
390
F
  0
LAYER
  5
20C
100
AcDbSymbolTableRecord
100
AcDbLayerTableRecord
  2
05__ASM_ALL_DTM_CSYS
 70
0
 62
7
  6
CONTINUOUS
370
-3
390
F
  0
LAYER
  5
20D
100
AcDbSymbolTableRecord
100
AcDbLayerTableRecord
  2
05__ASM_DEF_DTM_CSYS
 70
0
 62
7
  6
CONTINUOUS
370
-3
390
F
  0
LAYER
  5
20E
100
AcDbSymbolTableRecord
100
AcDbLayerTableRecord
  2
05___PRT_ALL_DTM_CSYS
 70
0
 62
7
  6
CONTINUOUS
370
-3
390
F
  0
LAYER
  5
20F
100
AcDbSymbolTableRecord
100
AcDbLayerTableRecord
  2
05___PRT_DEF_DTM_CSYS
 70
0
 62
7
  6
CONTINUOUS
370
-3
390
F
  0
LAYER
  5
210
100
AcDbSymbolTableRecord
100
AcDbLayerTableRecord
  2
06_ALL_SURFS
 70
0
 62
7
  6
CONTINUOUS
370
-3
390
F
  0
LAYER
  5
211
100
AcDbSymbolTableRecord
100
AcDbLayerTableRecord
  2
06__ASM_ALL_SURFS
 70
0
 62
7
  6
CONTINUOUS
370
-3
390
F
  0
LAYER
  5
212
100
AcDbSymbolTableRecord
100
AcDbLayerTableRecord
  2
06___PRT_ALL_SURFS
 70
0
 62
7
  6
CONTINUOUS
370
-3
390
F
  0
LAYER
  5
213
100
AcDbSymbolTableRecord
100
AcDbLayerTableRecord
  2
07__ASM_ALL_SKELETONS
 70
0
 62
7
  6
CONTINUOUS
370
-3
390
F
  0
ENDTAB
  0
TABLE
  2
STYLE
  5
3
100
AcDbSymbolTable
 70
1
  0
STYLE
  5
11
100
AcDbSymbolTableRecord
100
AcDbTextStyleTableRecord
  2
STANDARD
 70
0
 40
0.0
 41
0.8
 50
0.0
 71
0
 42
0.2
  3
txt
  4

  0
STYLE
  5
214
100
AcDbSymbolTableRecord
100
AcDbTextStyleTableRecord
  2
TEXTSTYLE_1
 70
0
 40
0.0
 41
0.8
 50
0.0
 71
0
 42
0.2
  3
gdt
  4

  0
ENDTAB
  0
TABLE
  2
VIEW
  5
6
100
AcDbSymbolTable
 70
0
  0
ENDTAB
  0
TABLE
  2
UCS
  5
7
100
AcDbSymbolTable
 70
0
  0
ENDTAB
  0
TABLE
  2
APPID
  5
9
100
AcDbSymbolTable
 70
1
  0
APPID
  5
215
100
AcDbSymbolTableRecord
100
AcDbRegAppTableRecord
  2
ACAD
 70
0
  0
ENDTAB
  0
TABLE
  2
BLOCK_RECORD
  5
1
100
AcDbSymbolTable
 70
0
  0
BLOCK_RECORD
  5
216
100
AcDbSymbolTableRecord
100
AcDbBlockTableRecord
  2
*Model_Space
  0
BLOCK_RECORD
  5
217
100
AcDbSymbolTableRecord
100
AcDbBlockTableRecord
  2
*Paper_Space
  0
BLOCK_RECORD
  5
218
100
AcDbSymbolTableRecord
100
AcDbBlockTableRecord
  2
_CLOSED
  0
ENDTAB
  0
TABLE
  2
DIMSTYLE
  5
A
100
AcDbSymbolTable
 70
1
100
AcDbDimStyleTable
 71
0
  0
DIMSTYLE
105
219
100
AcDbSymbolTableRecord
100
AcDbDimStyleTableRecord
  2
STANDARD
 70
0
  3

  4

 40
1.0
 41
0.1875
 42
0.0625
 43
0.38
 44
0.125
 45
0.0
 46
0.0
 47
0.01
 48
0.01
140
0.15625
141
0.09
142
0.0
143
25.4
144
1.0
145
0.0
146
1.0
147
0.625
 71
0.0
 72
0.0
 73
1
 74
1
 75
0
 76
0
 77
0
 78
8
 79
2
170
0
171
1
172
0
173
0
174
0
175
0
176
0
177
0
178
0
270
2
179
2
271
2
272
2
273
2
274
2
275
0
280
0
281
0
282
0
283
1
284
8
285
0
286
0
287
3
288
0
340
11
278
46
341
218
342
218
343
218
344
218
  0
ENDTAB
  0
ENDSEC
  0
SECTION
  2
BLOCKS
  0
BLOCK
  5
20
100
AcDbEntity
  8
0
100
AcDbBlockBegin
  2
*Model_Space
 70
0
 10
0.0
 20
0.0
 30
0.0
  3
*Model_Space
  1

  0
ENDBLK
  5
21
100
AcDbEntity
  8
0
100
AcDbBlockEnd
  0
BLOCK
  5
1C
100
AcDbEntity
  8
0
100
AcDbBlockBegin
  2
*Paper_Space
 70
0
 10
0.0
 20
0.0
 30
0.0
  3
*Paper_Space
  1

  0
ENDBLK
  5
1D
100
AcDbEntity
  8
0
100
AcDbBlockEnd
  0
BLOCK
  5
21A
100
AcDbEntity
  8
0
100
AcDbBlockBegin
  2
_CLOSED
 70
64
 10
0.0
 20
0.0
  3
_CLOSED
  1

  0
LINE
  5
21B
100
AcDbEntity
  8
0
  6
BYBLOCK
 62
0
100
AcDbLine
 10
0.0
 20
0.0
 11
-1.0
 21
0.1666666667
  0
LINE
  5
21C
100
AcDbEntity
  8
0
  6
BYBLOCK
 62
0
100
AcDbLine
 10
-1.0
 20
0.1666666667
 11
-1.0
 21
-0.1666666667
  0
LINE
  5
21D
100
AcDbEntity
  8
0
  6
BYBLOCK
 62
0
100
AcDbLine
 10
-1.0
 20
-0.1666666667
 11
0.0
 21
0.0
  0
LINE
  5
21E
100
AcDbEntity
  8
0
  6
BYBLOCK
 62
0
100
AcDbLine
 10
-1.0
 20
0.0
 11
0.0
 21
0.0
  0
ENDBLK
  5
21F
100
AcDbEntity
  8
0
  6
BYBLOCK
 62
0
100
AcDbBlockEnd
  0
ENDSEC
  0
SECTION
  2
ENTITIES
  0
LWPOLYLINE
  5
220
100
AcDbEntity
  8
0
100
AcDbPolyline
 62
7
  6
CONTINUOUS
 90
4
 70
0
 10
34.7069927806
 20
284.2272386503
 10
34.3350830519
 20
284.1095590283
 10
33.6967058695
 20
283.5338262589
 10
33.4482904427
 20
282.7165749949
  0
LINE
  5
221
100
AcDbEntity
  8
0
100
AcDbLine
 62
7
  6
CONTINUOUS
 10
15.1554223778
 20
190.6089765152
 11
60.6779894256
 21
202.811550198
  0
LINE
  5
222
100
AcDbEntity
  8
0
100
AcDbLine
 62
7
  6
CONTINUOUS
 10
-31.6419990098
 20
254.4654555514
 11
-6.0868481598
 21
266.4938273902
  0
LINE
  5
223
100
AcDbEntity
  8
0
100
AcDbLine
 62
7
  6
CONTINUOUS
 10
37.6648362948
 20
276.926294308
 11
37.6491559608
 21
276.9203557673
  0
LINE
  5
224
100
AcDbEntity
  8
0
100
AcDbLine
 62
7
  6
CONTINUOUS
 10
31.1065428086
 20
199.3449821194
 11
49.7859519152
 21
204.3521001436
  0
LINE
  5
225
100
AcDbEntity
  8
0
100
AcDbLine
 62
7
  6
CONTINUOUS
 10
26.1585643862
 20
198.3515630826
 11
30.2907959334
 21
199.4592304045
  0
LINE
  5
226
100
AcDbEntity
  8
0
100
AcDbLine
 62
7
  6
CONTINUOUS
 10
47.6079814315
 20
206.6998821868
 11
57.5892365253
 21
209.3754123388
  0
LINE
  5
227
100
AcDbEntity
  8
0
100
AcDbLine
 62
7
  6
CONTINUOUS
 10
18.9074205094
 20
199.4290643996
 11
15.1554223778
 21
198.4233207294
  0
LINE
  5
228
100
AcDbEntity
  8
0
100
AcDbLine
 62
7
  6
CONTINUOUS
 10
37.6613792277
 20
276.9459483282
 11
37.1439688689
 21
276.7095500009
  0
LINE
  5
229
100
AcDbEntity
  8
0
100
AcDbLine
 62
7
  6
CONTINUOUS
 10
-16.1683764449
 20
246.0265505225
 11
-17.4182426568
 21
245.485014941
  0
LINE
  5
22A
100
AcDbEntity
  8
0
100
AcDbLine
 62
7
  6
CONTINUOUS
 10
-17.170308764
 20
245.5514749803
 11
-16.1534332441
 21
245.9920615573
  0
LINE
  5
22B
100
AcDbEntity
  8
0
100
AcDbLine
 62
7
  6
CONTINUOUS
 10
-8.1517887389
 20
249.3759999196
 11
-9.4060196554
 21
248.8635837185
  0
LINE
  5
22C
100
AcDbEntity
  8
0
100
AcDbLine
 62
7
  6
CONTINUOUS
 10
-9.1580857626
 20
248.9300437578
 11
-8.1395931587
 21
249.3461490412
  0
LINE
  5
22D
100
AcDbEntity
  8
0
100
AcDbLine
 62
7
  6
CONTINUOUS
 10
-5.1422527097
 20
250.5544702473
 11
-4.1230171369
 21
250.9591476924
  0
LINE
  5
22E
100
AcDbEntity
  8
0
100
AcDbLine
 62
7
  6
CONTINUOUS
 10
-4.1338500293
 20
250.9863783987
 11
-5.3901866025
 21
250.488010208
  0
LINE
  5
22F
100
AcDbEntity
  8
0
100
AcDbLine
 62
7
  6
CONTINUOUS
 10
16.7901159914
 20
264.8145612185
 11
17.6918462093
 21
265.1670495087
  0
LINE
  5
230
100
AcDbEntity
  8
0
100
AcDbLine
 62
7
  6
CONTINUOUS
 10
18.9544746371
 20
208.7279852847
 11
25.1528219578
 21
210.3894862675
  0
LINE
  5
231
100
AcDbEntity
  8
0
100
AcDbLine
 62
7
  6
CONTINUOUS
 10
25.7866493377
 20
204.4648741059
 11
26.0794292954
 21
204.4899802502
  0
LINE
  5
232
100
AcDbEntity
  8
0
100
AcDbLine
 62
7
  6
CONTINUOUS
 10
25.7610868762
 20
204.5781555126
 11
25.8893713861
 21
204.5891560245
  0
LINE
  5
233
100
AcDbEntity
  8
0
100
AcDbLine
 62
7
  6
CONTINUOUS
 10
27.1726147711
 20
206.4247971016
 11
26.8798348134
 21
206.3996909572
  0
LINE
  5
234
100
AcDbEntity
  8
0
100
AcDbLine
 62
7
  6
CONTINUOUS
 10
26.5455797325
 20
206.402914323
 11
26.4172952225
 21
206.391913811
  0
LINE
  5
235
100
AcDbEntity
  8
0
100
AcDbLine
 62
7
  6
CONTINUOUS
 10
18.4294661135
 20
264.7552201579
 11
19.1439233796
 21
265.1977791992
  0
LINE
  5
236
100
AcDbEntity
  8
0
100
AcDbLine
 62
7
  6
CONTINUOUS
 10
15.9706806596
 20
263.2321650305
 11
16.6850384315
 21
263.6746626218
  0
LINE
  5
237
100
AcDbEntity
  8
0
100
AcDbLine
 62
7
  6
CONTINUOUS
 10
19.5022868285
 20
264.3183521932
 11
18.7879283622
 21
263.8758546982
  0
LINE
  5
238
100
AcDbEntity
  8
0
100
AcDbLine
 62
7
  6
CONTINUOUS
 10
17.0435006802
 20
262.7952971621
 11
16.3290433029
 21
262.3527381359
  0
LWPOLYLINE
  5
239
100
AcDbEntity
  8
0
100
AcDbPolyline
 62
7
  6
CONTINUOUS
 90
4
 70
0
 10
37.1681542345
 20
276.7205561324
 10
36.2170374422
 20
276.2081443629
 10
34.5008727704
 20
274.6238919774
 10
33.5649673363
 20
272.7755216108
  0
LINE
  5
23A
100
AcDbEntity
  8
0
100
AcDbLine
 62
7
  6
CONTINUOUS
 10
-0.7523441241
 20
219.5463752856
 11
-0.5044102313
 21
219.6128353249
  0
LINE
  5
23B
100
AcDbEntity
  8
0
100
AcDbLine
 62
7
  6
CONTINUOUS
 10
-5.4153567415
 20
222.2396447732
 11
-5.1674228486
 21
222.3061048125
  0
LINE
  5
23C
100
AcDbEntity
  8
0
100
AcDbLine
 62
7
  6
CONTINUOUS
 10
-10.0783693588
 20
224.9329142609
 11
-9.830435466
 21
224.9993743002
  0
LINE
  5
23D
100
AcDbEntity
  8
0
100
AcDbLine
 62
7
  6
CONTINUOUS
 10
25.5683219374
 20
206.3981370039
 11
26.4172952225
 21
206.391913811
  0
LINE
  5
23E
100
AcDbEntity
  8
0
100
AcDbLine
 62
7
  6
CONTINUOUS
 10
26.5455797325
 20
206.402914323
 11
26.8798348134
 21
206.3996909572
  0
LINE
  5
23F
100
AcDbEntity
  8
0
100
AcDbLine
 62
7
  6
CONTINUOUS
 10
26.3352365589
 20
206.5048804651
 11
26.678842758
 21
206.5009314853
  0
LINE
  5
240
100
AcDbEntity
  8
0
100
AcDbLine
 62
7
  6
CONTINUOUS
 10
71.4849357696
 20
205.8730341721
 11
67.4249055443
 21
206.0693586889
  0
LINE
  5
241
100
AcDbEntity
  8
0
100
AcDbLine
 62
7
  6
CONTINUOUS
 10
25.9848129715
 20
201.9150775887
 11
24.8905492222
 21
201.9979096466
  0
LINE
  5
242
100
AcDbEntity
  8
0
100
AcDbLine
 62
7
  6
CONTINUOUS
 10
21.5781808972
 20
198.5581023931
 11
24.0254215228
 21
198.2153575376
  0
LINE
  5
243
100
AcDbEntity
  8
0
100
AcDbLine
 62
7
  6
CONTINUOUS
 10
31.1065428086
 20
199.3449821194
 11
30.2907959334
 21
199.4592304045
  0
LINE
  5
244
100
AcDbEntity
  8
0
100
AcDbLine
 62
7
  6
CONTINUOUS
 10
48.5849082038
 20
291.6381390248
 11
48.7588144118
 21
291.8015833278
  0
LINE
  5
245
100
AcDbEntity
  8
0
100
AcDbLine
 62
7
  6
CONTINUOUS
 10
-14.7413819762
 20
227.6261837486
 11
-14.4934480833
 21
227.6926437879
  0
LINE
  5
246
100
AcDbEntity
  8
0
100
AcDbLine
 62
7
  6
CONTINUOUS
 10
-37.0139000177
 20
231.3551492485
 11
-31.6419990064
 21
232.795116767
  0
LINE
  5
247
100
AcDbEntity
  8
0
100
AcDbLine
 62
7
  6
CONTINUOUS
 10
25.3845198419
 20
205.9159743593
 11
25.6733135442
 21
205.8780726641
  0
LINE
  5
248
100
AcDbEntity
  8
0
100
AcDbLine
 62
7
  6
CONTINUOUS
 10
76.7136940192
 20
198.2963055927
 11
73.2788733523
 21
198.7762913076
  0
LINE
  5
249
100
AcDbEntity
  8
0
100
AcDbLine
 62
7
  6
CONTINUOUS
 10
16.4200828577
 20
204.3241098372
 11
18.8673234833
 21
203.9813649818
  0
LINE
  5
24A
100
AcDbEntity
  8
0
100
AcDbLine
 62
7
  6
CONTINUOUS
 10
30.0136492264
 20
206.6362850014
 11
29.1979023512
 21
206.7505332865
  0
LINE
  5
24B
100
AcDbEntity
  8
0
100
AcDbLine
 62
7
  6
CONTINUOUS
 10
50.5523351059
 20
204.2296845202
 11
75.6941145812
 21
200.7084878382
  0
LINE
  5
24C
100
AcDbEntity
  8
0
100
AcDbLine
 62
7
  6
CONTINUOUS
 10
50.0578675397
 20
204.3140173826
 11
49.7859519152
 21
204.3521001436
  0
LINE
  5
24D
100
AcDbEntity
  8
0
100
AcDbLine
 62
7
  6
CONTINUOUS
 10
18.9544746371
 20
208.7279852846
 11
18.1387277619
 21
208.8422335698
  0
LINE
  5
24E
100
AcDbEntity
  8
0
100
AcDbLine
 62
7
  6
CONTINUOUS
 10
52.452390819
 20
207.9984526835
 11
71.5676361496
 21
205.3212937935
  0
LINE
  5
24F
100
AcDbEntity
  8
0
100
AcDbLine
 62
7
  6
CONTINUOUS
 10
41.8648357
 20
209.6491305173
 11
43.2219837441
 21
209.4590570504
  0
LINE
  5
250
100
AcDbEntity
  8
0
100
AcDbLine
 62
7
  6
CONTINUOUS
 10
52.8636843935
 20
208.1087021811
 11
67.4249044562
 21
206.0693509164
  0
LINE
  5
251
100
AcDbEntity
  8
0
100
AcDbLine
 62
7
  6
CONTINUOUS
 10
73.272279042
 20
208.2867147338
 11
79.4188760899
 21
207.4258617002
  0
LINE
  5
252
100
AcDbEntity
  8
0
100
AcDbLine
 62
7
  6
CONTINUOUS
 10
62.5477132953
 20
210.0054927454
 11
73.2390915897
 21
208.508126745
  0
LINE
  5
253
100
AcDbEntity
  8
0
100
AcDbLine
 62
7
  6
CONTINUOUS
 10
45.3233901876
 20
207.0199586128
 11
47.6079814315
 21
206.6998821868
  0
LINE
  5
254
100
AcDbEntity
  8
0
100
AcDbLine
 62
7
  6
CONTINUOUS
 10
26.9221467667
 20
205.0650954763
 11
27.2859505646
 21
205.0115985434
  0
LINE
  5
255
100
AcDbEntity
  8
0
100
AcDbLine
 62
7
  6
CONTINUOUS
 10
25.9465152975
 20
205.358353353
 11
26.8975876705
 21
205.2136793082
  0
LINE
  5
256
100
AcDbEntity
  8
0
100
AcDbLine
 62
7
  6
CONTINUOUS
 10
50.0578675412
 20
204.314017385
 11
50.5523468583
 21
204.2298653339
  0
LINE
  5
257
100
AcDbEntity
  8
0
100
AcDbLine
 62
7
  6
CONTINUOUS
 10
26.9813083721
 20
205.3340019984
 11
27.340003729
 21
205.2708227111
  0
LINE
  5
258
100
AcDbEntity
  8
0
100
AcDbLine
 62
7
  6
CONTINUOUS
 10
26.9735414372
 20
208.9747210256
 11
25.8986243373
 21
209.1956905508
  0
LINE
  5
259
100
AcDbEntity
  8
0
100
AcDbLine
 62
7
  6
CONTINUOUS
 10
27.2859505646
 20
205.0115985434
 11
28.1555006653
 21
204.8308116715
  0
LINE
  5
25A
100
AcDbEntity
  8
0
100
AcDbLine
 62
7
  6
CONTINUOUS
 10
24.8705228354
 20
206.0228387146
 11
25.3845198419
 21
205.9159743593
  0
LINE
  5
25B
100
AcDbEntity
  8
0
100
AcDbLine
 62
7
  6
CONTINUOUS
 10
25.6733135442
 20
205.8780726641
 11
24.8037634435
 21
206.058859536
  0
LINE
  5
25C
100
AcDbEntity
  8
0
100
AcDbLine
 62
7
  6
CONTINUOUS
 10
26.4484229201
 20
205.7892817387
 11
27.5310770197
 21
205.545431642
  0
LINE
  5
25D
100
AcDbEntity
  8
0
100
AcDbLine
 62
7
  6
CONTINUOUS
 10
24.7502592832
 20
204.7336905984
 11
25.7866493377
 21
204.4648741059
  0
LINE
  5
25E
100
AcDbEntity
  8
0
100
AcDbLine
 62
7
  6
CONTINUOUS
 10
25.7610868762
 20
204.5781555126
 11
26.0794292954
 21
204.4899802502
  0
LINE
  5
25F
100
AcDbEntity
  8
0
100
AcDbLine
 62
7
  6
CONTINUOUS
 10
26.0715390072
 20
204.4478568798
 11
26.2804213508
 21
204.3887397221
  0
LINE
  5
260
100
AcDbEntity
  8
0
100
AcDbLine
 62
7
  6
CONTINUOUS
 10
25.0795584572
 20
204.8213301731
 11
25.8893713861
 21
204.5891560245
  0
LINE
  5
261
100
AcDbEntity
  8
0
100
AcDbLine
 62
7
  6
CONTINUOUS
 10
-39.1988223205
 20
229.7292126515
 11
-39.1988223205
 21
222.6094391812
  0
LINE
  5
262
100
AcDbEntity
  8
0
100
AcDbLine
 62
7
  6
CONTINUOUS
 10
-38.3310538677
 20
221.5017718593
 11
-38.3310538677
 21
228.6215453296
  0
LINE
  5
263
100
AcDbEntity
  8
0
100
AcDbLine
 62
7
  6
CONTINUOUS
 10
-31.6419990172
 20
254.4654555483
 11
-31.6419990064
 21
232.795116767
  0
LINE
  5
264
100
AcDbEntity
  8
0
100
AcDbLine
 62
7
  6
CONTINUOUS
 10
39.8557500494
 20
266.2479870959
 11
39.8113637857
 21
266.2102584025
  0
LINE
  5
265
100
AcDbEntity
  8
0
100
AcDbLine
 62
7
  6
CONTINUOUS
 10
-17.4182426568
 20
245.485014941
 11
-17.170308764
 21
245.5514749803
  0
LINE
  5
266
100
AcDbEntity
  8
0
100
AcDbLine
 62
7
  6
CONTINUOUS
 10
-9.4060196554
 20
248.8635837185
 11
-9.1580857626
 21
248.9300437578
  0
LINE
  5
267
100
AcDbEntity
  8
0
100
AcDbLine
 62
7
  6
CONTINUOUS
 10
-5.1422527097
 20
250.5544702473
 11
-5.3901866025
 21
250.488010208
  0
LINE
  5
268
100
AcDbEntity
  8
0
100
AcDbLine
 62
7
  6
CONTINUOUS
 10
11.6685174225
 20
257.3366711649
 11
17.8668647431
 21
258.9981721477
  0
LINE
  5
269
100
AcDbEntity
  8
0
100
AcDbLine
 62
7
  6
CONTINUOUS
 10
10.8527705473
 20
257.45091945
 11
17.051117868
 21
259.1124204329
  0
LINE
  5
26A
100
AcDbEntity
  8
0
100
AcDbLine
 62
7
  6
CONTINUOUS
 10
125.8687716683
 20
270.7827147149
 11
125.9770276679
 21
270.8041975742
  0
LINE
  5
26B
100
AcDbEntity
  8
0
100
AcDbLine
 62
7
  6
CONTINUOUS
 10
-12.1221832045
 20
247.4484272613
 11
-13.4153858981
 21
247.1960135296
  0
LINE
  5
26C
100
AcDbEntity
  8
0
100
AcDbLine
 62
7
  6
CONTINUOUS
 10
79.0242157557
 20
210.0588609956
 11
57.4987050544
 21
213.0735862236
  0
LINE
  5
26D
100
AcDbEntity
  8
0
100
AcDbLine
 62
7
  6
CONTINUOUS
 10
68.6732035937
 20
214.9823610288
 11
53.4435861942
 21
217.1153237456
  0
LINE
  5
26E
100
AcDbEntity
  8
0
100
AcDbLine
 62
7
  6
CONTINUOUS
 10
15.1554223778
 20
190.6089765152
 11
-38.3310538677
 21
221.5017718593
  0
LINE
  5
26F
100
AcDbEntity
  8
0
100
AcDbLine
 62
7
  6
CONTINUOUS
 10
-38.3310538677
 20
228.6215453296
 11
12.937892672
 21
199.0095539602
  0
LINE
  5
270
100
AcDbEntity
  8
0
100
AcDbLine
 62
7
  6
CONTINUOUS
 10
12.421820654
 20
202.4525583423
 11
2.6678632124
 21
208.0862630129
  0
LINE
  5
271
100
AcDbEntity
  8
0
100
AcDbLine
 62
7
  6
CONTINUOUS
 10
16.6659302806
 20
264.0978135836
 11
16.6481556096
 21
264.0722679756
  0
LINE
  5
272
100
AcDbEntity
  8
0
100
AcDbLine
 62
7
  6
CONTINUOUS
 10
16.8761117223
 20
263.9492715526
 11
16.6850384315
 21
263.6746626218
  0
LINE
  5
273
100
AcDbEntity
  8
0
100
AcDbLine
 62
7
  6
CONTINUOUS
 10
18.154439013
 20
263.5441023645
 11
18.2381597146
 21
263.6644250546
  0
LINE
  5
274
100
AcDbEntity
  8
0
100
AcDbLine
 62
7
  6
CONTINUOUS
 10
18.5968550714
 20
263.6012457673
 11
18.7879283622
 21
263.8758546982
  0
LINE
  5
275
100
AcDbEntity
  8
0
100
AcDbLine
 62
7
  6
CONTINUOUS
 10
39.8493057201
 20
266.2555685856
 11
39.8113635218
 21
266.2102579168
  0
LINE
  5
276
100
AcDbEntity
  8
0
100
AcDbLine
 62
7
  6
CONTINUOUS
 10
39.850241049
 20
266.2501983905
 11
39.8113637857
 21
266.2102584025
  0
LINE
  5
277
100
AcDbEntity
  8
0
100
AcDbLine
 62
7
  6
CONTINUOUS
 10
25.5332646489
 20
206.4841381622
 11
26.4349948669
 21
206.8366264524
  0
LINE
  5
278
100
AcDbEntity
  8
0
100
AcDbLine
 62
7
  6
CONTINUOUS
 10
27.6156125296
 20
274.2518091057
 11
20.1776069867
 21
272.2580109397
  0
LINE
  5
279
100
AcDbEntity
  8
0
100
AcDbLine
 62
7
  6
CONTINUOUS
 10
19.3618601115
 20
272.3722592248
 11
15.2296285643
 21
271.2645919029
  0
LINE
  5
27A
100
AcDbEntity
  8
0
100
AcDbLine
 62
7
  6
CONTINUOUS
 10
27.8522900176
 20
275.646906634
 11
12.7823879387
 21
271.6073367583
  0
LINE
  5
27B
100
AcDbEntity
  8
0
100
AcDbLine
 62
7
  6
CONTINUOUS
 10
27.9579716211
 20
275.9280438005
 11
12.7459581526
 21
271.8503801877
  0
LINE
  5
27C
100
AcDbEntity
  8
0
100
AcDbLine
 62
7
  6
CONTINUOUS
 10
29.1157592512
 20
278.5136728222
 11
12.4180900779
 21
274.0377710523
  0
LINE
  5
27D
100
AcDbEntity
  8
0
100
AcDbLine
 62
7
  6
CONTINUOUS
 10
29.6940436625
 20
279.5564550159
 11
10.2427650773
 21
274.342433146
  0
LINE
  5
27E
100
AcDbEntity
  8
0
100
AcDbLine
 62
7
  6
CONTINUOUS
 10
-6.6989034783
 20
270.5771899249
 11
30.2999401222
 21
280.4949328177
  0
LINE
  5
27F
100
AcDbEntity
  8
0
100
AcDbLine
 62
7
  6
CONTINUOUS
 10
37.6667925391
 20
276.9248893301
 11
37.6491559608
 21
276.9203557673
  0
LINE
  5
280
100
AcDbEntity
  8
0
100
AcDbLine
 62
7
  6
CONTINUOUS
 10
17.0435006802
 20
262.7952971621
 11
17.3362806379
 21
262.8204033065
  0
LINE
  5
281
100
AcDbEntity
  8
0
100
AcDbLine
 62
7
  6
CONTINUOUS
 10
17.0179382186
 20
262.9085785688
 11
17.1462227286
 21
262.9195790808
  0
LINE
  5
282
100
AcDbEntity
  8
0
100
AcDbLine
 62
7
  6
CONTINUOUS
 10
25.9697381795
 20
205.270146466
 11
27.3589310831
 21
204.5700625436
  0
LINE
  5
283
100
AcDbEntity
  8
0
100
AcDbLine
 62
7
  6
CONTINUOUS
 10
24.8037634435
 20
206.058859536
 11
25.6192603798
 21
205.6188484964
  0
LINE
  5
284
100
AcDbEntity
  8
0
100
AcDbLine
 62
7
  6
CONTINUOUS
 10
26.9813083721
 20
205.3340019984
 11
27.7624425233
 21
204.9125318069
  0
LINE
  5
285
100
AcDbEntity
  8
0
100
AcDbLine
 62
7
  6
CONTINUOUS
 10
28.1555006653
 20
204.8308116715
 11
27.340003729
 21
205.2708227111
  0
LINE
  5
286
100
AcDbEntity
  8
0
100
AcDbLine
 62
7
  6
CONTINUOUS
 10
-31.6419990064
 20
232.795116767
 11
1.8650845176
 21
213.4420476073
  0
LINE
  5
287
100
AcDbEntity
  8
0
100
AcDbLine
 62
7
  6
CONTINUOUS
 10
0.7048473188
 20
218.7047285707
 11
-0.7523441241
 21
219.5463752856
  0
LINE
  5
288
100
AcDbEntity
  8
0
100
AcDbLine
 62
7
  6
CONTINUOUS
 10
-3.9581652985
 20
221.3979980583
 11
-5.4153567415
 21
222.2396447732
  0
LINE
  5
289
100
AcDbEntity
  8
0
100
AcDbLine
 62
7
  6
CONTINUOUS
 10
-8.6211779159
 20
224.091267546
 11
-10.0783693588
 21
224.9329142609
  0
LINE
  5
28A
100
AcDbEntity
  8
0
100
AcDbLine
 62
7
  6
CONTINUOUS
 10
-13.2841905332
 20
226.7845370337
 11
-14.7413819762
 21
227.6261837486
  0
LINE
  5
28B
100
AcDbEntity
  8
0
100
AcDbLine
 62
7
  6
CONTINUOUS
 10
0.6704425176
 20
218.9342621961
 11
-0.5044102313
 21
219.6128353249
  0
LINE
  5
28C
100
AcDbEntity
  8
0
100
AcDbLine
 62
7
  6
CONTINUOUS
 10
-3.9925700997
 20
221.6275316838
 11
-5.1674228486
 21
222.3061048125
  0
LINE
  5
28D
100
AcDbEntity
  8
0
100
AcDbLine
 62
7
  6
CONTINUOUS
 10
-8.6555827171
 20
224.3208011715
 11
-9.830435466
 21
224.9993743002
  0
LINE
  5
28E
100
AcDbEntity
  8
0
100
AcDbLine
 62
7
  6
CONTINUOUS
 10
-13.3185953344
 20
227.0140706591
 11
-14.4934480833
 21
227.6926437879
  0
LINE
  5
28F
100
AcDbEntity
  8
0
100
AcDbLine
 62
7
  6
CONTINUOUS
 10
18.3369652618
 20
265.7993311066
 11
17.9356941005
 21
264.8313545416
  0
LINE
  5
290
100
AcDbEntity
  8
0
100
AcDbLine
 62
7
  6
CONTINUOUS
 10
17.1360015319
 20
261.7511862133
 11
17.5372726932
 21
262.7191627784
  0
LINE
  5
291
100
AcDbEntity
  8
0
100
AcDbLine
 62
7
  6
CONTINUOUS
 10
27.1726147711
 20
206.4247971016
 11
27.8870720371
 21
206.8673561429
  0
LINE
  5
292
100
AcDbEntity
  8
0
100
AcDbLine
 62
7
  6
CONTINUOUS
 10
24.7138293171
 20
204.9017419742
 11
25.4281870891
 21
205.3442395655
  0
LINE
  5
293
100
AcDbEntity
  8
0
100
AcDbLine
 62
7
  6
CONTINUOUS
 10
28.2454354861
 20
205.987929137
 11
27.5310770197
 21
205.5454316419
  0
LINE
  5
294
100
AcDbEntity
  8
0
100
AcDbLine
 62
7
  6
CONTINUOUS
 10
25.7866493377
 20
204.4648741059
 11
25.0721919604
 21
204.0223150796
  0
LINE
  5
295
100
AcDbEntity
  8
0
100
AcDbLine
 62
7
  6
CONTINUOUS
 10
35.638403936
 20
284.4121218663
 11
34.6975804882
 21
284.2254113988
  0
LINE
  5
296
100
AcDbEntity
  8
0
100
AcDbLine
 62
7
  6
CONTINUOUS
 10
16.7549507927
 20
278.8304748914
 11
31.2472844642
 21
281.6581889294
  0
LWPOLYLINE
  5
297
100
AcDbEntity
  8
0
100
AcDbPolyline
 62
7
  6
CONTINUOUS
 90
4
 70
0
 10
16.7549507927
 20
278.8304748914
 10
9.2166544882
 20
277.3994184937
 10
1.5131892414
 20
276.0211240939
 10
-5.3603683051
 20
274.8659880101
  0
LINE
  5
298
100
AcDbEntity
  8
0
100
AcDbLine
 62
7
  6
CONTINUOUS
 10
18.4294661135
 20
264.7552201579
 11
18.1366861559
 21
264.7301140135
  0
LINE
  5
299
100
AcDbEntity
  8
0
100
AcDbLine
 62
7
  6
CONTINUOUS
 10
17.8024310749
 20
264.7333373792
 11
17.674146565
 21
264.7223368673
  0
LINE
  5
29A
100
AcDbEntity
  8
0
100
AcDbLine
 62
7
  6
CONTINUOUS
 10
-14.2863648796
 20
271.8695819728
 11
1.5655597483
 21
272.7925246146
  0
LINE
  5
29B
100
AcDbEntity
  8
0
100
AcDbLine
 62
7
  6
CONTINUOUS
 10
117.9182694911
 20
264.3124705921
 11
117.7973606075
 21
264.3089238882
  0
LINE
  5
29C
100
AcDbEntity
  8
0
100
AcDbLine
 62
7
  6
CONTINUOUS
 10
16.8251732799
 20
264.7285600602
 11
17.674146565
 21
264.7223368673
  0
LINE
  5
29D
100
AcDbEntity
  8
0
100
AcDbLine
 62
7
  6
CONTINUOUS
 10
17.8024310749
 20
264.7333373792
 11
18.1366861559
 21
264.7301140135
  0
LINE
  5
29E
100
AcDbEntity
  8
0
100
AcDbLine
 62
7
  6
CONTINUOUS
 10
17.5920879013
 20
264.8353035214
 11
17.9356941005
 21
264.8313545416
  0
LINE
  5
29F
100
AcDbEntity
  8
0
100
AcDbLine
 62
7
  6
CONTINUOUS
 10
17.241664314
 20
260.2455006449
 11
16.1474005647
 21
260.3283327029
  0
LINE
  5
2A0
100
AcDbEntity
  8
0
100
AcDbLine
 62
7
  6
CONTINUOUS
 10
11.6685174225
 20
257.3366711649
 11
10.8527705473
 21
257.45091945
  0
LINE
  5
2A1
100
AcDbEntity
  8
0
100
AcDbLine
 62
7
  6
CONTINUOUS
 10
17.8668647432
 20
258.9981721477
 11
17.051117868
 21
259.1124204329
  0
LINE
  5
2A2
100
AcDbEntity
  8
0
100
AcDbLine
 62
7
  6
CONTINUOUS
 10
24.6294270316
 20
258.880748031
 11
38.029561717
 21
257.0040109513
  0
LINE
  5
2A3
100
AcDbEntity
  8
0
100
AcDbLine
 62
7
  6
CONTINUOUS
 10
-27.2480733841
 20
260.9556971715
 11
-27.9730805035
 21
261.374447819
  0
LINE
  5
2A4
100
AcDbEntity
  8
0
100
AcDbLine
 62
7
  6
CONTINUOUS
 10
-17.4182426568
 20
245.485014941
 11
-14.7413819762
 21
227.6261837486
  0
LINE
  5
2A5
100
AcDbEntity
  8
0
100
AcDbLine
 62
7
  6
CONTINUOUS
 10
-14.4934480833
 20
227.6926437879
 11
-17.170308764
 21
245.5514749803
  0
LINE
  5
2A6
100
AcDbEntity
  8
0
100
AcDbLine
 62
7
  6
CONTINUOUS
 10
-13.2841905332
 20
226.7845370337
 11
-16.1683764449
 21
246.0265505225
  0
LINE
  5
2A7
100
AcDbEntity
  8
0
100
AcDbLine
 62
7
  6
CONTINUOUS
 10
-13.4153858981
 20
247.1960135296
 11
-10.0783693588
 21
224.9329142609
  0
LINE
  5
2A8
100
AcDbEntity
  8
0
100
AcDbLine
 62
7
  6
CONTINUOUS
 10
-9.830435466
 20
224.9993743002
 11
-13.1674520053
 21
247.2624735689
  0
LINE
  5
2A9
100
AcDbEntity
  8
0
100
AcDbLine
 62
7
  6
CONTINUOUS
 10
-8.6211779159
 20
224.091267546
 11
-12.1221832045
 21
247.4484272613
  0
LINE
  5
2AA
100
AcDbEntity
  8
0
100
AcDbLine
 62
7
  6
CONTINUOUS
 10
-9.4060196554
 20
248.8635837185
 11
-5.4153567415
 21
222.2396447732
  0
LINE
  5
2AB
100
AcDbEntity
  8
0
100
AcDbLine
 62
7
  6
CONTINUOUS
 10
-5.1674228486
 20
222.3061048125
 11
-9.1580857626
 21
248.9300437578
  0
LINE
  5
2AC
100
AcDbEntity
  8
0
100
AcDbLine
 62
7
  6
CONTINUOUS
 10
-3.9581652985
 20
221.3979980583
 11
-8.1517887389
 21
249.3759999196
  0
LINE
  5
2AD
100
AcDbEntity
  8
0
100
AcDbLine
 62
7
  6
CONTINUOUS
 10
17.3362806379
 20
262.8204033065
 11
17.1360015319
 21
261.7511862133
  0
LINE
  5
2AE
100
AcDbEntity
  8
0
100
AcDbLine
 62
7
  6
CONTINUOUS
 10
17.8210378673
 20
264.8326722569
 11
17.8024310749
 21
264.7333373792
  0
LINE
  5
2AF
100
AcDbEntity
  8
0
100
AcDbLine
 62
7
  6
CONTINUOUS
 10
18.1366861559
 20
264.7301140135
 11
18.3369652618
 21
265.7993311066
  0
LINE
  5
2B0
100
AcDbEntity
  8
0
100
AcDbLine
 62
7
  6
CONTINUOUS
 10
27.3436969038
 20
274.2898918688
 11
27.3501835522
 21
274.3111889274
  0
LINE
  5
2B1
100
AcDbEntity
  8
0
100
AcDbLine
 62
7
  6
CONTINUOUS
 10
86.7029042526
 20
257.2113367172
 11
86.7340651699
 21
257.2422649692
  0
LINE
  5
2B2
100
AcDbEntity
  8
0
100
AcDbLine
 62
7
  6
CONTINUOUS
 10
86.7029042526
 20
257.2113367172
 11
86.7347546256
 21
257.2421809445
  0
LWPOLYLINE
  5
2B3
100
AcDbEntity
  8
0
100
AcDbPolyline
 62
7
  6
CONTINUOUS
 90
4
 70
0
 10
36.4352771604
 20
291.2468811176
 10
36.0306741532
 20
291.1675058674
 10
35.5644754191
 20
290.7437788426
 10
35.4649763609
 20
290.4421073602
  0
LINE
  5
2B4
100
AcDbEntity
  8
0
100
AcDbLine
 62
7
  6
CONTINUOUS
 10
35.6357291531
 20
284.41159104
 11
36.1956444518
 21
284.4560855481
  0
LINE
  5
2B5
100
AcDbEntity
  8
0
100
AcDbLine
 62
7
  6
CONTINUOUS
 10
104.0441367922
 20
259.5432898465
 11
104.1592916388
 21
259.5283604549
  0
LINE
  5
2B6
100
AcDbEntity
  8
0
100
AcDbLine
 62
7
  6
CONTINUOUS
 10
16.6413711844
 20
264.2463974155
 11
16.9301648867
 21
264.2084957204
  0
LINE
  5
2B7
100
AcDbEntity
  8
0
100
AcDbLine
 62
7
  6
CONTINUOUS
 10
5.6108184267
 20
262.1006992325
 11
3.4354934261
 21
262.4053613262
  0
LINE
  5
2B8
100
AcDbEntity
  8
0
100
AcDbLine
 62
7
  6
CONTINUOUS
 10
10.1241748258
 20
262.311788038
 11
7.6769342002
 21
262.6545328934
  0
LINE
  5
2B9
100
AcDbEntity
  8
0
100
AcDbLine
 62
7
  6
CONTINUOUS
 10
20.4547536937
 20
265.0809563424
 11
21.2705005692
 21
264.9667080556
  0
LINE
  5
2BA
100
AcDbEntity
  8
0
100
AcDbLine
 62
7
  6
CONTINUOUS
 10
-6.6989034783
 20
270.5771899249
 11
4.4071478319
 21
269.0217474765
  0
LINE
  5
2BB
100
AcDbEntity
  8
0
100
AcDbLine
 62
7
  6
CONTINUOUS
 10
12.7823879387
 20
271.6073367583
 11
15.2296285643
 21
271.2645919029
  0
LINE
  5
2BC
100
AcDbEntity
  8
0
100
AcDbLine
 62
7
  6
CONTINUOUS
 10
20.1776069867
 20
272.2580109397
 11
19.3618601115
 21
272.3722592248
  0
LINE
  5
2BD
100
AcDbEntity
  8
0
100
AcDbLine
 62
7
  6
CONTINUOUS
 10
10.2427650774
 20
274.342433146
 11
12.4180900779
 21
274.0377710523
  0
LINE
  5
2BE
100
AcDbEntity
  8
0
100
AcDbLine
 62
7
  6
CONTINUOUS
 10
18.1789981092
 20
263.3955185325
 11
18.5428019071
 21
263.3420215996
  0
LINE
  5
2BF
100
AcDbEntity
  8
0
100
AcDbLine
 62
7
  6
CONTINUOUS
 10
17.20336664
 20
263.6887764093
 11
18.154439013
 21
263.5441023645
  0
LINE
  5
2C0
100
AcDbEntity
  8
0
100
AcDbLine
 62
7
  6
CONTINUOUS
 10
18.2381597146
 20
263.6644250546
 11
18.5968550714
 21
263.6012457673
  0
LINE
  5
2C1
100
AcDbEntity
  8
0
100
AcDbLine
 62
7
  6
CONTINUOUS
 10
18.2303927797
 20
267.3051440818
 11
17.1554756797
 21
267.5261136071
  0
LINE
  5
2C2
100
AcDbEntity
  8
0
100
AcDbLine
 62
7
  6
CONTINUOUS
 10
18.5428019071
 20
263.3420215996
 11
19.4123520078
 21
263.1612347277
  0
LINE
  5
2C3
100
AcDbEntity
  8
0
100
AcDbLine
 62
7
  6
CONTINUOUS
 10
16.1273741779
 20
264.3532617709
 11
16.6413711844
 21
264.2463974155
  0
LINE
  5
2C4
100
AcDbEntity
  8
0
100
AcDbLine
 62
7
  6
CONTINUOUS
 10
16.9301648867
 20
264.2084957204
 11
16.060614786
 21
264.3892825922
  0
LINE
  5
2C5
100
AcDbEntity
  8
0
100
AcDbLine
 62
7
  6
CONTINUOUS
 10
17.7052742626
 20
264.1197047949
 11
18.7879283622
 21
263.8758546982
  0
LINE
  5
2C6
100
AcDbEntity
  8
0
100
AcDbLine
 62
7
  6
CONTINUOUS
 10
16.0071106257
 20
263.0641136546
 11
17.0435006802
 21
262.7952971621
  0
LINE
  5
2C7
100
AcDbEntity
  8
0
100
AcDbLine
 62
7
  6
CONTINUOUS
 10
17.0179382186
 20
262.9085785688
 11
17.3362806379
 21
262.8204033065
  0
LINE
  5
2C8
100
AcDbEntity
  8
0
100
AcDbLine
 62
7
  6
CONTINUOUS
 10
17.3283903497
 20
262.7782799361
 11
17.5372726932
 21
262.7191627784
  0
LINE
  5
2C9
100
AcDbEntity
  8
0
100
AcDbLine
 62
7
  6
CONTINUOUS
 10
16.3364097996
 20
263.1517532294
 11
17.1462227286
 21
262.9195790808
  0
LINE
  5
2CA
100
AcDbEntity
  8
0
100
AcDbLine
 62
7
  6
CONTINUOUS
 10
-26.6945188479
 20
264.180609204
 11
-25.2521331094
 21
263.3475139891
  0
LINE
  5
2CB
100
AcDbEntity
  8
0
100
AcDbLine
 62
7
  6
CONTINUOUS
 10
25.8893713861
 20
204.5891560245
 11
25.9316866864
 21
204.5309023596
  0
LINE
  5
2CC
100
AcDbEntity
  8
0
100
AcDbLine
 62
7
  6
CONTINUOUS
 10
26.2804213508
 20
204.3887397221
 11
26.5242692419
 21
204.053044755
  0
LINE
  5
2CD
100
AcDbEntity
  8
0
100
AcDbLine
 62
7
  6
CONTINUOUS
 10
26.4172952225
 20
206.391913811
 11
26.3352365589
 21
206.5048804651
  0
LINE
  5
2CE
100
AcDbEntity
  8
0
100
AcDbLine
 62
7
  6
CONTINUOUS
 10
26.678842758
 20
206.5009314853
 11
26.4349948669
 21
206.8366264524
  0
LINE
  5
2CF
100
AcDbEntity
  8
0
100
AcDbLine
 62
7
  6
CONTINUOUS
 10
-5.3901866025
 20
250.488010208
 11
-0.7523441241
 21
219.5463752856
  0
LINE
  5
2D0
100
AcDbEntity
  8
0
100
AcDbLine
 62
7
  6
CONTINUOUS
 10
-0.5044102313
 20
219.6128353249
 11
-5.1422527097
 21
250.5544702473
  0
LINE
  5
2D1
100
AcDbEntity
  8
0
100
AcDbLine
 62
7
  6
CONTINUOUS
 10
0.7048473188
 20
218.7047285707
 11
-4.1338500293
 21
250.9863783987
  0
LINE
  5
2D2
100
AcDbEntity
  8
0
100
AcDbLine
 62
7
  6
CONTINUOUS
 10
-6.6989034783
 20
270.5771899249
 11
2.6678632124
 21
208.0862630129
  0
LINE
  5
2D3
100
AcDbEntity
  8
0
100
AcDbLine
 62
7
  6
CONTINUOUS
 10
12.937892672
 20
199.0095539602
 11
3.4354934261
 21
262.4053613262
  0
LINE
  5
2D4
100
AcDbEntity
  8
0
100
AcDbLine
 62
7
  6
CONTINUOUS
 10
5.6108184267
 20
262.1006992325
 11
15.1554223778
 21
198.4233207294
  0
LINE
  5
2D5
100
AcDbEntity
  8
0
100
AcDbLine
 62
7
  6
CONTINUOUS
 10
15.1554223778
 20
198.4233207294
 11
15.1554223778
 21
190.6089765152
  0
LINE
  5
2D6
100
AcDbEntity
  8
0
100
AcDbLine
 62
7
  6
CONTINUOUS
 10
33.4483645914
 20
282.7177869635
 11
33.4472353811
 21
282.7047744158
  0
LINE
  5
2D7
100
AcDbEntity
  8
0
100
AcDbLine
 62
7
  6
CONTINUOUS
 10
34.5999058237
 20
284.239352806
 11
34.5973078752
 21
284.2125421736
  0
LINE
  5
2D8
100
AcDbEntity
  8
0
100
AcDbLine
 62
7
  6
CONTINUOUS
 10
34.6502272279
 20
284.2348800337
 11
34.6467186693
 21
284.2081667248
  0
LINE
  5
2D9
100
AcDbEntity
  8
0
100
AcDbLine
 62
7
  6
CONTINUOUS
 10
35.4636102097
 20
290.4335833159
 11
35.4649762123
 21
290.4419008532
  0
LINE
  5
2DA
100
AcDbEntity
  8
0
100
AcDbLine
 62
7
  6
CONTINUOUS
 10
35.4651885478
 20
290.4431236075
 11
35.4669192227
 21
290.4529735462
  0
LINE
  5
2DB
100
AcDbEntity
  8
0
100
AcDbLine
 62
7
  6
CONTINUOUS
 10
26.0794292954
 20
204.4899802502
 11
25.8791501894
 21
203.4207631571
  0
LINE
  5
2DC
100
AcDbEntity
  8
0
100
AcDbLine
 62
7
  6
CONTINUOUS
 10
26.5641865249
 20
206.5022492007
 11
26.5455797325
 21
206.402914323
  0
LINE
  5
2DD
100
AcDbEntity
  8
0
100
AcDbLine
 62
7
  6
CONTINUOUS
 10
26.8798348134
 20
206.3996909572
 11
27.0801139194
 21
207.4689080504
  0
LINE
  5
2DE
100
AcDbEntity
  8
0
100
AcDbLine
 62
7
  6
CONTINUOUS
 10
36.4212088517
 20
290.1424392432
 11
36.5388493764
 21
290.7192121014
  0
LINE
  5
2DF
100
AcDbEntity
  8
0
100
AcDbLine
 62
7
  6
CONTINUOUS
 10
27.0801139194
 20
207.4689080504
 11
26.678842758
 21
206.5009314853
  0
LINE
  5
2E0
100
AcDbEntity
  8
0
100
AcDbLine
 62
7
  6
CONTINUOUS
 10
25.8791501894
 20
203.4207631571
 11
26.2804213508
 21
204.3887397221
  0
LINE
  5
2E1
100
AcDbEntity
  8
0
100
AcDbLine
 62
7
  6
CONTINUOUS
 10
25.4090789381
 20
205.7673905274
 11
25.3913042672
 21
205.7418449193
  0
LINE
  5
2E2
100
AcDbEntity
  8
0
100
AcDbLine
 62
7
  6
CONTINUOUS
 10
25.6192603798
 20
205.6188484964
 11
25.4281870891
 21
205.3442395655
  0
LINE
  5
2E3
100
AcDbEntity
  8
0
100
AcDbLine
 62
7
  6
CONTINUOUS
 10
26.8975876705
 20
205.2136793082
 11
26.9813083721
 21
205.3340019984
  0
LINE
  5
2E4
100
AcDbEntity
  8
0
100
AcDbLine
 62
7
  6
CONTINUOUS
 10
27.340003729
 20
205.2708227111
 11
27.5310770197
 21
205.545431642
  0
LINE
  5
2E5
100
AcDbEntity
  8
0
100
AcDbLine
 62
7
  6
CONTINUOUS
 10
36.7383787686
 20
291.264189929
 11
36.4681894399
 21
291.2562622536
  0
LINE
  5
2E6
100
AcDbEntity
  8
0
100
AcDbLine
 62
7
  6
CONTINUOUS
 10
48.7588159311
 20
292.7004764893
 11
48.5849082038
 21
292.6953738303
  0
LINE
  5
2E7
100
AcDbEntity
  8
0
100
AcDbLine
 62
7
  6
CONTINUOUS
 10
36.4681894399
 20
291.2562622536
 11
36.4838933763
 21
291.2565998618
  0
LINE
  5
2E8
100
AcDbEntity
  8
0
100
AcDbLine
 62
7
  6
CONTINUOUS
 10
27.3501835522
 20
274.3111889274
 11
33.8223658636
 21
273.4047365062
  0
LINE
  5
2E9
100
AcDbEntity
  8
0
100
AcDbLine
 62
7
  6
CONTINUOUS
 10
27.3436987782
 20
274.2898923696
 11
27.6156125296
 21
274.2518091057
  0
LINE
  5
2EA
100
AcDbEntity
  8
0
100
AcDbLine
 62
7
  6
CONTINUOUS
 10
17.226589522
 20
263.6005695223
 11
18.6157824256
 21
262.9004855999
  0
LINE
  5
2EB
100
AcDbEntity
  8
0
100
AcDbLine
 62
7
  6
CONTINUOUS
 10
16.060614786
 20
264.3892825922
 11
16.8761117223
 21
263.9492715526
  0
LINE
  5
2EC
100
AcDbEntity
  8
0
100
AcDbLine
 62
7
  6
CONTINUOUS
 10
18.2381597146
 20
263.6644250546
 11
19.0192938658
 21
263.2429548631
  0
LINE
  5
2ED
100
AcDbEntity
  8
0
100
AcDbLine
 62
7
  6
CONTINUOUS
 10
19.4123520078
 20
263.1612347277
 11
18.5968550714
 21
263.6012457673
  0
LINE
  5
2EE
100
AcDbEntity
  8
0
100
AcDbLine
 62
7
  6
CONTINUOUS
 10
-14.4696682511
 20
271.7598479232
 11
-16.8549475177
 21
273.1375409289
  0
LINE
  5
2EF
100
AcDbEntity
  8
0
100
AcDbLine
 62
7
  6
CONTINUOUS
 10
-14.2978242065
 20
273.8229918523
 11
-12.3529964572
 21
272.6996954631
  0
LINE
  5
2F0
100
AcDbEntity
  8
0
100
AcDbLine
 62
7
  6
CONTINUOUS
 10
24.9207465038
 20
204.3506638415
 11
24.8765202695
 21
204.447247133
  0
LINE
  5
2F1
100
AcDbEntity
  8
0
100
AcDbLine
 62
7
  6
CONTINUOUS
 10
24.8482475467
 20
204.4343008351
 11
24.8907338739
 21
204.3369208266
  0
LINE
  5
2F2
100
AcDbEntity
  8
0
100
AcDbLine
 62
7
  6
CONTINUOUS
 10
24.9070108336
 20
208.0204393382
 11
25.6003330257
 21
206.3196086638
  0
LINE
  5
2F3
100
AcDbEntity
  8
0
100
AcDbLine
 62
7
  6
CONTINUOUS
 10
26.5242692419
 20
204.053044755
 11
27.217591434
 21
202.3522140807
  0
LINE
  5
2F4
100
AcDbEntity
  8
0
100
AcDbLine
 62
7
  6
CONTINUOUS
 10
24.9686477421
 20
208.9242835857
 11
25.7337619423
 21
207.0473355867
  0
LINE
  5
2F5
100
AcDbEntity
  8
0
100
AcDbLine
 62
7
  6
CONTINUOUS
 10
26.7549690073
 20
204.5421506656
 11
27.5200832075
 21
202.6652026666
  0
LINE
  5
2F6
100
AcDbEntity
  8
0
100
AcDbLine
 62
7
  6
CONTINUOUS
 10
28.0522532751
 20
202.8692318693
 11
27.3589310831
 21
204.5700625436
  0
LINE
  5
2F7
100
AcDbEntity
  8
0
100
AcDbLine
 62
7
  6
CONTINUOUS
 10
26.4349948669
 20
206.8366264524
 11
25.7416726748
 21
208.5374571268
  0
LINE
  5
2F8
100
AcDbEntity
  8
0
100
AcDbLine
 62
7
  6
CONTINUOUS
 10
25.3845198419
 20
205.9159743593
 11
25.4090789381
 21
205.7673905274
  0
LINE
  5
2F9
100
AcDbEntity
  8
0
100
AcDbLine
 62
7
  6
CONTINUOUS
 10
25.6003330257
 20
206.3196086638
 11
25.6733135442
 21
205.8780726641
  0
LINE
  5
2FA
100
AcDbEntity
  8
0
100
AcDbLine
 62
7
  6
CONTINUOUS
 10
16.6413711844
 20
264.2463974155
 11
16.6659302806
 21
264.0978135836
  0
LINE
  5
2FB
100
AcDbEntity
  8
0
100
AcDbLine
 62
7
  6
CONTINUOUS
 10
16.8571843682
 20
264.6500317201
 11
16.9301648867
 21
264.2084957204
  0
LINE
  5
2FC
100
AcDbEntity
  8
0
100
AcDbLine
 62
7
  6
CONTINUOUS
 10
26.9221467667
 20
205.0650954763
 11
26.8975876705
 21
205.2136793082
  0
LINE
  5
2FD
100
AcDbEntity
  8
0
100
AcDbLine
 62
7
  6
CONTINUOUS
 10
27.3589310831
 20
204.5700625436
 11
27.2859505646
 21
205.0115985434
  0
LINE
  5
2FE
100
AcDbEntity
  8
0
100
AcDbLine
 62
7
  6
CONTINUOUS
 10
18.1789981092
 20
263.3955185325
 11
18.154439013
 21
263.5441023645
  0
LINE
  5
2FF
100
AcDbEntity
  8
0
100
AcDbLine
 62
7
  6
CONTINUOUS
 10
18.6157824256
 20
262.9004855999
 11
18.5428019071
 21
263.3420215996
  0
LINE
  5
300
100
AcDbEntity
  8
0
100
AcDbLine
 62
7
  6
CONTINUOUS
 10
7.4703226229
 20
262.5991495273
 11
16.2134712804
 21
204.2687264711
  0
LINE
  5
301
100
AcDbEntity
  8
0
100
AcDbLine
 62
7
  6
CONTINUOUS
 10
7.6769342002
 20
262.6545328934
 11
16.4200828577
 21
204.3241098372
  0
LINE
  5
302
100
AcDbEntity
  8
0
100
AcDbLine
 62
7
  6
CONTINUOUS
 10
10.1241748258
 20
262.311788038
 11
10.8527705473
 21
257.45091945
  0
LINE
  5
303
100
AcDbEntity
  8
0
100
AcDbLine
 62
7
  6
CONTINUOUS
 10
18.1387277619
 20
208.8422335698
 11
18.8673234833
 21
203.9813649818
  0
LINE
  5
304
100
AcDbEntity
  8
0
100
AcDbLine
 62
7
  6
CONTINUOUS
 10
11.6685174225
 20
257.3366711649
 11
18.9544746371
 21
208.7279852846
  0
LINE
  5
305
100
AcDbEntity
  8
0
100
AcDbLine
 62
7
  6
CONTINUOUS
 10
30.2907959334
 20
199.4592304045
 11
29.3549542675
 21
205.7027523232
  0
LINE
  5
306
100
AcDbEntity
  8
0
100
AcDbLine
 62
7
  6
CONTINUOUS
 10
20.4547536937
 20
265.0809563424
 11
19.3618601115
 21
272.3722592248
  0
LINE
  5
307
100
AcDbEntity
  8
0
100
AcDbLine
 62
7
  6
CONTINUOUS
 10
35.4644252854
 20
290.4339853159
 11
35.4651885478
 21
290.4431236075
  0
LINE
  5
308
100
AcDbEntity
  8
0
100
AcDbLine
 62
7
  6
CONTINUOUS
 10
86.7029038741
 20
257.2113371723
 11
86.7947732077
 21
257.1802045425
  0
LINE
  5
309
100
AcDbEntity
  8
0
100
AcDbLine
 62
7
  6
CONTINUOUS
 10
17.1462227286
 20
262.9195790808
 11
17.1885380289
 21
262.8613254159
  0
LINE
  5
30A
100
AcDbEntity
  8
0
100
AcDbLine
 62
7
  6
CONTINUOUS
 10
17.5372726932
 20
262.7191627784
 11
17.7811205844
 21
262.3834678113
  0
LINE
  5
30B
100
AcDbEntity
  8
0
100
AcDbLine
 62
7
  6
CONTINUOUS
 10
17.674146565
 20
264.7223368673
 11
17.5920879013
 21
264.8353035214
  0
LINE
  5
30C
100
AcDbEntity
  8
0
100
AcDbLine
 62
7
  6
CONTINUOUS
 10
17.9356941005
 20
264.8313545416
 11
17.6918462093
 21
265.1670495087
  0
LINE
  5
30D
100
AcDbEntity
  8
0
100
AcDbLine
 62
7
  6
CONTINUOUS
 10
16.1775978463
 20
262.6810868977
 11
16.133371612
 21
262.7776701892
  0
LINE
  5
30E
100
AcDbEntity
  8
0
100
AcDbLine
 62
7
  6
CONTINUOUS
 10
16.1050988891
 20
262.7647238913
 11
16.1475852164
 21
262.6673438829
  0
LINE
  5
30F
100
AcDbEntity
  8
0
100
AcDbLine
 62
7
  6
CONTINUOUS
 10
16.1638621761
 20
266.3508623944
 11
16.8571843682
 21
264.6500317201
  0
LINE
  5
310
100
AcDbEntity
  8
0
100
AcDbLine
 62
7
  6
CONTINUOUS
 10
17.7811205844
 20
262.3834678113
 11
18.4744427765
 21
260.6826371369
  0
LINE
  5
311
100
AcDbEntity
  8
0
100
AcDbLine
 62
7
  6
CONTINUOUS
 10
16.2254990846
 20
267.254706642
 11
16.9906132848
 21
265.377758643
  0
LINE
  5
312
100
AcDbEntity
  8
0
100
AcDbLine
 62
7
  6
CONTINUOUS
 10
18.0118203498
 20
262.8725737218
 11
18.77693455
 21
260.9956257228
  0
LINE
  5
313
100
AcDbEntity
  8
0
100
AcDbLine
 62
7
  6
CONTINUOUS
 10
19.3091046176
 20
261.1996549255
 11
18.6157824256
 21
262.9004855999
  0
LINE
  5
314
100
AcDbEntity
  8
0
100
AcDbLine
 62
7
  6
CONTINUOUS
 10
17.6918462093
 20
265.1670495087
 11
16.9985240173
 21
266.8678801831
  0
LINE
  5
315
100
AcDbEntity
  8
0
100
AcDbLine
 62
7
  6
CONTINUOUS
 10
20.1776069867
 20
272.2580109397
 11
21.2705005692
 21
264.9667080556
  0
LINE
  5
316
100
AcDbEntity
  8
0
100
AcDbLine
 62
7
  6
CONTINUOUS
 10
31.1065428086
 20
199.3449821194
 11
30.0136492264
 21
206.6362850014
  0
LINE
  5
317
100
AcDbEntity
  8
0
100
AcDbLine
 62
7
  6
CONTINUOUS
 10
48.5849082038
 20
292.6953738303
 11
48.5849082038
 21
291.6381390249
  0
LINE
  5
318
100
AcDbEntity
  8
0
100
AcDbLine
 62
7
  6
CONTINUOUS
 10
48.7588159311
 20
293.3269726454
 11
48.7588159311
 21
291.3029735997
  0
LINE
  5
319
100
AcDbEntity
  8
0
100
AcDbLine
 62
7
  6
CONTINUOUS
 10
48.4761835228
 20
292.5282269733
 11
48.4761713001
 21
292.5172219179
  0
LINE
  5
31A
100
AcDbEntity
  8
0
100
AcDbLine
 62
7
  6
CONTINUOUS
 10
104.044138224
 20
259.5432895534
 11
104.0776320908
 21
259.588653155
  0
LINE
  5
31B
100
AcDbEntity
  8
0
100
AcDbLine
 62
7
  6
CONTINUOUS
 10
104.044138224
 20
259.5432895534
 11
104.0780821982
 21
259.5887276432
  0
LINE
  5
31C
100
AcDbEntity
  8
0
100
AcDbLine
 62
7
  6
CONTINUOUS
 10
68.4137073684
 20
257.6680845209
 11
68.4683048232
 21
257.6254883818
  0
LINE
  5
31D
100
AcDbEntity
  8
0
100
AcDbLine
 62
7
  6
CONTINUOUS
 10
112.5763436807
 20
290.5505480733
 11
112.5847214091
 21
290.5665734797
  0
LINE
  5
31E
100
AcDbEntity
  8
0
100
AcDbLine
 62
7
  6
CONTINUOUS
 10
51.9699254089
 20
260.7964214273
 11
51.960911649
 21
260.8439962489
  0
LINE
  5
31F
100
AcDbEntity
  8
0
100
AcDbLine
 62
7
  6
CONTINUOUS
 10
71.4849357696
 20
205.8730341721
 11
71.5676361496
 21
205.3212937935
  0
LINE
  5
320
100
AcDbEntity
  8
0
100
AcDbLine
 62
7
  6
CONTINUOUS
 10
112.5648200618
 20
290.5514837784
 11
112.5705484625
 21
290.5677169253
  0
LINE
  5
321
100
AcDbEntity
  8
0
100
AcDbLine
 62
7
  6
CONTINUOUS
 10
117.8183042578
 20
264.3564854042
 11
117.7973628623
 21
264.3089238814
  0
LINE
  5
322
100
AcDbEntity
  8
0
100
AcDbLine
 62
7
  6
CONTINUOUS
 10
117.8191257545
 20
264.3566020947
 11
117.7973628623
 21
264.3089238814
  0
LINE
  5
323
100
AcDbEntity
  8
0
100
AcDbLine
 62
7
  6
CONTINUOUS
 10
73.2390915897
 20
208.508126745
 11
73.6337519239
 21
205.8751274495
  0
LINE
  5
324
100
AcDbEntity
  8
0
100
AcDbLine
 62
7
  6
CONTINUOUS
 10
76.3568058264
 20
200.6773058574
 11
76.7136940192
 21
198.2963055927
  0
LINE
  5
325
100
AcDbEntity
  8
0
100
AcDbLine
 62
7
  6
CONTINUOUS
 10
79.4188760899
 20
207.4258617002
 11
79.0242157557
 21
210.0588609956
  0
LINE
  5
326
100
AcDbEntity
  8
0
100
AcDbLine
 62
7
  6
CONTINUOUS
 10
81.4849918627
 20
207.9796953661
 11
81.4022914827
 21
208.5314357447
  0
LINE
  5
327
100
AcDbEntity
  8
0
100
AcDbLine
 62
7
  6
CONTINUOUS
 10
73.2788733523
 20
198.7762913076
 11
72.9731756688
 21
201.0895651235
  0
LINE
  5
328
100
AcDbEntity
  8
0
100
AcDbLine
 62
7
  6
CONTINUOUS
 10
112.4761713001
 20
292.5172219179
 11
112.4760219725
 21
292.5556880461
  0
LINE
  5
329
100
AcDbEntity
  8
0
100
AcDbLine
 62
7
  6
CONTINUOUS
 10
112.3588159311
 20
293.3269726454
 11
112.3588159311
 21
291.6578829677
  0
LINE
  5
32A
100
AcDbEntity
  8
0
100
AcDbLine
 62
7
  6
CONTINUOUS
 10
126.8603159741
 20
277.9849229953
 11
126.861655025
 21
278.0237537211
  0
LINE
  5
32B
100
AcDbEntity
  8
0
100
AcDbLine
 62
7
  6
CONTINUOUS
 10
126.926751246
 20
278.0124304492
 11
126.9289162522
 21
278.0516880987
  0
LINE
  5
32C
100
AcDbEntity
  8
0
100
AcDbLine
 62
7
  6
CONTINUOUS
 10
125.868774424
 20
270.7827151043
 11
125.8721671177
 21
270.8151619573
  0
LINE
  5
32D
100
AcDbEntity
  8
0
100
AcDbLine
 62
7
  6
CONTINUOUS
 10
125.868774424
 20
270.7827151043
 11
125.8738770684
 21
270.815532762
  0
LINE
  5
32E
100
AcDbEntity
  8
0
100
AcDbLine
 62
7
  6
CONTINUOUS
 10
127.31516045
 20
283.3620713092
 11
127.3269101848
 21
283.2548624855
  0
LINE
  5
32F
100
AcDbEntity
  8
0
100
AcDbLine
 62
7
  6
CONTINUOUS
 10
127.3151585057
 20
283.362081199
 11
127.3244275472
 21
283.2545161347
  0
LINE
  5
330
100
AcDbEntity
  8
0
100
AcDbLine
 62
7
  6
CONTINUOUS
 10
124.4612964986
 20
290.4483275932
 11
124.458445117
 21
290.4831481334
  0
LINE
  5
331
100
AcDbEntity
  8
0
100
AcDbLine
 62
7
  6
CONTINUOUS
 10
124.9815934691
 20
288.5892911204
 11
124.9829394491
 21
288.5663948099
  0
LINE
  5
332
100
AcDbEntity
  8
0
100
AcDbLine
 62
7
  6
CONTINUOUS
 10
124.458685854
 20
290.463437368
 11
124.4584651639
 21
290.4834475858
  0
LINE
  5
333
100
AcDbEntity
  8
0
100
AcDbLine
 62
7
  6
CONTINUOUS
 10
124.3795966255
 20
291.0588726888
 11
124.2745656548
 21
291.2463645809
  0
LWPOLYLINE
  5
334
100
AcDbEntity
  8
0
100
AcDbPolyline
 62
7
  6
CONTINUOUS
 90
4
 70
0
 10
125.9519424171
 20
289.3484757852
 10
124.4027146459
 20
292.5650479047
 10
122.39634259
 20
295.1529017662
 10
122.1188978363
 20
295.3767068844
  0
LWPOLYLINE
  5
335
100
AcDbEntity
  8
0
100
AcDbPolyline
 62
7
  6
CONTINUOUS
 90
3
 70
0
 10
124.6749398779
 20
290.4658224055
 10
124.5669115062
 20
290.695975852
 10
124.3795966255
 20
291.0588726888
  0
LINE
  5
336
100
AcDbEntity
  8
0
100
AcDbLine
 62
7
  6
CONTINUOUS
 10
124.6749952804
 20
290.4656975952
 11
124.6751892947
 21
290.4652657376
  0
LWPOLYLINE
  5
337
100
AcDbEntity
  8
0
100
AcDbPolyline
 62
7
  6
CONTINUOUS
 90
3
 70
0
 10
125.2599725344
 20
288.5826804464
 10
125.0557518312
 20
289.4242400649
 10
124.6749952804
 20
290.4656975952
  0
LINE
  5
338
100
AcDbEntity
  8
0
100
AcDbLine
 62
7
  6
CONTINUOUS
 10
124.4229941044
 20
290.6727868289
 11
124.4135150697
 21
290.7191071111
  0
LINE
  5
339
100
AcDbEntity
  8
0
100
AcDbLine
 62
7
  6
CONTINUOUS
 10
125.2554391528
 20
288.6053893826
 11
125.2599756104
 21
288.5826235784
  0
LINE
  5
33A
100
AcDbEntity
  8
0
100
AcDbLine
 62
7
  6
CONTINUOUS
 10
124.4638516649
 20
290.4516650403
 11
124.458445117
 21
290.4831481334
  0
LINE
  5
33B
100
AcDbEntity
  8
0
100
AcDbLine
 62
7
  6
CONTINUOUS
 10
124.9868967063
 20
288.5950659567
 11
124.9900217836
 21
288.5740994942
  0
LWPOLYLINE
  5
33C
100
AcDbEntity
  8
0
100
AcDbPolyline
 62
7
  6
CONTINUOUS
 90
3
 70
0
 10
127.3268084902
 20
283.2547213041
 10
127.0011423806
 20
285.4922965572
 10
125.9519424171
 20
289.3484757852
  0
ARC
  5
33D
100
AcDbEntity
  8
0
100
AcDbCircle
 62
7
  6
CONTINUOUS
 10
-905.3290449468
 20
257.7725210017
 40
991.1782350333
100
AcDbArc
 50
0.656042469
 51
0.8178047085
  0
ARC
  5
33E
100
AcDbEntity
  8
0
100
AcDbCircle
 62
7
  6
CONTINUOUS
 10
101.4607296748
 20
-464.5443054698
 40
674.5175740343
100
AcDbArc
 50
96.2314295473
 51
96.3850009936
  0
ARC
  5
33F
100
AcDbEntity
  8
0
100
AcDbCircle
 62
7
  6
CONTINUOUS
 10
92.717581068
 20
-406.2138824076
 40
674.517574034
100
AcDbArc
 50
96.2314295516
 51
96.385000998
  0
ARC
  5
340
100
AcDbEntity
  8
0
100
AcDbCircle
 62
7
  6
CONTINUOUS
 10
-96.8728893952
 20
39.1844402061
 40
248.7446307151
100
AcDbArc
 50
70.0037423052
 51
70.6117782928
  0
ARC
  5
341
100
AcDbEntity
  8
0
100
AcDbCircle
 62
7
  6
CONTINUOUS
 10
22.5871332346
 20
204.2899799483
 40
5.8558111703
100
AcDbArc
 50
232.3275840797
 51
232.6373225924
  0
ARC
  5
342
100
AcDbEntity
  8
0
100
AcDbCircle
 62
7
  6
CONTINUOUS
 10
21.4760578174
 20
203.9214463654
 40
5.5491818772
100
AcDbArc
 50
271.881969036
 51
278.0530853393
  0
ARC
  5
343
100
AcDbEntity
  8
0
100
AcDbCircle
 62
7
  6
CONTINUOUS
 10
21.4805844575
 20
203.8328370134
 40
5.4604719018
100
AcDbArc
 50
270.9221220744
 51
271.865031415
  0
ARC
  5
344
100
AcDbEntity
  8
0
100
AcDbCircle
 62
7
  6
CONTINUOUS
 10
21.4807412172
 20
203.8199699767
 40
5.447604009
100
AcDbArc
 50
267.9045756192
 51
270.9226514742
  0
ARC
  5
345
100
AcDbEntity
  8
0
100
AcDbCircle
 62
7
  6
CONTINUOUS
 10
25.1249860042
 20
204.6470097281
 40
2.66439299
100
AcDbArc
 50
242.9174812045
 51
243.1802232621
  0
ARC
  5
346
100
AcDbEntity
  8
0
100
AcDbCircle
 62
7
  6
CONTINUOUS
 10
25.1094237564
 20
204.6152162363
 40
2.6289980973
100
AcDbArc
 50
243.170273382
 51
250.9734225256
  0
ARC
  5
347
100
AcDbEntity
  8
0
100
AcDbCircle
 62
7
  6
CONTINUOUS
 10
25.0898290963
 20
204.5623075901
 40
2.5725923106
100
AcDbArc
 50
251.0018317545
 51
253.762635346
  0
ARC
  5
348
100
AcDbEntity
  8
0
100
AcDbCircle
 62
7
  6
CONTINUOUS
 10
25.0851516096
 20
204.5462014036
 40
2.555820669
100
AcDbArc
 50
253.7623515545
 51
259.4994582211
  0
ARC
  5
349
100
AcDbEntity
  8
0
100
AcDbCircle
 62
7
  6
CONTINUOUS
 10
25.0825978295
 20
204.5347142088
 40
2.5440604691
100
AcDbArc
 50
259.5088615901
 51
265.6706866838
  0
ARC
  5
34A
100
AcDbEntity
  8
0
100
AcDbCircle
 62
7
  6
CONTINUOUS
 10
-70.0862573859
 20
259.1484759488
 40
172.8358037752
100
AcDbArc
 50
4.0139580873
 51
4.9378008299
  0
ARC
  5
34B
100
AcDbEntity
  8
0
100
AcDbCircle
 62
7
  6
CONTINUOUS
 10
15.5265775134
 20
263.7044879306
 40
100.7309675095
100
AcDbArc
 50
6.8400833362
 51
8.4083375713
  0
ARC
  5
34C
100
AcDbEntity
  8
0
100
AcDbCircle
 62
7
  6
CONTINUOUS
 10
-7.7939613359
 20
253.8746592069
 40
21.5277420926
100
AcDbArc
 50
151.3975896211
 51
159.6118704669
  0
ARC
  5
34D
100
AcDbEntity
  8
0
100
AcDbCircle
 62
7
  6
CONTINUOUS
 10
16.1372236601
 20
263.8982225386
 40
8.7637186329
100
AcDbArc
 50
188.2536049118
 51
188.5245448595
  0
ARC
  5
34E
100
AcDbEntity
  8
0
100
AcDbCircle
 62
7
  6
CONTINUOUS
 10
14.2437017424
 20
266.2630216778
 40
5.7846184817
100
AcDbArc
 50
105.0058876445
 51
105.5369401458
  0
ARC
  5
34F
100
AcDbEntity
  8
0
100
AcDbCircle
 62
7
  6
CONTINUOUS
 10
16.6641355256
 20
263.4466107472
 40
3.235930671
100
AcDbArc
 50
303.4604217965
 51
310.7620079751
  0
ARC
  5
350
100
AcDbEntity
  8
0
100
AcDbCircle
 62
7
  6
CONTINUOUS
 10
16.3818373368
 20
262.977432765
 40
2.6643929684
100
AcDbArc
 50
242.9174812032
 51
243.180223263
  0
ARC
  5
351
100
AcDbEntity
  8
0
100
AcDbCircle
 62
7
  6
CONTINUOUS
 10
16.3662750989
 20
262.9456392926
 40
2.6289980973
100
AcDbArc
 50
243.170273382
 51
250.9734225255
  0
ARC
  5
352
100
AcDbEntity
  8
0
100
AcDbCircle
 62
7
  6
CONTINUOUS
 10
16.3466804388
 20
262.8927306464
 40
2.5725923106
100
AcDbArc
 50
251.0018317545
 51
253.762635346
  0
ARC
  5
353
100
AcDbEntity
  8
0
100
AcDbCircle
 62
7
  6
CONTINUOUS
 10
16.342002952
 20
262.8766244598
 40
2.5558206689
100
AcDbArc
 50
253.7623515544
 51
259.4994582211
  0
ARC
  5
354
100
AcDbEntity
  8
0
100
AcDbCircle
 62
7
  6
CONTINUOUS
 10
16.339449172
 20
262.865137265
 40
2.5440604691
100
AcDbArc
 50
259.5088615901
 51
265.6706866838
  0
ARC
  5
355
100
AcDbEntity
  8
0
100
AcDbCircle
 62
7
  6
CONTINUOUS
 10
16.6252853495
 20
263.7358381082
 40
0.8808388786
100
AcDbArc
 50
224.1529024654
 51
225.2384026054
  0
ARC
  5
356
100
AcDbEntity
  8
0
100
AcDbCircle
 62
7
  6
CONTINUOUS
 10
56.3799697996
 20
254.6139267539
 40
84.6235294732
100
AcDbArc
 50
175.4177928363
 51
176.4112667724
  0
ARC
  5
357
100
AcDbEntity
  8
0
100
AcDbCircle
 62
7
  6
CONTINUOUS
 10
80.4617085163
 20
223.4386345566
 40
82.6148762419
100
AcDbArc
 50
91.6806319163
 51
91.9175270657
  0
ARC
  5
358
100
AcDbEntity
  8
0
100
AcDbCircle
 62
7
  6
CONTINUOUS
 10
97.8965811886
 20
237.8349739813
 40
80.2912670747
100
AcDbArc
 50
204.6475962434
 51
204.9056330891
  0
ARC
  5
359
100
AcDbEntity
  8
0
100
AcDbCircle
 62
7
  6
CONTINUOUS
 10
112.5136150222
 20
276.132342229
 40
79.3390043122
100
AcDbArc
 50
175.2481093616
 51
179.9864909038
  0
ARC
  5
35A
100
AcDbEntity
  8
0
100
AcDbCircle
 62
7
  6
CONTINUOUS
 10
50.8495098687
 20
274.9386469856
 40
76.9282275849
100
AcDbArc
 50
359.9765607926
 51
6.2060058023
  0
ARC
  5
35B
100
AcDbEntity
  8
0
100
AcDbCircle
 62
7
  6
CONTINUOUS
 10
48.1339129327
 20
270.2444667384
 40
76.1661352235
100
AcDbArc
 50
8.7314253563
 51
10.7680677227
  0
ARC
  5
35C
100
AcDbEntity
  8
0
100
AcDbCircle
 62
7
  6
CONTINUOUS
 10
109.2932099089
 20
276.9840553012
 40
75.0448467054
100
AcDbArc
 50
169.6606232268
 51
174.4520074825
  0
ARC
  5
35D
100
AcDbEntity
  8
0
100
AcDbCircle
 62
7
  6
CONTINUOUS
 10
52.5209686833
 20
274.0308621098
 40
74.1803204918
100
AcDbArc
 50
6.2711669495
 51
11.3308619318
  0
ARC
  5
35E
100
AcDbEntity
  8
0
100
AcDbCircle
 62
7
  6
CONTINUOUS
 10
104.6162597747
 20
273.2546148003
 40
69.3314734931
100
AcDbArc
 50
168.4983997222
 51
170.7022746651
  0
ARC
  5
35F
100
AcDbEntity
  8
0
100
AcDbCircle
 62
7
  6
CONTINUOUS
 10
55.7611259587
 20
280.9451968745
 40
43.5938381748
100
AcDbArc
 50
204.2490898762
 51
204.6293019949
  0
ARC
  5
360
100
AcDbEntity
  8
0
100
AcDbCircle
 62
7
  6
CONTINUOUS
 10
64.504274614
 20
222.6147738173
 40
43.5938381724
100
AcDbArc
 50
204.2490898761
 51
204.6293019949
  0
ARC
  5
361
100
AcDbEntity
  8
0
100
AcDbCircle
 62
7
  6
CONTINUOUS
 10
96.6979761526
 20
279.985947932
 40
30.802688258
100
AcDbArc
 50
5.4716884429
 51
6.0925590667
  0
ARC
  5
362
100
AcDbEntity
  8
0
100
AcDbCircle
 62
7
  6
CONTINUOUS
 10
59.774869037
 20
278.8156974436
 40
25.916043672
100
AcDbArc
 50
120.4784622819
 51
122.7399091057
  0
ARC
  5
363
100
AcDbEntity
  8
0
100
AcDbCircle
 62
7
  6
CONTINUOUS
 10
42.6848844305
 20
237.1145278832
 40
25.4081268118
100
AcDbArc
 50
299.7121388867
 51
305.7108776536
  0
ARC
  5
364
100
AcDbEntity
  8
0
100
AcDbCircle
 62
7
  6
CONTINUOUS
 10
47.328836224
 20
216.6789683128
 40
24.215125133
100
AcDbArc
 50
208.1086110264
 51
208.655343196
  0
ARC
  5
365
100
AcDbEntity
  8
0
100
AcDbCircle
 62
7
  6
CONTINUOUS
 10
38.5856875653
 20
275.0093913685
 40
24.2151251317
100
AcDbArc
 50
208.1086110264
 51
208.655343196
  0
ARC
  5
366
100
AcDbEntity
  8
0
100
AcDbCircle
 62
7
  6
CONTINUOUS
 10
70.6451529549
 20
229.1455787312
 40
20.7998303388
100
AcDbArc
 50
262.0591868901
 51
277.1639861771
  0
ARC
  5
367
100
AcDbEntity
  8
0
100
AcDbCircle
 62
7
  6
CONTINUOUS
 10
106.9603255044
 20
283.498903888
 40
19.4040373291
100
AcDbArc
 50
46.2133634964
 51
49.0186252148
  0
ARC
  5
368
100
AcDbEntity
  8
0
100
AcDbCircle
 62
7
  6
CONTINUOUS
 10
108.4296419228
 20
283.5134757702
 40
18.1574999395
100
AcDbArc
 50
23.2947066936
 51
24.3720080758
  0
ARC
  5
369
100
AcDbEntity
  8
0
100
AcDbCircle
 62
7
  6
CONTINUOUS
 10
108.945835517
 20
283.7484770285
 40
17.5903312816
100
AcDbArc
 50
24.3685976343
 51
26.1160573513
  0
ARC
  5
36A
100
AcDbEntity
  8
0
100
AcDbCircle
 62
7
  6
CONTINUOUS
 10
49.2978728927
 20
287.5000945943
 40
13.2174142916
100
AcDbArc
 50
146.8979304849
 51
150.4607081635
  0
ARC
  5
36B
100
AcDbEntity
  8
0
100
AcDbCircle
 62
7
  6
CONTINUOUS
 10
40.6337896567
 20
269.0562843372
 40
8.4114004634
100
AcDbArc
 50
110.783145829
 51
114.3298218349
  0
ARC
  5
36C
100
AcDbEntity
  8
0
100
AcDbCircle
 62
7
  6
CONTINUOUS
 10
33.5918782424
 20
207.3240237574
 40
7.8940125853
100
AcDbArc
 50
194.4188044095
 51
195.0808403779
  0
ARC
  5
36D
100
AcDbEntity
  8
0
100
AcDbCircle
 62
7
  6
CONTINUOUS
 10
24.848729585
 20
265.6544468137
 40
7.8940125854
100
AcDbArc
 50
194.4188044095
 51
195.0808403779
  0
ARC
  5
36E
100
AcDbEntity
  8
0
100
AcDbCircle
 62
7
  6
CONTINUOUS
 10
39.6094448488
 20
270.4326519745
 40
6.4022624709
100
AcDbArc
 50
158.894205144
 51
160.4763769975
  0
ARC
  5
36F
100
AcDbEntity
  8
0
100
AcDbCircle
 62
7
  6
CONTINUOUS
 10
34.701420177
 20
279.6766715433
 40
4.6023562776
100
AcDbArc
 50
76.4633035593
 51
78.8571781856
  0
ARC
  5
370
100
AcDbEntity
  8
0
100
AcDbCircle
 62
7
  6
CONTINUOUS
 10
59.6647041135
 20
241.5350540334
 40
3.6924716556
100
AcDbArc
 50
201.1956707466
 51
205.6323422242
  0
ARC
  5
371
100
AcDbEntity
  8
0
100
AcDbCircle
 62
7
  6
CONTINUOUS
 10
77.5577915842
 20
246.331394232
 40
3.6924716556
100
AcDbArc
 50
201.1956707466
 51
205.6323422242
  0
ARC
  5
372
100
AcDbEntity
  8
0
100
AcDbCircle
 62
7
  6
CONTINUOUS
 10
25.2614570635
 20
207.0864723696
 40
3.5436043265
100
AcDbArc
 50
68.9398843867
 51
75.073557376
  0
ARC
  5
373
100
AcDbEntity
  8
0
100
AcDbCircle
 62
7
  6
CONTINUOUS
 10
25.4072841831
 20
205.1161876909
 40
3.2359306709
100
AcDbArc
 50
303.4604217965
 51
310.7620079752
  0
ARC
  5
374
100
AcDbEntity
  8
0
100
AcDbCircle
 62
7
  6
CONTINUOUS
 10
25.3684340067
 20
205.4054150516
 40
0.880838878
100
AcDbArc
 50
224.152902465
 51
225.2384026057
  0
ARC
  5
375
100
AcDbEntity
  8
0
100
AcDbCircle
 62
7
  6
CONTINUOUS
 10
22.8997986282
 20
307.6580751886
 40
104.3297475996
100
AcDbArc
 50
335.4778900628
 51
336.0619537968
  0
ARC
  5
376
100
AcDbEntity
  8
0
100
AcDbCircle
 62
7
  6
CONTINUOUS
 10
78.9032829135
 20
360.3522296592
 40
103.4353797795
100
AcDbArc
 50
264.7675901963
 51
274.3245352927
  0
ARC
  5
377
100
AcDbEntity
  8
0
100
AcDbCircle
 62
7
  6
CONTINUOUS
 10
73.557440591
 20
370.7824182626
 40
98.4704882866
100
AcDbArc
 50
265.9598623315
 51
267.1059423981
  0
ARC
  5
378
100
AcDbEntity
  8
0
100
AcDbCircle
 62
7
  6
CONTINUOUS
 10
75.4779923374
 20
368.5882427098
 40
97.2127615035
100
AcDbArc
 50
274.905009201
 51
276.0644436083
  0
ARC
  5
379
100
AcDbEntity
  8
0
100
AcDbCircle
 62
7
  6
CONTINUOUS
 10
82.8773196321
 20
358.3936445863
 40
81.9950901294
100
AcDbArc
 50
279.2216995138
 51
280.5911119124
  0
ARC
  5
37A
100
AcDbEntity
  8
0
100
AcDbCircle
 62
7
  6
CONTINUOUS
 10
89.1534325318
 20
296.1653970379
 40
80.2912670754
100
AcDbArc
 50
204.6475962434
 51
204.9056330891
  0
ARC
  5
37B
100
AcDbEntity
  8
0
100
AcDbCircle
 62
7
  6
CONTINUOUS
 10
83.6470624556
 20
354.2978638413
 40
77.8276078589
100
AcDbArc
 50
280.588292666
 51
281.7412727652
  0
ARC
  5
37C
100
AcDbEntity
  8
0
100
AcDbCircle
 62
7
  6
CONTINUOUS
 10
67.9687873174
 20
340.2428248637
 40
66.3981666069
100
AcDbArc
 50
255.6913473446
 51
257.1779305013
  0
ARC
  5
37D
100
AcDbEntity
  8
0
100
AcDbCircle
 62
7
  6
CONTINUOUS
 10
83.6821584101
 20
335.5798218036
 40
64.2533000387
100
AcDbArc
 50
285.1306679369
 51
286.6647090267
  0
ARC
  5
37E
100
AcDbEntity
  8
0
100
AcDbCircle
 62
7
  6
CONTINUOUS
 10
98.4526083345
 20
297.9558534291
 40
38.8538708679
100
AcDbArc
 50
295.4301513326
 51
296.9359045323
  0
ARC
  5
37F
100
AcDbEntity
  8
0
100
AcDbCircle
 62
7
  6
CONTINUOUS
 10
99.8055825461
 20
295.8586620245
 40
36.3263447431
100
AcDbArc
 50
294.9885514279
 51
296.6275393676
  0
ARC
  5
380
100
AcDbEntity
  8
0
100
AcDbCircle
 62
7
  6
CONTINUOUS
 10
54.9732846113
 20
305.4006715505
 40
27.9386563277
100
AcDbArc
 50
239.7542660901
 51
242.3980760086
  0
ARC
  5
381
100
AcDbEntity
  8
0
100
AcDbCircle
 62
7
  6
CONTINUOUS
 10
100.1896573649
 20
301.1437632581
 40
27.2081624077
100
AcDbArc
 50
300.6798784288
 51
303.4191101515
  0
ARC
  5
382
100
AcDbEntity
  8
0
100
AcDbCircle
 62
7
  6
CONTINUOUS
 10
57.7624121602
 20
296.2301265119
 40
11.0180676437
100
AcDbArc
 50
223.550868741
 51
223.9460868886
  0
ARC
  5
383
100
AcDbEntity
  8
0
100
AcDbCircle
 62
7
  6
CONTINUOUS
 10
113.8835377326
 20
288.5277508837
 40
10.7555783237
100
AcDbArc
 50
11.7556305631
 51
14.6728971512
  0
ARC
  5
384
100
AcDbEntity
  8
0
100
AcDbCircle
 62
7
  6
CONTINUOUS
 10
47.0525439146
 20
288.5311742327
 40
10.7389609697
100
AcDbArc
 50
165.628645381
 51
168.2445289038
  0
ARC
  5
385
100
AcDbEntity
  8
0
100
AcDbCircle
 62
7
  6
CONTINUOUS
 10
57.4002096304
 20
295.8892768774
 40
10.5207121511
100
AcDbArc
 50
221.3619470939
 51
223.5646021673
  0
ARC
  5
386
100
AcDbEntity
  8
0
100
AcDbCircle
 62
7
  6
CONTINUOUS
 10
57.3528677711
 20
295.1419890429
 40
9.6531285298
100
AcDbArc
 50
220.5149663397
 51
224.3768720729
  0
ARC
  5
387
100
AcDbEntity
  8
0
100
AcDbCircle
 62
7
  6
CONTINUOUS
 10
111.9796104167
 20
291.0728537522
 40
9.4542200807
100
AcDbArc
 50
36.2134984163
 51
36.8802776978
  0
ARC
  5
388
100
AcDbEntity
  8
0
100
AcDbCircle
 62
7
  6
CONTINUOUS
 10
56.7043114423
 20
294.5851650168
 40
8.7983338276
100
AcDbArc
 50
217.9647840771
 51
220.5020372684
  0
ARC
  5
389
100
AcDbEntity
  8
0
100
AcDbCircle
 62
7
  6
CONTINUOUS
 10
106.0593293253
 20
293.9839304141
 40
7.3663352271
100
AcDbArc
 50
328.7395188619
 51
329.900053594
  0
ARC
  5
38A
100
AcDbEntity
  8
0
100
AcDbCircle
 62
7
  6
CONTINUOUS
 10
105.3169511028
 20
294.1620536416
 40
7.2176418442
100
AcDbArc
 50
325.9917539915
 51
331.0368104784
  0
ARC
  5
38B
100
AcDbEntity
  8
0
100
AcDbCircle
 62
7
  6
CONTINUOUS
 10
43.4935447655
 20
289.2714952015
 40
7.1038019298
100
AcDbArc
 50
168.2419076432
 51
171.4056948085
  0
ARC
  5
38C
100
AcDbEntity
  8
0
100
AcDbCircle
 62
7
  6
CONTINUOUS
 10
106.2876383959
 20
293.8520985648
 40
7.1026982359
100
AcDbArc
 50
329.8964663693
 51
331.6942108664
  0
ARC
  5
38D
100
AcDbEntity
  8
0
100
AcDbCircle
 62
7
  6
CONTINUOUS
 10
43.378724559
 20
289.2895790784
 40
6.9875686477
100
AcDbArc
 50
171.4116184363
 51
172.9802927892
  0
ARC
  5
38E
100
AcDbEntity
  8
0
100
AcDbCircle
 62
7
  6
CONTINUOUS
 10
106.4631627325
 20
293.7567661979
 40
6.9029570453
100
AcDbArc
 50
331.7000524491
 51
332.3240576341
  0
ARC
  5
38F
100
AcDbEntity
  8
0
100
AcDbCircle
 62
7
  6
CONTINUOUS
 10
43.2771368989
 20
289.3027400546
 40
6.8851340889
100
AcDbArc
 50
172.9856787538
 51
189.8684818465
  0
ARC
  5
390
100
AcDbEntity
  8
0
100
AcDbCircle
 62
7
  6
CONTINUOUS
 10
114.6078190026
 20
292.226093754
 40
6.568318215
100
AcDbArc
 50
9.8338862281
 51
10.7309914209
  0
ARC
  5
391
100
AcDbEntity
  8
0
100
AcDbCircle
 62
7
  6
CONTINUOUS
 10
106.8461597591
 20
292.895376125
 40
5.6919350402
100
AcDbArc
 50
335.2115913661
 51
335.5995182833
  0
ARC
  5
392
100
AcDbEntity
  8
0
100
AcDbCircle
 62
7
  6
CONTINUOUS
 10
54.0595217395
 20
291.5243578038
 40
5.5991231187
100
AcDbArc
 50
161.4516100154
 51
163.2184123423
  0
ARC
  5
393
100
AcDbEntity
  8
0
100
AcDbCircle
 62
7
  6
CONTINUOUS
 10
107.0089592372
 20
292.8227936484
 40
5.5136922036
100
AcDbArc
 50
335.5875159591
 51
338.3244461075
  0
ARC
  5
394
100
AcDbEntity
  8
0
100
AcDbCircle
 62
7
  6
CONTINUOUS
 10
53.8350083334
 20
291.5901943892
 40
5.3651629023
100
AcDbArc
 50
163.1992999285
 51
168.1124371026
  0
ARC
  5
395
100
AcDbEntity
  8
0
100
AcDbCircle
 62
7
  6
CONTINUOUS
 10
107.2881503214
 20
292.4870402248
 40
5.190204494
100
AcDbArc
 50
10.732046402
 51
11.8358182861
  0
ARC
  5
396
100
AcDbEntity
  8
0
100
AcDbCircle
 62
7
  6
CONTINUOUS
 10
107.3394715892
 20
292.4967592332
 40
5.1379710604
100
AcDbArc
 50
9.3470548232
 51
10.7321338177
  0
ARC
  5
397
100
AcDbEntity
  8
0
100
AcDbCircle
 62
7
  6
CONTINUOUS
 10
53.4999031126
 20
292.513597333
 40
5.0237399111
100
AcDbArc
 50
170.37880119
 51
179.8331486448
  0
ARC
  5
398
100
AcDbEntity
  8
0
100
AcDbCircle
 62
7
  6
CONTINUOUS
 10
107.4534843576
 20
292.5142471881
 40
5.0226319434
100
AcDbArc
 50
0.4727417749
 51
9.3614458101
  0
ARC
  5
399
100
AcDbEntity
  8
0
100
AcDbCircle
 62
7
  6
CONTINUOUS
 10
107.378728774
 20
293.3295946849
 40
4.9800748889
100
AcDbArc
 50
351.4337656166
 51
359.9698334262
  0
ARC
  5
39A
100
AcDbEntity
  8
0
100
AcDbCircle
 62
7
  6
CONTINUOUS
 10
36.4974866252
 20
290.301278908
 40
0.9554059151
100
AcDbArc
 50
91.683566494
 51
93.2307854457
  0
ARC
  5
39B
100
AcDbEntity
  8
0
100
AcDbCircle
 62
7
  6
CONTINUOUS
 10
244.2536048878
 20
87.2434446989
 40
231.6717205187
100
AcDbArc
 50
130.6678879176
 51
132.8173596572
  0
ARC
  5
39C
100
AcDbEntity
  8
0
100
AcDbCircle
 62
7
  6
CONTINUOUS
 10
326.2677176814
 20
257.0899825578
 40
258.1386317875
100
AcDbArc
 50
176.5914916438
 51
177.2114703392
  0
ARC
  5
39D
100
AcDbEntity
  8
0
100
AcDbCircle
 62
7
  6
CONTINUOUS
 10
171.7788262826
 20
260.5419247054
 40
119.4854112909
100
AcDbArc
 50
172.8082442754
 51
174.1368462949
  0
ARC
  5
39E
100
AcDbEntity
  8
0
100
AcDbCircle
 62
7
  6
CONTINUOUS
 10
123.8968451946
 20
266.1643960173
 40
83.1384683203
100
AcDbArc
 50
169.9716427108
 51
171.8521161176
  0
ARC
  5
39F
100
AcDbEntity
  8
0
100
AcDbCircle
 62
7
  6
CONTINUOUS
 10
114.8203452392
 20
287.0691969796
 40
10.2804204616
100
AcDbArc
 50
8.5356503309
 51
8.872985208
  0
ARC
  5
3A0
100
AcDbEntity
  8
0
100
AcDbCircle
 62
7
  6
CONTINUOUS
 10
117.2469753843
 20
289.22934734
 40
7.319752504
100
AcDbArc
 50
10.7393225924
 51
11.3759066016
  0
ARC
  5
3A1
100
AcDbEntity
  8
0
100
AcDbCircle
 62
7
  6
CONTINUOUS
 10
118.351570516
 20
287.9939877926
 40
6.6216685486
100
AcDbArc
 50
21.625404778
 51
23.0932594891
  0
ARC
  5
3A2
100
AcDbEntity
  8
0
100
AcDbCircle
 62
7
  6
CONTINUOUS
 10
124.0461051576
 20
290.5160842661
 40
0.4035756596
100
AcDbArc
 50
5.6550843875
 51
10.7264105288
  0
SPLINE
  5
3A3
100
AcDbEntity
  8
0
100
AcDbSpline
 62
7
  6
CONTINUOUS
 70
0
 71
3
 72
9
 73
5
 74
0
 42
0.0000001
 43
0.0000001
 44
0.0000000001
 40
0.0
 40
0.0
 40
0.0
 40
0.0
 40
0.4783466213
 40
1.0
 40
1.0
 40
1.0
 40
1.0
 10
28.0557794277
 20
202.6392582739
 30
0.0
 10
28.049107476
 20
202.6334704069
 30
0.0
 10
28.0322145456
 20
202.6244231512
 30
0.0
 10
28.013289288
 20
202.6233353163
 30
0.0
 10
28.0036915783
 20
202.624149991
 30
0.0
  0
SPLINE
  5
3A4
100
AcDbEntity
  8
0
100
AcDbSpline
 62
7
  6
CONTINUOUS
 70
0
 71
3
 72
23
 73
19
 74
0
 42
0.0000001
 43
0.0000001
 44
0.0000000001
 40
0.0
 40
0.0
 40
0.0
 40
0.0
 40
0.061941701
 40
0.1251231665
 40
0.1893964993
 40
0.2545200668
 40
0.3201883668
 40
0.386052843
 40
0.4517503243
 40
0.5169302777
 40
0.5812820549
 40
0.6445600174
 40
0.7066046729
 40
0.7673583389
 40
0.8268720419
 40
0.8853042472
 40
0.942905098
 40
1.0
 40
1.0
 40
1.0
 40
1.0
 10
28.0557916922
 20
202.6392398429
 30
0.0
 10
28.1775683535
 20
202.7446807632
 30
0.0
 10
28.4083599027
 20
202.9758571567
 30
0.0
 10
28.7062909912
 20
203.3698095139
 30
0.0
 10
28.9542619071
 20
203.8065355567
 30
0.0
 10
29.1474848945
 20
204.2769923521
 30
0.0
 10
29.2823208096
 20
204.7716415919
 30
0.0
 10
29.3561553553
 20
205.2804876037
 30
0.0
 10
29.3675089699
 20
205.7932785316
 30
0.0
 10
29.3160457732
 20
206.2996891796
 30
0.0
 10
29.2025797201
 20
206.7895068569
 30
0.0
 10
29.0290528009
 20
207.252796738
 30
0.0
 10
28.7985127975
 20
207.6800398014
 30
0.0
 10
28.515099911
 20
208.0622438007
 30
0.0
 10
28.1841029976
 20
208.3910568015
 30
0.0
 10
27.8119469725
 20
208.6589262189
 30
0.0
 10
27.4065363107
 20
208.8593241038
 30
0.0
 10
27.1189777692
 20
208.9448238389
 30
0.0
 10
26.9735414372
 20
208.9747210256
 30
0.0
  0
LINE
  5
3A5
100
AcDbEntity
  8
0
100
AcDbLine
 62
7
  6
CONTINUOUS
 10
24.133985901
 20
208.4072657971
 11
24.6406614425
 21
208.3096256474
  0
SPLINE
  5
3A6
100
AcDbEntity
  8
0
100
AcDbSpline
 62
7
  6
CONTINUOUS
 70
0
 71
3
 72
13
 73
9
 74
0
 42
0.0000001
 43
0.0000001
 44
0.0000000001
 40
0.0
 40
0.0
 40
0.0
 40
0.0
 40
0.0840719031
 40
0.1726675138
 40
0.2727203396
 40
0.3880341442
 40
0.6664886596
 40
1.0
 40
1.0
 40
1.0
 40
1.0
 10
27.2041934733
 20
202.1118322838
 30
0.0
 10
27.2109832917
 20
202.1145981383
 30
0.0
 10
27.2240063021
 20
202.1229364222
 30
0.0
 10
27.2383756749
 20
202.1424102788
 30
0.0
 10
27.2474254539
 20
202.1676240701
 30
0.0
 10
27.2529189648
 20
202.2105779771
 30
0.0
 10
27.2451726188
 20
202.2743377106
 30
0.0
 10
27.22857008
 20
202.3252816991
 30
0.0
 10
27.217591434
 20
202.3522140807
 30
0.0
  0
LINE
  5
3A7
100
AcDbEntity
  8
0
100
AcDbLine
 62
7
  6
CONTINUOUS
 10
27.5200832075
 20
202.6652026666
 11
28.0036915783
 21
202.624149991
  0
SPLINE
  5
3A8
100
AcDbEntity
  8
0
100
AcDbSpline
 62
7
  6
CONTINUOUS
 70
0
 71
3
 72
9
 73
5
 74
0
 42
0.0000001
 43
0.0000001
 44
0.0000000001
 40
0.0
 40
0.0
 40
0.0
 40
0.0
 40
0.4961673286
 40
1.0
 40
1.0
 40
1.0
 40
1.0
 10
25.9848129715
 20
201.9150775887
 30
0.0
 10
26.189890744
 20
201.8995538962
 30
0.0
 10
26.6084063271
 20
201.9179973341
 30
0.0
 10
27.0108250949
 20
202.0329442115
 30
0.0
 10
27.2041956666
 20
202.1118284571
 30
0.0
  0
SPLINE
  5
3A9
100
AcDbEntity
  8
0
100
AcDbSpline
 62
7
  6
CONTINUOUS
 70
0
 71
3
 72
9
 73
5
 74
0
 42
0.0000001
 43
0.0000001
 44
0.0000000001
 40
0.0
 40
0.0
 40
0.0
 40
0.0
 40
0.2530263163
 40
1.0
 40
1.0
 40
1.0
 40
1.0
 10
24.7137437162
 20
204.9016966576
 30
0.0
 10
24.7209588888
 20
204.8612723166
 30
0.0
 10
24.7535291574
 20
204.7022669838
 30
0.0
 10
24.8024875724
 20
204.5465574003
 30
0.0
 10
24.8482475467
 20
204.4343008351
 30
0.0
  0
SPLINE
  5
3AA
100
AcDbEntity
  8
0
100
AcDbSpline
 62
7
  6
CONTINUOUS
 70
0
 71
3
 72
13
 73
9
 74
0
 42
0.0000001
 43
0.0000001
 44
0.0000000001
 40
0.0
 40
0.0
 40
0.0
 40
0.0
 40
0.2813978411
 40
0.5611549679
 40
0.6905433494
 40
0.8082323026
 40
0.9117716848
 40
1.0
 40
1.0
 40
1.0
 40
1.0
 10
24.9070108336
 20
208.0204393382
 30
0.0
 10
24.892670732
 20
208.0556179104
 30
0.0
 10
24.8573823939
 20
208.1231228746
 30
0.0
 10
24.8012005819
 20
208.1981551543
 30
0.0
 10
24.7505970203
 20
208.2483013035
 30
0.0
 10
24.7133138815
 20
208.2776789016
 30
0.0
 10
24.6770654995
 20
208.2987474896
 30
0.0
 10
24.6523571826
 20
208.3073717266
 30
0.0
 10
24.6406614425
 20
208.3096256474
 30
0.0
  0
SPLINE
  5
3AB
100
AcDbEntity
  8
0
100
AcDbSpline
 62
7
  6
CONTINUOUS
 70
0
 71
3
 72
21
 73
17
 74
0
 42
0.0000001
 43
0.0000001
 44
0.0000000001
 40
0.0
 40
0.0
 40
0.0
 40
0.0
 40
0.0571758139
 40
0.1145681696
 40
0.1725134375
 40
0.2313027477
 40
0.2911607567
 40
0.3522257654
 40
0.4145410403
 40
0.4780519509
 40
0.6077611421
 40
0.6736952377
 40
0.7398526685
 40
0.8712660323
 40
0.9361257949
 40
1.0
 40
1.0
 40
1.0
 40
1.0
 10
25.8986243295
 20
209.1956905524
 30
0.0
 10
25.7566669422
 20
209.2248725764
 30
0.0
 10
25.466800442
 20
209.2598584667
 30
0.0
 10
25.0280997959
 20
209.239976996
 30
0.0
 10
24.5943401407
 20
209.1485958186
 30
0.0
 10
24.174576846
 20
208.9881241284
 30
0.0
 10
23.7769812836
 20
208.7624293365
 30
0.0
 10
23.4090004854
 20
208.4765483508
 30
0.0
 10
23.0772149625
 20
208.1363434013
 30
0.0
 10
22.6885402984
 20
207.6164075007
 30
0.0
 10
22.3980443913
 20
207.0185688173
 30
0.0
 10
22.2173427927
 20
206.378827601
 30
0.0
 10
22.1117610286
 20
205.7180783415
 30
0.0
 10
22.122816897
 20
205.0455050558
 30
0.0
 10
22.2525071321
 20
204.3977489255
 30
0.0
 10
22.3560624165
 20
204.0871546768
 30
0.0
 10
22.4171780481
 20
203.9372282183
 30
0.0
  0
SPLINE
  5
3AC
100
AcDbEntity
  8
0
100
AcDbSpline
 62
7
  6
CONTINUOUS
 70
0
 71
3
 72
15
 73
11
 74
0
 42
0.0000001
 43
0.0000001
 44
0.0000000001
 40
0.0
 40
0.0
 40
0.0
 40
0.0
 40
0.1320959108
 40
0.2618025357
 40
0.3891159631
 40
0.5141927127
 40
0.637337633
 40
0.7589861803
 40
0.8796735295
 40
1.0
 40
1.0
 40
1.0
 40
1.0
 10
22.4171780481
 20
203.9372282183
 30
0.0
 10
22.472188899
 20
203.802277767
 30
0.0
 10
22.5970733443
 20
203.5409265443
 30
0.0
 10
22.8290252792
 20
203.178407137
 30
0.0
 10
23.1007725735
 20
202.8545372899
 30
0.0
 10
23.4082744251
 20
202.5749420122
 30
0.0
 10
23.7467873612
 20
202.3446133617
 30
0.0
 10
24.1108468495
 20
202.1678734975
 30
0.0
 10
24.4941297244
 20
202.0481640758
 30
0.0
 10
24.758180285
 20
202.0079295265
 30
0.0
 10
24.8905492138
 20
201.9979096472
 30
0.0
  0
SPLINE
  5
3AD
100
AcDbEntity
  8
0
100
AcDbSpline
 62
7
  6
CONTINUOUS
 70
0
 71
3
 72
11
 73
7
 74
0
 42
0.0000001
 43
0.0000001
 44
0.0000000001
 40
0.0
 40
0.0
 40
0.0
 40
0.0
 40
0.2545340139
 40
0.5050780432
 40
0.7530286465
 40
1.0
 40
1.0
 40
1.0
 40
1.0
 10
25.4753232837
 20
208.8266434361
 30
0.0
 10
25.5952120277
 20
208.8756292014
 30
0.0
 10
25.8402337595
 20
208.9564650892
 30
0.0
 10
26.2189632228
 20
209.0228148919
 30
0.0
 10
26.5995343578
 20
209.0320956614
 30
0.0
 10
26.8504527245
 20
209.0000228977
 30
0.0
 10
26.9735414165
 20
208.9747209142
 30
0.0
  0
SPLINE
  5
3AE
100
AcDbEntity
  8
0
100
AcDbSpline
 62
7
  6
CONTINUOUS
 70
0
 71
3
 72
15
 73
11
 74
0
 42
0.0000001
 43
0.0000001
 44
0.0000000001
 40
0.0
 40
0.0
 40
0.0
 40
0.0
 40
0.1233295424
 40
0.2492095504
 40
0.3766969296
 40
0.5046768993
 40
0.63199542
 40
0.7575605562
 40
0.8804426019
 40
1.0
 40
1.0
 40
1.0
 40
1.0
 10
23.984791849
 20
203.9430154338
 30
0.0
 10
23.9179075295
 20
204.1124952839
 30
0.0
 10
23.8103786622
 20
204.4664755572
 30
0.0
 10
23.7311270304
 20
205.0192975615
 30
0.0
 10
23.7338523661
 20
205.5847015714
 30
0.0
 10
23.8185019385
 20
206.1458304917
 30
0.0
 10
23.9825442246
 20
206.6861456157
 30
0.0
 10
24.2212662192
 20
207.1896866592
 30
0.0
 10
24.5275909329
 20
207.6413940626
 30
0.0
 10
24.7749963425
 20
207.903096056
 30
0.0
 10
24.9070108336
 20
208.0204393382
 30
0.0
  0
SPLINE
  5
3AF
100
AcDbEntity
  8
0
100
AcDbSpline
 62
7
  6
CONTINUOUS
 70
0
 71
3
 72
15
 73
11
 74
0
 42
0.0000001
 43
0.0000001
 44
0.0000000001
 40
0.0
 40
0.0
 40
0.0
 40
0.0
 40
0.1230757341
 40
0.2439018168
 40
0.3639653423
 40
0.4848571716
 40
0.6080430287
 40
0.7346360828
 40
0.8652526683
 40
1.0
 40
1.0
 40
1.0
 40
1.0
 10
25.7416726748
 20
208.5374571268
 30
0.0
 10
25.8951946941
 20
208.5973618875
 30
0.0
 10
26.2119970598
 20
208.6867947095
 30
0.0
 10
26.7016255536
 20
208.7204031458
 30
0.0
 10
27.1847354981
 20
208.6507010288
 30
0.0
 10
27.6452202748
 20
208.4798757488
 30
0.0
 10
28.06823644
 20
208.2139079821
 30
0.0
 10
28.4405536179
 20
207.8617942814
 30
0.0
 10
28.7508946998
 20
207.4352431975
 30
0.0
 10
28.9082401332
 20
207.1144830155
 30
0.0
 10
28.9744722598
 20
206.9466557736
 30
0.0
  0
SPLINE
  5
3B0
100
AcDbEntity
  8
0
100
AcDbSpline
 62
7
  6
CONTINUOUS
 70
0
 71
3
 72
15
 73
11
 74
0
 42
0.0000001
 43
0.0000001
 44
0.0000000001
 40
0.0
 40
0.0
 40
0.0
 40
0.0
 40
0.1233295424
 40
0.2492095504
 40
0.3766969296
 40
0.5046768993
 40
0.63199542
 40
0.7575605562
 40
0.8804426019
 40
1.0
 40
1.0
 40
1.0
 40
1.0
 10
28.9744722598
 20
206.9466557736
 30
0.0
 10
29.0413565793
 20
206.7771759236
 30
0.0
 10
29.1488854466
 20
206.4231956503
 30
0.0
 10
29.2281370784
 20
205.8703736459
 30
0.0
 10
29.2254117427
 20
205.3049696361
 30
0.0
 10
29.1407621703
 20
204.7438407158
 30
0.0
 10
28.9767198842
 20
204.2035255917
 30
0.0
 10
28.7379978896
 20
203.6999845483
 30
0.0
 10
28.4316731759
 20
203.2482771449
 30
0.0
 10
28.1842677663
 20
202.9865751514
 30
0.0
 10
28.0522532751
 20
202.8692318693
 30
0.0
  0
SPLINE
  5
3B1
100
AcDbEntity
  8
0
100
AcDbSpline
 62
7
  6
CONTINUOUS
 70
0
 71
3
 72
9
 73
5
 74
0
 42
0.0000001
 43
0.0000001
 44
0.0000000001
 40
0.0
 40
0.0
 40
0.0
 40
0.0
 40
0.2531066687
 40
1.0
 40
1.0
 40
1.0
 40
1.0
 10
24.8907335307
 20
204.3369205874
 30
0.0
 10
24.9036808234
 20
204.3091241578
 30
0.0
 10
24.9571736073
 20
204.2004124927
 30
0.0
 10
25.0201214717
 20
204.0963176496
 30
0.0
 10
25.0722066169
 20
204.0223251927
 30
0.0
  0
SPLINE
  5
3B2
100
AcDbEntity
  8
0
100
AcDbSpline
 62
7
  6
CONTINUOUS
 70
0
 71
3
 72
9
 73
5
 74
0
 42
0.0000001
 43
0.0000001
 44
0.0000000001
 40
0.0
 40
0.0
 40
0.0
 40
0.0
 40
0.2530263163
 40
1.0
 40
1.0
 40
1.0
 40
1.0
 10
28.2455203926
 20
205.9879745499
 30
0.0
 10
28.23830522
 20
206.0283988908
 30
0.0
 10
28.2057349514
 20
206.1874042237
 30
0.0
 10
28.1567765364
 20
206.3431138072
 30
0.0
 10
28.1110165621
 20
206.4553703724
 30
0.0
  0
SPLINE
  5
3B3
100
AcDbEntity
  8
0
100
AcDbSpline
 62
7
  6
CONTINUOUS
 70
0
 71
3
 72
9
 73
5
 74
0
 42
0.0000001
 43
0.0000001
 44
0.0000000001
 40
0.0
 40
0.0
 40
0.0
 40
0.0
 40
0.2539471459
 40
1.0
 40
1.0
 40
1.0
 40
1.0
 10
28.1110165621
 20
206.4553703724
 30
0.0
 10
28.0960153759
 20
206.4921706912
 30
0.0
 10
28.0330473672
 20
206.6354535079
 30
0.0
 10
27.9542607217
 20
206.77187672
 30
0.0
 10
27.8870574919
 20
206.8673460147
 30
0.0
  0
SPLINE
  5
3B4
100
AcDbEntity
  8
0
100
AcDbSpline
 62
7
  6
CONTINUOUS
 70
0
 71
3
 72
13
 73
9
 74
0
 42
0.0000001
 43
0.0000001
 44
0.0000000001
 40
0.0
 40
0.0
 40
0.0
 40
0.0
 40
0.3226140649
 40
0.6000470459
 40
0.7187783444
 40
0.8236007309
 40
0.9161456764
 40
1.0
 40
1.0
 40
1.0
 40
1.0
 10
28.0522532751
 20
202.8692318693
 30
0.0
 10
28.0620734254
 20
202.8451414637
 30
0.0
 10
28.0774677681
 20
202.799084658
 30
0.0
 10
28.0863590659
 20
202.7413211443
 30
0.0
 10
28.0847038595
 20
202.7008240498
 30
0.0
 10
28.0794521151
 20
202.6757246004
 30
0.0
 10
28.0701275444
 20
202.6548284378
 30
0.0
 10
28.0608872119
 20
202.6436892377
 30
0.0
 10
28.0557794277
 20
202.6392582739
 30
0.0
  0
SPLINE
  5
3B5
100
AcDbEntity
  8
0
100
AcDbSpline
 62
7
  6
CONTINUOUS
 70
0
 71
3
 72
9
 73
5
 74
0
 42
0.0000001
 43
0.0000001
 44
0.0000000001
 40
0.0
 40
0.0
 40
0.0
 40
0.0
 40
0.4925207518
 40
1.0
 40
1.0
 40
1.0
 40
1.0
 10
26.4064439946
 20
204.2140297299
 30
0.0
 10
26.4722492935
 20
204.2574861476
 30
0.0
 10
26.5981283488
 20
204.3578856791
 30
0.0
 10
26.7055456167
 20
204.4776556398
 30
0.0
 10
26.7549690073
 20
204.5421506656
 30
0.0
  0
SPLINE
  5
3B6
100
AcDbEntity
  8
0
100
AcDbSpline
 62
7
  6
CONTINUOUS
 70
0
 71
3
 72
22
 73
18
 74
0
 42
0.0000001
 43
0.0000001
 44
0.0000000001
 40
0.0
 40
0.0
 40
0.0
 40
0.0
 40
0.0558893422
 40
0.1120659123
 40
0.168965754
 40
0.2269541315
 40
0.286294849
 40
0.3471334439
 40
0.4094935264
 40
0.4732835609
 40
0.5383109225
 40
0.6043005315
 40
0.7375549742
 40
0.8042828803
 40
0.8704906313
 40
0.9358276202
 40
1.0
 40
1.0
 40
1.0
 40
1.0
 10
25.8986238569
 20
209.1956879441
 30
0.0
 10
25.7602426907
 20
209.2241375139
 30
0.0
 10
25.4774294975
 20
209.2580394965
 30
0.0
 10
25.0489472653
 20
209.2375819519
 30
0.0
 10
24.6243037437
 20
209.1464355202
 30
0.0
 10
24.2120400982
 20
208.9865702953
 30
0.0
 10
23.8201330738
 20
208.7613441832
 30
0.0
 10
23.4561130875
 20
208.4753314644
 30
0.0
 10
23.1268940899
 20
208.1342041823
 30
0.0
 10
22.838709419
 20
207.744664245
 30
0.0
 10
22.5969793054
 20
207.3141461952
 30
0.0
 10
22.3420800249
 20
206.6953511853
 30
0.0
 10
22.1980777613
 20
206.0311020447
 30
0.0
 10
22.1714569848
 20
205.357633442
 30
0.0
 10
22.2105412783
 20
204.8566966927
 30
0.0
 10
22.3080529412
 20
204.3705128422
 30
0.0
 10
22.4119488174
 20
204.0589677895
 30
0.0
 10
22.4731808903
 20
203.9087556819
 30
0.0
  0
LINE
  5
3B7
100
AcDbEntity
  8
0
100
AcDbLine
 62
7
  6
CONTINUOUS
 10
25.4753232837
 20
208.8266434361
 11
24.9686477421
 21
208.9242835857
  0
SPLINE
  5
3B8
100
AcDbEntity
  8
0
100
AcDbSpline
 62
7
  6
CONTINUOUS
 70
0
 71
3
 72
9
 73
5
 74
0
 42
0.0000001
 43
0.0000001
 44
0.0000000001
 40
0.0
 40
0.0
 40
0.0
 40
0.0
 40
0.2429398799
 40
1.0
 40
1.0
 40
1.0
 40
1.0
 10
24.7481838583
 20
204.7799816958
 30
0.0
 10
24.7749766062
 20
204.7836536597
 30
0.0
 10
24.8852960649
 20
204.7985148667
 30
0.0
 10
24.9957901588
 20
204.8121188031
 30
0.0
 10
25.0795584572
 20
204.8213301731
 30
0.0
  0
SPLINE
  5
3B9
100
AcDbEntity
  8
0
100
AcDbSpline
 62
7
  6
CONTINUOUS
 70
0
 71
3
 72
11
 73
7
 74
0
 42
0.0000001
 43
0.0000001
 44
0.0000000001
 40
0.0
 40
0.0
 40
0.0
 40
0.0
 40
0.2611852057
 40
0.5146282933
 40
0.7605358499
 40
1.0
 40
1.0
 40
1.0
 40
1.0
 10
22.4731808903
 20
203.9087556819
 30
0.0
 10
22.5461639799
 20
203.7297164431
 30
0.0
 10
22.717762814
 20
203.3874100377
 30
0.0
 10
23.0518852167
 20
202.9309140377
 30
0.0
 10
23.449882293
 20
202.5515427755
 30
0.0
 10
23.7541316455
 20
202.3554662916
 30
0.0
 10
23.9119590736
 20
202.2747627613
 30
0.0
  0
SPLINE
  5
3BA
100
AcDbEntity
  8
0
100
AcDbSpline
 62
7
  6
CONTINUOUS
 70
0
 71
3
 72
8
 73
4
 74
0
 42
0.0000001
 43
0.0000001
 44
0.0000000001
 40
0.0
 40
0.0
 40
0.0
 40
0.0
 40
1.0
 40
1.0
 40
1.0
 40
1.0
 10
24.7481838583
 20
204.7799816958
 30
0.0
 10
24.7466477093
 20
204.770745658
 30
0.0
 10
24.7459045946
 20
204.7613613445
 30
0.0
 10
24.7457341533
 20
204.7519999825
 30
0.0
  0
SPLINE
  5
3BB
100
AcDbEntity
  8
0
100
AcDbSpline
 62
7
  6
CONTINUOUS
 70
0
 71
3
 72
15
 73
11
 74
0
 42
0.0000001
 43
0.0000001
 44
0.0000000001
 40
0.0
 40
0.0
 40
0.0
 40
0.0
 40
0.1190276239
 40
0.2385340071
 40
0.3593024903
 40
0.482013101
 40
0.6071931224
 40
0.7351852297
 40
0.8661370267
 40
1.0
 40
1.0
 40
1.0
 40
1.0
 10
25.9848129855
 20
201.9150777357
 30
0.0
 10
25.8589024662
 20
201.9246101767
 30
0.0
 10
25.6076092506
 20
201.9629848457
 30
0.0
 10
25.2425707153
 20
202.0774130945
 30
0.0
 10
24.8951477991
 20
202.2467626166
 30
0.0
 10
24.5711225189
 20
202.4681392858
 30
0.0
 10
24.2756808768
 20
202.7378145422
 30
0.0
 10
24.013515966
 20
203.0513320972
 30
0.0
 10
23.7887808602
 20
203.4034923763
 30
0.0
 10
23.6674434674
 20
203.6577484335
 30
0.0
 10
23.6138379854
 20
203.7892512891
 30
0.0
  0
SPLINE
  5
3BC
100
AcDbEntity
  8
0
100
AcDbSpline
 62
7
  6
CONTINUOUS
 70
0
 71
3
 72
9
 73
5
 74
0
 42
0.0000001
 43
0.0000001
 44
0.0000000001
 40
0.0
 40
0.0
 40
0.0
 40
0.0
 40
0.4921372466
 40
1.0
 40
1.0
 40
1.0
 40
1.0
 10
25.9582674761
 20
206.3969397332
 30
0.0
 10
25.9966988638
 20
206.3547422307
 30
0.0
 10
26.0667605805
 20
206.2614090829
 30
0.0
 10
26.1193718653
 20
206.1573612418
 30
0.0
 10
26.1416050908
 20
206.1028195692
 30
0.0
  0
SPLINE
  5
3BD
100
AcDbEntity
  8
0
100
AcDbSpline
 62
7
  6
CONTINUOUS
 70
0
 71
3
 72
15
 73
11
 74
0
 42
0.0000001
 43
0.0000001
 44
0.0000000001
 40
0.0
 40
0.0
 40
0.0
 40
0.0
 40
0.1232498674
 40
0.2491454621
 40
0.3767124408
 40
0.5047974735
 40
0.6322006356
 40
0.7577884056
 40
0.8806054487
 40
1.0
 40
1.0
 40
1.0
 40
1.0
 10
23.6138379854
 20
203.7892512891
 30
0.0
 10
23.5374422792
 20
203.9766622244
 30
0.0
 10
23.4142722794
 20
204.368962835
 30
0.0
 10
23.3224159363
 20
204.9829851687
 30
0.0
 10
23.3234362645
 20
205.6118535227
 30
0.0
 10
23.4173251233
 20
206.2361080802
 30
0.0
 10
23.6011564701
 20
206.8366639561
 30
0.0
 10
23.8694680104
 20
207.3951127626
 30
0.0
 10
24.2140167724
 20
207.8941115361
 30
0.0
 10
24.4922969183
 20
208.1814665176
 30
0.0
 10
24.6406614425
 20
208.3096256474
 30
0.0
  0
SPLINE
  5
3BE
100
AcDbEntity
  8
0
100
AcDbSpline
 62
7
  6
CONTINUOUS
 70
0
 71
3
 72
9
 73
5
 74
0
 42
0.0000001
 43
0.0000001
 44
0.0000000001
 40
0.0
 40
0.0
 40
0.0
 40
0.0
 40
0.5026145978
 40
1.0
 40
1.0
 40
1.0
 40
1.0
 10
26.0795750792
 20
205.0668545514
 30
0.0
 10
26.1913891126
 20
204.9772439008
 30
0.0
 10
26.4157956708
 20
204.8013796543
 30
0.0
 10
26.6421215916
 20
204.6280162082
 30
0.0
 10
26.7549690073
 20
204.5421506656
 30
0.0
  0
SPLINE
  5
3BF
100
AcDbEntity
  8
0
100
AcDbSpline
 62
7
  6
CONTINUOUS
 70
0
 71
3
 72
9
 73
5
 74
0
 42
0.0000001
 43
0.0000001
 44
0.0000000001
 40
0.0
 40
0.0
 40
0.0
 40
0.0
 40
0.4977230606
 40
1.0
 40
1.0
 40
1.0
 40
1.0
 10
25.7337619423
 20
207.0473355867
 30
0.0
 10
25.6851064315
 20
206.9889340222
 30
0.0
 10
25.5884159944
 20
206.870707559
 30
0.0
 10
25.4952722191
 20
206.7496034353
 30
0.0
 10
25.4502281963
 20
206.6875119402
 30
0.0
  0
SPLINE
  5
3C0
100
AcDbEntity
  8
0
100
AcDbSpline
 62
7
  6
CONTINUOUS
 70
0
 71
3
 72
9
 73
5
 74
0
 42
0.0000001
 43
0.0000001
 44
0.0000000001
 40
0.0
 40
0.0
 40
0.0
 40
0.0
 40
0.5067693305
 40
1.0
 40
1.0
 40
1.0
 40
1.0
 10
24.133985901
 20
208.4072657971
 30
0.0
 10
24.2600509116
 20
208.5158618647
 30
0.0
 10
24.5253369032
 20
208.7118299104
 30
0.0
 10
24.8188278617
 20
208.8628019999
 30
0.0
 10
24.9686477421
 20
208.9242835857
 30
0.0
  0
SPLINE
  5
3C1
100
AcDbEntity
  8
0
100
AcDbSpline
 62
7
  6
CONTINUOUS
 70
0
 71
3
 72
9
 73
5
 74
0
 42
0.0000001
 43
0.0000001
 44
0.0000000001
 40
0.0
 40
0.0
 40
0.0
 40
0.0
 40
0.512697143
 40
1.0
 40
1.0
 40
1.0
 40
1.0
 10
26.0795750792
 20
205.0668545514
 30
0.0
 10
26.031817186
 20
204.9782385445
 30
0.0
 10
25.9159371658
 20
204.8164230778
 30
0.0
 10
25.7582854552
 20
204.6936268474
 30
0.0
 10
25.6742426865
 20
204.6478946328
 30
0.0
  0
SPLINE
  5
3C2
100
AcDbEntity
  8
0
100
AcDbSpline
 62
7
  6
CONTINUOUS
 70
0
 71
3
 72
9
 73
5
 74
0
 42
0.0000001
 43
0.0000001
 44
0.0000000001
 40
0.0
 40
0.0
 40
0.0
 40
0.0
 40
0.4942281648
 40
1.0
 40
1.0
 40
1.0
 40
1.0
 10
26.1416050908
 20
206.1028195692
 30
0.0
 10
26.1675766086
 20
206.0391072655
 30
0.0
 10
26.2079491533
 20
205.9049615754
 30
0.0
 10
26.224050849
 20
205.7659025242
 30
0.0
 10
26.2262186062
 20
205.695526434
 30
0.0
  0
SPLINE
  5
3C3
100
AcDbEntity
  8
0
100
AcDbSpline
 62
7
  6
CONTINUOUS
 70
0
 71
3
 72
9
 73
5
 74
0
 42
0.0000001
 43
0.0000001
 44
0.0000000001
 40
0.0
 40
0.0
 40
0.0
 40
0.0
 40
0.4945819734
 40
1.0
 40
1.0
 40
1.0
 40
1.0
 10
25.7337619423
 20
207.0473355867
 30
0.0
 10
25.6684081596
 20
207.0378314185
 30
0.0
 10
25.5377650036
 20
207.0066684088
 30
0.0
 10
25.4144628611
 20
206.9536287654
 30
0.0
 10
25.3548150316
 20
206.9220567755
 30
0.0
  0
SPLINE
  5
3C4
100
AcDbEntity
  8
0
100
AcDbSpline
 62
7
  6
CONTINUOUS
 70
0
 71
3
 72
15
 73
11
 74
0
 42
0.0000001
 43
0.0000001
 44
0.0000000001
 40
0.0
 40
0.0
 40
0.0
 40
0.0
 40
0.1230757341
 40
0.2439018168
 40
0.3639653423
 40
0.4848571716
 40
0.6080430287
 40
0.7346360828
 40
0.8652526683
 40
1.0
 40
1.0
 40
1.0
 40
1.0
 10
27.217591434
 20
202.3522140807
 30
0.0
 10
27.0640694146
 20
202.29230932
 30
0.0
 10
26.747267049
 20
202.2028764979
 30
0.0
 10
26.2576385552
 20
202.1692680616
 30
0.0
 10
25.7745286107
 20
202.2389701786
 30
0.0
 10
25.314043834
 20
202.4097954586
 30
0.0
 10
24.8910276688
 20
202.6757632254
 30
0.0
 10
24.5187104909
 20
203.027876926
 30
0.0
 10
24.208369409
 20
203.4544280099
 30
0.0
 10
24.0510239756
 20
203.775188192
 30
0.0
 10
23.984791849
 20
203.9430154338
 30
0.0
  0
SPLINE
  5
3C5
100
AcDbEntity
  8
0
100
AcDbSpline
 62
7
  6
CONTINUOUS
 70
0
 71
3
 72
13
 73
9
 74
0
 42
0.0000001
 43
0.0000001
 44
0.0000000001
 40
0.0
 40
0.0
 40
0.0
 40
0.0
 40
0.0882338457
 40
0.1917572865
 40
0.3094424488
 40
0.4388730957
 40
0.7185791159
 40
1.0
 40
1.0
 40
1.0
 40
1.0
 10
25.4753232837
 20
208.8266434361
 30
0.0
 10
25.4870197648
 20
208.8243893724
 30
0.0
 10
25.5117230048
 20
208.8157568078
 30
0.0
 10
25.5479824608
 20
208.7947131451
 30
0.0
 10
25.5852639993
 20
208.765324222
 30
0.0
 10
25.6358324819
 20
208.7151478974
 30
0.0
 10
25.6920686167
 20
208.6401567585
 30
0.0
 10
25.7273313891
 20
208.5726386036
 30
0.0
 10
25.7416726748
 20
208.5374571268
 30
0.0
  0
SPLINE
  5
3C6
100
AcDbEntity
  8
0
100
AcDbSpline
 62
7
  6
CONTINUOUS
 70
0
 71
3
 72
9
 73
5
 74
0
 42
0.0000001
 43
0.0000001
 44
0.0000000001
 40
0.0
 40
0.0
 40
0.0
 40
0.0
 40
0.2485115566
 40
1.0
 40
1.0
 40
1.0
 40
1.0
 10
26.4484229201
 20
205.7892817387
 30
0.0
 10
26.4299270951
 20
205.7817291073
 30
0.0
 10
26.3555740909
 20
205.7511590375
 30
0.0
 10
26.2815569358
 20
205.7197651025
 30
0.0
 10
26.2262186062
 20
205.695526434
 30
0.0
  0
SPLINE
  5
3C7
100
AcDbEntity
  8
0
100
AcDbSpline
 62
7
  6
CONTINUOUS
 70
0
 71
3
 72
9
 73
5
 74
0
 42
0.0000001
 43
0.0000001
 44
0.0000000001
 40
0.0
 40
0.0
 40
0.0
 40
0.0
 40
0.2486547341
 40
1.0
 40
1.0
 40
1.0
 40
1.0
 10
25.9465163033
 20
205.3583532
 30
0.0
 10
25.968873454
 20
205.3869680267
 30
0.0
 10
26.0598610291
 20
205.5012078617
 30
0.0
 10
26.1543218533
 20
205.6126376647
 30
0.0
 10
26.2262186062
 20
205.695526434
 30
0.0
  0
SPLINE
  5
3C8
100
AcDbEntity
  8
0
100
AcDbSpline
 62
7
  6
CONTINUOUS
 70
0
 71
3
 72
9
 73
5
 74
0
 42
0.0000001
 43
0.0000001
 44
0.0000000001
 40
0.0
 40
0.0
 40
0.0
 40
0.0
 40
0.4783466213
 40
1.0
 40
1.0
 40
1.0
 40
1.0
 10
19.3126307701
 20
260.9696813302
 30
0.0
 10
19.3059588185
 20
260.9638934631
 30
0.0
 10
19.2890658881
 20
260.9548462074
 30
0.0
 10
19.2701406305
 20
260.9537583725
 30
0.0
 10
19.2605429208
 20
260.9545730473
 30
0.0
  0
SPLINE
  5
3C9
100
AcDbEntity
  8
0
100
AcDbSpline
 62
7
  6
CONTINUOUS
 70
0
 71
3
 72
23
 73
19
 74
0
 42
0.0000001
 43
0.0000001
 44
0.0000000001
 40
0.0
 40
0.0
 40
0.0
 40
0.0
 40
0.061941701
 40
0.1251231665
 40
0.1893964993
 40
0.2545200668
 40
0.3201883668
 40
0.386052843
 40
0.4517503243
 40
0.5169302777
 40
0.5812820549
 40
0.6445600174
 40
0.7066046729
 40
0.7673583389
 40
0.8268720419
 40
0.8853042472
 40
0.942905098
 40
1.0
 40
1.0
 40
1.0
 40
1.0
 10
19.3126430347
 20
260.9696628992
 30
0.0
 10
19.434419696
 20
261.0751038195
 30
0.0
 10
19.6652112451
 20
261.3062802129
 30
0.0
 10
19.9631423336
 20
261.7002325701
 30
0.0
 10
20.2111132496
 20
262.1369586129
 30
0.0
 10
20.404336237
 20
262.6074154084
 30
0.0
 10
20.5391721521
 20
263.1020646481
 30
0.0
 10
20.6130066977
 20
263.6109106599
 30
0.0
 10
20.6243603123
 20
264.1237015879
 30
0.0
 10
20.5728971157
 20
264.6301122358
 30
0.0
 10
20.4594310626
 20
265.1199299131
 30
0.0
 10
20.2859041433
 20
265.5832197942
 30
0.0
 10
20.05536414
 20
266.0104628577
 30
0.0
 10
19.7719512535
 20
266.3926668569
 30
0.0
 10
19.44095434
 20
266.7214798578
 30
0.0
 10
19.0687983149
 20
266.9893492752
 30
0.0
 10
18.6633876532
 20
267.18974716
 30
0.0
 10
18.3758291117
 20
267.2752468951
 30
0.0
 10
18.2303927797
 20
267.3051440818
 30
0.0
  0
LINE
  5
3CA
100
AcDbEntity
  8
0
100
AcDbLine
 62
7
  6
CONTINUOUS
 10
15.3908372434
 20
266.7376888534
 11
15.897512785
 21
266.6400487037
  0
SPLINE
  5
3CB
100
AcDbEntity
  8
0
100
AcDbSpline
 62
7
  6
CONTINUOUS
 70
0
 71
3
 72
13
 73
9
 74
0
 42
0.0000001
 43
0.0000001
 44
0.0000000001
 40
0.0
 40
0.0
 40
0.0
 40
0.0
 40
0.0840719031
 40
0.1726675138
 40
0.2727203396
 40
0.3880341442
 40
0.6664886596
 40
1.0
 40
1.0
 40
1.0
 40
1.0
 10
18.4610448157
 20
260.4422553401
 30
0.0
 10
18.4678346342
 20
260.4450211946
 30
0.0
 10
18.4808576446
 20
260.4533594785
 30
0.0
 10
18.4952270173
 20
260.4728333351
 30
0.0
 10
18.5042767964
 20
260.4980471263
 30
0.0
 10
18.5097703072
 20
260.5410010334
 30
0.0
 10
18.5020239613
 20
260.6047607669
 30
0.0
 10
18.4854214224
 20
260.6557047554
 30
0.0
 10
18.4744427765
 20
260.6826371369
 30
0.0
  0
LINE
  5
3CC
100
AcDbEntity
  8
0
100
AcDbLine
 62
7
  6
CONTINUOUS
 10
18.77693455
 20
260.9956257228
 11
19.2605429208
 21
260.9545730473
  0
SPLINE
  5
3CD
100
AcDbEntity
  8
0
100
AcDbSpline
 62
7
  6
CONTINUOUS
 70
0
 71
3
 72
9
 73
5
 74
0
 42
0.0000001
 43
0.0000001
 44
0.0000000001
 40
0.0
 40
0.0
 40
0.0
 40
0.0
 40
0.4961673286
 40
1.0
 40
1.0
 40
1.0
 40
1.0
 10
17.241664314
 20
260.2455006449
 30
0.0
 10
17.4467420864
 20
260.2299769524
 30
0.0
 10
17.8652576696
 20
260.2484203904
 30
0.0
 10
18.2676764373
 20
260.3633672678
 30
0.0
 10
18.4610470091
 20
260.4422515134
 30
0.0
  0
SPLINE
  5
3CE
100
AcDbEntity
  8
0
100
AcDbSpline
 62
7
  6
CONTINUOUS
 70
0
 71
3
 72
9
 73
5
 74
0
 42
0.0000001
 43
0.0000001
 44
0.0000000001
 40
0.0
 40
0.0
 40
0.0
 40
0.0
 40
0.2530263163
 40
1.0
 40
1.0
 40
1.0
 40
1.0
 10
15.9705950587
 20
263.2321197139
 30
0.0
 10
15.9778102313
 20
263.1916953729
 30
0.0
 10
16.0103804999
 20
263.03269004
 30
0.0
 10
16.0593389149
 20
262.8769804565
 30
0.0
 10
16.1050988891
 20
262.7647238913
 30
0.0
  0
SPLINE
  5
3CF
100
AcDbEntity
  8
0
100
AcDbSpline
 62
7
  6
CONTINUOUS
 70
0
 71
3
 72
13
 73
9
 74
0
 42
0.0000001
 43
0.0000001
 44
0.0000000001
 40
0.0
 40
0.0
 40
0.0
 40
0.0
 40
0.2813978411
 40
0.5611549679
 40
0.6905433494
 40
0.8082323026
 40
0.9117716848
 40
1.0
 40
1.0
 40
1.0
 40
1.0
 10
16.1638621761
 20
266.3508623944
 30
0.0
 10
16.1495220744
 20
266.3860409667
 30
0.0
 10
16.1142337364
 20
266.4535459309
 30
0.0
 10
16.0580519244
 20
266.5285782106
 30
0.0
 10
16.0074483628
 20
266.5787243597
 30
0.0
 10
15.970165224
 20
266.6081019578
 30
0.0
 10
15.933916842
 20
266.6291705458
 30
0.0
 10
15.909208525
 20
266.6377947829
 30
0.0
 10
15.897512785
 20
266.6400487037
 30
0.0
  0
SPLINE
  5
3D0
100
AcDbEntity
  8
0
100
AcDbSpline
 62
7
  6
CONTINUOUS
 70
0
 71
3
 72
21
 73
17
 74
0
 42
0.0000001
 43
0.0000001
 44
0.0000000001
 40
0.0
 40
0.0
 40
0.0
 40
0.0
 40
0.0571758139
 40
0.1145681696
 40
0.1725134375
 40
0.2313027477
 40
0.2911607567
 40
0.3522257654
 40
0.4145410403
 40
0.4780519509
 40
0.6077611421
 40
0.6736952377
 40
0.7398526685
 40
0.8712660323
 40
0.9361257949
 40
1.0
 40
1.0
 40
1.0
 40
1.0
 10
17.155475672
 20
267.5261136087
 30
0.0
 10
17.0135182846
 20
267.5552956327
 30
0.0
 10
16.7236517845
 20
267.5902815229
 30
0.0
 10
16.2849511383
 20
267.5704000523
 30
0.0
 10
15.8511914831
 20
267.4790188748
 30
0.0
 10
15.4314281884
 20
267.3185471847
 30
0.0
 10
15.0338326261
 20
267.0928523927
 30
0.0
 10
14.6658518279
 20
266.806971407
 30
0.0
 10
14.334066305
 20
266.4667664576
 30
0.0
 10
13.9453916408
 20
265.946830557
 30
0.0
 10
13.6548957338
 20
265.3489918736
 30
0.0
 10
13.4741941352
 20
264.7092506572
 30
0.0
 10
13.368612371
 20
264.0485013978
 30
0.0
 10
13.3796682395
 20
263.3759281121
 30
0.0
 10
13.5093584746
 20
262.7281719818
 30
0.0
 10
13.612913759
 20
262.4175777331
 30
0.0
 10
13.6740293906
 20
262.2676512745
 30
0.0
  0
SPLINE
  5
3D1
100
AcDbEntity
  8
0
100
AcDbSpline
 62
7
  6
CONTINUOUS
 70
0
 71
3
 72
15
 73
11
 74
0
 42
0.0000001
 43
0.0000001
 44
0.0000000001
 40
0.0
 40
0.0
 40
0.0
 40
0.0
 40
0.1320959108
 40
0.2618025357
 40
0.3891159631
 40
0.5141927127
 40
0.637337633
 40
0.7589861803
 40
0.8796735295
 40
1.0
 40
1.0
 40
1.0
 40
1.0
 10
13.6740293906
 20
262.2676512745
 30
0.0
 10
13.7290402415
 20
262.1327008232
 30
0.0
 10
13.8539246867
 20
261.8713496006
 30
0.0
 10
14.0858766217
 20
261.5088301933
 30
0.0
 10
14.357623916
 20
261.1849603461
 30
0.0
 10
14.6651257676
 20
260.9053650685
 30
0.0
 10
15.0036387036
 20
260.675036418
 30
0.0
 10
15.3676981919
 20
260.4982965538
 30
0.0
 10
15.7509810669
 20
260.3785871321
 30
0.0
 10
16.0150316275
 20
260.3383525828
 30
0.0
 10
16.1474005563
 20
260.3283327035
 30
0.0
  0
SPLINE
  5
3D2
100
AcDbEntity
  8
0
100
AcDbSpline
 62
7
  6
CONTINUOUS
 70
0
 71
3
 72
11
 73
7
 74
0
 42
0.0000001
 43
0.0000001
 44
0.0000000001
 40
0.0
 40
0.0
 40
0.0
 40
0.0
 40
0.2545340139
 40
0.5050780432
 40
0.7530286465
 40
1.0
 40
1.0
 40
1.0
 40
1.0
 10
16.7321746262
 20
267.1570664923
 30
0.0
 10
16.8520633702
 20
267.2060522576
 30
0.0
 10
17.097085102
 20
267.2868881455
 30
0.0
 10
17.4758145653
 20
267.3532379482
 30
0.0
 10
17.8563857002
 20
267.3625187176
 30
0.0
 10
18.1073040669
 20
267.330445954
 30
0.0
 10
18.230392759
 20
267.3051439705
 30
0.0
  0
SPLINE
  5
3D3
100
AcDbEntity
  8
0
100
AcDbSpline
 62
7
  6
CONTINUOUS
 70
0
 71
3
 72
15
 73
11
 74
0
 42
0.0000001
 43
0.0000001
 44
0.0000000001
 40
0.0
 40
0.0
 40
0.0
 40
0.0
 40
0.1233295424
 40
0.2492095504
 40
0.3766969296
 40
0.5046768993
 40
0.63199542
 40
0.7575605562
 40
0.8804426019
 40
1.0
 40
1.0
 40
1.0
 40
1.0
 10
15.2416431915
 20
262.2734384901
 30
0.0
 10
15.1747588719
 20
262.4429183401
 30
0.0
 10
15.0672300047
 20
262.7968986134
 30
0.0
 10
14.9879783729
 20
263.3497206178
 30
0.0
 10
14.9907037086
 20
263.9151246277
 30
0.0
 10
15.075353281
 20
264.4762535479
 30
0.0
 10
15.239395567
 20
265.016568672
 30
0.0
 10
15.4781175617
 20
265.5201097155
 30
0.0
 10
15.7844422753
 20
265.9718171188
 30
0.0
 10
16.031847685
 20
266.2335191123
 30
0.0
 10
16.1638621761
 20
266.3508623944
 30
0.0
  0
SPLINE
  5
3D4
100
AcDbEntity
  8
0
100
AcDbSpline
 62
7
  6
CONTINUOUS
 70
0
 71
3
 72
15
 73
11
 74
0
 42
0.0000001
 43
0.0000001
 44
0.0000000001
 40
0.0
 40
0.0
 40
0.0
 40
0.0
 40
0.1230757341
 40
0.2439018168
 40
0.3639653423
 40
0.4848571716
 40
0.6080430287
 40
0.7346360828
 40
0.8652526683
 40
1.0
 40
1.0
 40
1.0
 40
1.0
 10
16.9985240173
 20
266.8678801831
 30
0.0
 10
17.1520460366
 20
266.9277849437
 30
0.0
 10
17.4688484023
 20
267.0172177658
 30
0.0
 10
17.9584768961
 20
267.0508262021
 30
0.0
 10
18.4415868406
 20
266.9811240851
 30
0.0
 10
18.9020716172
 20
266.8102988051
 30
0.0
 10
19.3250877825
 20
266.5443310384
 30
0.0
 10
19.6974049604
 20
266.1922173377
 30
0.0
 10
20.0077460422
 20
265.7656662538
 30
0.0
 10
20.1650914756
 20
265.4449060717
 30
0.0
 10
20.2313236022
 20
265.2770788299
 30
0.0
  0
SPLINE
  5
3D5
100
AcDbEntity
  8
0
100
AcDbSpline
 62
7
  6
CONTINUOUS
 70
0
 71
3
 72
15
 73
11
 74
0
 42
0.0000001
 43
0.0000001
 44
0.0000000001
 40
0.0
 40
0.0
 40
0.0
 40
0.0
 40
0.1233295424
 40
0.2492095504
 40
0.3766969296
 40
0.5046768993
 40
0.63199542
 40
0.7575605562
 40
0.8804426019
 40
1.0
 40
1.0
 40
1.0
 40
1.0
 10
20.2313236022
 20
265.2770788299
 30
0.0
 10
20.2982079218
 20
265.1075989799
 30
0.0
 10
20.4057367891
 20
264.7536187065
 30
0.0
 10
20.4849884209
 20
264.2007967022
 30
0.0
 10
20.4822630852
 20
263.6353926923
 30
0.0
 10
20.3976135127
 20
263.074263772
 30
0.0
 10
20.2335712267
 20
262.533948648
 30
0.0
 10
19.994849232
 20
262.0304076045
 30
0.0
 10
19.6885245184
 20
261.5787002011
 30
0.0
 10
19.4411191088
 20
261.3169982077
 30
0.0
 10
19.3091046176
 20
261.1996549255
 30
0.0
  0
SPLINE
  5
3D6
100
AcDbEntity
  8
0
100
AcDbSpline
 62
7
  6
CONTINUOUS
 70
0
 71
3
 72
9
 73
5
 74
0
 42
0.0000001
 43
0.0000001
 44
0.0000000001
 40
0.0
 40
0.0
 40
0.0
 40
0.0
 40
0.2531066687
 40
1.0
 40
1.0
 40
1.0
 40
1.0
 10
16.1475848732
 20
262.6673436436
 30
0.0
 10
16.1605321659
 20
262.639547214
 30
0.0
 10
16.2140249498
 20
262.530835549
 30
0.0
 10
16.2769728141
 20
262.4267407059
 30
0.0
 10
16.3290579594
 20
262.352748249
 30
0.0
  0
SPLINE
  5
3D7
100
AcDbEntity
  8
0
100
AcDbSpline
 62
7
  6
CONTINUOUS
 70
0
 71
3
 72
9
 73
5
 74
0
 42
0.0000001
 43
0.0000001
 44
0.0000000001
 40
0.0
 40
0.0
 40
0.0
 40
0.0
 40
0.2530263163
 40
1.0
 40
1.0
 40
1.0
 40
1.0
 10
19.502371735
 20
264.3183976061
 30
0.0
 10
19.4951565625
 20
264.3588219471
 30
0.0
 10
19.4625862939
 20
264.51782728
 30
0.0
 10
19.4136278788
 20
264.6735368634
 30
0.0
 10
19.3678679046
 20
264.7857934286
 30
0.0
  0
SPLINE
  5
3D8
100
AcDbEntity
  8
0
100
AcDbSpline
 62
7
  6
CONTINUOUS
 70
0
 71
3
 72
9
 73
5
 74
0
 42
0.0000001
 43
0.0000001
 44
0.0000000001
 40
0.0
 40
0.0
 40
0.0
 40
0.0
 40
0.2539471459
 40
1.0
 40
1.0
 40
1.0
 40
1.0
 10
19.3678679046
 20
264.7857934286
 30
0.0
 10
19.3528667183
 20
264.8225937475
 30
0.0
 10
19.2898987096
 20
264.9658765642
 30
0.0
 10
19.2111120641
 20
265.1022997763
 30
0.0
 10
19.1439088343
 20
265.197769071
 30
0.0
  0
SPLINE
  5
3D9
100
AcDbEntity
  8
0
100
AcDbSpline
 62
7
  6
CONTINUOUS
 70
0
 71
3
 72
13
 73
9
 74
0
 42
0.0000001
 43
0.0000001
 44
0.0000000001
 40
0.0
 40
0.0
 40
0.0
 40
0.0
 40
0.3226140649
 40
0.6000470459
 40
0.7187783444
 40
0.8236007309
 40
0.9161456764
 40
1.0
 40
1.0
 40
1.0
 40
1.0
 10
19.3091046176
 20
261.1996549255
 30
0.0
 10
19.3189247679
 20
261.17556452
 30
0.0
 10
19.3343191106
 20
261.1295077143
 30
0.0
 10
19.3432104084
 20
261.0717442006
 30
0.0
 10
19.341555202
 20
261.031247106
 30
0.0
 10
19.3363034575
 20
261.0061476567
 30
0.0
 10
19.3269788869
 20
260.9852514941
 30
0.0
 10
19.3177385543
 20
260.9741122939
 30
0.0
 10
19.3126307701
 20
260.9696813302
 30
0.0
  0
SPLINE
  5
3DA
100
AcDbEntity
  8
0
100
AcDbSpline
 62
7
  6
CONTINUOUS
 70
0
 71
3
 72
9
 73
5
 74
0
 42
0.0000001
 43
0.0000001
 44
0.0000000001
 40
0.0
 40
0.0
 40
0.0
 40
0.0
 40
0.4925207518
 40
1.0
 40
1.0
 40
1.0
 40
1.0
 10
17.6632953371
 20
262.5444527862
 30
0.0
 10
17.729100636
 20
262.5879092038
 30
0.0
 10
17.8549796912
 20
262.6883087354
 30
0.0
 10
17.9623969592
 20
262.8080786961
 30
0.0
 10
18.0118203498
 20
262.8725737218
 30
0.0
  0
SPLINE
  5
3DB
100
AcDbEntity
  8
0
100
AcDbSpline
 62
7
  6
CONTINUOUS
 70
0
 71
3
 72
22
 73
18
 74
0
 42
0.0000001
 43
0.0000001
 44
0.0000000001
 40
0.0
 40
0.0
 40
0.0
 40
0.0
 40
0.0558893422
 40
0.1120659123
 40
0.168965754
 40
0.2269541315
 40
0.286294849
 40
0.3471334439
 40
0.4094935264
 40
0.4732835609
 40
0.5383109225
 40
0.6043005315
 40
0.7375549742
 40
0.8042828803
 40
0.8704906313
 40
0.9358276202
 40
1.0
 40
1.0
 40
1.0
 40
1.0
 10
17.1554751994
 20
267.5261110004
 30
0.0
 10
17.0170940332
 20
267.5545605702
 30
0.0
 10
16.7342808399
 20
267.5884625527
 30
0.0
 10
16.3057986078
 20
267.5680050081
 30
0.0
 10
15.8811550862
 20
267.4768585765
 30
0.0
 10
15.4688914406
 20
267.3169933515
 30
0.0
 10
15.0769844163
 20
267.0917672395
 30
0.0
 10
14.7129644299
 20
266.8057545207
 30
0.0
 10
14.3837454324
 20
266.4646272386
 30
0.0
 10
14.0955607614
 20
266.0750873013
 30
0.0
 10
13.8538306479
 20
265.6445692514
 30
0.0
 10
13.5989313674
 20
265.0257742415
 30
0.0
 10
13.4549291038
 20
264.361525101
 30
0.0
 10
13.4283083272
 20
263.6880564983
 30
0.0
 10
13.4673926207
 20
263.187119749
 30
0.0
 10
13.5649042837
 20
262.7009358984
 30
0.0
 10
13.6688001599
 20
262.3893908458
 30
0.0
 10
13.7300322327
 20
262.2391787382
 30
0.0
  0
LINE
  5
3DC
100
AcDbEntity
  8
0
100
AcDbLine
 62
7
  6
CONTINUOUS
 10
16.7321746262
 20
267.1570664923
 11
16.2254990846
 21
267.254706642
  0
SPLINE
  5
3DD
100
AcDbEntity
  8
0
100
AcDbSpline
 62
7
  6
CONTINUOUS
 70
0
 71
3
 72
9
 73
5
 74
0
 42
0.0000001
 43
0.0000001
 44
0.0000000001
 40
0.0
 40
0.0
 40
0.0
 40
0.0
 40
0.2429398799
 40
1.0
 40
1.0
 40
1.0
 40
1.0
 10
16.0050352008
 20
263.1104047521
 30
0.0
 10
16.0318279487
 20
263.114076716
 30
0.0
 10
16.1421474074
 20
263.128937923
 30
0.0
 10
16.2526415013
 20
263.1425418594
 30
0.0
 10
16.3364097996
 20
263.1517532294
 30
0.0
  0
SPLINE
  5
3DE
100
AcDbEntity
  8
0
100
AcDbSpline
 62
7
  6
CONTINUOUS
 70
0
 71
3
 72
11
 73
7
 74
0
 42
0.0000001
 43
0.0000001
 44
0.0000000001
 40
0.0
 40
0.0
 40
0.0
 40
0.0
 40
0.2611852057
 40
0.5146282933
 40
0.7605358499
 40
1.0
 40
1.0
 40
1.0
 40
1.0
 10
13.7300322327
 20
262.2391787382
 30
0.0
 10
13.8030153223
 20
262.0601394993
 30
0.0
 10
13.9746141565
 20
261.717833094
 30
0.0
 10
14.3087365591
 20
261.2613370939
 30
0.0
 10
14.7067336355
 20
260.8819658317
 30
0.0
 10
15.0109829879
 20
260.6858893479
 30
0.0
 10
15.1688104161
 20
260.6051858176
 30
0.0
  0
SPLINE
  5
3DF
100
AcDbEntity
  8
0
100
AcDbSpline
 62
7
  6
CONTINUOUS
 70
0
 71
3
 72
8
 73
4
 74
0
 42
0.0000001
 43
0.0000001
 44
0.0000000001
 40
0.0
 40
0.0
 40
0.0
 40
0.0
 40
1.0
 40
1.0
 40
1.0
 40
1.0
 10
16.0050352008
 20
263.1104047521
 30
0.0
 10
16.0034990518
 20
263.1011687143
 30
0.0
 10
16.0027559371
 20
263.0917844007
 30
0.0
 10
16.0025854958
 20
263.0824230387
 30
0.0
  0
SPLINE
  5
3E0
100
AcDbEntity
  8
0
100
AcDbSpline
 62
7
  6
CONTINUOUS
 70
0
 71
3
 72
15
 73
11
 74
0
 42
0.0000001
 43
0.0000001
 44
0.0000000001
 40
0.0
 40
0.0
 40
0.0
 40
0.0
 40
0.1190276239
 40
0.2385340071
 40
0.3593024903
 40
0.482013101
 40
0.6071931224
 40
0.7351852297
 40
0.8661370267
 40
1.0
 40
1.0
 40
1.0
 40
1.0
 10
17.2416643279
 20
260.245500792
 30
0.0
 10
17.1157538087
 20
260.255033233
 30
0.0
 10
16.864460593
 20
260.2934079019
 30
0.0
 10
16.4994220577
 20
260.4078361507
 30
0.0
 10
16.1519991416
 20
260.5771856729
 30
0.0
 10
15.8279738614
 20
260.7985623421
 30
0.0
 10
15.5325322193
 20
261.0682375985
 30
0.0
 10
15.2703673084
 20
261.3817551534
 30
0.0
 10
15.0456322027
 20
261.7339154325
 30
0.0
 10
14.9242948098
 20
261.9881714898
 30
0.0
 10
14.8706893279
 20
262.1196743454
 30
0.0
  0
SPLINE
  5
3E1
100
AcDbEntity
  8
0
100
AcDbSpline
 62
7
  6
CONTINUOUS
 70
0
 71
3
 72
9
 73
5
 74
0
 42
0.0000001
 43
0.0000001
 44
0.0000000001
 40
0.0
 40
0.0
 40
0.0
 40
0.0
 40
0.4921372466
 40
1.0
 40
1.0
 40
1.0
 40
1.0
 10
17.2151188185
 20
264.7273627895
 30
0.0
 10
17.2535502063
 20
264.685165287
 30
0.0
 10
17.323611923
 20
264.5918321391
 30
0.0
 10
17.3762232077
 20
264.487784298
 30
0.0
 10
17.3984564333
 20
264.4332426255
 30
0.0
  0
SPLINE
  5
3E2
100
AcDbEntity
  8
0
100
AcDbSpline
 62
7
  6
CONTINUOUS
 70
0
 71
3
 72
15
 73
11
 74
0
 42
0.0000001
 43
0.0000001
 44
0.0000000001
 40
0.0
 40
0.0
 40
0.0
 40
0.0
 40
0.1232498674
 40
0.2491454621
 40
0.3767124408
 40
0.5047974735
 40
0.6322006356
 40
0.7577884056
 40
0.8806054487
 40
1.0
 40
1.0
 40
1.0
 40
1.0
 10
14.8706893279
 20
262.1196743454
 30
0.0
 10
14.7942936217
 20
262.3070852807
 30
0.0
 10
14.6711236219
 20
262.6993858913
 30
0.0
 10
14.5792672788
 20
263.3134082249
 30
0.0
 10
14.580287607
 20
263.942276579
 30
0.0
 10
14.6741764657
 20
264.5665311365
 30
0.0
 10
14.8580078126
 20
265.1670870123
 30
0.0
 10
15.1263193528
 20
265.7255358189
 30
0.0
 10
15.4708681149
 20
266.2245345923
 30
0.0
 10
15.7491482608
 20
266.5118895739
 30
0.0
 10
15.897512785
 20
266.6400487037
 30
0.0
  0
SPLINE
  5
3E3
100
AcDbEntity
  8
0
100
AcDbSpline
 62
7
  6
CONTINUOUS
 70
0
 71
3
 72
9
 73
5
 74
0
 42
0.0000001
 43
0.0000001
 44
0.0000000001
 40
0.0
 40
0.0
 40
0.0
 40
0.0
 40
0.5026145978
 40
1.0
 40
1.0
 40
1.0
 40
1.0
 10
17.3364264217
 20
263.3972776077
 30
0.0
 10
17.448240455
 20
263.307666957
 30
0.0
 10
17.6726470133
 20
263.1318027106
 30
0.0
 10
17.898972934
 20
262.9584392644
 30
0.0
 10
18.0118203498
 20
262.8725737218
 30
0.0
  0
SPLINE
  5
3E4
100
AcDbEntity
  8
0
100
AcDbSpline
 62
7
  6
CONTINUOUS
 70
0
 71
3
 72
9
 73
5
 74
0
 42
0.0000001
 43
0.0000001
 44
0.0000000001
 40
0.0
 40
0.0
 40
0.0
 40
0.0
 40
0.4977230606
 40
1.0
 40
1.0
 40
1.0
 40
1.0
 10
16.9906132848
 20
265.377758643
 30
0.0
 10
16.9419577739
 20
265.3193570785
 30
0.0
 10
16.8452673369
 20
265.2011306153
 30
0.0
 10
16.7521235615
 20
265.0800264916
 30
0.0
 10
16.7070795388
 20
265.0179349965
 30
0.0
  0
SPLINE
  5
3E5
100
AcDbEntity
  8
0
100
AcDbSpline
 62
7
  6
CONTINUOUS
 70
0
 71
3
 72
9
 73
5
 74
0
 42
0.0000001
 43
0.0000001
 44
0.0000000001
 40
0.0
 40
0.0
 40
0.0
 40
0.0
 40
0.5067693305
 40
1.0
 40
1.0
 40
1.0
 40
1.0
 10
15.3908372434
 20
266.7376888534
 30
0.0
 10
15.5169022541
 20
266.846284921
 30
0.0
 10
15.7821882457
 20
267.0422529667
 30
0.0
 10
16.0756792042
 20
267.1932250562
 30
0.0
 10
16.2254990846
 20
267.254706642
 30
0.0
  0
SPLINE
  5
3E6
100
AcDbEntity
  8
0
100
AcDbSpline
 62
7
  6
CONTINUOUS
 70
0
 71
3
 72
9
 73
5
 74
0
 42
0.0000001
 43
0.0000001
 44
0.0000000001
 40
0.0
 40
0.0
 40
0.0
 40
0.0
 40
0.512697143
 40
1.0
 40
1.0
 40
1.0
 40
1.0
 10
17.3364264217
 20
263.3972776077
 30
0.0
 10
17.2886685285
 20
263.3086616008
 30
0.0
 10
17.1727885083
 20
263.1468461341
 30
0.0
 10
17.0151367977
 20
263.0240499037
 30
0.0
 10
16.9310940289
 20
262.9783176891
 30
0.0
  0
SPLINE
  5
3E7
100
AcDbEntity
  8
0
100
AcDbSpline
 62
7
  6
CONTINUOUS
 70
0
 71
3
 72
9
 73
5
 74
0
 42
0.0000001
 43
0.0000001
 44
0.0000000001
 40
0.0
 40
0.0
 40
0.0
 40
0.0
 40
0.4942281648
 40
1.0
 40
1.0
 40
1.0
 40
1.0
 10
17.3984564333
 20
264.4332426255
 30
0.0
 10
17.424427951
 20
264.3695303218
 30
0.0
 10
17.4648004958
 20
264.2353846316
 30
0.0
 10
17.4809021914
 20
264.0963255805
 30
0.0
 10
17.4830699487
 20
264.0259494903
 30
0.0
  0
SPLINE
  5
3E8
100
AcDbEntity
  8
0
100
AcDbSpline
 62
7
  6
CONTINUOUS
 70
0
 71
3
 72
9
 73
5
 74
0
 42
0.0000001
 43
0.0000001
 44
0.0000000001
 40
0.0
 40
0.0
 40
0.0
 40
0.0
 40
0.4945819734
 40
1.0
 40
1.0
 40
1.0
 40
1.0
 10
16.9906132848
 20
265.377758643
 30
0.0
 10
16.9252595021
 20
265.3682544747
 30
0.0
 10
16.794616346
 20
265.337091465
 30
0.0
 10
16.6713142036
 20
265.2840518216
 30
0.0
 10
16.611666374
 20
265.2524798318
 30
0.0
  0
SPLINE
  5
3E9
100
AcDbEntity
  8
0
100
AcDbSpline
 62
7
  6
CONTINUOUS
 70
0
 71
3
 72
15
 73
11
 74
0
 42
0.0000001
 43
0.0000001
 44
0.0000000001
 40
0.0
 40
0.0
 40
0.0
 40
0.0
 40
0.1230757341
 40
0.2439018168
 40
0.3639653423
 40
0.4848571716
 40
0.6080430287
 40
0.7346360828
 40
0.8652526683
 40
1.0
 40
1.0
 40
1.0
 40
1.0
 10
18.4744427765
 20
260.6826371369
 30
0.0
 10
18.3209207571
 20
260.6227323763
 30
0.0
 10
18.0041183914
 20
260.5332995542
 30
0.0
 10
17.5144898977
 20
260.4996911179
 30
0.0
 10
17.0313799531
 20
260.5693932349
 30
0.0
 10
16.5708951765
 20
260.7402185149
 30
0.0
 10
16.1478790112
 20
261.0061862816
 30
0.0
 10
15.7755618333
 20
261.3582999823
 30
0.0
 10
15.4652207515
 20
261.7848510662
 30
0.0
 10
15.3078753181
 20
262.1056112483
 30
0.0
 10
15.2416431915
 20
262.2734384901
 30
0.0
  0
SPLINE
  5
3EA
100
AcDbEntity
  8
0
100
AcDbSpline
 62
7
  6
CONTINUOUS
 70
0
 71
3
 72
13
 73
9
 74
0
 42
0.0000001
 43
0.0000001
 44
0.0000000001
 40
0.0
 40
0.0
 40
0.0
 40
0.0
 40
0.0882338457
 40
0.1917572865
 40
0.3094424488
 40
0.4388730957
 40
0.7185791159
 40
1.0
 40
1.0
 40
1.0
 40
1.0
 10
16.7321746262
 20
267.1570664923
 30
0.0
 10
16.7438711073
 20
267.1548124287
 30
0.0
 10
16.7685743472
 20
267.1461798641
 30
0.0
 10
16.8048338033
 20
267.1251362013
 30
0.0
 10
16.8421153418
 20
267.0957472782
 30
0.0
 10
16.8926838244
 20
267.0455709536
 30
0.0
 10
16.9489199592
 20
266.9705798148
 30
0.0
 10
16.9841827316
 20
266.9030616599
 30
0.0
 10
16.9985240173
 20
266.8678801831
 30
0.0
  0
SPLINE
  5
3EB
100
AcDbEntity
  8
0
100
AcDbSpline
 62
7
  6
CONTINUOUS
 70
0
 71
3
 72
9
 73
5
 74
0
 42
0.0000001
 43
0.0000001
 44
0.0000000001
 40
0.0
 40
0.0
 40
0.0
 40
0.0
 40
0.2485115566
 40
1.0
 40
1.0
 40
1.0
 40
1.0
 10
17.7052742626
 20
264.1197047949
 30
0.0
 10
17.6867784376
 20
264.1121521636
 30
0.0
 10
17.6124254334
 20
264.0815820938
 30
0.0
 10
17.5384082782
 20
264.0501881588
 30
0.0
 10
17.4830699487
 20
264.0259494903
 30
0.0
  0
SPLINE
  5
3EC
100
AcDbEntity
  8
0
100
AcDbSpline
 62
7
  6
CONTINUOUS
 70
0
 71
3
 72
9
 73
5
 74
0
 42
0.0000001
 43
0.0000001
 44
0.0000000001
 40
0.0
 40
0.0
 40
0.0
 40
0.0
 40
0.2486547341
 40
1.0
 40
1.0
 40
1.0
 40
1.0
 10
17.2033676457
 20
263.6887762563
 30
0.0
 10
17.2257247965
 20
263.717391083
 30
0.0
 10
17.3167123715
 20
263.8316309179
 30
0.0
 10
17.4111731958
 20
263.9430607209
 30
0.0
 10
17.4830699487
 20
264.0259494903
 30
0.0
  0
SPLINE
  5
3ED
100
AcDbEntity
  8
0
100
AcDbSpline
 62
7
  6
CONTINUOUS
 70
0
 71
3
 72
17
 73
13
 74
0
 42
0.0000001
 43
0.0000001
 44
0.0000000001
 40
0.0
 40
0.0
 40
0.0
 40
0.0
 40
0.1230898135
 40
0.2507369842
 40
0.3812862037
 40
0.5121302181
 40
0.6405646998
 40
0.7646752291
 40
0.8250232959
 40
0.8842405236
 40
0.9424925217
 40
1.0
 40
1.0
 40
1.0
 40
1.0
 10
-31.0238997483
 20
255.4835675794
 30
0.0
 10
-31.2310435558
 20
256.6098051843
 30
0.0
 10
-31.3439517012
 20
258.9684779912
 30
0.0
 10
-30.6838756716
 20
262.4813817922
 30
0.0
 10
-29.2680770099
 20
265.8412784677
 30
0.0
 10
-27.1899081341
 20
268.8453273075
 30
0.0
 10
-24.572420248
 20
271.3081120221
 30
0.0
 10
-22.0286306732
 20
272.7872622466
 30
0.0
 10
-19.8802039553
 20
273.5290304711
 30
0.0
 10
-18.251735512
 20
273.851194393
 30
0.0
 10
-16.6200651913
 20
273.9313920128
 30
0.0
 10
-15.543813667
 20
273.8169757697
 30
0.0
 10
-15.0181640007
 20
273.7173714752
 30
0.0
  0
SPLINE
  5
3EE
100
AcDbEntity
  8
0
100
AcDbSpline
 62
7
  6
CONTINUOUS
 70
0
 71
3
 72
9
 73
5
 74
0
 42
0.0000001
 43
0.0000001
 44
0.0000000001
 40
0.0
 40
0.0
 40
0.0
 40
0.0
 40
0.2452798743
 40
1.0
 40
1.0
 40
1.0
 40
1.0
 10
-14.2978242065
 20
273.8229918523
 30
0.0
 10
-14.5116389401
 20
273.7880770775
 30
0.0
 10
-15.3796014344
 20
273.6232592978
 30
0.0
 10
-16.2303278015
 20
273.3704094297
 30
0.0
 10
-16.8549475177
 20
273.1375409289
 30
0.0
  0
SPLINE
  5
3EF
100
AcDbEntity
  8
0
100
AcDbSpline
 62
7
  6
CONTINUOUS
 70
0
 71
3
 72
11
 73
7
 74
0
 42
0.0000001
 43
0.0000001
 44
0.0000000001
 40
0.0
 40
0.0
 40
0.0
 40
0.0
 40
0.2546272404
 40
0.5066601154
 40
0.7552231618
 40
1.0
 40
1.0
 40
1.0
 40
1.0
 10
-16.8549475177
 20
273.1375409289
 30
0.0
 10
-17.747644409
 20
272.4438152653
 30
0.0
 10
-19.502771125
 20
271.035743128
 30
0.0
 10
-22.0333988883
 20
268.8341552583
 30
0.0
 10
-24.4314678466
 20
266.551801855
 30
0.0
 10
-25.9533654216
 20
264.9755145731
 30
0.0
 10
-26.6945188479
 20
264.180609204
 30
0.0
  0
SPLINE
  5
3F0
100
AcDbEntity
  8
0
100
AcDbSpline
 62
7
  6
CONTINUOUS
 70
0
 71
3
 72
17
 73
13
 74
0
 42
0.0000001
 43
0.0000001
 44
0.0000000001
 40
0.0
 40
0.0
 40
0.0
 40
0.0
 40
0.0534046964
 40
0.1084878047
 40
0.224290902
 40
0.3480279667
 40
0.478149582
 40
0.6118187404
 40
0.6789799843
 40
0.7457070259
 40
0.8760053273
 40
1.0
 40
1.0
 40
1.0
 40
1.0
 10
-15.1595175934
 20
273.6811428511
 30
0.0
 10
-15.6269640663
 20
273.7440758155
 30
0.0
 10
-16.5881789672
 20
273.7965540684
 30
0.0
 10
-18.5662563848
 20
273.6116888874
 30
0.0
 10
-21.0803876522
 20
272.8246156943
 30
0.0
 10
-23.8985422535
 20
271.1251533413
 30
0.0
 10
-26.4115923964
 20
268.7676932826
 30
0.0
 10
-28.1259144005
 20
266.3762791911
 30
0.0
 10
-29.2169490636
 20
264.2766950905
 30
0.0
 10
-30.0897857274
 20
262.109411538
 30
0.0
 10
-30.7615299927
 20
259.3350415478
 30
0.0
 10
-30.8218480141
 20
257.0677102626
 30
0.0
 10
-30.7170646636
 20
255.9776288343
 30
0.0
  0
SPLINE
  5
3F1
100
AcDbEntity
  8
0
100
AcDbSpline
 62
7
  6
CONTINUOUS
 70
0
 71
3
 72
15
 73
11
 74
0
 42
0.0000001
 43
0.0000001
 44
0.0000000001
 40
0.0
 40
0.0
 40
0.0
 40
0.0
 40
0.0836175766
 40
0.1735327936
 40
0.2745582891
 40
0.3895840814
 40
0.5198999086
 40
0.6656225368
 40
0.8260944682
 40
1.0
 40
1.0
 40
1.0
 40
1.0
 10
48.7588288896
 20
293.3269726453
 30
0.0
 10
48.7588592308
 20
293.838899673
 30
0.0
 10
48.9307126547
 20
294.9072216156
 30
0.0
 10
49.6737629863
 20
296.4356427721
 30
0.0
 10
50.8693426186
 20
297.8948214813
 30
0.0
 10
52.4915399523
 20
299.2737798154
 30
0.0
 10
54.5172264908
 20
300.5610833398
 30
0.0
 10
56.9194066441
 20
301.7418522637
 30
0.0
 10
59.6649228542
 20
302.8000776336
 30
0.0
 10
61.6265358723
 20
303.3922649225
 30
0.0
 10
62.6549217773
 20
303.6679294027
 30
0.0
  0
SPLINE
  5
3F2
100
AcDbEntity
  8
0
100
AcDbSpline
 62
7
  6
CONTINUOUS
 70
0
 71
3
 72
19
 73
15
 74
0
 42
0.0000001
 43
0.0000001
 44
0.0000000001
 40
0.0
 40
0.0
 40
0.0
 40
0.0
 40
0.1437927501
 40
0.2990289408
 40
0.4562714565
 40
0.6058605483
 40
0.6750130013
 40
0.7390970209
 40
0.7973619681
 40
0.8493061298
 40
0.8947794449
 40
0.9341460629
 40
0.9685228895
 40
1.0
 40
1.0
 40
1.0
 40
1.0
 10
62.6549217773
 20
303.6679294027
 30
0.0
 10
65.1786429519
 20
304.3444267003
 30
0.0
 10
70.5352104134
 20
305.3568748393
 30
0.0
 10
78.8177623791
 20
305.9690575569
 30
0.0
 10
87.2247999264
 20
305.7122630817
 30
0.0
 10
94.0091641375
 20
304.7692754247
 30
0.0
 10
99.0089803612
 20
303.5647519548
 30
0.0
 10
102.325928096
 20
302.5005892771
 30
0.0
 10
105.2501516686
 20
301.2719071664
 30
0.0
 10
107.7315645636
 20
299.8994469222
 30
0.0
 10
109.7294215002
 20
298.404125543
 30
0.0
 10
111.2107425511
 20
296.8015470124
 30
0.0
 10
112.1405750006
 20
295.103193496
 30
0.0
 10
112.358836872
 20
293.8989344185
 30
0.0
 10
112.3588029726
 20
293.3269726455
 30
0.0
  0
SPLINE
  5
3F3
100
AcDbEntity
  8
0
100
AcDbSpline
 62
7
  6
CONTINUOUS
 70
0
 71
3
 72
9
 73
5
 74
0
 42
0.0000001
 43
0.0000001
 44
0.0000000001
 40
0.0
 40
0.0
 40
0.0
 40
0.0
 40
0.2416693272
 40
1.0
 40
1.0
 40
1.0
 40
1.0
 10
112.3032476092
 20
292.5877994703
 30
0.0
 10
112.2787987786
 20
292.4252052622
 30
0.0
 10
112.1450570655
 20
291.7573575111
 30
0.0
 10
111.8815253091
 20
291.1184516379
 30
0.0
 10
111.6318896945
 20
290.6669278394
 30
0.0
  0
SPLINE
  5
3F4
100
AcDbEntity
  8
0
100
AcDbSpline
 62
7
  6
CONTINUOUS
 70
0
 71
3
 72
12
 73
8
 74
0
 42
0.0000001
 43
0.0000001
 44
0.0000000001
 40
0.0
 40
0.0
 40
0.0
 40
0.0
 40
0.1907963364
 40
0.3008762151
 40
0.4211957345
 40
0.6919474663
 40
1.0
 40
1.0
 40
1.0
 40
1.0
 10
111.3000664459
 20
290.1251384108
 30
0.0
 10
110.769420567
 20
289.3363435876
 30
0.0
 10
109.7082022917
 20
288.2419919808
 30
0.0
 10
108.0252316436
 20
286.9882698136
 30
0.0
 10
105.8870555938
 20
285.6904523515
 30
0.0
 10
102.7000040317
 20
284.2554851833
 30
0.0
 10
99.9452927259
 20
283.3834302936
 30
0.0
 10
98.4627100848
 20
282.9860158881
 30
0.0
  0
SPLINE
  5
3F5
100
AcDbEntity
  8
0
100
AcDbSpline
 62
7
  6
CONTINUOUS
 70
0
 71
3
 72
18
 73
14
 74
0
 42
0.0000001
 43
0.0000001
 44
0.0000000001
 40
0.0
 40
0.0
 40
0.0
 40
0.0
 40
0.1318759267
 40
0.2737976676
 40
0.419598923
 40
0.5627954841
 40
0.6971118116
 40
0.7591962063
 40
0.8170851863
 40
0.8703162254
 40
0.9185756291
 40
0.9617495575
 40
1.0
 40
1.0
 40
1.0
 40
1.0
 10
98.4627100848
 20
282.9860158881
 30
0.0
 10
96.3368257705
 20
282.4161609421
 30
0.0
 10
91.8457196178
 20
281.5143601891
 30
0.0
 10
84.8680503475
 20
280.8212232166
 30
0.0
 10
77.6665088144
 20
280.7581143308
 30
0.0
 10
70.6154661071
 20
281.3290229026
 30
0.0
 10
65.0247286553
 20
282.3306292374
 30
0.0
 10
60.928020599
 20
283.4483512263
 30
0.0
 10
58.1935995231
 20
284.393580309
 30
0.0
 10
55.7512573238
 20
285.4549573231
 30
0.0
 10
53.6314055944
 20
286.6196451855
 30
0.0
 10
51.860725397
 20
287.8731493877
 30
0.0
 10
50.8703933641
 20
288.8145596799
 30
0.0
 10
50.4528858269
 20
289.2974827723
 30
0.0
  0
SPLINE
  5
3F6
100
AcDbEntity
  8
0
100
AcDbSpline
 62
7
  6
CONTINUOUS
 70
0
 71
3
 72
10
 73
6
 74
0
 42
0.0000001
 43
0.0000001
 44
0.0000000001
 40
0.0
 40
0.0
 40
0.0
 40
0.0
 40
0.5292529939
 40
0.7687320654
 40
1.0
 40
1.0
 40
1.0
 40
1.0
 10
50.4528858269
 20
289.2974827723
 30
0.0
 10
49.9389939056
 20
289.8918918636
 30
0.0
 10
49.2874361317
 20
290.8608231769
 30
0.0
 10
48.8333004457
 20
292.2825787509
 30
0.0
 10
48.7588085397
 20
292.9836219758
 30
0.0
 10
48.7588288896
 20
293.3269726453
 30
0.0
  0
SPLINE
  5
3F7
100
AcDbEntity
  8
0
100
AcDbSpline
 62
7
  6
CONTINUOUS
 70
0
 71
3
 72
9
 73
5
 74
0
 42
0.0000001
 43
0.0000001
 44
0.0000000001
 40
0.0
 40
0.0
 40
0.0
 40
0.0
 40
0.5030187669
 40
1.0
 40
1.0
 40
1.0
 40
1.0
 10
75.2148417083
 20
215.4000580333
 30
0.0
 10
74.1478437232
 20
215.1140433734
 30
0.0
 10
71.9658632048
 20
214.7491868825
 30
0.0
 10
69.7540581276
 20
214.8309504665
 30
0.0
 10
68.6732071866
 20
214.9823863926
 30
0.0
  0
SPLINE
  5
3F8
100
AcDbEntity
  8
0
100
AcDbSpline
 62
7
  6
CONTINUOUS
 70
0
 71
3
 72
13
 73
9
 74
0
 42
0.0000001
 43
0.0000001
 44
0.0000000001
 40
0.0
 40
0.0
 40
0.0
 40
0.0
 40
0.2680782191
 40
0.5231815286
 40
0.6459686275
 40
0.7658128537
 40
0.8834852817
 40
1.0
 40
1.0
 40
1.0
 40
1.0
 10
56.2422006856
 20
239.8929476813
 30
0.0
 10
56.3441286601
 20
239.2129292911
 30
0.0
 10
56.7170656287
 20
237.9039907738
 30
0.0
 10
57.6198285054
 20
236.4818565164
 30
0.0
 10
58.5477478155
 20
235.5972965135
 30
0.0
 10
59.3186856216
 20
235.0789784887
 30
0.0
 10
60.1541446819
 20
234.7113391123
 30
0.0
 10
60.7427273733
 20
234.5726610769
 30
0.0
 10
61.0386935074
 20
234.531187923
 30
0.0
  0
SPLINE
  5
3F9
100
AcDbEntity
  8
0
100
AcDbSpline
 62
7
  6
CONTINUOUS
 70
0
 71
3
 72
13
 73
9
 74
0
 42
0.0000001
 43
0.0000001
 44
0.0000000001
 40
0.0
 40
0.0
 40
0.0
 40
0.0
 40
0.2680782191
 40
0.5231815286
 40
0.6459686275
 40
0.7658128537
 40
0.8834852817
 40
1.0
 40
1.0
 40
1.0
 40
1.0
 10
74.1352881563
 20
244.6892878799
 30
0.0
 10
74.2372161308
 20
244.0092694897
 30
0.0
 10
74.6101530994
 20
242.7003309724
 30
0.0
 10
75.5129159761
 20
241.278196715
 30
0.0
 10
76.4408352862
 20
240.3936367121
 30
0.0
 10
77.2117730923
 20
239.8753186873
 30
0.0
 10
78.0472321526
 20
239.5076793109
 30
0.0
 10
78.635814844
 20
239.3690012755
 30
0.0
 10
78.9317809781
 20
239.3275281216
 30
0.0
  0
SPLINE
  5
3FA
100
AcDbEntity
  8
0
100
AcDbSpline
 62
7
  6
CONTINUOUS
 70
0
 71
3
 72
13
 73
9
 74
0
 42
0.0000001
 43
0.0000001
 44
0.0000000001
 40
0.0
 40
0.0
 40
0.0
 40
0.0
 40
0.1126084257
 40
0.227816271
 40
0.3475015298
 40
0.4724025418
 40
0.7336674034
 40
1.0
 40
1.0
 40
1.0
 40
1.0
 10
73.2420785079
 20
230.3652380683
 30
0.0
 10
72.9353704587
 20
230.4081903249
 30
0.0
 10
72.2987323631
 20
230.4050169487
 30
0.0
 10
71.3712365769
 20
230.131300656
 30
0.0
 10
70.5181516257
 20
229.6089483316
 30
0.0
 10
69.530894435
 20
228.6128120133
 30
0.0
 10
68.7276162766
 20
226.9471278405
 30
0.0
 10
68.6455742739
 20
225.4544707971
 30
0.0
 10
68.7541528541
 20
224.7300825056
 30
0.0
  0
SPLINE
  5
3FB
100
AcDbEntity
  8
0
100
AcDbSpline
 62
7
  6
CONTINUOUS
 70
0
 71
3
 72
11
 73
7
 74
0
 42
0.0000001
 43
0.0000001
 44
0.0000000001
 40
0.0
 40
0.0
 40
0.0
 40
0.0
 40
0.2372802323
 40
0.4807049443
 40
0.734513933
 40
1.0
 40
1.0
 40
1.0
 40
1.0
 10
77.4142808523
 20
250.2679230693
 30
0.0
 10
77.1581117534
 20
250.3037738878
 30
0.0
 10
76.6246075427
 20
250.296152877
 30
0.0
 10
75.8528054796
 20
250.0455933378
 30
0.0
 10
75.1539982203
 20
249.5778331367
 30
0.0
 10
74.7725949366
 20
249.1508927175
 30
0.0
 10
74.6053211349
 20
248.9147155192
 30
0.0
  0
SPLINE
  5
3FC
100
AcDbEntity
  8
0
100
AcDbSpline
 62
7
  6
CONTINUOUS
 70
0
 71
3
 72
15
 73
11
 74
0
 42
0.0000001
 43
0.0000001
 44
0.0000000001
 40
0.0
 40
0.0
 40
0.0
 40
0.0
 40
0.1122971044
 40
0.2271854713
 40
0.3465387491
 40
0.471093921
 40
0.6004021571
 40
0.7330568726
 40
0.8670061143
 40
1.0
 40
1.0
 40
1.0
 40
1.0
 10
80.8664199681
 20
253.1410906234
 30
0.0
 10
80.4064160813
 20
253.2055500659
 30
0.0
 10
79.4515733165
 20
253.2007583793
 30
0.0
 10
78.0604603023
 20
252.7901823166
 30
0.0
 10
76.7811607047
 20
252.0069671044
 30
0.0
 10
75.6850033177
 20
250.9006947415
 30
0.0
 10
74.8291908778
 20
249.53595096
 30
0.0
 10
74.2587893333
 20
247.9887787877
 30
0.0
 10
74.003544705
 20
246.3452980564
 30
0.0
 10
74.0537435477
 20
245.2333174626
 30
0.0
 10
74.1352881563
 20
244.6892878799
 30
0.0
  0
SPLINE
  5
3FD
100
AcDbEntity
  8
0
100
AcDbSpline
 62
7
  6
CONTINUOUS
 70
0
 71
3
 72
11
 73
7
 74
0
 42
0.0000001
 43
0.0000001
 44
0.0000000001
 40
0.0
 40
0.0
 40
0.0
 40
0.0
 40
0.2372802323
 40
0.4807049443
 40
0.734513933
 40
1.0
 40
1.0
 40
1.0
 40
1.0
 10
59.5211933816
 20
245.4715828708
 30
0.0
 10
59.2650242827
 20
245.5074336893
 30
0.0
 10
58.731520072
 20
245.4998126784
 30
0.0
 10
57.9597180089
 20
245.2492531392
 30
0.0
 10
57.2609107496
 20
244.7814929381
 30
0.0
 10
56.8795074659
 20
244.354552519
 30
0.0
 10
56.7122336642
 20
244.1183753206
 30
0.0
  0
SPLINE
  5
3FE
100
AcDbEntity
  8
0
100
AcDbSpline
 62
7
  6
CONTINUOUS
 70
0
 71
3
 72
15
 73
11
 74
0
 42
0.0000001
 43
0.0000001
 44
0.0000000001
 40
0.0
 40
0.0
 40
0.0
 40
0.0
 40
0.1122971044
 40
0.2271854713
 40
0.3465387491
 40
0.471093921
 40
0.6004021571
 40
0.7330568726
 40
0.8670061143
 40
1.0
 40
1.0
 40
1.0
 40
1.0
 10
62.9733324974
 20
248.3447504248
 30
0.0
 10
62.5133286106
 20
248.4092098673
 30
0.0
 10
61.5584858459
 20
248.4044181807
 30
0.0
 10
60.1673728316
 20
247.993842118
 30
0.0
 10
58.888073234
 20
247.2106269058
 30
0.0
 10
57.791915847
 20
246.1043545429
 30
0.0
 10
56.9361034071
 20
244.7396107614
 30
0.0
 10
56.3657018626
 20
243.1924385891
 30
0.0
 10
56.1104572343
 20
241.5489578578
 30
0.0
 10
56.160656077
 20
240.436977264
 30
0.0
 10
56.2422006856
 20
239.8929476813
 30
0.0
  0
SPLINE
  5
3FF
100
AcDbEntity
  8
0
100
AcDbSpline
 62
7
  6
CONTINUOUS
 70
0
 71
3
 72
11
 73
7
 74
0
 42
0.0000001
 43
0.0000001
 44
0.0000000001
 40
0.0
 40
0.0
 40
0.0
 40
0.0
 40
0.263291025
 40
0.5162641666
 40
0.7605899266
 40
1.0
 40
1.0
 40
1.0
 40
1.0
 10
56.3356142071
 20
239.9377101997
 30
0.0
 10
56.4444357088
 20
239.7110480479
 30
0.0
 10
56.7051611482
 20
239.2871226816
 30
0.0
 10
57.2215277072
 20
238.7666746268
 30
0.0
 10
57.83130624
 20
238.4009289007
 30
0.0
 10
58.2822691225
 20
238.2738636372
 30
0.0
 10
58.5086888717
 20
238.2421762347
 30
0.0
  0
SPLINE
  5
400
100
AcDbEntity
  8
0
100
AcDbSpline
 62
7
  6
CONTINUOUS
 70
0
 71
3
 72
11
 73
7
 74
0
 42
0.0000001
 43
0.0000001
 44
0.0000000001
 40
0.0
 40
0.0
 40
0.0
 40
0.0
 40
0.263291025
 40
0.5162641666
 40
0.7605899266
 40
1.0
 40
1.0
 40
1.0
 40
1.0
 10
74.2287016778
 20
244.7340503983
 30
0.0
 10
74.3375231795
 20
244.5073882465
 30
0.0
 10
74.5982486189
 20
244.0834628802
 30
0.0
 10
75.1146151779
 20
243.5630148254
 30
0.0
 10
75.7243937107
 20
243.1972690993
 30
0.0
 10
76.1753565932
 20
243.0702038358
 30
0.0
 10
76.4017763424
 20
243.0385164333
 30
0.0
  0
SPLINE
  5
401
100
AcDbEntity
  8
0
100
AcDbSpline
 62
7
  6
CONTINUOUS
 70
0
 71
3
 72
11
 73
7
 74
0
 42
0.0000001
 43
0.0000001
 44
0.0000000001
 40
0.0
 40
0.0
 40
0.0
 40
0.0
 40
0.2685754896
 40
0.5241420781
 40
0.7663548172
 40
1.0
 40
1.0
 40
1.0
 40
1.0
 10
68.7541528541
 20
224.7300825056
 30
0.0
 10
68.8221133319
 20
224.276680239
 30
0.0
 10
69.0711607414
 20
223.4036175804
 30
0.0
 10
69.7822354286
 20
222.2822360125
 30
0.0
 10
70.7671314364
 20
221.4773019395
 30
0.0
 10
71.5571922169
 20
221.2105030628
 30
0.0
 10
71.952177878
 20
221.1551881616
 30
0.0
  0
SPLINE
  5
402
100
AcDbEntity
  8
0
100
AcDbSpline
 62
7
  6
CONTINUOUS
 70
0
 71
3
 72
19
 73
15
 74
0
 42
0.0000001
 43
0.0000001
 44
0.0000000001
 40
0.0
 40
0.0
 40
0.0
 40
0.0
 40
0.0582853576
 40
0.1180965073
 40
0.1794964614
 40
0.2424128821
 40
0.3716620798
 40
0.5035599093
 40
0.6347997294
 40
0.762250756
 40
0.8239964252
 40
0.8841576063
 40
0.9427701198
 40
1.0
 40
1.0
 40
1.0
 40
1.0
 10
83.0898279173
 20
257.0523745521
 30
0.0
 10
83.8658747951
 20
256.4394966719
 30
0.0
 10
85.3386793771
 20
255.066391089
 30
0.0
 10
87.2271253045
 20
252.6635961563
 30
0.0
 10
88.7848724004
 20
249.9430478174
 30
0.0
 10
90.3902859881
 20
245.939540316
 30
0.0
 10
91.395528789
 20
240.4670587182
 30
0.0
 10
90.9560162425
 20
233.7597421469
 30
0.0
 10
88.9295613539
 20
227.3819065108
 30
0.0
 10
86.0059845643
 20
222.7164508591
 30
0.0
 10
83.0613173841
 20
219.6618543671
 30
0.0
 10
80.6315114478
 20
217.7782029928
 30
0.0
 10
78.0111506275
 20
216.3225231543
 30
0.0
 10
76.1526967914
 20
215.6514552303
 30
0.0
 10
75.2148417083
 20
215.4000580333
 30
0.0
  0
SPLINE
  5
403
100
AcDbEntity
  8
0
100
AcDbSpline
 62
7
  6
CONTINUOUS
 70
0
 71
3
 72
20
 73
16
 74
0
 42
0.0000001
 43
0.0000001
 44
0.0000000001
 40
0.0
 40
0.0
 40
0.0
 40
0.0
 40
0.1300136178
 40
0.1922177046
 40
0.2522860737
 40
0.3105656857
 40
0.3677207461
 40
0.4246267456
 40
0.4822092939
 40
0.5412627132
 40
0.6023106593
 40
0.730258264
 40
0.7971234126
 40
0.8649527
 40
1.0
 40
1.0
 40
1.0
 40
1.0
 10
68.1889227355
 20
224.13468453
 30
0.0
 10
68.3119705768
 20
223.3137637248
 30
0.0
 10
68.7002881018
 20
222.1128252796
 30
0.0
 10
69.6140029709
 20
220.7764434787
 30
0.0
 10
70.4492656604
 20
219.9690515792
 30
0.0
 10
71.4125166987
 20
219.3784451666
 30
0.0
 10
72.466597757
 20
219.0291921703
 30
0.0
 10
73.5688637079
 20
218.9368557281
 30
0.0
 10
74.6739833948
 20
219.1046905338
 30
0.0
 10
75.737824138
 20
219.5246711212
 30
0.0
 10
77.0646083608
 20
220.406770502
 30
0.0
 10
78.1270722774
 20
221.7052526393
 30
0.0
 10
78.8282429045
 20
223.2346964102
 30
0.0
 10
79.2809030467
 20
224.9023950898
 30
0.0
 10
79.3084704807
 20
226.228375557
 30
0.0
 10
79.1806586509
 20
227.0810796063
 30
0.0
  0
SPLINE
  5
404
100
AcDbEntity
  8
0
100
AcDbSpline
 62
7
  6
CONTINUOUS
 70
0
 71
3
 72
13
 73
9
 74
0
 42
0.0000001
 43
0.0000001
 44
0.0000000001
 40
0.0
 40
0.0
 40
0.0
 40
0.0
 40
0.1126064812
 40
0.2278109362
 40
0.3474932114
 40
0.4723914895
 40
0.7336565016
 40
1.0
 40
1.0
 40
1.0
 40
1.0
 10
76.4017763424
 20
243.0385164333
 30
0.0
 10
76.6425247767
 20
243.004823734
 30
0.0
 10
77.1422353844
 20
243.0072822189
 30
0.0
 10
77.870256002
 20
243.222137409
 30
0.0
 10
78.53986858
 20
243.6321354651
 30
0.0
 10
79.314819645
 20
244.4140259159
 30
0.0
 10
79.9453902351
 20
245.7215023988
 30
0.0
 10
80.0097895301
 20
246.8931873128
 30
0.0
 10
79.9245576268
 20
247.4618168963
 30
0.0
  0
SPLINE
  5
405
100
AcDbEntity
  8
0
100
AcDbSpline
 62
7
  6
CONTINUOUS
 70
0
 71
3
 72
20
 73
16
 74
0
 42
0.0000001
 43
0.0000001
 44
0.0000000001
 40
0.0
 40
0.0
 40
0.0
 40
0.0
 40
0.1300136178
 40
0.1922177046
 40
0.2522860737
 40
0.3105656857
 40
0.3677207461
 40
0.4246267456
 40
0.4822092939
 40
0.5412627132
 40
0.6023106593
 40
0.730258264
 40
0.7971234126
 40
0.8649527
 40
1.0
 40
1.0
 40
1.0
 40
1.0
 10
79.1806586509
 20
227.0810796063
 30
0.0
 10
79.0576108122
 20
227.9020004119
 30
0.0
 10
78.669293284
 20
229.1029388566
 30
0.0
 10
77.7555784156
 20
230.4393206577
 30
0.0
 10
76.920315726
 20
231.246712557
 30
0.0
 10
75.9570646877
 20
231.8373189697
 30
0.0
 10
74.9029836294
 20
232.1865719659
 30
0.0
 10
73.8007176785
 20
232.2789084081
 30
0.0
 10
72.6955979916
 20
232.1110736025
 30
0.0
 10
71.6317572484
 20
231.6910930151
 30
0.0
 10
70.3049730256
 20
230.8089936342
 30
0.0
 10
69.2425091091
 20
229.510511497
 30
0.0
 10
68.5413384818
 20
227.9810677261
 30
0.0
 10
68.0886783404
 20
226.3133690465
 30
0.0
 10
68.061110903
 20
224.9873885789
 30
0.0
 10
68.1889227355
 20
224.13468453
 30
0.0
  0
SPLINE
  5
406
100
AcDbEntity
  8
0
100
AcDbSpline
 62
7
  6
CONTINUOUS
 70
0
 71
3
 72
11
 73
7
 74
0
 42
0.0000001
 43
0.0000001
 44
0.0000000001
 40
0.0
 40
0.0
 40
0.0
 40
0.0
 40
0.2350656129
 40
0.4796603546
 40
0.7350314164
 40
1.0
 40
1.0
 40
1.0
 40
1.0
 10
79.3208939376
 20
253.1228175793
 30
0.0
 10
79.7579025314
 20
252.913819783
 30
0.0
 10
80.5917333928
 20
252.3558918298
 30
0.0
 10
81.5954397142
 20
251.2008301248
 30
0.0
 10
82.3215449154
 20
249.7861794417
 30
0.0
 10
82.5908996949
 20
248.7382452796
 30
0.0
 10
82.6718409141
 20
248.198241244
 30
0.0
  0
SPLINE
  5
407
100
AcDbEntity
  8
0
100
AcDbSpline
 62
7
  6
CONTINUOUS
 70
0
 71
3
 72
15
 73
11
 74
0
 42
0.0000001
 43
0.0000001
 44
0.0000000001
 40
0.0
 40
0.0
 40
0.0
 40
0.0
 40
0.1122971044
 40
0.2271854713
 40
0.3465387491
 40
0.471093921
 40
0.6004021571
 40
0.7330568726
 40
0.8670061143
 40
1.0
 40
1.0
 40
1.0
 40
1.0
 10
78.9317809781
 20
239.3275281216
 30
0.0
 10
79.3917848649
 20
239.2630686791
 30
0.0
 10
80.3466276296
 20
239.2678603657
 30
0.0
 10
81.7377406439
 20
239.6784364284
 30
0.0
 10
83.0170402414
 20
240.4616516406
 30
0.0
 10
84.1131976285
 20
241.5679240035
 30
0.0
 10
84.9690100683
 20
242.932667785
 30
0.0
 10
85.5394116128
 20
244.4798399573
 30
0.0
 10
85.7946562412
 20
246.1233206886
 30
0.0
 10
85.7444573984
 20
247.2353012824
 30
0.0
 10
85.6629127898
 20
247.7793308651
 30
0.0
  0
SPLINE
  5
408
100
AcDbEntity
  8
0
100
AcDbSpline
 62
7
  6
CONTINUOUS
 70
0
 71
3
 72
13
 73
9
 74
0
 42
0.0000001
 43
0.0000001
 44
0.0000000001
 40
0.0
 40
0.0
 40
0.0
 40
0.0
 40
0.2620352417
 40
0.5218290604
 40
0.6477006372
 40
0.7693201035
 40
0.8865472692
 40
1.0
 40
1.0
 40
1.0
 40
1.0
 10
64.7787534434
 20
243.4019010454
 30
0.0
 10
64.9189970398
 20
242.4662577628
 30
0.0
 10
64.8656733083
 20
240.5402199592
 30
0.0
 10
64.0088156152
 20
238.3102222098
 30
0.0
 10
62.9078290026
 20
236.8343407415
 30
0.0
 10
61.9241232564
 20
235.9449543288
 30
0.0
 10
60.8154096218
 20
235.3022561032
 30
0.0
 10
60.0108211401
 20
235.0544930177
 30
0.0
 10
59.6076502186
 20
234.9820447677
 30
0.0
  0
SPLINE
  5
409
100
AcDbEntity
  8
0
100
AcDbSpline
 62
7
  6
CONTINUOUS
 70
0
 71
3
 72
13
 73
9
 74
0
 42
0.0000001
 43
0.0000001
 44
0.0000000001
 40
0.0
 40
0.0
 40
0.0
 40
0.0
 40
0.1126064812
 40
0.2278109362
 40
0.3474932114
 40
0.4723914895
 40
0.7336565016
 40
1.0
 40
1.0
 40
1.0
 40
1.0
 10
58.5086888717
 20
238.2421762347
 30
0.0
 10
58.749437306
 20
238.2084835354
 30
0.0
 10
59.2491479137
 20
238.2109420203
 30
0.0
 10
59.9771685313
 20
238.4257972104
 30
0.0
 10
60.6467811093
 20
238.8357952665
 30
0.0
 10
61.4217321743
 20
239.6176857173
 30
0.0
 10
62.0523027645
 20
240.9251622002
 30
0.0
 10
62.1167020594
 20
242.0968471142
 30
0.0
 10
62.0314701561
 20
242.6654766977
 30
0.0
  0
SPLINE
  5
40A
100
AcDbEntity
  8
0
100
AcDbSpline
 62
7
  6
CONTINUOUS
 70
0
 71
3
 72
11
 73
7
 74
0
 42
0.0000001
 43
0.0000001
 44
0.0000000001
 40
0.0
 40
0.0
 40
0.0
 40
0.0
 40
0.2685842582
 40
0.5241470178
 40
0.7663572682
 40
1.0
 40
1.0
 40
1.0
 40
1.0
 10
62.0314701561
 20
242.6654766977
 30
0.0
 10
61.978123262
 20
243.0213835935
 30
0.0
 10
61.7826462416
 20
243.7067031706
 30
0.0
 10
61.2244312009
 20
244.5868930373
 30
0.0
 10
60.4513741243
 20
245.2187113588
 30
0.0
 10
59.8312356145
 20
245.428192517
 30
0.0
 10
59.5211933816
 20
245.4715828708
 30
0.0
  0
SPLINE
  5
40B
100
AcDbEntity
  8
0
100
AcDbSpline
 62
7
  6
CONTINUOUS
 70
0
 71
3
 72
11
 73
7
 74
0
 42
0.0000001
 43
0.0000001
 44
0.0000000001
 40
0.0
 40
0.0
 40
0.0
 40
0.0
 40
0.2350656129
 40
0.4796603546
 40
0.7350314164
 40
1.0
 40
1.0
 40
1.0
 40
1.0
 10
61.4278064669
 20
248.3264773807
 30
0.0
 10
61.8648150607
 20
248.1174795844
 30
0.0
 10
62.6986459221
 20
247.5595516312
 30
0.0
 10
63.7023522435
 20
246.4044899262
 30
0.0
 10
64.4284574447
 20
244.9898392431
 30
0.0
 10
64.6978122242
 20
243.9419050811
 30
0.0
 10
64.7787534434
 20
243.4019010454
 30
0.0
  0
SPLINE
  5
40C
100
AcDbEntity
  8
0
100
AcDbSpline
 62
7
  6
CONTINUOUS
 70
0
 71
3
 72
13
 73
9
 74
0
 42
0.0000001
 43
0.0000001
 44
0.0000000001
 40
0.0
 40
0.0
 40
0.0
 40
0.0
 40
0.2620352417
 40
0.5218290604
 40
0.6477006372
 40
0.7693201035
 40
0.8865472692
 40
1.0
 40
1.0
 40
1.0
 40
1.0
 10
82.6718409141
 20
248.198241244
 30
0.0
 10
82.8120845105
 20
247.2625979614
 30
0.0
 10
82.758760779
 20
245.3365601578
 30
0.0
 10
81.9019030859
 20
243.1065624084
 30
0.0
 10
80.8009164733
 20
241.6306809401
 30
0.0
 10
79.8172107271
 20
240.7412945274
 30
0.0
 10
78.7084970925
 20
240.0985963018
 30
0.0
 10
77.9039086108
 20
239.8508332163
 30
0.0
 10
77.5007376893
 20
239.7783849663
 30
0.0
  0
SPLINE
  5
40D
100
AcDbEntity
  8
0
100
AcDbSpline
 62
7
  6
CONTINUOUS
 70
0
 71
3
 72
15
 73
11
 74
0
 42
0.0000001
 43
0.0000001
 44
0.0000000001
 40
0.0
 40
0.0
 40
0.0
 40
0.0
 40
0.1122971044
 40
0.2271854713
 40
0.3465387491
 40
0.471093921
 40
0.6004021571
 40
0.7330568726
 40
0.8670061143
 40
1.0
 40
1.0
 40
1.0
 40
1.0
 10
61.0386935074
 20
234.531187923
 30
0.0
 10
61.4986973942
 20
234.4667284805
 30
0.0
 10
62.4535401589
 20
234.4715201672
 30
0.0
 10
63.8446531732
 20
234.8820962299
 30
0.0
 10
65.1239527707
 20
235.665311442
 30
0.0
 10
66.2201101578
 20
236.7715838049
 30
0.0
 10
67.0759225977
 20
238.1363275865
 30
0.0
 10
67.6463241421
 20
239.6834997587
 30
0.0
 10
67.9015687705
 20
241.32698049
 30
0.0
 10
67.8513699277
 20
242.4389610838
 30
0.0
 10
67.7698253192
 20
242.9829906666
 30
0.0
  0
SPLINE
  5
40E
100
AcDbEntity
  8
0
100
AcDbSpline
 62
7
  6
CONTINUOUS
 70
0
 71
3
 72
11
 73
7
 74
0
 42
0.0000001
 43
0.0000001
 44
0.0000000001
 40
0.0
 40
0.0
 40
0.0
 40
0.0
 40
0.2685842582
 40
0.5241470178
 40
0.7663572682
 40
1.0
 40
1.0
 40
1.0
 40
1.0
 10
79.9245576268
 20
247.4618168963
 30
0.0
 10
79.8712107327
 20
247.817723792
 30
0.0
 10
79.6757337123
 20
248.5030433692
 30
0.0
 10
79.1175186716
 20
249.3832332359
 30
0.0
 10
78.344461595
 20
250.0150515574
 30
0.0
 10
77.7243230852
 20
250.2245327156
 30
0.0
 10
77.4142808523
 20
250.2679230693
 30
0.0
  0
SPLINE
  5
40F
100
AcDbEntity
  8
0
100
AcDbSpline
 62
7
  6
CONTINUOUS
 70
0
 71
3
 72
13
 73
9
 74
0
 42
0.0000001
 43
0.0000001
 44
0.0000000001
 40
0.0
 40
0.0
 40
0.0
 40
0.0
 40
0.2680782191
 40
0.5231815286
 40
0.6459686275
 40
0.7658128537
 40
0.8834852817
 40
1.0
 40
1.0
 40
1.0
 40
1.0
 10
67.7698253192
 20
242.9829906666
 30
0.0
 10
67.6678973446
 20
243.6630090568
 30
0.0
 10
67.294960376
 20
244.971947574
 30
0.0
 10
66.3921974994
 20
246.3940818314
 30
0.0
 10
65.4642781893
 20
247.2786418344
 30
0.0
 10
64.6933403832
 20
247.7969598591
 30
0.0
 10
63.8578813229
 20
248.1645992355
 30
0.0
 10
63.2692986314
 20
248.3032772709
 30
0.0
 10
62.9733324974
 20
248.3447504248
 30
0.0
  0
SPLINE
  5
410
100
AcDbEntity
  8
0
100
AcDbSpline
 62
7
  6
CONTINUOUS
 70
0
 71
3
 72
11
 73
7
 74
0
 42
0.0000001
 43
0.0000001
 44
0.0000000001
 40
0.0
 40
0.0
 40
0.0
 40
0.0
 40
0.2685754896
 40
0.5241420781
 40
0.7663548172
 40
1.0
 40
1.0
 40
1.0
 40
1.0
 10
76.4401035335
 20
226.7903437127
 30
0.0
 10
76.3721430564
 20
227.2437459805
 30
0.0
 10
76.1230956484
 20
228.1168086418
 30
0.0
 10
75.4120209611
 20
229.2381902135
 30
0.0
 10
74.4271249521
 20
230.0431242894
 30
0.0
 10
73.6370641699
 20
230.309923167
 30
0.0
 10
73.2420785079
 20
230.3652380683
 30
0.0
  0
SPLINE
  5
411
100
AcDbEntity
  8
0
100
AcDbSpline
 62
7
  6
CONTINUOUS
 70
0
 71
3
 72
21
 73
17
 74
0
 42
0.0000001
 43
0.0000001
 44
0.0000000001
 40
0.0
 40
0.0
 40
0.0
 40
0.0
 40
0.0559955695
 40
0.112589201
 40
0.1703045245
 40
0.2295221736
 40
0.2904507314
 40
0.3531157815
 40
0.4826035594
 40
0.5490600284
 40
0.6159403607
 40
0.7486404941
 40
0.8138057876
 40
0.8775586963
 40
0.9396545414
 40
1.0
 40
1.0
 40
1.0
 40
1.0
 10
68.6732071866
 20
214.9823863926
 30
0.0
 10
67.6593462136
 20
215.1244364844
 30
0.0
 10
65.6430477995
 20
215.6071994123
 30
0.0
 10
62.7907020207
 20
216.8985050524
 30
0.0
 10
60.1739413286
 20
218.7228709937
 30
0.0
 10
57.8606270443
 20
221.030397811
 30
0.0
 10
55.9073910498
 20
223.7610491291
 30
0.0
 10
53.8261117183
 20
227.9101505617
 30
0.0
 10
52.6776844032
 20
232.5747977311
 30
0.0
 10
52.4912192256
 20
237.3871756305
 30
0.0
 10
52.950989799
 20
242.2409551479
 30
0.0
 10
54.3696056462
 20
246.9421737836
 30
0.0
 10
56.6699838998
 20
251.1499871246
 30
0.0
 10
58.7730181067
 20
253.9547754989
 30
0.0
 10
61.2096259927
 20
256.3501593631
 30
0.0
 10
63.0445400641
 20
257.65332537
 30
0.0
 10
63.9953666655
 20
258.2129531528
 30
0.0
  0
SPLINE
  5
412
100
AcDbEntity
  8
0
100
AcDbSpline
 62
7
  6
CONTINUOUS
 70
0
 71
3
 72
13
 73
9
 74
0
 42
0.0000001
 43
0.0000001
 44
0.0000000001
 40
0.0
 40
0.0
 40
0.0
 40
0.0
 40
0.1126084257
 40
0.227816271
 40
0.3475015298
 40
0.4724025418
 40
0.7336674034
 40
1.0
 40
1.0
 40
1.0
 40
1.0
 10
71.952177878
 20
221.1551881616
 30
0.0
 10
72.2588859267
 20
221.1122359051
 30
0.0
 10
72.8955240214
 20
221.1154092812
 30
0.0
 10
73.8230198065
 20
221.389125573
 30
0.0
 10
74.6761047569
 20
221.9114778958
 30
0.0
 10
75.6633619472
 20
222.9076142116
 30
0.0
 10
76.4666401065
 20
224.5732983808
 30
0.0
 10
76.5486821124
 20
226.0659554219
 30
0.0
 10
76.4401035335
 20
226.7903437127
 30
0.0
  0
SPLINE
  5
413
100
AcDbEntity
  8
0
100
AcDbSpline
 62
7
  6
CONTINUOUS
 70
0
 71
3
 72
13
 73
9
 74
0
 42
0.0000001
 43
0.0000001
 44
0.0000000001
 40
0.0
 40
0.0
 40
0.0
 40
0.0
 40
0.2680782191
 40
0.5231815286
 40
0.6459686275
 40
0.7658128537
 40
0.8834852817
 40
1.0
 40
1.0
 40
1.0
 40
1.0
 10
85.6629127898
 20
247.7793308651
 30
0.0
 10
85.5609848153
 20
248.4593492554
 30
0.0
 10
85.1880478467
 20
249.7682877726
 30
0.0
 10
84.28528497
 20
251.19042203
 30
0.0
 10
83.35736566
 20
252.0749820329
 30
0.0
 10
82.5864278539
 20
252.5933000577
 30
0.0
 10
81.7509687936
 20
252.9609394341
 30
0.0
 10
81.1623861021
 20
253.0996174695
 30
0.0
 10
80.8664199681
 20
253.1410906234
 30
0.0
  0
SPLINE
  5
414
100
AcDbEntity
  8
0
100
AcDbSpline
 62
7
  6
CONTINUOUS
 70
0
 71
3
 72
10
 73
6
 74
0
 42
0.0000001
 43
0.0000001
 44
0.0000000001
 40
0.0
 40
0.0
 40
0.0
 40
0.0
 40
0.4439739728
 40
0.7068753513
 40
1.0
 40
1.0
 40
1.0
 40
1.0
 10
33.5752853771
 20
272.5722626216
 30
0.0
 10
34.0856804508
 20
271.3384467123
 30
0.0
 10
35.406685986
 20
269.5845275506
 30
0.0
 10
37.692758712
 20
267.6334261957
 30
0.0
 10
39.0919344191
 20
266.7066986403
 30
0.0
 10
39.8493057201
 20
266.2555685856
 30
0.0
  0
SPLINE
  5
415
100
AcDbEntity
  8
0
100
AcDbSpline
 62
7
  6
CONTINUOUS
 70
0
 71
3
 72
11
 73
7
 74
0
 42
0.0000001
 43
0.0000001
 44
0.0000000001
 40
0.0
 40
0.0
 40
0.0
 40
0.0
 40
0.2250466147
 40
0.4400291887
 40
0.6936798141
 40
1.0
 40
1.0
 40
1.0
 40
1.0
 10
39.8113635218
 20
266.2102579168
 30
0.0
 10
39.7829937062
 20
266.1763764011
 30
0.0
 10
39.7440403822
 20
266.0905630293
 30
0.0
 10
39.783107553
 20
265.9523666685
 30
0.0
 10
39.8816479384
 20
265.8338024345
 30
0.0
 10
39.970293319
 20
265.7674165894
 30
0.0
 10
40.0210478972
 20
265.7351374691
 30
0.0
  0
SPLINE
  5
416
100
AcDbEntity
  8
0
100
AcDbSpline
 62
7
  6
CONTINUOUS
 70
0
 71
3
 72
10
 73
6
 74
0
 42
0.0000001
 43
0.0000001
 44
0.0000000001
 40
0.0
 40
0.0
 40
0.0
 40
0.0
 40
0.2197223308
 40
0.4605271679
 40
1.0
 40
1.0
 40
1.0
 40
1.0
 10
40.0210478972
 20
265.7351374691
 30
0.0
 10
40.821037448
 20
265.2263634077
 30
0.0
 10
42.5576757641
 20
264.2527637921
 30
0.0
 10
46.4938028154
 20
262.4766004933
 30
0.0
 10
49.7113483497
 20
261.4422076251
 30
0.0
 10
51.960911649
 20
260.8439962489
 30
0.0
  0
SPLINE
  5
417
100
AcDbEntity
  8
0
100
AcDbSpline
 62
7
  6
CONTINUOUS
 70
0
 71
3
 72
10
 73
6
 74
0
 42
0.0000001
 43
0.0000001
 44
0.0000000001
 40
0.0
 40
0.0
 40
0.0
 40
0.0
 40
0.1759905786
 40
0.4056688575
 40
1.0
 40
1.0
 40
1.0
 40
1.0
 10
51.9699254089
 20
260.7964214273
 30
0.0
 10
51.9786171918
 20
260.750558003
 30
0.0
 10
52.0460156666
 20
260.6573793469
 30
0.0
 10
52.2645613166
 20
260.5076522559
 30
0.0
 10
52.4740655214
 20
260.4320121543
 30
0.0
 10
52.6257362287
 20
260.3890410129
 30
0.0
  0
SPLINE
  5
418
100
AcDbEntity
  8
0
100
AcDbSpline
 62
7
  6
CONTINUOUS
 70
0
 71
3
 72
9
 73
5
 74
0
 42
0.0000001
 43
0.0000001
 44
0.0000000001
 40
0.0
 40
0.0
 40
0.0
 40
0.0
 40
0.480989723
 40
1.0
 40
1.0
 40
1.0
 40
1.0
 10
52.6257362287
 20
260.3890410129
 30
0.0
 10
55.0999506241
 20
259.6880587717
 30
0.0
 10
60.3335310885
 20
258.5406120445
 30
0.0
 10
65.6477652942
 20
257.8905374921
 30
0.0
 10
68.4137073684
 20
257.6680845209
 30
0.0
  0
SPLINE
  5
419
100
AcDbEntity
  8
0
100
AcDbSpline
 62
7
  6
CONTINUOUS
 70
0
 71
3
 72
10
 73
6
 74
0
 42
0.0000001
 43
0.0000001
 44
0.0000000001
 40
0.0
 40
0.0
 40
0.0
 40
0.0
 40
0.1991913198
 40
0.4418509133
 40
1.0
 40
1.0
 40
1.0
 40
1.0
 10
68.4683048232
 20
257.6254883818
 30
0.0
 10
68.5232135383
 20
257.5826514679
 30
0.0
 10
68.6638261743
 20
257.513277085
 30
0.0
 10
68.9972368145
 20
257.4083689683
 30
0.0
 10
69.2760924241
 20
257.365878497
 30
0.0
 10
69.4704008353
 20
257.3478679757
 30
0.0
  0
SPLINE
  5
41A
100
AcDbEntity
  8
0
100
AcDbSpline
 62
7
  6
CONTINUOUS
 70
0
 71
3
 72
10
 73
6
 74
0
 42
0.0000001
 43
0.0000001
 44
0.0000000001
 40
0.0
 40
0.0
 40
0.0
 40
0.0
 40
0.2280014197
 40
0.4792192833
 40
1.0
 40
1.0
 40
1.0
 40
1.0
 10
86.7947732077
 20
257.1802045425
 30
0.0
 10
86.8815819377
 20
257.1507880114
 30
0.0
 10
87.070388884
 20
257.1080665768
 30
0.0
 10
87.4698509838
 20
257.061227468
 30
0.0
 10
87.7816664062
 20
257.0612288369
 30
0.0
 10
87.9905942271
 20
257.0746093842
 30
0.0
  0
SPLINE
  5
41B
100
AcDbEntity
  8
0
100
AcDbSpline
 62
7
  6
CONTINUOUS
 70
0
 71
3
 72
9
 73
5
 74
0
 42
0.0000001
 43
0.0000001
 44
0.0000000001
 40
0.0
 40
0.0
 40
0.0
 40
0.0
 40
0.5170648612
 40
1.0
 40
1.0
 40
1.0
 40
1.0
 10
87.9905942271
 20
257.0746093842
 30
0.0
 10
90.7873857415
 20
257.2537335233
 30
0.0
 10
96.1847705816
 20
257.8230817749
 30
0.0
 10
101.5107784939
 20
258.8848113221
 30
0.0
 10
104.0441367922
 20
259.5432898465
 30
0.0
  0
SPLINE
  5
41C
100
AcDbEntity
  8
0
100
AcDbSpline
 62
7
  6
CONTINUOUS
 70
0
 71
3
 72
9
 73
5
 74
0
 42
0.0000001
 43
0.0000001
 44
0.0000000001
 40
0.0
 40
0.0
 40
0.0
 40
0.0
 40
0.5139577698
 40
1.0
 40
1.0
 40
1.0
 40
1.0
 10
104.1592916388
 20
259.5283604549
 30
0.0
 10
104.3656714909
 20
259.5016058471
 30
0.0
 10
104.7738631223
 20
259.503534361
 30
0.0
 10
105.1755658569
 20
259.5643160836
 30
0.0
 10
105.3667848472
 20
259.6108663819
 30
0.0
  0
SPLINE
  5
41D
100
AcDbEntity
  8
0
100
AcDbSpline
 62
7
  6
CONTINUOUS
 70
0
 71
3
 72
9
 73
5
 74
0
 42
0.0000001
 43
0.0000001
 44
0.0000000001
 40
0.0
 40
0.0
 40
0.0
 40
0.0
 40
0.5257904642
 40
1.0
 40
1.0
 40
1.0
 40
1.0
 10
105.3667848472
 20
259.6108663819
 30
0.0
 10
107.1284677958
 20
260.0397357404
 30
0.0
 10
110.4495610569
 20
260.9842952603
 30
0.0
 10
113.6690640917
 20
262.2417934879
 30
0.0
 10
115.1511804222
 20
262.9327459671
 30
0.0
  0
SPLINE
  5
41E
100
AcDbEntity
  8
0
100
AcDbSpline
 62
7
  6
CONTINUOUS
 70
0
 71
3
 72
9
 73
5
 74
0
 42
0.0000001
 43
0.0000001
 44
0.0000000001
 40
0.0
 40
0.0
 40
0.0
 40
0.0
 40
0.2560399182
 40
1.0
 40
1.0
 40
1.0
 40
1.0
 10
116.0866439023
 20
263.3851287473
 30
0.0
 10
116.2349655177
 20
263.4595527283
 30
0.0
 10
116.8121412929
 20
263.7544091884
 30
0.0
 10
117.3806598068
 20
264.0663155068
 30
0.0
 10
117.7973606075
 20
264.3089238882
 30
0.0
  0
SPLINE
  5
41F
100
AcDbEntity
  8
0
100
AcDbSpline
 62
7
  6
CONTINUOUS
 70
0
 71
3
 72
9
 73
5
 74
0
 42
0.0000001
 43
0.0000001
 44
0.0000000001
 40
0.0
 40
0.0
 40
0.0
 40
0.0
 40
0.5513740569
 40
1.0
 40
1.0
 40
1.0
 40
1.0
 10
117.9182694911
 20
264.3124705921
 30
0.0
 10
118.1154882589
 20
264.3182572599
 30
0.0
 10
118.4722893328
 20
264.3716229615
 30
0.0
 10
118.8127310211
 20
264.4935339618
 30
0.0
 10
118.9536051884
 20
264.570516832
 30
0.0
  0
SPLINE
  5
420
100
AcDbEntity
  8
0
100
AcDbSpline
 62
7
  6
CONTINUOUS
 70
0
 71
3
 72
10
 73
6
 74
0
 42
0.0000001
 43
0.0000001
 44
0.0000000001
 40
0.0
 40
0.0
 40
0.0
 40
0.0
 40
0.2925933366
 40
0.5558495953
 40
1.0
 40
1.0
 40
1.0
 40
1.0
 10
118.9536051884
 20
264.570516832
 30
0.0
 10
119.7581633979
 20
265.0101856838
 30
0.0
 10
121.2527864725
 20
265.9151818669
 30
0.0
 10
123.7324591759
 20
267.8274176556
 30
0.0
 10
125.2271958044
 20
269.5476469067
 30
0.0
 10
125.8687716683
 20
270.7827147149
 30
0.0
  0
SPLINE
  5
421
100
AcDbEntity
  8
0
100
AcDbSpline
 62
7
  6
CONTINUOUS
 70
0
 71
3
 72
9
 73
5
 74
0
 42
0.0000001
 43
0.0000001
 44
0.0000000001
 40
0.0
 40
0.0
 40
0.0
 40
0.0
 40
0.5920245929
 40
1.0
 40
1.0
 40
1.0
 40
1.0
 10
125.9770276679
 20
270.8041975742
 30
0.0
 10
126.1364340976
 20
270.835832519
 30
0.0
 10
126.4000166595
 20
270.9229707155
 30
0.0
 10
126.6250585524
 20
271.10241052
 30
0.0
 10
126.682585019
 20
271.198498913
 30
0.0
  0
SPLINE
  5
422
100
AcDbEntity
  8
0
100
AcDbSpline
 62
7
  6
CONTINUOUS
 70
0
 71
3
 72
9
 73
5
 74
0
 42
0.0000001
 43
0.0000001
 44
0.0000000001
 40
0.0
 40
0.0
 40
0.0
 40
0.0
 40
0.5165516479
 40
1.0
 40
1.0
 40
1.0
 40
1.0
 10
126.682585019
 20
271.198498913
 30
0.0
 10
127.0277986741
 20
271.7751363893
 30
0.0
 10
127.5784572895
 20
272.9709945414
 30
0.0
 10
127.7777629326
 20
274.2781724537
 30
0.0
 10
127.7777581468
 20
274.9071763335
 30
0.0
  0
SPLINE
  5
423
100
AcDbEntity
  8
0
100
AcDbSpline
 62
7
  6
CONTINUOUS
 70
0
 71
3
 72
9
 73
5
 74
0
 42
0.0000001
 43
0.0000001
 44
0.0000000001
 40
0.0
 40
0.0
 40
0.0
 40
0.0
 40
0.4843027506
 40
1.0
 40
1.0
 40
1.0
 40
1.0
 10
48.4760171522
 20
292.5272522885
 30
0.0
 10
48.4755565593
 20
292.1704565302
 30
0.0
 10
48.565548039
 20
291.4310180805
 30
0.0
 10
48.8266672828
 20
290.7349562189
 30
0.0
 10
48.9938506654
 20
290.3937923922
 30
0.0
  0
SPLINE
  5
424
100
AcDbEntity
  8
0
100
AcDbSpline
 62
7
  6
CONTINUOUS
 70
0
 71
3
 72
9
 73
5
 74
0
 42
0.0000001
 43
0.0000001
 44
0.0000000001
 40
0.0
 40
0.0
 40
0.0
 40
0.0
 40
0.2377694805
 40
1.0
 40
1.0
 40
1.0
 40
1.0
 10
48.9938506654
 20
290.3937923922
 30
0.0
 10
49.0443250151
 20
290.2907915913
 30
0.0
 10
49.2692187709
 20
289.8638025788
 30
0.0
 10
49.5417347699
 20
289.4626401156
 30
0.0
 10
49.7678017367
 20
289.1726322228
 30
0.0
  0
SPLINE
  5
425
100
AcDbEntity
  8
0
100
AcDbSpline
 62
7
  6
CONTINUOUS
 70
0
 71
3
 72
9
 73
5
 74
0
 42
0.0000001
 43
0.0000001
 44
0.0000000001
 40
0.0
 40
0.0
 40
0.0
 40
0.0
 40
0.4704334446
 40
1.0
 40
1.0
 40
1.0
 40
1.0
 10
50.4532454403
 20
288.3908334303
 30
0.0
 10
50.8477391713
 20
287.9867576828
 30
0.0
 10
51.755259544
 20
287.1944174511
 30
0.0
 10
52.7492012386
 20
286.5170750739
 30
0.0
 10
53.2905704093
 20
286.1838600186
 30
0.0
  0
SPLINE
  5
426
100
AcDbEntity
  8
0
100
AcDbSpline
 62
7
  6
CONTINUOUS
 70
0
 71
3
 72
19
 73
15
 74
0
 42
0.0000001
 43
0.0000001
 44
0.0000000001
 40
0.0
 40
0.0
 40
0.0
 40
0.0
 40
0.0476289119
 40
0.1008424186
 40
0.159137555
 40
0.2218622507
 40
0.3574064938
 40
0.5005352384
 40
0.6435890405
 40
0.7789137521
 40
0.8414810611
 40
0.8995903544
 40
0.9525954683
 40
1.0
 40
1.0
 40
1.0
 40
1.0
 10
53.2905704093
 20
286.1838600186
 30
0.0
 10
54.0516402585
 20
285.7154182497
 30
0.0
 10
55.7278148584
 20
284.8276355941
 30
0.0
 10
58.4928214819
 20
283.6914558303
 30
0.0
 10
61.6095768415
 20
282.6943617034
 30
0.0
 10
66.2876821976
 20
281.5459331504
 30
0.0
 10
72.6374988897
 20
280.5959674404
 30
0.0
 10
80.5536876977
 20
280.2207427786
 30
0.0
 10
88.4650468067
 20
280.6106897726
 30
0.0
 10
94.8045630652
 20
281.5726597247
 30
0.0
 10
99.4695751433
 20
282.7301518252
 30
0.0
 10
102.5736543882
 20
283.7329921676
 30
0.0
 10
105.3239582538
 20
284.874411116
 30
0.0
 10
106.9894320774
 20
285.7651582802
 30
0.0
 10
107.7446246495
 20
286.235096441
 30
0.0
  0
SPLINE
  5
427
100
AcDbEntity
  8
0
100
AcDbSpline
 62
7
  6
CONTINUOUS
 70
0
 71
3
 72
10
 73
6
 74
0
 42
0.0000001
 43
0.0000001
 44
0.0000000001
 40
0.0
 40
0.0
 40
0.0
 40
0.0
 40
0.2959562065
 40
0.5604531489
 40
1.0
 40
1.0
 40
1.0
 40
1.0
 10
107.7446246495
 20
286.235096441
 30
0.0
 10
108.2561395584
 20
286.5533998571
 30
0.0
 10
109.2000261294
 20
287.2006866784
 30
0.0
 10
110.7355568897
 20
288.5355507449
 30
0.0
 10
111.6385094666
 20
289.6966007188
 30
0.0
 10
112.0136531001
 20
290.5089274931
 30
0.0
  0
SPLINE
  5
428
100
AcDbEntity
  8
0
100
AcDbSpline
 62
7
  6
CONTINUOUS
 70
0
 71
3
 72
9
 73
5
 74
0
 42
0.0000001
 43
0.0000001
 44
0.0000000001
 40
0.0
 40
0.0
 40
0.0
 40
0.0
 40
0.5111884355
 40
1.0
 40
1.0
 40
1.0
 40
1.0
 10
112.1327796158
 20
290.7863098053
 30
0.0
 10
112.2466671767
 20
291.0730370256
 30
0.0
 10
112.421387353
 20
291.6548843692
 30
0.0
 10
112.4783035169
 20
292.2603768071
 30
0.0
 10
112.4758031204
 20
292.5553783331
 30
0.0
  0
SPLINE
  5
429
100
AcDbEntity
  8
0
100
AcDbSpline
 62
7
  6
CONTINUOUS
 70
0
 71
3
 72
9
 73
5
 74
0
 42
0.0000001
 43
0.0000001
 44
0.0000000001
 40
0.0
 40
0.0
 40
0.0
 40
0.0
 40
0.7419410223
 40
1.0
 40
1.0
 40
1.0
 40
1.0
 10
33.5649671014
 20
272.7755216095
 30
0.0
 10
33.5492727929
 20
272.7270631904
 30
0.0
 10
33.5468195572
 20
272.6538654933
 30
0.0
 10
33.5685133379
 20
272.5886337938
 30
0.0
 10
33.5752853771
 20
272.5722626216
 30
0.0
  0
SPLINE
  5
42A
100
AcDbEntity
  8
0
100
AcDbSpline
 62
7
  6
CONTINUOUS
 70
0
 71
3
 72
9
 73
5
 74
0
 42
0.0000001
 43
0.0000001
 44
0.0000000001
 40
0.0
 40
0.0
 40
0.0
 40
0.0
 40
0.4901071673
 40
1.0
 40
1.0
 40
1.0
 40
1.0
 10
33.1745844548
 20
276.1510348609
 30
0.0
 10
33.1745741631
 20
275.6755581458
 30
0.0
 10
33.2854346285
 20
274.7025578696
 30
0.0
 10
33.6028055944
 20
273.7778583664
 30
0.0
 10
33.80599921
 20
273.326845625
 30
0.0
  0
SPLINE
  5
42B
100
AcDbEntity
  8
0
100
AcDbSpline
 62
7
  6
CONTINUOUS
 70
0
 71
3
 72
10
 73
6
 74
0
 42
0.0000001
 43
0.0000001
 44
0.0000000001
 40
0.0
 40
0.0
 40
0.0
 40
0.0
 40
0.2448540968
 40
0.4910384262
 40
1.0
 40
1.0
 40
1.0
 40
1.0
 10
124.2883517015
 20
291.2521428067
 30
0.0
 10
124.1342757291
 20
291.8406386548
 30
0.0
 10
123.7235623232
 20
292.9965836874
 30
0.0
 10
122.5331427575
 20
295.1853582638
 30
0.0
 10
121.3001445037
 20
296.631938386
 30
0.0
 10
120.3874306231
 20
297.5070983756
 30
0.0
  0
SPLINE
  5
42C
100
AcDbEntity
  8
0
100
AcDbSpline
 62
7
  6
CONTINUOUS
 70
0
 71
3
 72
23
 73
19
 74
0
 42
0.0000001
 43
0.0000001
 44
0.0000000001
 40
0.0
 40
0.0
 40
0.0
 40
0.0
 40
0.0491305774
 40
0.1032728672
 40
0.1627808368
 40
0.2273641509
 40
0.2962654517
 40
0.3684140078
 40
0.4425370999
 40
0.5172504073
 40
0.5911376441
 40
0.6628274343
 40
0.7310741281
 40
0.7948508569
 40
0.8534662607
 40
0.906724667
 40
0.9551103853
 40
1.0
 40
1.0
 40
1.0
 40
1.0
 10
119.6857582418
 20
298.1474542025
 30
0.0
 10
118.6098608468
 20
299.0831047508
 30
0.0
 10
116.1441010702
 20
300.8178145605
 30
0.0
 10
111.9186279618
 20
302.9540360595
 30
0.0
 10
107.0614488209
 20
304.7589846483
 30
0.0
 10
101.6500311424
 20
306.2275216321
 30
0.0
 10
95.7821503256
 20
307.3430292861
 30
0.0
 10
89.5776032292
 20
308.0874682144
 30
0.0
 10
83.1702992754
 20
308.4468429753
 30
0.0
 10
76.7026562584
 20
308.4139664143
 30
0.0
 10
70.3194996836
 20
307.9895130939
 30
0.0
 10
64.1622423825
 20
307.1818955301
 30
0.0
 10
58.3628712255
 20
306.0061131174
 30
0.0
 10
53.0378888287
 20
304.4801803536
 30
0.0
 10
48.2819529439
 20
302.6205901368
 30
0.0
 10
44.1658169052
 20
300.4255680006
 30
0.0
 10
40.7424165192
 20
297.8703251295
 30
0.0
 10
38.9367751269
 20
295.8101000461
 30
0.0
 10
38.2256582777
 20
294.7185503899
 30
0.0
  0
SPLINE
  5
42D
100
AcDbEntity
  8
0
100
AcDbSpline
 62
7
  6
CONTINUOUS
 70
0
 71
3
 72
9
 73
5
 74
0
 42
0.0000001
 43
0.0000001
 44
0.0000000001
 40
0.0
 40
0.0
 40
0.0
 40
0.0
 40
0.2510022906
 40
1.0
 40
1.0
 40
1.0
 40
1.0
 10
37.798487175
 20
294.0165482826
 30
0.0
 10
37.6727585833
 20
293.794500849
 30
0.0
 10
37.1982319132
 20
292.8953411843
 30
0.0
 10
36.8386101543
 20
291.9342615896
 30
0.0
 10
36.6496332328
 20
291.196644558
 30
0.0
  0
SPLINE
  5
42E
100
AcDbEntity
  8
0
100
AcDbSpline
 62
7
  6
CONTINUOUS
 70
0
 71
3
 72
9
 73
5
 74
0
 42
0.0000001
 43
0.0000001
 44
0.0000000001
 40
0.0
 40
0.0
 40
0.0
 40
0.0
 40
0.5987074265
 40
1.0
 40
1.0
 40
1.0
 40
1.0
 10
83.7900746109
 20
271.7314913322
 30
0.0
 10
83.801678049
 20
271.7852063979
 30
0.0
 10
83.782670804
 20
271.8788950384
 30
0.0
 10
83.7675586495
 20
271.9688838027
 30
0.0
 10
83.7560035985
 20
272.0038581887
 30
0.0
  0
SPLINE
  5
42F
100
AcDbEntity
  8
0
100
AcDbSpline
 62
7
  6
CONTINUOUS
 70
0
 71
3
 72
8
 73
4
 74
0
 42
0.0000001
 43
0.0000001
 44
0.0000000001
 40
0.0
 40
0.0
 40
0.0
 40
0.0
 40
1.0
 40
1.0
 40
1.0
 40
1.0
 10
83.7557516819
 20
272.0055060849
 30
0.0
 10
83.8229725774
 20
272.0078429763
 30
0.0
 10
83.8902148591
 20
272.0095186127
 30
0.0
 10
83.9574442355
 20
272.0115972644
 30
0.0
  0
SPLINE
  5
430
100
AcDbEntity
  8
0
100
AcDbSpline
 62
7
  6
CONTINUOUS
 70
0
 71
3
 72
17
 73
13
 74
0
 42
0.0000001
 43
0.0000001
 44
0.0000000001
 40
0.0
 40
0.0
 40
0.0
 40
0.0
 40
0.2512076663
 40
0.3767007079
 40
0.502102161
 40
0.6273920959
 40
0.7525309062
 40
0.8150233505
 40
0.8774303132
 40
0.9396681885
 40
0.9706415858
 40
1.0
 40
1.0
 40
1.0
 40
1.0
 10
83.9562638715
 20
272.0116882254
 30
0.0
 10
84.1079252388
 20
272.0163757913
 30
0.0
 10
84.335396314
 20
272.0220854512
 30
0.0
 10
84.6386594353
 20
272.0258331207
 30
0.0
 10
84.8658770232
 20
272.0260228233
 30
0.0
 10
85.0929137244
 20
272.0227877515
 30
0.0
 10
85.2816934071
 20
272.0157043974
 30
0.0
 10
85.4326509572
 20
272.0052710867
 30
0.0
 10
85.544304796
 20
271.993953447
 30
0.0
 10
85.6397300109
 20
271.9780817437
 30
0.0
 10
85.7062116243
 20
271.9596997643
 30
0.0
 10
85.747918861
 20
271.9372373826
 30
0.0
 10
85.7482379336
 20
271.9195072615
 30
0.0
  0
SPLINE
  5
431
100
AcDbEntity
  8
0
100
AcDbSpline
 62
7
  6
CONTINUOUS
 70
0
 71
3
 72
9
 73
5
 74
0
 42
0.0000001
 43
0.0000001
 44
0.0000000001
 40
0.0
 40
0.0
 40
0.0
 40
0.0
 40
0.5113639303
 40
1.0
 40
1.0
 40
1.0
 40
1.0
 10
83.9562638715
 20
272.0116882254
 30
0.0
 10
86.7650725951
 20
272.0992303029
 30
0.0
 10
92.2535276257
 20
272.4771379498
 30
0.0
 10
97.6958449375
 20
273.2934469674
 30
0.0
 10
100.3297437919
 20
273.8161967058
 30
0.0
  0
SPLINE
  5
432
100
AcDbEntity
  8
0
100
AcDbSpline
 62
7
  6
CONTINUOUS
 70
0
 71
3
 72
9
 73
5
 74
0
 42
0.0000001
 43
0.0000001
 44
0.0000000001
 40
0.0
 40
0.0
 40
0.0
 40
0.0
 40
0.5115475857
 40
1.0
 40
1.0
 40
1.0
 40
1.0
 10
85.7842403764
 20
269.1213367073
 30
0.0
 10
88.1741042463
 20
270.1710304957
 30
0.0
 10
92.9438755735
 20
272.0086742826
 30
0.0
 10
97.8865468551
 20
273.3298643092
 30
0.0
 10
100.3312667061
 20
273.8149718307
 30
0.0
  0
SPLINE
  5
433
100
AcDbEntity
  8
0
100
AcDbSpline
 62
7
  6
CONTINUOUS
 70
0
 71
3
 72
13
 73
9
 74
0
 42
0.0000001
 43
0.0000001
 44
0.0000000001
 40
0.0
 40
0.0
 40
0.0
 40
0.0
 40
0.1175689252
 40
0.2416899141
 40
0.4997060883
 40
0.7565871101
 40
0.8805148428
 40
1.0
 40
1.0
 40
1.0
 40
1.0
 10
100.3312667061
 20
273.8149718307
 30
0.0
 10
98.9619500066
 20
273.4777828882
 30
0.0
 10
96.1715934153
 20
272.6821293295
 30
0.0
 10
90.5162225075
 20
270.687395028
 30
0.0
 10
83.5245361718
 20
267.5054920521
 30
0.0
 10
76.8919670525
 20
263.6439684421
 30
0.0
 10
71.9295061341
 20
260.2669389531
 30
0.0
 10
69.5919147848
 20
258.5151981527
 30
0.0
 10
68.4683053497
 20
257.6254889963
 30
0.0
  0
SPLINE
  5
434
100
AcDbEntity
  8
0
100
AcDbSpline
 62
7
  6
CONTINUOUS
 70
0
 71
3
 72
9
 73
5
 74
0
 42
0.0000001
 43
0.0000001
 44
0.0000000001
 40
0.0
 40
0.0
 40
0.0
 40
0.0
 40
0.4887520924
 40
1.0
 40
1.0
 40
1.0
 40
1.0
 10
68.4137066353
 20
257.6680841116
 30
0.0
 10
71.0158911696
 20
259.8489872137
 30
0.0
 10
76.5996857721
 20
264.0077493871
 30
0.0
 10
82.6131504679
 20
267.5221228371
 30
0.0
 10
85.7842403764
 20
269.1213367073
 30
0.0
  0
SPLINE
  5
435
100
AcDbEntity
  8
0
100
AcDbSpline
 62
7
  6
CONTINUOUS
 70
0
 71
3
 72
19
 73
15
 74
0
 42
0.0000001
 43
0.0000001
 44
0.0000000001
 40
0.0
 40
0.0
 40
0.0
 40
0.0
 40
0.1170422104
 40
0.2405867729
 40
0.3683448789
 40
0.4330940767
 40
0.498052165
 40
0.5629819276
 40
0.6276556688
 40
0.6918422269
 40
0.7553586333
 40
0.8180605349
 40
0.8798069028
 40
1.0
 40
1.0
 40
1.0
 40
1.0
 10
100.45364098
 20
273.5538830096
 30
0.0
 10
99.1288311994
 20
273.1950553008
 30
0.0
 10
96.4314470719
 20
272.3601338691
 30
0.0
 10
92.3856124161
 20
270.8408696987
 30
0.0
 10
88.9919857893
 20
269.3461698396
 30
0.0
 10
86.2756102641
 20
268.0275231046
 30
0.0
 10
84.2501430248
 20
266.9745770672
 30
0.0
 10
82.2529147149
 20
265.87118425
 30
0.0
 10
80.2807723419
 20
264.7417683141
 30
0.0
 10
78.347552007
 20
263.5783775044
 30
0.0
 10
76.4698890189
 20
262.369557203
 30
0.0
 10
74.640919192
 20
261.1391112436
 30
0.0
 10
72.2903262416
 20
259.493950864
 30
0.0
 10
70.5862267159
 20
258.2090510437
 30
0.0
 10
69.4704131907
 20
257.3478685199
 30
0.0
  0
SPLINE
  5
436
100
AcDbEntity
  8
0
100
AcDbSpline
 62
7
  6
CONTINUOUS
 70
0
 71
3
 72
13
 73
9
 74
0
 42
0.0000001
 43
0.0000001
 44
0.0000000001
 40
0.0
 40
0.0
 40
0.0
 40
0.0
 40
0.1432277377
 40
0.2851640737
 40
0.4267616432
 40
0.5627294786
 40
0.8094110874
 40
1.0
 40
1.0
 40
1.0
 40
1.0
 10
100.4536472555
 20
273.5538814575
 30
0.0
 10
100.4570130208
 20
273.5677964326
 30
0.0
 10
100.4614146227
 20
273.597049228
 30
0.0
 10
100.445624674
 20
273.6376262894
 30
0.0
 10
100.4307765536
 20
273.6765510091
 30
0.0
 10
100.4119736805
 20
273.7257368681
 30
0.0
 10
100.3786604688
 20
273.7728435522
 30
0.0
 10
100.3476088817
 20
273.804772621
 30
0.0
 10
100.331273023
 20
273.8145731335
 30
0.0
  0
SPLINE
  5
437
100
AcDbEntity
  8
0
100
AcDbSpline
 62
7
  6
CONTINUOUS
 70
0
 71
3
 72
8
 73
4
 74
0
 42
0.0000001
 43
0.0000001
 44
0.0000000001
 40
0.0
 40
0.0
 40
0.0
 40
0.0
 40
1.0
 40
1.0
 40
1.0
 40
1.0
 10
100.3297550241
 20
273.8160676813
 30
0.0
 10
100.3888932513
 20
273.8281654791
 30
0.0
 10
100.4481633843
 20
273.8396096028
 30
0.0
 10
100.5073465446
 20
273.8514856366
 30
0.0
  0
SPLINE
  5
438
100
AcDbEntity
  8
0
100
AcDbSpline
 62
7
  6
CONTINUOUS
 70
0
 71
3
 72
17
 73
13
 74
0
 42
0.0000001
 43
0.0000001
 44
0.0000000001
 40
0.0
 40
0.0
 40
0.0
 40
0.0
 40
0.2539189596
 40
0.3802182186
 40
0.5060196865
 40
0.6312548961
 40
0.7557849977
 40
0.8177109983
 40
0.8793104926
 40
0.9403997855
 40
0.9706388987
 40
1.0
 40
1.0
 40
1.0
 40
1.0
 10
100.5090628949
 20
273.8519345899
 30
0.0
 10
100.6442145222
 20
273.8790578405
 30
0.0
 10
100.8468460883
 20
273.9184289558
 30
0.0
 10
101.117211672
 20
273.9671075762
 30
0.0
 10
101.3192509001
 20
274.000898929
 30
0.0
 10
101.5209132618
 20
274.0312102004
 30
0.0
 10
101.6887695799
 20
274.052085264
 30
0.0
 10
101.8231363436
 20
274.0639416037
 30
0.0
 10
101.922612051
 20
274.0693107991
 30
0.0
 10
102.0077551733
 20
274.067130798
 30
0.0
 10
102.0688887778
 20
274.0595631465
 30
0.0
 10
102.1067094091
 20
274.0410742066
 30
0.0
 10
102.1081149337
 20
274.0251968706
 30
0.0
  0
SPLINE
  5
439
100
AcDbEntity
  8
0
100
AcDbSpline
 62
7
  6
CONTINUOUS
 70
0
 71
3
 72
9
 73
5
 74
0
 42
0.0000001
 43
0.0000001
 44
0.0000000001
 40
0.0
 40
0.0
 40
0.0
 40
0.0
 40
0.5293889568
 40
1.0
 40
1.0
 40
1.0
 40
1.0
 10
100.5090628949
 20
273.8519345899
 30
0.0
 10
102.9339802794
 20
274.3386407929
 30
0.0
 10
107.4776957322
 20
275.4577697041
 30
0.0
 10
111.8788349181
 20
277.0698080998
 30
0.0
 10
113.8787013181
 20
277.9834214431
 30
0.0
  0
SPLINE
  5
43A
100
AcDbEntity
  8
0
100
AcDbSpline
 62
7
  6
CONTINUOUS
 70
0
 71
3
 72
10
 73
6
 74
0
 42
0.0000001
 43
0.0000001
 44
0.0000000001
 40
0.0
 40
0.0
 40
0.0
 40
0.0
 40
0.5339526603
 40
0.7770598879
 40
1.0
 40
1.0
 40
1.0
 40
1.0
 10
102.3255830524
 20
271.2468643716
 30
0.0
 10
104.2930498593
 20
272.5921886847
 30
0.0
 10
107.2143134125
 20
274.469539962
 30
0.0
 10
111.111295539
 20
276.649111051
 30
0.0
 10
112.9791325601
 20
277.567957124
 30
0.0
 10
113.8842734348
 20
277.98154525
 30
0.0
  0
SPLINE
  5
43B
100
AcDbEntity
  8
0
100
AcDbSpline
 62
7
  6
CONTINUOUS
 70
0
 71
3
 72
9
 73
5
 74
0
 42
0.0000001
 43
0.0000001
 44
0.0000000001
 40
0.0
 40
0.0
 40
0.0
 40
0.0
 40
0.5079590769
 40
1.0
 40
1.0
 40
1.0
 40
1.0
 10
86.7340651699
 20
257.2422649692
 30
0.0
 10
89.2537788944
 20
259.742696356
 30
0.0
 10
94.324648664
 20
264.5551609535
 30
0.0
 10
99.6367309975
 20
269.1035516084
 30
0.0
 10
102.3255830524
 20
271.2468643716
 30
0.0
  0
SPLINE
  5
43C
100
AcDbEntity
  8
0
100
AcDbSpline
 62
7
  6
CONTINUOUS
 70
0
 71
3
 72
14
 73
10
 74
0
 42
0.0000001
 43
0.0000001
 44
0.0000000001
 40
0.0
 40
0.0
 40
0.0
 40
0.0
 40
0.0988245995
 40
0.2081598111
 40
0.4524412578
 40
0.5842797726
 40
0.7204836685
 40
0.8594571299
 40
1.0
 40
1.0
 40
1.0
 40
1.0
 10
114.0723655199
 20
277.7438872719
 30
0.0
 10
113.3607695102
 20
277.3213466223
 30
0.0
 10
111.8820285395
 20
276.3973390602
 30
0.0
 10
108.7328016817
 20
274.2899073891
 30
0.0
 10
105.4505522589
 20
271.8878580077
 30
0.0
 10
102.0665861882
 20
269.2500760426
 30
0.0
 10
99.4261776191
 20
267.0943944112
 30
0.0
 10
96.7400599959
 20
264.8794527356
 30
0.0
 10
94.9738438251
 20
263.3429733991
 30
0.0
 10
94.0892397443
 20
262.5666346883
 30
0.0
  0
SPLINE
  5
43D
100
AcDbEntity
  8
0
100
AcDbSpline
 62
7
  6
CONTINUOUS
 70
0
 71
3
 72
9
 73
5
 74
0
 42
0.0000001
 43
0.0000001
 44
0.0000000001
 40
0.0
 40
0.0
 40
0.0
 40
0.0
 40
0.5015841333
 40
1.0
 40
1.0
 40
1.0
 40
1.0
 10
94.0892397443
 20
262.5666346883
 30
0.0
 10
93.0578863828
 20
261.6615071217
 30
0.0
 10
91.0105490057
 20
259.8467211795
 30
0.0
 10
88.995669227
 20
257.9960684121
 30
0.0
 10
87.9906064098
 20
257.074611849
 30
0.0
  0
LINE
  5
43E
100
AcDbEntity
  8
0
100
AcDbLine
 62
7
  6
CONTINUOUS
 10
93.2793079561
 20
262.9663736356
 11
93.5502157163
 21
263.1986249702
  0
SPLINE
  5
43F
100
AcDbEntity
  8
0
100
AcDbSpline
 62
7
  6
CONTINUOUS
 70
0
 71
3
 72
12
 73
8
 74
0
 42
0.0000001
 43
0.0000001
 44
0.0000000001
 40
0.0
 40
0.0
 40
0.0
 40
0.0
 40
0.279234604
 40
0.5470670374
 40
0.7915242388
 40
0.901009812
 40
1.0
 40
1.0
 40
1.0
 40
1.0
 10
93.5502157163
 20
263.1986249702
 30
0.0
 10
95.3305847922
 20
264.7224474229
 30
0.0
 10
98.8660006749
 20
267.6533214957
 30
0.0
 10
104.1375505475
 20
271.6980620567
 30
0.0
 10
108.4249260012
 20
274.6778102763
 30
0.0
 10
111.6440504701
 20
276.7002353546
 30
0.0
 10
113.1566245406
 20
277.5806740078
 30
0.0
 10
113.8842734348
 20
277.98154525
 30
0.0
  0
SPLINE
  5
440
100
AcDbEntity
  8
0
100
AcDbSpline
 62
7
  6
CONTINUOUS
 70
0
 71
3
 72
9
 73
5
 74
0
 42
0.0000001
 43
0.0000001
 44
0.0000000001
 40
0.0
 40
0.0
 40
0.0
 40
0.0
 40
0.2233990443
 40
1.0
 40
1.0
 40
1.0
 40
1.0
 10
113.8842751738
 20
277.9813171519
 30
0.0
 10
113.9062523987
 20
277.9741659288
 30
0.0
 10
113.9979224611
 20
277.9229858801
 30
0.0
 10
114.0559750422
 20
277.8225383245
 30
0.0
 10
114.0723713837
 20
277.7438870501
 30
0.0
  0
LINE
  5
441
100
AcDbEntity
  8
0
100
AcDbLine
 62
7
  6
CONTINUOUS
 10
113.8787230275
 20
277.9832759173
 11
114.0094527111
 21
278.0432802033
  0
SPLINE
  5
442
100
AcDbEntity
  8
0
100
AcDbSpline
 62
7
  6
CONTINUOUS
 70
0
 71
3
 72
14
 73
10
 74
0
 42
0.0000001
 43
0.0000001
 44
0.0000000001
 40
0.0
 40
0.0
 40
0.0
 40
0.0
 40
0.2594612568
 40
0.5144436155
 40
0.6398811306
 40
0.763487711
 40
0.8844014132
 40
0.9432079281
 40
1.0
 40
1.0
 40
1.0
 40
1.0
 10
114.0093201404
 20
278.0433850911
 30
0.0
 10
114.1076039569
 20
278.0886964775
 30
0.0
 10
114.3031240184
 20
278.1772967749
 30
0.0
 10
114.548122455
 20
278.2826511115
 30
0.0
 10
114.7442594332
 20
278.3598240962
 30
0.0
 10
114.8877810249
 20
278.4122676794
 30
0.0
 10
115.0146322902
 20
278.4471178499
 30
0.0
 10
115.1015769655
 20
278.4663150826
 30
0.0
 10
115.1712827668
 20
278.4574992259
 30
0.0
 10
115.1748076518
 20
278.4340739759
 30
0.0
  0
SPLINE
  5
443
100
AcDbEntity
  8
0
100
AcDbSpline
 62
7
  6
CONTINUOUS
 70
0
 71
3
 72
11
 73
7
 74
0
 42
0.0000001
 43
0.0000001
 44
0.0000000001
 40
0.0
 40
0.0
 40
0.0
 40
0.0
 40
0.2863109557
 40
0.5482568767
 40
0.7857926306
 40
1.0
 40
1.0
 40
1.0
 40
1.0
 10
114.0093201404
 20
278.0433850911
 30
0.0
 10
114.8974642103
 20
278.4528796339
 30
0.0
 10
116.571284375
 20
279.2979861871
 30
0.0
 10
118.8560522031
 20
280.7145841906
 30
0.0
 10
120.7850680181
 20
282.2133245341
 30
0.0
 10
121.8760128957
 20
283.3138224364
 30
0.0
 10
122.3458096963
 20
283.8747879575
 30
0.0
  0
SPLINE
  5
444
100
AcDbEntity
  8
0
100
AcDbSpline
 62
7
  6
CONTINUOUS
 70
0
 71
3
 72
10
 73
6
 74
0
 42
0.0000001
 43
0.0000001
 44
0.0000000001
 40
0.0
 40
0.0
 40
0.0
 40
0.0
 40
0.5635848681
 40
0.799644386
 40
1.0
 40
1.0
 40
1.0
 40
1.0
 10
115.5406200127
 20
275.7013934759
 30
0.0
 10
116.8184168457
 20
277.2383178072
 30
0.0
 10
118.6323512217
 20
279.4182048968
 30
0.0
 10
120.8974191579
 20
282.1471104921
 30
0.0
 10
121.896621749
 20
283.3290945548
 30
0.0
 10
122.3527868763
 20
283.8738844195
 30
0.0
  0
SPLINE
  5
445
100
AcDbEntity
  8
0
100
AcDbSpline
 62
7
  6
CONTINUOUS
 70
0
 71
3
 72
9
 73
5
 74
0
 42
0.0000001
 43
0.0000001
 44
0.0000000001
 40
0.0
 40
0.0
 40
0.0
 40
0.0
 40
0.5260927648
 40
1.0
 40
1.0
 40
1.0
 40
1.0
 10
104.0780821982
 20
259.5887276432
 30
0.0
 10
106.1534208458
 20
262.3671334442
 30
0.0
 10
110.0455781539
 20
267.6877599151
 30
0.0
 10
113.8111960669
 20
273.0998442811
 30
0.0
 10
115.5406200127
 20
275.7013934759
 30
0.0
  0
SPLINE
  5
446
100
AcDbEntity
  8
0
100
AcDbSpline
 62
7
  6
CONTINUOUS
 70
0
 71
3
 72
19
 73
15
 74
0
 42
0.0000001
 43
0.0000001
 44
0.0000000001
 40
0.0
 40
0.0
 40
0.0
 40
0.0
 40
0.0791826739
 40
0.1764582363
 40
0.2896441961
 40
0.3513751466
 40
0.4161205515
 40
0.4834759488
 40
0.5529595297
 40
0.624343393
 40
0.6974297282
 40
0.7718160212
 40
0.8471921083
 40
1.0
 40
1.0
 40
1.0
 40
1.0
 10
122.5855130793
 20
283.6691604869
 30
0.0
 10
122.2211535856
 20
282.977601882
 30
0.0
 10
121.350915888
 20
281.4672812478
 30
0.0
 10
119.8179290142
 20
279.0532446162
 30
0.0
 10
118.3155802485
 20
276.8250773364
 30
0.0
 10
116.9608983506
 20
274.8854043083
 30
0.0
 10
115.8545567304
 20
273.3241942693
 30
0.0
 10
114.6915883913
 20
271.7093361242
 30
0.0
 10
113.4661336859
 20
270.0589805602
 30
0.0
 10
112.1940532948
 20
268.3729305834
 30
0.0
 10
110.8919180258
 20
266.6489173707
 30
0.0
 10
109.552321245
 20
264.9038584094
 30
0.0
 10
107.7141072171
 20
262.5496074307
 30
0.0
 10
106.3169001283
 20
260.7825440812
 30
0.0
 10
105.3667950022
 20
259.610870595
 30
0.0
  0
SPLINE
  5
447
100
AcDbEntity
  8
0
100
AcDbSpline
 62
7
  6
CONTINUOUS
 70
0
 71
3
 72
12
 73
8
 74
0
 42
0.0000001
 43
0.0000001
 44
0.0000000001
 40
0.0
 40
0.0
 40
0.0
 40
0.0
 40
0.3025295725
 40
0.5844464028
 40
0.8245435397
 40
0.9216449699
 40
1.0
 40
1.0
 40
1.0
 40
1.0
 10
104.1592921143
 20
259.5283612357
 30
0.0
 10
106.0906074715
 20
261.9103758444
 30
0.0
 10
109.7927419056
 20
266.535830199
 30
0.0
 10
114.893026399
 20
273.157703941
 30
0.0
 10
118.6103745176
 20
278.2153947909
 30
0.0
 10
120.9988983047
 20
281.6854643152
 30
0.0
 10
121.9499423848
 20
283.1893830516
 30
0.0
 10
122.3527868763
 20
283.8738844195
 30
0.0
  0
SPLINE
  5
448
100
AcDbEntity
  8
0
100
AcDbSpline
 62
7
  6
CONTINUOUS
 70
0
 71
3
 72
9
 73
5
 74
0
 42
0.0000001
 43
0.0000001
 44
0.0000000001
 40
0.0
 40
0.0
 40
0.0
 40
0.0
 40
0.5038262595
 40
1.0
 40
1.0
 40
1.0
 40
1.0
 10
122.3527891479
 20
283.8736561893
 30
0.0
 10
122.4069257516
 20
283.8675806715
 30
0.0
 10
122.5119265073
 20
283.8198437152
 30
0.0
 10
122.574070243
 20
283.7215742594
 30
0.0
 10
122.5855200511
 20
283.6691612918
 30
0.0
  0
SPLINE
  5
449
100
AcDbEntity
  8
0
100
AcDbSpline
 62
7
  6
CONTINUOUS
 70
0
 71
3
 72
9
 73
5
 74
0
 42
0.0000001
 43
0.0000001
 44
0.0000000001
 40
0.0
 40
0.0
 40
0.0
 40
0.0
 40
0.253837064
 40
1.0
 40
1.0
 40
1.0
 40
1.0
 10
122.5855243616
 20
283.6691615234
 30
0.0
 10
122.6205643524
 20
283.7356510021
 30
0.0
 10
122.7553401755
 20
283.9992916815
 30
0.0
 10
122.8767750041
 20
284.2697907074
 30
0.0
 10
122.9588874073
 20
284.4748926243
 30
0.0
  0
SPLINE
  5
44A
100
AcDbEntity
  8
0
100
AcDbSpline
 62
7
  6
CONTINUOUS
 70
0
 71
3
 72
11
 73
7
 74
0
 42
0.0000001
 43
0.0000001
 44
0.0000000001
 40
0.0
 40
0.0
 40
0.0
 40
0.0
 40
0.2211465501
 40
0.4645771564
 40
0.7256954485
 40
1.0
 40
1.0
 40
1.0
 40
1.0
 10
123.4173931487
 20
281.8067505964
 30
0.0
 10
123.2444356879
 20
280.5417997051
 30
0.0
 10
122.7277970545
 20
277.9048664434
 30
0.0
 10
121.5890354038
 20
273.8697678056
 30
0.0
 10
120.0873811672
 20
269.6286036807
 30
0.0
 10
118.8980985092
 20
266.7738434437
 30
0.0
 10
118.2555944965
 20
265.3264271161
 30
0.0
  0
LINE
  5
44B
100
AcDbEntity
  8
0
100
AcDbLine
 62
7
  6
CONTINUOUS
 10
122.3458379777
 20
283.8746406965
 11
122.4080362308
 21
283.9494730042
  0
SPLINE
  5
44C
100
AcDbEntity
  8
0
100
AcDbSpline
 62
7
  6
CONTINUOUS
 70
0
 71
3
 72
17
 73
13
 74
0
 42
0.0000001
 43
0.0000001
 44
0.0000000001
 40
0.0
 40
0.0
 40
0.0
 40
0.0
 40
0.0346830254
 40
0.0574265539
 40
0.0815807203
 40
0.1071626281
 40
0.1614284375
 40
0.2186738009
 40
0.3389164875
 40
0.4645578442
 40
0.7268051171
 40
1.0
 40
1.0
 40
1.0
 40
1.0
 10
122.9588987101
 20
284.4748810662
 30
0.0
 10
122.9571583274
 20
284.4839644977
 30
0.0
 10
122.9456712173
 20
284.500519444
 30
0.0
 10
122.9225106277
 20
284.4950373913
 30
0.0
 10
122.9053291707
 20
284.4869807365
 30
0.0
 10
122.8817855188
 20
284.4719562103
 30
0.0
 10
122.8532251495
 20
284.4491526878
 30
0.0
 10
122.8075727595
 20
284.4074290331
 30
0.0
 10
122.7510868896
 20
284.3495588764
 30
0.0
 10
122.6599514094
 20
284.2492712941
 30
0.0
 10
122.5452748207
 20
284.115348642
 30
0.0
 10
122.4540764493
 20
284.0054885417
 30
0.0
 10
122.4077255729
 20
283.9492850373
 30
0.0
  0
SPLINE
  5
44D
100
AcDbEntity
  8
0
100
AcDbSpline
 62
7
  6
CONTINUOUS
 70
0
 71
3
 72
11
 73
7
 74
0
 42
0.0000001
 43
0.0000001
 44
0.0000000001
 40
0.0
 40
0.0
 40
0.0
 40
0.0
 40
0.2751173975
 40
0.5274030715
 40
0.7654331343
 40
1.0
 40
1.0
 40
1.0
 40
1.0
 10
122.4077255729
 20
283.9492850373
 30
0.0
 10
122.8185822313
 20
284.4474545166
 30
0.0
 10
123.5365452503
 20
285.4647577377
 30
0.0
 10
124.277256261
 20
287.1158120829
 30
0.0
 10
124.6108316886
 20
288.8000176213
 30
0.0
 10
124.5543682207
 20
289.9207796909
 30
0.0
 10
124.4618905937
 20
290.4635167355
 30
0.0
  0
SPLINE
  5
44E
100
AcDbEntity
  8
0
100
AcDbSpline
 62
7
  6
CONTINUOUS
 70
0
 71
3
 72
11
 73
7
 74
0
 42
0.0000001
 43
0.0000001
 44
0.0000000001
 40
0.0
 40
0.0
 40
0.0
 40
0.0
 40
0.3021609322
 40
0.5709102339
 40
0.8037192859
 40
1.0
 40
1.0
 40
1.0
 40
1.0
 10
123.4173931487
 20
281.8067505964
 30
0.0
 10
123.6586344535
 20
282.6561678123
 30
0.0
 10
124.0699934029
 20
284.2743916865
 30
0.0
 10
124.4784593613
 20
286.5903616898
 30
0.0
 10
124.6348988654
 20
288.6271465733
 30
0.0
 10
124.5597481175
 20
289.8861435159
 30
0.0
 10
124.4638516649
 20
290.4516650403
 30
0.0
  0
SPLINE
  5
44F
100
AcDbEntity
  8
0
100
AcDbSpline
 62
7
  6
CONTINUOUS
 70
0
 71
3
 72
8
 73
4
 74
0
 42
0.0000001
 43
0.0000001
 44
0.0000000001
 40
0.0
 40
0.0
 40
0.0
 40
0.0
 40
1.0
 40
1.0
 40
1.0
 40
1.0
 10
124.458445117
 20
290.4831481334
 30
0.0
 10
124.4542481821
 20
290.5072831544
 30
0.0
 10
124.4501316871
 20
290.5314745958
 30
0.0
 10
124.4477166643
 20
290.5558524785
 30
0.0
  0
SPLINE
  5
450
100
AcDbEntity
  8
0
100
AcDbSpline
 62
7
  6
CONTINUOUS
 70
0
 71
3
 72
9
 73
5
 74
0
 42
0.0000001
 43
0.0000001
 44
0.0000000001
 40
0.0
 40
0.0
 40
0.0
 40
0.0
 40
0.2363235284
 40
1.0
 40
1.0
 40
1.0
 40
1.0
 10
124.5071608006
 20
290.4343161753
 30
0.0
 10
124.5606708688
 20
290.2993736359
 30
0.0
 10
124.7686745673
 20
289.7210859911
 30
0.0
 10
124.9053774095
 20
289.1183795685
 30
0.0
 10
124.9777368399
 20
288.6548957966
 30
0.0
  0
SPLINE
  5
451
100
AcDbEntity
  8
0
100
AcDbSpline
 62
7
  6
CONTINUOUS
 70
0
 71
3
 72
14
 73
10
 74
0
 42
0.0000001
 43
0.0000001
 44
0.0000000001
 40
0.0
 40
0.0
 40
0.0
 40
0.0
 40
0.0867484883
 40
0.186752641
 40
0.2994261661
 40
0.4234732337
 40
0.5572415274
 40
0.6989975208
 40
1.0
 40
1.0
 40
1.0
 40
1.0
 10
124.9900217836
 20
288.5740994942
 30
0.0
 10
125.0982983747
 20
287.8425485058
 30
0.0
 10
125.1680297023
 20
286.2433340096
 30
0.0
 10
124.9400205571
 20
283.6967174991
 30
0.0
 10
124.4077759963
 20
280.872115121
 30
0.0
 10
123.5864166234
 20
277.8199773481
 30
0.0
 10
122.5012493007
 20
274.5893037819
 30
0.0
 10
120.7023232679
 20
270.0137164498
 30
0.0
 10
119.0806148882
 20
266.6001259968
 30
0.0
 10
117.9182698343
 20
264.3124714353
 30
0.0
  0
SPLINE
  5
452
100
AcDbEntity
  8
0
100
AcDbSpline
 62
7
  6
CONTINUOUS
 70
0
 71
3
 72
8
 73
4
 74
0
 42
0.0000001
 43
0.0000001
 44
0.0000000001
 40
0.0
 40
0.0
 40
0.0
 40
0.0
 40
1.0
 40
1.0
 40
1.0
 40
1.0
 10
124.4426157156
 20
290.5907685785
 30
0.0
 10
124.4804896471
 20
290.5935366983
 30
0.0
 10
124.5199251796
 20
290.5882818272
 30
0.0
 10
124.5554096392
 20
290.5747559147
 30
0.0
  0
SPLINE
  5
453
100
AcDbEntity
  8
0
100
AcDbSpline
 62
7
  6
CONTINUOUS
 70
0
 71
3
 72
9
 73
5
 74
0
 42
0.0000001
 43
0.0000001
 44
0.0000000001
 40
0.0
 40
0.0
 40
0.0
 40
0.0
 40
0.2608098456
 40
1.0
 40
1.0
 40
1.0
 40
1.0
 10
124.5554096392
 20
290.5747559147
 30
0.0
 10
124.5687434625
 20
290.5696733482
 30
0.0
 10
124.6180614159
 20
290.5458356283
 30
0.0
 10
124.6582644745
 20
290.5025040145
 30
0.0
 10
124.674930374
 20
290.4656542712
 30
0.0
  0
SPLINE
  5
454
100
AcDbEntity
  8
0
100
AcDbSpline
 62
7
  6
CONTINUOUS
 70
0
 71
3
 72
9
 73
5
 74
0
 42
0.0000001
 43
0.0000001
 44
0.0000000001
 40
0.0
 40
0.0
 40
0.0
 40
0.0
 40
0.5144448085
 40
1.0
 40
1.0
 40
1.0
 40
1.0
 10
125.8738770684
 20
270.815532762
 30
0.0
 10
126.172305264
 20
272.7386597049
 30
0.0
 10
126.5586870847
 20
276.5107050311
 30
0.0
 10
126.4580047715
 20
280.3080014655
 30
0.0
 10
126.2573734404
 20
282.1338662197
 30
0.0
  0
SPLINE
  5
455
100
AcDbEntity
  8
0
100
AcDbSpline
 62
7
  6
CONTINUOUS
 70
0
 71
3
 72
9
 73
5
 74
0
 42
0.0000001
 43
0.0000001
 44
0.0000000001
 40
0.0
 40
0.0
 40
0.0
 40
0.0
 40
0.2559147804
 40
1.0
 40
1.0
 40
1.0
 40
1.0
 10
125.9770278177
 20
270.8041984568
 30
0.0
 10
126.0992836045
 20
271.4125296566
 30
0.0
 10
126.540117372
 20
273.7966510431
 30
0.0
 10
126.8265816174
 20
276.2110944046
 30
0.0
 10
126.926751246
 20
278.0124304492
 30
0.0
  0
SPLINE
  5
456
100
AcDbEntity
  8
0
100
AcDbSpline
 62
7
  6
CONTINUOUS
 70
0
 71
3
 72
9
 73
5
 74
0
 42
0.0000001
 43
0.0000001
 44
0.0000000001
 40
0.0
 40
0.0
 40
0.0
 40
0.0
 40
0.5213775357
 40
1.0
 40
1.0
 40
1.0
 40
1.0
 10
126.9289162522
 20
278.0516880987
 30
0.0
 10
127.031593717
 20
279.9291853736
 30
0.0
 10
126.9946707485
 20
283.5492365742
 30
0.0
 10
126.3310990298
 20
287.123617419
 30
0.0
 10
125.8163767634
 20
288.7711968473
 30
0.0
  0
SPLINE
  5
457
100
AcDbEntity
  8
0
100
AcDbSpline
 62
7
  6
CONTINUOUS
 70
0
 71
3
 72
9
 73
5
 74
0
 42
0.0000001
 43
0.0000001
 44
0.0000000001
 40
0.0
 40
0.0
 40
0.0
 40
0.0
 40
0.2539492909
 40
1.0
 40
1.0
 40
1.0
 40
1.0
 10
125.8163767634
 20
288.7711968473
 30
0.0
 10
125.7646287369
 20
288.9368376005
 30
0.0
 10
125.5529215139
 20
289.5865780263
 30
0.0
 10
125.3086242943
 20
290.225805847
 30
0.0
 10
125.1069954897
 20
290.694052492
 30
0.0
  0
SPLINE
  5
458
100
AcDbEntity
  8
0
100
AcDbSpline
 62
7
  6
CONTINUOUS
 70
0
 71
3
 72
9
 73
5
 74
0
 42
0.0000001
 43
0.0000001
 44
0.0000000001
 40
0.0
 40
0.0
 40
0.0
 40
0.0
 40
0.2550360829
 40
1.0
 40
1.0
 40
1.0
 40
1.0
 10
124.7402686622
 20
291.4915795216
 30
0.0
 10
124.6407906121
 20
291.6944442255
 30
0.0
 10
124.2352013681
 20
292.4821007846
 30
0.0
 10
123.7654397236
 20
293.2372373277
 30
0.0
 10
123.3787054757
 20
293.7720376532
 30
0.0
  0
SPLINE
  5
459
100
AcDbEntity
  8
0
100
AcDbSpline
 62
7
  6
CONTINUOUS
 70
0
 71
3
 72
9
 73
5
 74
0
 42
0.0000001
 43
0.0000001
 44
0.0000000001
 40
0.0
 40
0.0
 40
0.0
 40
0.0
 40
0.4848079679
 40
1.0
 40
1.0
 40
1.0
 40
1.0
 10
127.360310024
 20
282.9231039513
 30
0.0
 10
127.5417505212
 20
281.029332045
 30
0.0
 10
127.563249922
 20
277.0867675305
 30
0.0
 10
127.0546221859
 20
273.1856532598
 30
0.0
 10
126.6825870248
 20
271.1985051081
 30
0.0
  0
SPLINE
  5
45A
100
AcDbEntity
  8
0
100
AcDbSpline
 62
7
  6
CONTINUOUS
 70
0
 71
3
 72
9
 73
5
 74
0
 42
0.0000001
 43
0.0000001
 44
0.0000000001
 40
0.0
 40
0.0
 40
0.0
 40
0.0
 40
0.4993036088
 40
1.0
 40
1.0
 40
1.0
 40
1.0
 10
36.4938969863
 20
288.1224187887
 30
0.0
 10
36.4970587643
 20
288.1048212996
 30
0.0
 10
36.5041546754
 20
288.069681624
 30
0.0
 10
36.5063485623
 20
288.0338008301
 30
0.0
 10
36.509689497
 20
288.0161857086
 30
0.0
  0
SPLINE
  5
45B
100
AcDbEntity
  8
0
100
AcDbSpline
 62
7
  6
CONTINUOUS
 70
0
 71
3
 72
14
 73
10
 74
0
 42
0.0000001
 43
0.0000001
 44
0.0000000001
 40
0.0
 40
0.0
 40
0.0
 40
0.0
 40
0.3984649755
 40
0.5537062031
 40
0.6805441577
 40
0.7814388004
 40
0.8613336015
 40
0.9296372251
 40
1.0
 40
1.0
 40
1.0
 40
1.0
 10
36.509689497
 20
288.0161857086
 30
0.0
 10
36.3230906058
 20
288.4537783712
 30
0.0
 10
36.081759581
 20
289.071762179
 30
0.0
 10
35.8833624049
 20
289.8607918063
 30
0.0
 10
35.8235258481
 20
290.3156009729
 30
0.0
 10
35.8373480406
 20
290.6848793034
 30
0.0
 10
35.9276194551
 20
290.9745841105
 30
0.0
 10
36.1088721738
 20
291.1758627382
 30
0.0
 10
36.2716799917
 20
291.2318265833
 30
0.0
 10
36.3545653778
 20
291.2454914385
 30
0.0
  0
SPLINE
  5
45C
100
AcDbEntity
  8
0
100
AcDbSpline
 62
7
  6
CONTINUOUS
 70
0
 71
3
 72
8
 73
4
 74
0
 42
0.0000001
 43
0.0000001
 44
0.0000000001
 40
0.0
 40
0.0
 40
0.0
 40
0.0
 40
1.0
 40
1.0
 40
1.0
 40
1.0
 10
36.3545653778
 20
291.2454914385
 30
0.0
 10
36.3840343691
 20
291.2503498281
 30
0.0
 10
36.413822786
 20
291.2534791997
 30
0.0
 10
36.4436418906
 20
291.2551663264
 30
0.0
  0
SPLINE
  5
45D
100
AcDbEntity
  8
0
100
AcDbSpline
 62
7
  6
CONTINUOUS
 70
0
 71
3
 72
15
 73
11
 74
0
 42
0.0000001
 43
0.0000001
 44
0.0000000001
 40
0.0
 40
0.0
 40
0.0
 40
0.0
 40
0.087719633
 40
0.1880678096
 40
0.3006802821
 40
0.4246802212
 40
0.5578521919
 40
0.6993892877
 40
0.847274301
 40
1.0
 40
1.0
 40
1.0
 40
1.0
 10
125.2599903704
 20
288.5824796968
 30
0.0
 10
125.4031214431
 20
287.8603981536
 30
0.0
 10
125.5517367294
 20
286.2803652783
 30
0.0
 10
125.4369900943
 20
283.7545121556
 30
0.0
 10
125.0093108911
 20
280.9552015344
 30
0.0
 10
124.3004316013
 20
277.9311187839
 30
0.0
 10
123.299104878
 20
274.7362688178
 30
0.0
 10
122.070859654
 20
271.4079761867
 30
0.0
 10
120.6125703993
 20
267.9947618452
 30
0.0
 10
119.52979392
 20
265.7153570524
 30
0.0
 10
118.9536117699
 20
264.5705223551
 30
0.0
  0
SPLINE
  5
45E
100
AcDbEntity
  8
0
100
AcDbSpline
 62
7
  6
CONTINUOUS
 70
0
 71
3
 72
11
 73
7
 74
0
 42
0.0000001
 43
0.0000001
 44
0.0000000001
 40
0.0
 40
0.0
 40
0.0
 40
0.0
 40
0.347781971
 40
0.6290977968
 40
0.8450871094
 40
1.0
 40
1.0
 40
1.0
 40
1.0
 10
36.2644472349
 20
287.8279662711
 30
0.0
 10
36.1257260774
 20
288.1153025402
 30
0.0
 10
35.885817368
 20
288.6404137824
 30
0.0
 10
35.6127421308
 20
289.367716134
 30
0.0
 10
35.4644970897
 20
289.9476038088
 30
0.0
 10
35.4412847374
 20
290.2932240594
 30
0.0
 10
35.4636102097
 20
290.4335833159
 30
0.0
  0
SPLINE
  5
45F
100
AcDbEntity
  8
0
100
AcDbSpline
 62
7
  6
CONTINUOUS
 70
0
 71
3
 72
9
 73
5
 74
0
 42
0.0000001
 43
0.0000001
 44
0.0000000001
 40
0.0
 40
0.0
 40
0.0
 40
0.0
 40
0.5080107723
 40
1.0
 40
1.0
 40
1.0
 40
1.0
 10
36.5097017119
 20
288.015759111
 30
0.0
 10
36.4539673981
 20
288.0180651251
 30
0.0
 10
36.3389727699
 20
287.9837566218
 30
0.0
 10
36.274069899
 20
287.8811247236
 30
0.0
 10
36.2644402084
 20
287.8279671524
 30
0.0
  0
SPLINE
  5
460
100
AcDbEntity
  8
0
100
AcDbSpline
 62
7
  6
CONTINUOUS
 70
0
 71
3
 72
9
 73
5
 74
0
 42
0.0000001
 43
0.0000001
 44
0.0000000001
 40
0.0
 40
0.0
 40
0.0
 40
0.0
 40
0.2457460842
 40
1.0
 40
1.0
 40
1.0
 40
1.0
 10
36.2644356098
 20
287.8279661293
 30
0.0
 10
36.2948900462
 20
287.7648678901
 30
0.0
 10
36.4223658494
 20
287.5098283844
 30
0.0
 10
36.5637254975
 20
287.2617762695
 30
0.0
 10
36.6770131729
 20
287.0789962296
 30
0.0
  0
LINE
  5
461
100
AcDbEntity
  8
0
100
AcDbLine
 62
7
  6
CONTINUOUS
 10
36.5138262219
 20
288.0135362653
 11
36.5293947564
 21
287.9341301909
  0
SPLINE
  5
462
100
AcDbEntity
  8
0
100
AcDbSpline
 62
7
  6
CONTINUOUS
 70
0
 71
3
 72
13
 73
9
 74
0
 42
0.0000001
 43
0.0000001
 44
0.0000000001
 40
0.0
 40
0.0
 40
0.0
 40
0.0
 40
0.2146358565
 40
0.4402545056
 40
0.6837589862
 40
0.819611241
 40
0.8968537511
 40
1.0
 40
1.0
 40
1.0
 40
1.0
 10
36.5293469609
 20
287.9346365272
 30
0.0
 10
36.5416133317
 20
287.8736129888
 30
0.0
 10
36.5674642783
 20
287.748589428
 30
0.0
 10
36.6086594782
 20
287.5545924188
 30
0.0
 10
36.6439497384
 20
287.3828495858
 30
0.0
 10
36.6672215883
 20
287.2522289189
 30
0.0
 10
36.678208993
 20
287.1615823718
 30
0.0
 10
36.6829479165
 20
287.108297423
 30
0.0
 10
36.6770072
 20
287.0789809842
 30
0.0
  0
SPLINE
  5
463
100
AcDbEntity
  8
0
100
AcDbSpline
 62
7
  6
CONTINUOUS
 70
0
 71
3
 72
11
 73
7
 74
0
 42
0.0000001
 43
0.0000001
 44
0.0000000001
 40
0.0
 40
0.0
 40
0.0
 40
0.0
 40
0.2176560505
 40
0.4528662808
 40
0.7122680602
 40
1.0
 40
1.0
 40
1.0
 40
1.0
 10
36.5293469609
 20
287.9346365272
 30
0.0
 10
36.6447544972
 20
287.3611683199
 30
0.0
 10
37.0338822772
 20
286.1947307507
 30
0.0
 10
38.0156023064
 20
284.5382753423
 30
0.0
 10
39.3931203379
 20
282.9382584229
 30
0.0
 10
40.504534572
 20
281.9684244862
 30
0.0
 10
41.1142296415
 20
281.4927526265
 30
0.0
  0
SPLINE
  5
464
100
AcDbEntity
  8
0
100
AcDbSpline
 62
7
  6
CONTINUOUS
 70
0
 71
3
 72
12
 73
8
 74
0
 42
0.0000001
 43
0.0000001
 44
0.0000000001
 40
0.0
 40
0.0
 40
0.0
 40
0.0
 40
0.0646077479
 40
0.1454361735
 40
0.3591714079
 40
0.6445201874
 40
1.0
 40
1.0
 40
1.0
 40
1.0
 10
36.1956444518
 20
284.4560855481
 30
0.0
 10
36.3189087501
 20
284.4387482868
 30
0.0
 10
36.5919238266
 20
284.3692377495
 30
0.0
 10
37.2368675757
 20
284.1161127233
 30
0.0
 10
38.2174418609
 20
283.5727681024
 30
0.0
 10
39.5871508538
 20
282.6584250666
 30
0.0
 10
40.5721476509
 20
281.9127281489
 30
0.0
 10
41.1121207009
 20
281.4914149377
 30
0.0
  0
SPLINE
  5
465
100
AcDbEntity
  8
0
100
AcDbSpline
 62
7
  6
CONTINUOUS
 70
0
 71
3
 72
11
 73
7
 74
0
 42
0.0000001
 43
0.0000001
 44
0.0000000001
 40
0.0
 40
0.0
 40
0.0
 40
0.0
 40
0.3223436067
 40
0.5971516096
 40
0.8227161123
 40
1.0
 40
1.0
 40
1.0
 40
1.0
 10
41.1121207009
 20
281.4914149377
 30
0.0
 10
40.5682167017
 20
281.8333375909
 30
0.0
 10
39.5499893533
 20
282.4500937311
 30
0.0
 10
38.1100278085
 20
283.2364204739
 30
0.0
 10
36.8841041329
 20
283.8051856752
 30
0.0
 10
36.1222594389
 20
284.0686887145
 30
0.0
 10
35.7786849357
 20
284.1511753086
 30
0.0
  0
SPLINE
  5
466
100
AcDbEntity
  8
0
100
AcDbSpline
 62
7
  6
CONTINUOUS
 70
0
 71
3
 72
9
 73
5
 74
0
 42
0.0000001
 43
0.0000001
 44
0.0000000001
 40
0.0
 40
0.0
 40
0.0
 40
0.0
 40
0.2895660472
 40
1.0
 40
1.0
 40
1.0
 40
1.0
 10
35.5908499792
 20
284.1922665133
 30
0.0
 10
35.5068251779
 20
284.2087608513
 30
0.0
 10
35.215625774
 20
284.2565550219
 30
0.0
 10
34.9134076251
 20
284.2665538723
 30
0.0
 10
34.7070335037
 20
284.2272443068
 30
0.0
  0
SPLINE
  5
467
100
AcDbEntity
  8
0
100
AcDbSpline
 62
7
  6
CONTINUOUS
 70
0
 71
3
 72
16
 73
12
 74
0
 42
0.0000001
 43
0.0000001
 44
0.0000000001
 40
0.0
 40
0.0
 40
0.0
 40
0.0
 40
0.2247469423
 40
0.4175862398
 40
0.5774371192
 40
0.7046621104
 40
0.7567222991
 40
0.8017411402
 40
0.8744987443
 40
0.9345839508
 40
1.0
 40
1.0
 40
1.0
 40
1.0
 10
40.9003236803
 20
281.2652230753
 30
0.0
 10
40.347065079
 20
281.5875864877
 30
0.0
 10
39.3076565486
 20
282.1673455167
 30
0.0
 10
37.830665593
 20
282.8943891334
 30
0.0
 10
36.5621617646
 20
283.4083645784
 30
0.0
 10
35.6293679545
 20
283.6736252631
 30
0.0
 10
34.9949046972
 20
283.7622035486
 30
0.0
 10
34.5110228598
 20
283.7718834372
 30
0.0
 10
34.0000082683
 20
283.6620236888
 30
0.0
 10
33.5539932878
 20
283.2682104309
 30
0.0
 10
33.4650309352
 20
282.9026395485
 30
0.0
 10
33.4482472213
 20
282.7170210232
 30
0.0
  0
SPLINE
  5
468
100
AcDbEntity
  8
0
100
AcDbSpline
 62
7
  6
CONTINUOUS
 70
0
 71
3
 72
9
 73
5
 74
0
 42
0.0000001
 43
0.0000001
 44
0.0000000001
 40
0.0
 40
0.0
 40
0.0
 40
0.0
 40
0.4871133785
 40
1.0
 40
1.0
 40
1.0
 40
1.0
 10
41.1121097622
 20
281.4910026047
 30
0.0
 10
41.0603468395
 20
281.4828317506
 30
0.0
 10
40.9587513108
 20
281.4206304805
 30
0.0
 10
40.9184361227
 20
281.3173398408
 30
0.0
 10
40.9003176656
 20
281.265222932
 30
0.0
  0
SPLINE
  5
469
100
AcDbEntity
  8
0
100
AcDbSpline
 62
7
  6
CONTINUOUS
 70
0
 71
3
 72
9
 73
5
 74
0
 42
0.0000001
 43
0.0000001
 44
0.0000000001
 40
0.0
 40
0.0
 40
0.0
 40
0.0
 40
0.4376177081
 40
1.0
 40
1.0
 40
1.0
 40
1.0
 10
36.421294784
 20
290.1424198975
 30
0.0
 10
36.363301857
 20
289.852117668
 30
0.0
 10
36.3382537241
 20
289.1687620868
 30
0.0
 10
36.4266194137
 20
288.4968612067
 30
0.0
 10
36.4938969863
 20
288.1224187887
 30
0.0
  0
SPLINE
  5
46A
100
AcDbEntity
  8
0
100
AcDbSpline
 62
7
  6
CONTINUOUS
 70
0
 71
3
 72
9
 73
5
 74
0
 42
0.0000001
 43
0.0000001
 44
0.0000000001
 40
0.0
 40
0.0
 40
0.0
 40
0.0
 40
0.2739128142
 40
1.0
 40
1.0
 40
1.0
 40
1.0
 10
41.5976422864
 20
277.947446281
 30
0.0
 10
41.2279528811
 20
277.90871815
 30
0.0
 10
39.88422153
 20
277.7247982166
 30
0.0
 10
38.557600476
 20
277.3554249216
 30
0.0
 10
37.6613794876
 20
276.9459482361
 30
0.0
  0
LINE
  5
46B
100
AcDbEntity
  8
0
100
AcDbLine
 62
7
  6
CONTINUOUS
 10
41.1146630162
 20
281.4922786634
 11
41.2074275465
 21
281.4203398216
  0
SPLINE
  5
46C
100
AcDbEntity
  8
0
100
AcDbSpline
 62
7
  6
CONTINUOUS
 70
0
 71
3
 72
16
 73
12
 74
0
 42
0.0000001
 43
0.0000001
 44
0.0000000001
 40
0.0
 40
0.0
 40
0.0
 40
0.0
 40
0.2316333604
 40
0.4696625239
 40
0.5918002998
 40
0.7169922941
 40
0.7812758155
 40
0.8474367172
 40
0.9170949413
 40
0.9551304747
 40
1.0
 40
1.0
 40
1.0
 40
1.0
 10
41.2061220948
 20
281.4214983105
 30
0.0
 10
41.2761467957
 20
281.3674264341
 30
0.0
 10
41.4175209181
 20
281.2569982137
 30
0.0
 10
41.5930868933
 20
281.1145870366
 30
0.0
 10
41.7339678646
 20
280.9940614202
 30
0.0
 10
41.8221682808
 20
280.9141352559
 30
0.0
 10
41.8921282689
 20
280.8459278099
 30
0.0
 10
41.9445471011
 20
280.7904994613
 30
0.0
 10
41.9874750789
 20
280.7390063727
 30
0.0
 10
42.0182726687
 20
280.6907057365
 30
0.0
 10
42.0315319104
 20
280.6586369541
 30
0.0
 10
42.0285853233
 20
280.6417543951
 30
0.0
  0
SPLINE
  5
46D
100
AcDbEntity
  8
0
100
AcDbSpline
 62
7
  6
CONTINUOUS
 70
0
 71
3
 72
10
 73
6
 74
0
 42
0.0000001
 43
0.0000001
 44
0.0000000001
 40
0.0
 40
0.0
 40
0.0
 40
0.0
 40
0.2186765518
 40
0.4586828129
 40
1.0
 40
1.0
 40
1.0
 40
1.0
 10
41.2061220948
 20
281.4214983105
 30
0.0
 10
41.8867267211
 20
280.8965698408
 30
0.0
 10
43.3813043837
 20
279.8810254337
 30
0.0
 10
46.8297989263
 20
277.9871724871
 30
0.0
 10
49.6941041356
 20
276.8424734306
 30
0.0
 10
51.7092355095
 20
276.1596558169
 30
0.0
  0
SPLINE
  5
46E
100
AcDbEntity
  8
0
100
AcDbSpline
 62
7
  6
CONTINUOUS
 70
0
 71
3
 72
10
 73
6
 74
0
 42
0.0000001
 43
0.0000001
 44
0.0000000001
 40
0.0
 40
0.0
 40
0.0
 40
0.0
 40
0.2067917481
 40
0.4426291915
 40
1.0
 40
1.0
 40
1.0
 40
1.0
 10
41.5976422864
 20
277.947446281
 30
0.0
 10
42.3076834562
 20
277.9884426938
 30
0.0
 10
43.8348539194
 20
277.9611723455
 30
0.0
 10
47.2494916424
 20
277.5128267805
 30
0.0
 10
49.8914715778
 20
276.7738663763
 30
0.0
 10
51.7070271913
 20
276.1585905118
 30
0.0
  0
SPLINE
  5
46F
100
AcDbEntity
  8
0
100
AcDbSpline
 62
7
  6
CONTINUOUS
 70
0
 71
3
 72
11
 73
7
 74
0
 42
0.0000001
 43
0.0000001
 44
0.0000000001
 40
0.0
 40
0.0
 40
0.0
 40
0.0
 40
0.3123160417
 40
0.5834593002
 40
0.8117218712
 40
1.0
 40
1.0
 40
1.0
 40
1.0
 10
51.7070271913
 20
276.1585905118
 30
0.0
 10
50.2776336465
 20
276.5591842809
 30
0.0
 10
47.5763534371
 20
277.2052756954
 30
0.0
 10
43.7408861013
 20
277.707260475
 30
0.0
 10
40.4597095544
 20
277.6635328235
 30
0.0
 10
38.5020328416
 20
277.2424486498
 30
0.0
 10
37.6648362948
 20
276.926294308
 30
0.0
  0
SPLINE
  5
470
100
AcDbEntity
  8
0
100
AcDbSpline
 62
7
  6
CONTINUOUS
 70
0
 71
3
 72
12
 73
8
 74
0
 42
0.0000001
 43
0.0000001
 44
0.0000000001
 40
0.0
 40
0.0
 40
0.0
 40
0.0
 40
0.3102569048
 40
0.5810862908
 40
0.700870645
 40
0.8102711011
 40
1.0
 40
1.0
 40
1.0
 40
1.0
 10
51.5587961433
 20
275.9044386315
 30
0.0
 10
50.1125427079
 20
276.2727182369
 30
0.0
 10
47.3739364761
 20
276.8531800476
 30
0.0
 10
44.0100849836
 20
277.1969575303
 30
0.0
 10
41.6022633646
 20
277.1690461943
 30
0.0
 10
39.5949804673
 20
276.9764193907
 30
0.0
 10
38.1857682528
 20
276.6168035706
 30
0.0
 10
37.3363497191
 20
276.283038279
 30
0.0
  0
SPLINE
  5
471
100
AcDbEntity
  8
0
100
AcDbSpline
 62
7
  6
CONTINUOUS
 70
0
 71
3
 72
11
 73
7
 74
0
 42
0.0000001
 43
0.0000001
 44
0.0000000001
 40
0.0
 40
0.0
 40
0.0
 40
0.0
 40
0.2763821032
 40
0.5294554491
 40
0.7671545179
 40
1.0
 40
1.0
 40
1.0
 40
1.0
 10
37.3363497191
 20
276.283038279
 30
0.0
 10
36.8842724721
 20
276.1054018275
 30
0.0
 10
36.0408952742
 20
275.6955393776
 30
0.0
 10
34.9768690072
 20
274.8514704908
 30
0.0
 10
34.1575036908
 20
273.8661007838
 30
0.0
 10
33.7840349072
 20
273.1198043387
 30
0.0
 10
33.6366645815
 20
272.7380501235
 30
0.0
  0
SPLINE
  5
472
100
AcDbEntity
  8
0
100
AcDbSpline
 62
7
  6
CONTINUOUS
 70
0
 71
3
 72
9
 73
5
 74
0
 42
0.0000001
 43
0.0000001
 44
0.0000000001
 40
0.0
 40
0.0
 40
0.0
 40
0.0
 40
0.5521881582
 40
1.0
 40
1.0
 40
1.0
 40
1.0
 10
51.5587889617
 20
275.9044344368
 30
0.0
 10
51.5767660777
 20
275.9568857909
 30
0.0
 10
51.5946984394
 20
276.0552845514
 30
0.0
 10
51.6652930625
 20
276.1414346136
 30
0.0
 10
51.707019939
 20
276.1581916493
 30
0.0
  0
SPLINE
  5
473
100
AcDbEntity
  8
0
100
AcDbSpline
 62
7
  6
CONTINUOUS
 70
0
 71
3
 72
8
 73
4
 74
0
 42
0.0000001
 43
0.0000001
 44
0.0000000001
 40
0.0
 40
0.0
 40
0.0
 40
0.0
 40
1.0
 40
1.0
 40
1.0
 40
1.0
 10
51.7092182362
 20
276.1595202867
 30
0.0
 10
51.7608021208
 20
276.1424170505
 30
0.0
 10
51.8121936216
 20
276.1247388347
 30
0.0
 10
51.8637060792
 20
276.1074216597
 30
0.0
  0
SPLINE
  5
474
100
AcDbEntity
  8
0
100
AcDbSpline
 62
7
  6
CONTINUOUS
 70
0
 71
3
 72
9
 73
5
 74
0
 42
0.0000001
 43
0.0000001
 44
0.0000000001
 40
0.0
 40
0.0
 40
0.0
 40
0.0
 40
0.4718305707
 40
1.0
 40
1.0
 40
1.0
 40
1.0
 10
47.7904419906
 20
292.1978659525
 30
0.0
 10
47.8992911586
 20
291.6235048145
 30
0.0
 10
48.3372888072
 20
290.4414930857
 30
0.0
 10
49.0715840028
 20
289.4283065593
 30
0.0
 10
49.5038879319
 20
288.9370478968
 30
0.0
  0
SPLINE
  5
475
100
AcDbEntity
  8
0
100
AcDbSpline
 62
7
  6
CONTINUOUS
 70
0
 71
3
 72
9
 73
5
 74
0
 42
0.0000001
 43
0.0000001
 44
0.0000000001
 40
0.0
 40
0.0
 40
0.0
 40
0.0
 40
0.4708792602
 40
1.0
 40
1.0
 40
1.0
 40
1.0
 10
49.8294791681
 20
288.5837947937
 30
0.0
 10
50.2933279707
 20
288.1025519449
 30
0.0
 10
51.370043639
 20
287.1678780784
 30
0.0
 10
52.5578647686
 20
286.3847213196
 30
0.0
 10
53.2046744692
 20
286.0029670995
 30
0.0
  0
SPLINE
  5
476
100
AcDbEntity
  8
0
100
AcDbSpline
 62
7
  6
CONTINUOUS
 70
0
 71
3
 72
13
 73
9
 74
0
 42
0.0000001
 43
0.0000001
 44
0.0000000001
 40
0.0
 40
0.0
 40
0.0
 40
0.0
 40
0.0967235641
 40
0.2043531161
 40
0.3218666319
 40
0.4478572674
 40
0.718208603
 40
1.0
 40
1.0
 40
1.0
 40
1.0
 10
53.2046744692
 20
286.0029670995
 30
0.0
 10
54.0632874684
 20
285.4962042362
 30
0.0
 10
55.9487694074
 20
284.5451361574
 30
0.0
 10
59.047238182
 20
283.3483166485
 30
0.0
 10
62.5217982368
 20
282.3218622048
 30
0.0
 10
67.6972876179
 20
281.1790210996
 30
0.0
 10
74.6501845211
 20
280.3155623917
 30
0.0
 10
80.3519781813
 20
280.2093655668
 30
0.0
 10
83.2550033443
 20
280.3065588443
 30
0.0
  0
SPLINE
  5
477
100
AcDbEntity
  8
0
100
AcDbSpline
 62
7
  6
CONTINUOUS
 70
0
 71
3
 72
12
 73
8
 74
0
 42
0.0000001
 43
0.0000001
 44
0.0000000001
 40
0.0
 40
0.0
 40
0.0
 40
0.0
 40
0.2851730794
 40
0.5535800738
 40
0.794512038
 40
0.9020653672
 40
1.0
 40
1.0
 40
1.0
 40
1.0
 10
83.2550033443
 20
280.3065588443
 30
0.0
 10
85.6772126803
 20
280.3876544087
 30
0.0
 10
90.3758493456
 20
280.7501160743
 30
0.0
 10
97.0384496774
 20
281.9049020517
 30
0.0
 10
102.0901840251
 20
283.3685166844
 30
0.0
 10
105.5952004352
 20
284.8296793185
 30
0.0
 10
107.1449548528
 20
285.6419974684
 30
0.0
 10
107.8592229902
 20
286.0692600478
 30
0.0
  0
SPLINE
  5
478
100
AcDbEntity
  8
0
100
AcDbSpline
 62
7
  6
CONTINUOUS
 70
0
 71
3
 72
9
 73
5
 74
0
 42
0.0000001
 43
0.0000001
 44
0.0000000001
 40
0.0
 40
0.0
 40
0.0
 40
0.0
 40
0.5458944526
 40
1.0
 40
1.0
 40
1.0
 40
1.0
 10
107.8592229902
 20
286.0692600478
 30
0.0
 10
108.8154394116
 20
286.6412518156
 30
0.0
 10
110.4960448184
 20
287.8194273212
 30
0.0
 10
111.8752487141
 20
289.3689801428
 30
0.0
 10
112.3561975883
 20
290.1613207352
 30
0.0
  0
SPLINE
  5
479
100
AcDbEntity
  8
0
100
AcDbSpline
 62
7
  6
CONTINUOUS
 70
0
 71
3
 72
9
 73
5
 74
0
 42
0.0000001
 43
0.0000001
 44
0.0000000001
 40
0.0
 40
0.0
 40
0.0
 40
0.0
 40
0.5114502548
 40
1.0
 40
1.0
 40
1.0
 40
1.0
 10
112.5847214091
 20
290.5665734797
 30
0.0
 10
112.8721988102
 20
291.1182517985
 30
0.0
 10
113.2900878075
 20
292.2863308735
 30
0.0
 10
113.2725461329
 20
293.5321004406
 30
0.0
 10
113.1619006116
 20
294.1159411823
 30
0.0
  0
SPLINE
  5
47A
100
AcDbEntity
  8
0
100
AcDbSpline
 62
7
  6
CONTINUOUS
 70
0
 71
3
 72
22
 73
18
 74
0
 42
0.0000001
 43
0.0000001
 44
0.0000000001
 40
0.0
 40
0.0
 40
0.0
 40
0.0
 40
0.040422796
 40
0.0505008534
 40
0.0606126355
 40
0.0707548298
 40
0.0809578349
 40
0.1015886933
 40
0.1226561743
 40
0.1664870708
 40
0.2133187652
 40
0.2637711333
 40
0.3769834924
 40
0.5079036524
 40
0.656398903
 40
0.821147326
 40
1.0
 40
1.0
 40
1.0
 40
1.0
 10
121.0796293107
 20
293.3479117022
 30
0.0
 10
121.1455015831
 20
292.967893903
 30
0.0
 10
121.1906560892
 20
292.483945125
 30
0.0
 10
121.1649227547
 20
291.9061914778
 30
0.0
 10
121.1480166045
 20
291.6172127531
 30
0.0
 10
121.1127700743
 20
291.3284814661
 30
0.0
 10
121.0395752506
 20
290.9443605072
 30
0.0
 10
120.9292138954
 20
290.4609955839
 30
0.0
 10
120.6652714839
 20
289.687630331
 30
0.0
 10
120.2059046
 20
288.720908174
 30
0.0
 10
119.4512854379
 20
287.6006557232
 30
0.0
 10
118.1274572325
 20
286.0846106414
 30
0.0
 10
115.9389072687
 20
284.2915627763
 30
0.0
 10
112.7007558638
 20
282.3885267301
 30
0.0
 10
108.8103665235
 20
280.6870210922
 30
0.0
 10
104.3443953494
 20
279.2202660875
 30
0.0
 10
101.155168246
 20
278.4460058042
 30
0.0
 10
99.4844064093
 20
278.0986835207
 30
0.0
  0
SPLINE
  5
47B
100
AcDbEntity
  8
0
100
AcDbSpline
 62
7
  6
CONTINUOUS
 70
0
 71
3
 72
11
 73
7
 74
0
 42
0.0000001
 43
0.0000001
 44
0.0000000001
 40
0.0
 40
0.0
 40
0.0
 40
0.0
 40
0.2514475176
 40
0.5106684983
 40
0.7644304974
 40
1.0
 40
1.0
 40
1.0
 40
1.0
 10
96.0174454511
 20
277.4582882901
 30
0.0
 10
92.8218137828
 20
276.938854374
 30
0.0
 10
86.2691158144
 20
276.2483606579
 30
0.0
 10
76.4125877981
 20
276.1661846848
 30
0.0
 10
66.7969449555
 20
277.0094581364
 30
0.0
 10
60.5953761351
 20
278.216154878
 30
0.0
 10
57.6644009608
 20
278.9967111816
 30
0.0
  0
SPLINE
  5
47C
100
AcDbEntity
  8
0
100
AcDbSpline
 62
7
  6
CONTINUOUS
 70
0
 71
3
 72
14
 73
10
 74
0
 42
0.0000001
 43
0.0000001
 44
0.0000000001
 40
0.0
 40
0.0
 40
0.0
 40
0.0
 40
0.3273166654
 40
0.4719817068
 40
0.6028551927
 40
0.7198257792
 40
0.8235801797
 40
0.915904298
 40
1.0
 40
1.0
 40
1.0
 40
1.0
 10
57.6644009608
 20
278.9967111816
 30
0.0
 10
55.3010051791
 20
279.6261138089
 30
0.0
 10
51.9322004648
 20
280.7212781815
 30
0.0
 10
47.8470398948
 20
282.6311842239
 30
0.0
 10
45.3172944984
 20
284.1263431537
 30
0.0
 10
43.2239357236
 20
285.7263285226
 30
0.0
 10
41.5915925427
 20
287.4176797078
 30
0.0
 10
40.4437619954
 20
289.1866619482
 30
0.0
 10
40.0080832916
 20
290.4500852675
 30
0.0
 10
39.8910798076
 20
291.0674744858
 30
0.0
  0
SPLINE
  5
47D
100
AcDbEntity
  8
0
100
AcDbSpline
 62
7
  6
CONTINUOUS
 70
0
 71
3
 72
9
 73
5
 74
0
 42
0.0000001
 43
0.0000001
 44
0.0000000001
 40
0.0
 40
0.0
 40
0.0
 40
0.0
 40
0.2557835908
 40
1.0
 40
1.0
 40
1.0
 40
1.0
 10
48.9013827994
 20
294.5630052336
 30
0.0
 10
48.859833014
 20
294.4637336722
 30
0.0
 10
48.7077266695
 20
294.0714208645
 30
0.0
 10
48.5990392309
 20
293.6619636584
 30
0.0
 10
48.5468257859
 20
293.3532327835
 30
0.0
  0
SPLINE
  5
47E
100
AcDbEntity
  8
0
100
AcDbSpline
 62
7
  6
CONTINUOUS
 70
0
 71
3
 72
9
 73
5
 74
0
 42
0.0000001
 43
0.0000001
 44
0.0000000001
 40
0.0
 40
0.0
 40
0.0
 40
0.0
 40
0.517707171
 40
1.0
 40
1.0
 40
1.0
 40
1.0
 10
77.6973392757
 20
306.0072486855
 30
0.0
 10
75.0560195962
 20
305.9188173078
 30
0.0
 10
69.9590858591
 20
305.5057810202
 30
0.0
 10
64.9280523691
 20
304.5654559366
 30
0.0
 10
62.5436314947
 20
303.9522190317
 30
0.0
  0
SPLINE
  5
47F
100
AcDbEntity
  8
0
100
AcDbSpline
 62
7
  6
CONTINUOUS
 70
0
 71
3
 72
15
 73
11
 74
0
 42
0.0000001
 43
0.0000001
 44
0.0000000001
 40
0.0
 40
0.0
 40
0.0
 40
0.0
 40
0.1780585175
 40
0.3412436035
 40
0.4879936864
 40
0.6175459708
 40
0.7302833076
 40
0.8282670203
 40
0.9158896068
 40
1.0
 40
1.0
 40
1.0
 40
1.0
 10
62.5436314947
 20
303.9522190317
 30
0.0
 10
61.36953732
 20
303.6502598073
 30
0.0
 10
59.1376336201
 20
302.9958768904
 30
0.0
 10
56.0314920419
 20
301.8048530995
 30
0.0
 10
53.3503655175
 20
300.4631161799
 30
0.0
 10
51.1378139185
 20
298.9914880894
 30
0.0
 10
49.4287032483
 20
297.4085429825
 30
0.0
 10
48.2541477675
 20
295.7256994349
 30
0.0
 10
47.6591628675
 20
293.956750574
 30
0.0
 10
47.6838132959
 20
292.7605125425
 30
0.0
 10
47.7904423894
 20
292.1978660046
 30
0.0
  0
SPLINE
  5
480
100
AcDbEntity
  8
0
100
AcDbSpline
 62
7
  6
CONTINUOUS
 70
0
 71
3
 72
8
 73
4
 74
0
 42
0.0000001
 43
0.0000001
 44
0.0000000001
 40
0.0
 40
0.0
 40
0.0
 40
0.0
 40
1.0
 40
1.0
 40
1.0
 40
1.0
 10
39.8911919756
 20
291.0674919359
 30
0.0
 10
39.8848120531
 20
291.1011567058
 30
0.0
 10
39.878458508
 20
291.1348291756
 30
0.0
 10
39.8726064649
 20
291.1685897109
 30
0.0
  0
SPLINE
  5
481
100
AcDbEntity
  8
0
100
AcDbSpline
 62
7
  6
CONTINUOUS
 70
0
 71
3
 72
14
 73
10
 74
0
 42
0.0000001
 43
0.0000001
 44
0.0000000001
 40
0.0
 40
0.0
 40
0.0
 40
0.0
 40
0.1049792334
 40
0.210352745
 40
0.3194174179
 40
0.4350690739
 40
0.5596065703
 40
0.6946881829
 40
1.0
 40
1.0
 40
1.0
 40
1.0
 10
39.8726064649
 20
291.1685897109
 30
0.0
 10
39.8021335098
 20
291.5751493796
 30
0.0
 10
39.7388891483
 20
292.4058022815
 30
0.0
 10
39.893192913
 20
293.6595010021
 30
0.0
 10
40.2948695195
 20
294.9008313269
 30
0.0
 10
40.9378300625
 20
296.1203244995
 30
0.0
 10
41.8153815788
 20
297.311840027
 30
0.0
 10
43.3521008826
 20
298.9208125237
 30
0.0
 10
44.7495253655
 20
299.9653685627
 30
0.0
 10
45.758789997
 20
300.614570074
 30
0.0
  0
SPLINE
  5
482
100
AcDbEntity
  8
0
100
AcDbSpline
 62
7
  6
CONTINUOUS
 70
0
 71
3
 72
20
 73
16
 74
0
 42
0.0000001
 43
0.0000001
 44
0.0000000001
 40
0.0
 40
0.0
 40
0.0
 40
0.0
 40
0.0513641089
 40
0.10876467
 40
0.1715845382
 40
0.2389783073
 40
0.3832714172
 40
0.532498726
 40
0.6768396558
 40
0.7442721423
 40
0.807136453
 40
0.864585714
 40
0.9160130377
 40
0.961078345
 40
1.0
 40
1.0
 40
1.0
 40
1.0
 10
46.629877532
 20
301.1506592287
 30
0.0
 10
47.7542059756
 20
301.8132157429
 30
0.0
 10
50.2332732958
 20
303.0513330445
 30
0.0
 10
54.3167561275
 20
304.5931231538
 30
0.0
 10
58.9063964981
 20
305.8990635352
 30
0.0
 10
65.7388492351
 20
307.3222823827
 30
0.0
 10
74.8779649399
 20
308.3232401772
 30
0.0
 10
86.0218529974
 20
308.3260536194
 30
0.0
 10
95.1636498674
 20
307.3298244851
 30
0.0
 10
102.0002890083
 20
305.9102138545
 30
0.0
 10
106.593987566
 20
304.606807221
 30
0.0
 10
110.6827172332
 20
303.0663652747
 30
0.0
 10
114.1924630351
 20
301.3197251427
 30
0.0
 10
117.0559619375
 20
299.3935411343
 30
0.0
 10
118.6111337064
 20
297.9064336907
 30
0.0
 10
119.234658109
 20
297.1388826739
 30
0.0
  0
SPLINE
  5
483
100
AcDbEntity
  8
0
100
AcDbSpline
 62
7
  6
CONTINUOUS
 70
0
 71
3
 72
8
 73
4
 74
0
 42
0.0000001
 43
0.0000001
 44
0.0000000001
 40
0.0
 40
0.0
 40
0.0
 40
0.0
 40
1.0
 40
1.0
 40
1.0
 40
1.0
 10
119.234658109
 20
297.1388826739
 30
0.0
 10
119.3393660051
 20
297.009988517
 30
0.0
 10
119.4423095609
 20
296.879599824
 30
0.0
 10
119.5419586868
 20
296.7467559348
 30
0.0
  0
SPLINE
  5
484
100
AcDbEntity
  8
0
100
AcDbSpline
 62
7
  6
CONTINUOUS
 70
0
 71
3
 72
14
 73
10
 74
0
 42
0.0000001
 43
0.0000001
 44
0.0000000001
 40
0.0
 40
0.0
 40
0.0
 40
0.0
 40
0.2660893145
 40
0.395027732
 40
0.5205157972
 40
0.6431943964
 40
0.7642193142
 40
0.882704387
 40
1.0
 40
1.0
 40
1.0
 40
1.0
 10
119.6074751147
 20
296.6583669323
 30
0.0
 10
119.7935691305
 20
296.4041723333
 30
0.0
 10
120.0477382759
 20
296.0105087334
 30
0.0
 10
120.352912292
 20
295.4749840596
 30
0.0
 10
120.548488058
 20
295.07314154
 30
0.0
 10
120.7133172481
 20
294.6682264183
 30
0.0
 10
120.8628659682
 20
294.2659509413
 30
0.0
 10
120.9729564604
 20
293.8577329982
 30
0.0
 10
121.0354051171
 20
293.5855450432
 30
0.0
 10
121.0612627163
 20
293.4491029268
 30
0.0
  0
SPLINE
  5
485
100
AcDbEntity
  8
0
100
AcDbSpline
 62
7
  6
CONTINUOUS
 70
0
 71
3
 72
18
 73
14
 74
0
 42
0.0000001
 43
0.0000001
 44
0.0000000001
 40
0.0
 40
0.0
 40
0.0
 40
0.0
 40
0.0337283451
 40
0.0701778173
 40
0.1103996449
 40
0.1550789357
 40
0.2045602538
 40
0.2589381072
 40
0.3817990204
 40
0.5214803705
 40
0.6742477963
 40
0.8354638438
 40
1.0
 40
1.0
 40
1.0
 40
1.0
 10
113.1619006116
 20
294.1159411823
 30
0.0
 10
113.0801677566
 20
294.5472191057
 30
0.0
 10
112.7962221071
 20
295.4255146577
 30
0.0
 10
112.0660896875
 20
296.6730476715
 30
0.0
 10
111.0343080201
 20
297.8778509024
 30
0.0
 10
109.7135221192
 20
299.0315605814
 30
0.0
 10
108.1161552491
 20
300.1267685049
 30
0.0
 10
105.5301073994
 20
301.5550076398
 30
0.0
 10
101.6873241991
 20
303.0943381975
 30
0.0
 10
96.4617883625
 20
304.5086824764
 30
0.0
 10
90.6339497327
 20
305.5040911644
 30
0.0
 10
84.4234280079
 20
306.0417855671
 30
0.0
 10
80.1791691223
 20
306.0807751553
 30
0.0
 10
78.0387501513
 20
306.017972464
 30
0.0
  0
SPLINE
  5
486
100
AcDbEntity
  8
0
100
AcDbSpline
 62
7
  6
CONTINUOUS
 70
0
 71
3
 72
17
 73
13
 74
0
 42
0.0000001
 43
0.0000001
 44
0.0000000001
 40
0.0
 40
0.0
 40
0.0
 40
0.0
 40
0.2429902522
 40
0.3655320709
 40
0.4888658583
 40
0.6131131545
 40
0.7385464293
 40
0.8018868701
 40
0.8658889633
 40
0.9310828807
 40
0.9647710759
 40
1.0
 40
1.0
 40
1.0
 40
1.0
 10
51.8614018611
 20
276.1083415642
 30
0.0
 10
51.9778592442
 20
276.0691860318
 30
0.0
 10
52.1526821762
 20
276.0091817775
 30
0.0
 10
52.3853482055
 20
275.9256920207
 30
0.0
 10
52.560673222
 20
275.8602304127
 30
0.0
 10
52.7362724741
 20
275.7913105901
 30
0.0
 10
52.8820119138
 20
275.7296680883
 30
0.0
 10
52.9981118046
 20
275.6758316598
 30
0.0
 10
53.0844765887
 20
275.6318302653
 30
0.0
 10
53.1567452016
 20
275.5891722995
 30
0.0
 10
53.2082114671
 20
275.549432214
 30
0.0
 10
53.235614079
 20
275.5180344902
 30
0.0
 10
53.2334413994
 20
275.5003546177
 30
0.0
  0
SPLINE
  5
487
100
AcDbEntity
  8
0
100
AcDbSpline
 62
7
  6
CONTINUOUS
 70
0
 71
3
 72
9
 73
5
 74
0
 42
0.0000001
 43
0.0000001
 44
0.0000000001
 40
0.0
 40
0.0
 40
0.0
 40
0.0
 40
0.4779944755
 40
1.0
 40
1.0
 40
1.0
 40
1.0
 10
51.8614018611
 20
276.1083415642
 30
0.0
 10
54.1568001277
 20
275.3377558776
 30
0.0
 10
59.0594030757
 20
274.0202390189
 30
0.0
 10
64.0595710531
 20
273.1685767607
 30
0.0
 10
66.6818611081
 20
272.8286458807
 30
0.0
  0
SPLINE
  5
488
100
AcDbEntity
  8
0
100
AcDbSpline
 62
7
  6
CONTINUOUS
 70
0
 71
3
 72
9
 73
5
 74
0
 42
0.0000001
 43
0.0000001
 44
0.0000000001
 40
0.0
 40
0.0
 40
0.0
 40
0.0
 40
0.4734269459
 40
1.0
 40
1.0
 40
1.0
 40
1.0
 10
52.9185230597
 20
272.7476604751
 30
0.0
 10
55.0661582664
 20
273.1080840223
 30
0.0
 10
59.6753152516
 20
273.4567659268
 30
0.0
 10
64.2787744619
 20
273.138735265
 30
0.0
 10
66.6808013055
 20
272.8273147999
 30
0.0
  0
SPLINE
  5
489
100
AcDbEntity
  8
0
100
AcDbSpline
 62
7
  6
CONTINUOUS
 70
0
 71
3
 72
12
 73
8
 74
0
 42
0.0000001
 43
0.0000001
 44
0.0000000001
 40
0.0
 40
0.0
 40
0.0
 40
0.0
 40
0.1585669478
 40
0.309883268
 40
0.4519571754
 40
0.5835230012
 40
1.0
 40
1.0
 40
1.0
 40
1.0
 10
66.6808013055
 20
272.8273147999
 30
0.0
 10
65.1898605751
 20
272.9623010939
 30
0.0
 10
62.2654118221
 20
273.1258065133
 30
0.0
 10
57.9967042768
 20
273.0440471235
 30
0.0
 10
53.9950398405
 20
272.6224099495
 30
0.0
 10
47.6340095025
 20
271.3389201856
 30
0.0
 10
42.5980308654
 20
269.0626934476
 30
0.0
 10
39.850241049
 20
266.2501983905
 30
0.0
  0
SPLINE
  5
48A
100
AcDbEntity
  8
0
100
AcDbSpline
 62
7
  6
CONTINUOUS
 70
0
 71
3
 72
10
 73
6
 74
0
 42
0.0000001
 43
0.0000001
 44
0.0000000001
 40
0.0
 40
0.0
 40
0.0
 40
0.0
 40
0.4497681684
 40
0.711600904
 40
1.0
 40
1.0
 40
1.0
 40
1.0
 10
39.8493032535
 20
266.2555686978
 30
0.0
 10
41.3864123691
 20
267.8496615879
 30
0.0
 10
44.3445258492
 20
269.8812951123
 30
0.0
 10
48.9018392252
 20
271.7546918486
 30
0.0
 10
51.5287025528
 20
272.4566998461
 30
0.0
 10
52.9185230597
 20
272.7476604751
 30
0.0
  0
SPLINE
  5
48B
100
AcDbEntity
  8
0
100
AcDbSpline
 62
7
  6
CONTINUOUS
 70
0
 71
3
 72
19
 73
15
 74
0
 42
0.0000001
 43
0.0000001
 44
0.0000000001
 40
0.0
 40
0.0
 40
0.0
 40
0.0
 40
0.1563655723
 40
0.306109452
 40
0.4471977022
 40
0.5140600184
 40
0.5782962123
 40
0.6398716455
 40
0.6987563053
 40
0.7549628655
 40
0.808623724
 40
0.859822802
 40
0.9086711448
 40
1.0
 40
1.0
 40
1.0
 40
1.0
 10
66.6196768338
 20
272.5566403578
 30
0.0
 10
65.1525749571
 20
272.6596773163
 30
0.0
 10
62.2723112334
 20
272.7619185779
 30
0.0
 10
58.0652724597
 20
272.5994803557
 30
0.0
 10
54.7211675346
 20
272.1900614128
 30
0.0
 10
52.2065388515
 20
271.7052194541
 30
0.0
 10
50.4463686347
 20
271.2701023163
 30
0.0
 10
48.7839998268
 20
270.7635359549
 30
0.0
 10
47.2163516053
 20
270.210911654
 30
0.0
 10
45.7496232881
 20
269.601176423
 30
0.0
 10
44.3956015191
 20
268.919067991
 30
0.0
 10
43.1464102241
 20
268.1895197253
 30
0.0
 10
41.6510624503
 20
267.1855835524
 30
0.0
 10
40.6397415433
 20
266.3310513038
 30
0.0
 10
40.0210552155
 20
265.7351348069
 30
0.0
  0
SPLINE
  5
48C
100
AcDbEntity
  8
0
100
AcDbSpline
 62
7
  6
CONTINUOUS
 70
0
 71
3
 72
11
 73
7
 74
0
 42
0.0000001
 43
0.0000001
 44
0.0000000001
 40
0.0
 40
0.0
 40
0.0
 40
0.0
 40
0.1672050848
 40
0.4079677024
 40
0.6977269666
 40
1.0
 40
1.0
 40
1.0
 40
1.0
 10
66.6807981982
 20
272.8268998982
 30
0.0
 10
66.6708887962
 20
272.8149114099
 30
0.0
 10
66.6557463551
 20
272.7790416459
 30
0.0
 10
66.6413140036
 20
272.7158757395
 30
0.0
 10
66.6329523714
 20
272.6388856593
 30
0.0
 10
66.6280571898
 20
272.5834787115
 30
0.0
 10
66.6196753147
 20
272.5566389748
 30
0.0
  0
SPLINE
  5
48D
100
AcDbEntity
  8
0
100
AcDbSpline
 62
7
  6
CONTINUOUS
 70
0
 71
3
 72
9
 73
5
 74
0
 42
0.0000001
 43
0.0000001
 44
0.0000000001
 40
0.0
 40
0.0
 40
0.0
 40
0.0
 40
0.5302697166
 40
1.0
 40
1.0
 40
1.0
 40
1.0
 10
68.4347938524
 20
269.6483459621
 30
0.0
 10
65.2888827007
 20
268.6024972055
 30
0.0
 10
59.5010566867
 20
266.1512276596
 30
0.0
 10
54.2315007855
 20
262.7064415308
 30
0.0
 10
51.9609099166
 20
260.8439960366
 30
0.0
  0
SPLINE
  5
48E
100
AcDbEntity
  8
0
100
AcDbSpline
 62
7
  6
CONTINUOUS
 70
0
 71
3
 72
8
 73
4
 74
0
 42
0.0000001
 43
0.0000001
 44
0.0000000001
 40
0.0
 40
0.0
 40
0.0
 40
0.0
 40
1.0
 40
1.0
 40
1.0
 40
1.0
 10
66.6818524894
 20
272.8285027744
 30
0.0
 10
66.7454025851
 20
272.8206284375
 30
0.0
 10
66.8088704461
 20
272.8121037571
 30
0.0
 10
66.8723902683
 20
272.8039888296
 30
0.0
  0
SPLINE
  5
48F
100
AcDbEntity
  8
0
100
AcDbSpline
 62
7
  6
CONTINUOUS
 70
0
 71
3
 72
17
 73
13
 74
0
 42
0.0000001
 43
0.0000001
 44
0.0000000001
 40
0.0
 40
0.0
 40
0.0
 40
0.0
 40
0.2482164586
 40
0.3727040656
 40
0.4974639353
 40
0.622522306
 40
0.7479396868
 40
0.8108247966
 40
0.8738785817
 40
0.9371954736
 40
0.9690652756
 40
1.0
 40
1.0
 40
1.0
 40
1.0
 10
66.8730188443
 20
272.8040496976
 30
0.0
 10
67.0181488634
 20
272.7855096562
 30
0.0
 10
67.2358945048
 20
272.7562928827
 30
0.0
 10
67.5260080353
 20
272.7136289078
 30
0.0
 10
67.7438974422
 20
272.6789678808
 30
0.0
 10
67.961823623
 20
272.6408956298
 30
0.0
 10
68.1428947779
 20
272.6048411469
 30
0.0
 10
68.2874794832
 20
272.5713214427
 30
0.0
 10
68.3945660835
 20
272.5427294024
 30
0.0
 10
68.485422526
 20
272.5125724967
 30
0.0
 10
68.548771291
 20
272.4832176568
 30
0.0
 10
68.5867547566
 20
272.4557160729
 30
0.0
 10
68.5857395584
 20
272.4375100991
 30
0.0
  0
SPLINE
  5
490
100
AcDbEntity
  8
0
100
AcDbSpline
 62
7
  6
CONTINUOUS
 70
0
 71
3
 72
9
 73
5
 74
0
 42
0.0000001
 43
0.0000001
 44
0.0000000001
 40
0.0
 40
0.0
 40
0.0
 40
0.0
 40
0.4950733887
 40
1.0
 40
1.0
 40
1.0
 40
1.0
 10
66.8730188443
 20
272.8040496976
 30
0.0
 10
69.6418250857
 20
272.4506138402
 30
0.0
 10
75.2662560312
 20
271.9714286818
 30
0.0
 10
80.910148894
 20
271.9221181432
 30
0.0
 10
83.7557496847
 20
272.0056460682
 30
0.0
  0
SPLINE
  5
491
100
AcDbEntity
  8
0
100
AcDbSpline
 62
7
  6
CONTINUOUS
 70
0
 71
3
 72
9
 73
5
 74
0
 42
0.0000001
 43
0.0000001
 44
0.0000000001
 40
0.0
 40
0.0
 40
0.0
 40
0.0
 40
0.2439392987
 40
1.0
 40
1.0
 40
1.0
 40
1.0
 10
68.4347938524
 20
269.6483459621
 30
0.0
 10
69.6486505084
 20
269.9945262002
 30
0.0
 10
74.6682938768
 20
271.2563319853
 30
0.0
 10
79.8454722152
 20
271.8896029953
 30
0.0
 10
83.7560015651
 20
272.0042579564
 30
0.0
  0
SPLINE
  5
492
100
AcDbEntity
  8
0
100
AcDbSpline
 62
7
  6
CONTINUOUS
 70
0
 71
3
 72
12
 73
8
 74
0
 42
0.0000001
 43
0.0000001
 44
0.0000000001
 40
0.0
 40
0.0
 40
0.0
 40
0.0
 40
0.2730508114
 40
0.5386352293
 40
0.7830340447
 40
0.8950729707
 40
1.0
 40
1.0
 40
1.0
 40
1.0
 10
83.7560015651
 20
272.0042579564
 30
0.0
 10
80.6535344596
 20
271.7991243371
 30
0.0
 10
74.5527422473
 20
270.9691192163
 30
0.0
 10
65.9426132675
 20
268.5490617846
 30
0.0
 10
59.442796748
 20
265.6599454949
 30
0.0
 10
54.9254320706
 20
262.9692282918
 30
0.0
 10
52.9095678079
 20
261.5344196542
 30
0.0
 10
51.9699258367
 20
260.7964219672
 30
0.0
  0
SPLINE
  5
493
100
AcDbEntity
  8
0
100
AcDbSpline
 62
7
  6
CONTINUOUS
 70
0
 71
3
 72
19
 73
15
 74
0
 42
0.0000001
 43
0.0000001
 44
0.0000000001
 40
0.0
 40
0.0
 40
0.0
 40
0.0
 40
0.1354661059
 40
0.2714859555
 40
0.4058444047
 40
0.4717930853
 40
0.5366202554
 40
0.6001697606
 40
0.6623039617
 40
0.7228682581
 40
0.7817747039
 40
0.8389756707
 40
0.8944233786
 40
1.0
 40
1.0
 40
1.0
 40
1.0
 10
83.7900730025
 20
271.7314977436
 30
0.0
 10
82.279074563
 20
271.6011652002
 30
0.0
 10
79.2591501181
 20
271.2337507779
 30
0.0
 10
74.7922073917
 20
270.3852177943
 30
0.0
 10
71.1465350061
 20
269.4307657287
 30
0.0
 10
68.3161807978
 20
268.5347277588
 30
0.0
 10
66.2675216205
 20
267.800865921
 30
0.0
 10
64.2868771808
 20
267.008668526
 30
0.0
 10
62.3717372249
 20
266.1834074255
 30
0.0
 10
60.5325616462
 20
265.3152830096
 30
0.0
 10
58.7836701916
 20
264.3901555403
 30
0.0
 10
57.1182030603
 20
263.4328934307
 30
0.0
 10
55.0419662135
 20
262.1442108918
 30
0.0
 10
53.5697505275
 20
261.100332786
 30
0.0
 10
52.6257468761
 20
260.3890397568
 30
0.0
  0
SPLINE
  5
494
100
AcDbEntity
  8
0
100
AcDbSpline
 62
7
  6
CONTINUOUS
 70
0
 71
3
 72
9
 73
5
 74
0
 42
0.0000001
 43
0.0000001
 44
0.0000000001
 40
0.0
 40
0.0
 40
0.0
 40
0.0
 40
0.4971284861
 40
1.0
 40
1.0
 40
1.0
 40
1.0
 10
26.5749162399
 20
210.4802833609
 30
0.0
 10
26.3398798604
 20
210.5132062943
 30
0.0
 10
25.8590561026
 20
210.5308676787
 30
0.0
 10
25.3847082896
 20
210.4516446701
 30
0.0
 10
25.1528219577
 20
210.3894862675
 30
0.0
  0
SPLINE
  5
495
100
AcDbEntity
  8
0
100
AcDbSpline
 62
7
  6
CONTINUOUS
 70
0
 71
3
 72
9
 73
5
 74
0
 42
0.0000001
 43
0.0000001
 44
0.0000000001
 40
0.0
 40
0.0
 40
0.0
 40
0.0
 40
0.5029601385
 40
1.0
 40
1.0
 40
1.0
 40
1.0
 10
26.1585643863
 20
198.3515630826
 30
0.0
 10
25.8106716576
 20
198.2583085293
 30
0.0
 10
25.0991531876
 20
198.1393710591
 30
0.0
 10
24.377917522
 20
198.1659987449
 30
0.0
 10
24.0254221508
 20
198.2153624979
 30
0.0
  0
SPLINE
  5
496
100
AcDbEntity
  8
0
100
AcDbSpline
 62
7
  6
CONTINUOUS
 70
0
 71
3
 72
11
 73
7
 74
0
 42
0.0000001
 43
0.0000001
 44
0.0000000001
 40
0.0
 40
0.0
 40
0.0
 40
0.0
 40
0.2423884377
 40
0.4929416052
 40
0.7472251343
 40
1.0
 40
1.0
 40
1.0
 40
1.0
 10
56.1780375959
 20
259.5665275961
 30
0.0
 10
54.4557092616
 20
257.791302271
 30
0.0
 10
51.4116871142
 20
253.712604591
 30
0.0
 10
48.3657854356
 20
246.6544923289
 30
0.0
 10
46.9232844252
 20
238.998041826
 30
0.0
 10
47.1007781933
 20
233.7757336819
 30
0.0
 10
47.4831352615
 20
231.2248163389
 30
0.0
  0
SPLINE
  5
497
100
AcDbEntity
  8
0
100
AcDbSpline
 62
7
  6
CONTINUOUS
 70
0
 71
3
 72
9
 73
5
 74
0
 42
0.0000001
 43
0.0000001
 44
0.0000000001
 40
0.0
 40
0.0
 40
0.0
 40
0.0
 40
0.491698238
 40
1.0
 40
1.0
 40
1.0
 40
1.0
 10
93.6884544408
 20
257.6113973391
 30
0.0
 10
94.8755545191
 20
255.7161311125
 30
0.0
 10
96.8619427342
 20
251.5812242535
 30
0.0
 10
97.9668865914
 20
247.1354452951
 30
0.0
 10
98.3095832912
 20
244.8491243984
 30
0.0
  0
SPLINE
  5
498
100
AcDbEntity
  8
0
100
AcDbSpline
 62
7
  6
CONTINUOUS
 70
0
 71
3
 72
13
 73
9
 74
0
 42
0.0000001
 43
0.0000001
 44
0.0000000001
 40
0.0
 40
0.0
 40
0.0
 40
0.0
 40
0.2575113066
 40
0.5148919491
 40
0.6411240274
 40
0.7643270718
 40
0.8839871916
 40
1.0
 40
1.0
 40
1.0
 40
1.0
 10
98.3095832912
 20
244.8491243984
 30
0.0
 10
98.8509389812
 20
241.2374385337
 30
0.0
 10
98.8482719009
 20
233.8168576654
 30
0.0
 10
96.2437067354
 20
224.9656450424
 30
0.0
 10
92.7251335831
 20
218.6701391921
 30
0.0
 10
89.4793741364
 20
214.5337521245
 30
0.0
 10
85.707818684
 20
211.0822673482
 30
0.0
 10
82.8681245974
 20
209.2786538817
 30
0.0
 10
81.4022914828
 20
208.5314357447
 30
0.0
  0
SPLINE
  5
499
100
AcDbEntity
  8
0
100
AcDbSpline
 62
7
  6
CONTINUOUS
 70
0
 71
3
 72
13
 73
9
 74
0
 42
0.0000001
 43
0.0000001
 44
0.0000000001
 40
0.0
 40
0.0
 40
0.0
 40
0.0
 40
0.2663349783
 40
0.527594871
 40
0.6524963712
 40
0.7721829112
 40
0.8873913796
 40
1.0
 40
1.0
 40
1.0
 40
1.0
 10
81.4849918627
 20
207.9796953661
 30
0.0
 10
81.625094219
 20
207.0449943749
 30
0.0
 10
81.5192274087
 20
205.1189967445
 30
0.0
 10
80.4827409404
 20
202.9697445054
 30
0.0
 10
79.2088759097
 20
201.6844134332
 30
0.0
 10
78.1081174474
 20
201.010405207
 30
0.0
 10
76.9113442945
 20
200.6572182586
 30
0.0
 10
76.0898751152
 20
200.65312538
 30
0.0
 10
75.6941224686
 20
200.7085443349
 30
0.0
  0
SPLINE
  5
49A
100
AcDbEntity
  8
0
100
AcDbSpline
 62
7
  6
CONTINUOUS
 70
0
 71
3
 72
11
 73
7
 74
0
 42
0.0000001
 43
0.0000001
 44
0.0000000001
 40
0.0
 40
0.0
 40
0.0
 40
0.0
 40
0.2685863187
 40
0.5241478096
 40
0.7663609521
 40
1.0
 40
1.0
 40
1.0
 40
1.0
 10
73.6337519239
 20
205.8751274495
 30
0.0
 10
73.6849066291
 20
205.533845869
 30
0.0
 10
73.8723404559
 20
204.8766856977
 30
0.0
 10
74.4076341256
 20
204.0326895275
 30
0.0
 10
75.1489240489
 20
203.4268128643
 30
0.0
 10
75.7435877864
 20
203.2260567846
 30
0.0
 10
76.0408715746
 20
203.1843727679
 30
0.0
  0
SPLINE
  5
49B
100
AcDbEntity
  8
0
100
AcDbSpline
 62
7
  6
CONTINUOUS
 70
0
 71
3
 72
15
 73
11
 74
0
 42
0.0000001
 43
0.0000001
 44
0.0000000001
 40
0.0
 40
0.0
 40
0.0
 40
0.0
 40
0.1355589416
 40
0.2683335931
 40
0.3978337174
 40
0.523839062
 40
0.6464592006
 40
0.7661407765
 40
0.8836511463
 40
1.0
 40
1.0
 40
1.0
 40
1.0
 10
47.4831352615
 20
231.2248163389
 30
0.0
 10
47.7014517235
 20
229.7683054077
 30
0.0
 10
48.3243747297
 20
226.9096304393
 30
0.0
 10
49.819963867
 20
222.8398115474
 30
0.0
 10
51.8357576174
 20
219.1164308906
 30
0.0
 10
54.3264725206
 20
215.8284021551
 30
0.0
 10
57.2354805402
 20
213.0543288796
 30
0.0
 10
60.496254337
 20
210.8621478879
 30
0.0
 10
64.0302910826
 20
209.3073169465
 30
0.0
 10
66.5198000983
 20
208.7205243755
 30
0.0
 10
67.771654856
 20
208.5451915795
 30
0.0
  0
SPLINE
  5
49C
100
AcDbEntity
  8
0
100
AcDbSpline
 62
7
  6
CONTINUOUS
 70
0
 71
3
 72
9
 73
5
 74
0
 42
0.0000001
 43
0.0000001
 44
0.0000000001
 40
0.0
 40
0.0
 40
0.0
 40
0.0
 40
0.4945876347
 40
1.0
 40
1.0
 40
1.0
 40
1.0
 10
100.9066164907
 20
258.8771381693
 30
0.0
 10
101.7739929111
 20
257.0105381063
 30
0.0
 10
103.2434614346
 20
253.0989481846
 30
0.0
 10
104.1415402743
 20
249.0199697892
 30
0.0
 10
104.4533259984
 20
246.9398732586
 30
0.0
  0
SPLINE
  5
49D
100
AcDbEntity
  8
0
100
AcDbSpline
 62
7
  6
CONTINUOUS
 70
0
 71
3
 72
15
 73
11
 74
0
 42
0.0000001
 43
0.0000001
 44
0.0000000001
 40
0.0
 40
0.0
 40
0.0
 40
0.0
 40
0.1300482411
 40
0.2611913022
 40
0.3919362061
 40
0.5208213963
 40
0.6466182885
 40
0.7684962554
 40
0.8861669866
 40
1.0
 40
1.0
 40
1.0
 40
1.0
 10
104.4533259984
 20
246.9398732586
 30
0.0
 10
104.844611239
 20
244.3293910959
 30
0.0
 10
105.1830094251
 20
239.0094359002
 30
0.0
 10
104.3778079665
 20
231.0611602305
 30
0.0
 10
102.2964373336
 20
223.3698087989
 30
0.0
 10
99.0145892562
 20
216.2271348634
 30
0.0
 10
94.6527798168
 20
209.9018346717
 30
0.0
 10
89.368025962
 20
204.6354180339
 30
0.0
 10
83.3580822148
 20
200.6346800941
 30
0.0
 10
78.9454225723
 20
198.8945326672
 30
0.0
 10
76.7136940192
 20
198.2963055927
 30
0.0
  0
SPLINE
  5
49E
100
AcDbEntity
  8
0
100
AcDbSpline
 62
7
  6
CONTINUOUS
 70
0
 71
3
 72
10
 73
6
 74
0
 42
0.0000001
 43
0.0000001
 44
0.0000000001
 40
0.0
 40
0.0
 40
0.0
 40
0.0
 40
0.5153356293
 40
0.7619024795
 40
1.0
 40
1.0
 40
1.0
 40
1.0
 10
16.4200828577
 20
204.3241098372
 30
0.0
 10
16.5588588279
 20
203.3982579084
 30
0.0
 10
16.9970527466
 20
202.0436493197
 30
0.0
 10
18.0269922361
 20
200.5368266441
 30
0.0
 10
18.6660103931
 20
199.9193485211
 30
0.0
 10
19.0083773788
 20
199.6550008774
 30
0.0
  0
SPLINE
  5
49F
100
AcDbEntity
  8
0
100
AcDbSpline
 62
7
  6
CONTINUOUS
 70
0
 71
3
 72
9
 73
5
 74
0
 42
0.0000001
 43
0.0000001
 44
0.0000000001
 40
0.0
 40
0.0
 40
0.0
 40
0.0
 40
0.5049019063
 40
1.0
 40
1.0
 40
1.0
 40
1.0
 10
19.033486047
 20
199.6357220989
 30
0.0
 10
19.4062323162
 20
199.3511210917
 30
0.0
 10
20.2161847775
 20
198.8742558029
 30
0.0
 10
21.1227568567
 20
198.6218854065
 30
0.0
 10
21.5781815245
 20
198.5581073484
 30
0.0
  0
SPLINE
  5
4A0
100
AcDbEntity
  8
0
100
AcDbSpline
 62
7
  6
CONTINUOUS
 70
0
 71
3
 72
13
 73
9
 74
0
 42
0.0000001
 43
0.0000001
 44
0.0000000001
 40
0.0
 40
0.0
 40
0.0
 40
0.0
 40
0.1140514167
 40
0.2319544774
 40
0.4790598171
 40
0.6081950468
 40
0.7391933144
 40
1.0
 40
1.0
 40
1.0
 40
1.0
 10
12.7823879387
 20
271.6073367583
 30
0.0
 10
12.3716504217
 20
271.4972363149
 30
0.0
 10
11.5593627501
 20
271.1767157602
 30
0.0
 10
10.0636416379
 20
270.1820056988
 30
0.0
 10
8.8651059445
 20
268.717429256
 30
0.0
 10
8.0743495241
 20
266.9924970923
 30
0.0
 10
7.5638951384
 20
265.111634232
 30
0.0
 10
7.5327896407
 20
263.6162016774
 30
0.0
 10
7.6769342002
 20
262.6545328934
 30
0.0
  0
SPLINE
  5
4A1
100
AcDbEntity
  8
0
100
AcDbSpline
 62
7
  6
CONTINUOUS
 70
0
 71
3
 72
11
 73
7
 74
0
 42
0.0000001
 43
0.0000001
 44
0.0000000001
 40
0.0
 40
0.0
 40
0.0
 40
0.0
 40
0.258636093
 40
0.5121610238
 40
0.7594576881
 40
1.0
 40
1.0
 40
1.0
 40
1.0
 10
34.3796851343
 20
229.2602236834
 30
0.0
 10
34.7379489423
 20
227.1217722259
 30
0.0
 10
35.7441987982
 20
222.9301388265
 30
0.0
 10
38.1177677891
 20
216.997859754
 30
0.0
 10
41.2829549478
 20
211.6212352011
 30
0.0
 10
43.9074910515
 20
208.4559910992
 30
0.0
 10
45.3231859645
 20
207.0199028503
 30
0.0
  0
SPLINE
  5
4A2
100
AcDbEntity
  8
0
100
AcDbSpline
 62
7
  6
CONTINUOUS
 70
0
 71
3
 72
12
 73
8
 74
0
 42
0.0000001
 43
0.0000001
 44
0.0000000001
 40
0.0
 40
0.0
 40
0.0
 40
0.0
 40
0.2441609384
 40
0.3689080369
 40
0.4948085631
 40
0.7479342049
 40
1.0
 40
1.0
 40
1.0
 40
1.0
 10
42.3944128664
 20
264.4687716094
 30
0.0
 10
40.6173023092
 20
262.0366983693
 30
0.0
 10
38.3266863915
 20
258.0540209412
 30
0.0
 10
36.1094716236
 20
252.3595753238
 30
0.0
 10
34.4342404932
 20
246.3647358492
 30
0.0
 10
33.4463940859
 20
238.5914038382
 30
0.0
 10
33.8658683194
 20
232.3271600923
 30
0.0
 10
34.3796851343
 20
229.2602236834
 30
0.0
  0
SPLINE
  5
4A3
100
AcDbEntity
  8
0
100
AcDbSpline
 62
7
  6
CONTINUOUS
 70
0
 71
3
 72
11
 73
7
 74
0
 42
0.0000001
 43
0.0000001
 44
0.0000000001
 40
0.0
 40
0.0
 40
0.0
 40
0.0
 40
0.2880120417
 40
0.5481227846
 40
0.7833099515
 40
1.0
 40
1.0
 40
1.0
 40
1.0
 10
27.3501835522
 20
274.3111889274
 30
0.0
 10
27.7070817306
 20
275.4832066621
 30
0.0
 10
28.5283749987
 20
277.6754972443
 30
0.0
 10
30.1919317411
 20
280.5828024722
 30
0.0
 10
32.2000735467
 20
282.880664768
 30
0.0
 10
33.7985210972
 20
283.994642642
 30
0.0
 10
34.6218481945
 20
284.4091040009
 30
0.0
  0
SPLINE
  5
4A4
100
AcDbEntity
  8
0
100
AcDbSpline
 62
7
  6
CONTINUOUS
 70
0
 71
3
 72
15
 73
11
 74
0
 42
0.0000001
 43
0.0000001
 44
0.0000000001
 40
0.0
 40
0.0
 40
0.0
 40
0.0
 40
0.1163535443
 40
0.2338624181
 40
0.3535439229
 40
0.4761635898
 40
0.6021688222
 40
0.7316674277
 40
0.8644435915
 40
1.0
 40
1.0
 40
1.0
 40
1.0
 10
67.4249052629
 20
206.0693566793
 30
0.0
 10
66.0668948228
 20
206.2594791846
 30
0.0
 10
63.366366959
 20
206.8960486394
 30
0.0
 10
59.5328299936
 20
208.582710821
 30
0.0
 10
55.9957429827
 20
210.9606663794
 30
0.0
 10
52.8402274964
 20
213.969844469
 30
0.0
 10
50.1384766472
 20
217.5365210665
 30
0.0
 10
47.951837805
 20
221.5754361269
 30
0.0
 10
46.3295569752
 20
225.9901463192
 30
0.0
 10
45.6538330589
 20
229.0910672124
 30
0.0
 10
45.4170194879
 20
230.670982678
 30
0.0
  0
SPLINE
  5
4A5
100
AcDbEntity
  8
0
100
AcDbSpline
 62
7
  6
CONTINUOUS
 70
0
 71
3
 72
11
 73
7
 74
0
 42
0.0000001
 43
0.0000001
 44
0.0000000001
 40
0.0
 40
0.0
 40
0.0
 40
0.0
 40
0.2344249651
 40
0.4784322237
 40
0.7339769556
 40
1.0
 40
1.0
 40
1.0
 40
1.0
 10
26.5348416362
 20
210.3933777738
 30
0.0
 10
26.8785797896
 20
210.2610814024
 30
0.0
 10
27.5413953594
 20
209.8791391754
 30
0.0
 10
28.344300978
 20
209.0320267445
 30
0.0
 10
28.924319019
 20
207.9643497967
 30
0.0
 10
29.135945893
 20
207.1638793888
 30
0.0
 10
29.1979023512
 20
206.7505332865
 30
0.0
  0
SPLINE
  5
4A6
100
AcDbEntity
  8
0
100
AcDbSpline
 62
7
  6
CONTINUOUS
 70
0
 71
3
 72
13
 73
9
 74
0
 42
0.0000001
 43
0.0000001
 44
0.0000000001
 40
0.0
 40
0.0
 40
0.0
 40
0.0
 40
0.2518321178
 40
0.5053579002
 40
0.6314508891
 40
0.7562321125
 40
0.879213026
 40
1.0
 40
1.0
 40
1.0
 40
1.0
 10
45.4170194879
 20
230.670982678
 30
0.0
 10
45.0244223229
 20
233.2902174205
 30
0.0
 10
44.8094631758
 20
238.6468361667
 30
0.0
 10
45.9332377728
 20
245.2429929411
 30
0.0
 10
47.6368233444
 20
250.2757468553
 30
0.0
 10
49.2917867415
 20
253.8511971266
 30
0.0
 10
51.2996142957
 20
257.1754297998
 30
0.0
 10
52.8694562814
 20
259.2108990692
 30
0.0
 10
53.7037603242
 20
260.1688197082
 30
0.0
  0
SPLINE
  5
4A7
100
AcDbEntity
  8
0
100
AcDbSpline
 62
7
  6
CONTINUOUS
 70
0
 71
3
 72
13
 73
9
 74
0
 42
0.0000001
 43
0.0000001
 44
0.0000000001
 40
0.0
 40
0.0
 40
0.0
 40
0.0
 40
0.1152188547
 40
0.2342166482
 40
0.357034554
 40
0.4832176241
 40
0.7412962888
 40
1.0
 40
1.0
 40
1.0
 40
1.0
 10
79.0242157557
 20
210.0588609956
 30
0.0
 10
80.4775872013
 20
210.6655081854
 30
0.0
 10
83.3129183563
 20
212.2033140158
 30
0.0
 10
87.1109313253
 20
215.3079562486
 30
0.0
 10
90.4052808306
 20
219.1427480416
 30
0.0
 10
94.0072284761
 20
225.0955816304
 30
0.0
 10
96.7123116304
 20
233.6087051878
 30
0.0
 10
96.7676471164
 20
240.7981961609
 30
0.0
 10
96.2434675176
 20
244.2952907374
 30
0.0
  0
SPLINE
  5
4A8
100
AcDbEntity
  8
0
100
AcDbSpline
 62
7
  6
CONTINUOUS
 70
0
 71
3
 72
9
 73
5
 74
0
 42
0.0000001
 43
0.0000001
 44
0.0000000001
 40
0.0
 40
0.0
 40
0.0
 40
0.0
 40
0.5097206494
 40
1.0
 40
1.0
 40
1.0
 40
1.0
 10
96.2434675176
 20
244.2952907374
 30
0.0
 10
95.8863160427
 20
246.6780475046
 30
0.0
 10
94.6792348748
 20
251.2936603926
 30
0.0
 10
92.4322026767
 20
255.5134831399
 30
0.0
 10
91.087541395
 20
257.4009664625
 30
0.0
  0
SPLINE
  5
4A9
100
AcDbEntity
  8
0
100
AcDbSpline
 62
7
  6
CONTINUOUS
 70
0
 71
3
 72
11
 73
7
 74
0
 42
0.0000001
 43
0.0000001
 44
0.0000000001
 40
0.0
 40
0.0
 40
0.0
 40
0.0
 40
0.2336415731
 40
0.4758491086
 40
0.7314197845
 40
1.0
 40
1.0
 40
1.0
 40
1.0
 10
75.6941224686
 20
200.7085443349
 30
0.0
 10
75.1844718225
 20
200.7799129192
 30
0.0
 10
74.1650572806
 20
201.1241594831
 30
0.0
 10
72.8942312499
 20
202.162766733
 30
0.0
 10
71.9766863237
 20
203.6096987738
 30
0.0
 10
71.6553284612
 20
204.7362494539
 30
0.0
 10
71.5676361496
 20
205.3212937935
 30
0.0
  0
SPLINE
  5
4AA
100
AcDbEntity
  8
0
100
AcDbSpline
 62
7
  6
CONTINUOUS
 70
0
 71
3
 72
11
 73
7
 74
0
 42
0.0000001
 43
0.0000001
 44
0.0000000001
 40
0.0
 40
0.0
 40
0.0
 40
0.0
 40
0.2616337704
 40
0.514400845
 40
0.759697946
 40
1.0
 40
1.0
 40
1.0
 40
1.0
 10
46.7016348898
 20
206.8027320302
 30
0.0
 10
46.8710143227
 20
206.4924723143
 30
0.0
 10
47.2612159945
 20
205.9113045554
 30
0.0
 10
47.995914932
 20
205.1843574419
 30
0.0
 10
48.844447191
 20
204.6451589876
 30
0.0
 10
49.469366443
 20
204.4240697972
 30
0.0
 10
49.7859519184
 20
204.3521001463
 30
0.0
  0
SPLINE
  5
4AB
100
AcDbEntity
  8
0
100
AcDbSpline
 62
7
  6
CONTINUOUS
 70
0
 71
3
 72
12
 73
8
 74
0
 42
0.0000001
 43
0.0000001
 44
0.0000000001
 40
0.0
 40
0.0
 40
0.0
 40
0.0
 40
0.1166077285
 40
0.2343841738
 40
0.4763598884
 40
0.7316895257
 40
1.0
 40
1.0
 40
1.0
 40
1.0
 10
24.0254221508
 20
198.2153624979
 30
0.0
 10
23.7071623892
 20
198.2599318669
 30
0.0
 10
23.0741843171
 20
198.4093237295
 30
0.0
 10
21.8667116617
 20
198.9397575662
 30
0.0
 10
20.524032896
 20
200.0334088322
 30
0.0
 10
19.3791034571
 20
201.8418433903
 30
0.0
 10
18.9769353205
 20
203.2500832569
 30
0.0
 10
18.8673234833
 20
203.9813649818
 30
0.0
  0
SPLINE
  5
4AC
100
AcDbEntity
  8
0
100
AcDbSpline
 62
7
  6
CONTINUOUS
 70
0
 71
3
 72
11
 73
7
 74
0
 42
0.0000001
 43
0.0000001
 44
0.0000000001
 40
0.0
 40
0.0
 40
0.0
 40
0.0
 40
0.2685847685
 40
0.5241532458
 40
0.766366416
 40
1.0
 40
1.0
 40
1.0
 40
1.0
 10
30.0136492264
 20
206.6362850014
 30
0.0
 10
29.9405710052
 20
207.1238305899
 30
0.0
 10
29.672765085
 20
208.0626254623
 30
0.0
 10
28.9081349584
 20
209.2684181033
 30
0.0
 10
27.8490988175
 20
210.133891017
 30
0.0
 10
26.9996084898
 20
210.4207942101
 30
0.0
 10
26.5749162399
 20
210.4802833609
 30
0.0
  0
SPLINE
  5
4AD
100
AcDbEntity
  8
0
100
AcDbSpline
 62
7
  6
CONTINUOUS
 70
0
 71
3
 72
11
 73
7
 74
0
 42
0.0000001
 43
0.0000001
 44
0.0000000001
 40
0.0
 40
0.0
 40
0.0
 40
0.0
 40
0.2634939565
 40
0.5185233762
 40
0.7638353662
 40
1.0
 40
1.0
 40
1.0
 40
1.0
 10
44.3293569876
 20
230.8233137248
 30
0.0
 10
44.6675729336
 20
228.5668864371
 30
0.0
 10
45.7538430746
 20
224.1758835201
 30
0.0
 10
48.6124779554
 20
218.1596139991
 30
0.0
 10
52.5520137585
 20
213.0788736131
 30
0.0
 10
55.8434971001
 20
210.4404752127
 30
0.0
 10
57.5892365253
 20
209.3754123388
 30
0.0
  0
SPLINE
  5
4AE
100
AcDbEntity
  8
0
100
AcDbSpline
 62
7
  6
CONTINUOUS
 70
0
 71
3
 72
12
 73
8
 74
0
 42
0.0000001
 43
0.0000001
 44
0.0000000001
 40
0.0
 40
0.0
 40
0.0
 40
0.0
 40
0.2434319811
 40
0.3682566763
 40
0.4944010221
 40
0.7480465959
 40
1.0
 40
1.0
 40
1.0
 40
1.0
 10
52.6561473106
 20
260.3670588302
 30
0.0
 10
50.9683234445
 20
258.4368646325
 30
0.0
 10
48.759126043
 20
255.1951047233
 30
0.0
 10
46.5640976028
 20
250.4657193321
 30
0.0
 10
44.8516778625
 20
245.4238430068
 30
0.0
 10
43.7218239007
 20
238.8155124252
 30
0.0
 10
43.9359711604
 20
233.4478100734
 30
0.0
 10
44.3293569876
 20
230.8233137248
 30
0.0
  0
SPLINE
  5
4AF
100
AcDbEntity
  8
0
100
AcDbSpline
 62
7
  6
CONTINUOUS
 70
0
 71
3
 72
12
 73
8
 74
0
 42
0.0000001
 43
0.0000001
 44
0.0000000001
 40
0.0
 40
0.0
 40
0.0
 40
0.0
 40
0.1141465032
 40
0.2321738583
 40
0.4794960043
 40
0.7389461754
 40
1.0
 40
1.0
 40
1.0
 40
1.0
 10
17.8668647431
 20
258.9981721477
 30
0.0
 10
18.1406682834
 20
259.0715666879
 30
0.0
 10
18.6821577094
 20
259.2852508569
 30
0.0
 10
19.6795727899
 20
259.9485853363
 30
0.0
 10
20.6870473685
 20
261.1799809068
 30
0.0
 10
21.3391180136
 20
263.0054011286
 30
0.0
 10
21.3666003404
 20
264.3255728604
 30
0.0
 10
21.2705005692
 20
264.9667080552
 30
0.0
  0
SPLINE
  5
4B0
100
AcDbEntity
  8
0
100
AcDbSpline
 62
7
  6
CONTINUOUS
 70
0
 71
3
 72
9
 73
5
 74
0
 42
0.0000001
 43
0.0000001
 44
0.0000000001
 40
0.0
 40
0.0
 40
0.0
 40
0.0
 40
0.5018823071
 40
1.0
 40
1.0
 40
1.0
 40
1.0
 10
27.6156125296
 20
274.2518091057
 30
0.0
 10
28.0068863979
 20
271.6233223971
 30
0.0
 10
27.8723225943
 20
266.2173381302
 30
0.0
 10
25.9778868872
 20
261.1474960101
 30
0.0
 10
24.6294270289
 20
258.8807480264
 30
0.0
  0
SPLINE
  5
4B1
100
AcDbEntity
  8
0
100
AcDbSpline
 62
7
  6
CONTINUOUS
 70
0
 71
3
 72
9
 73
5
 74
0
 42
0.0000001
 43
0.0000001
 44
0.0000000001
 40
0.0
 40
0.0
 40
0.0
 40
0.0
 40
0.4981323441
 40
1.0
 40
1.0
 40
1.0
 40
1.0
 10
24.6294270289
 20
258.8807480264
 30
0.0
 10
22.4687562501
 20
255.2486813413
 30
0.0
 10
19.4350254976
 20
247.12418736
 30
0.0
 10
19.2257925464
 20
238.4615706961
 30
0.0
 10
19.8569507316
 20
234.2507622789
 30
0.0
  0
SPLINE
  5
4B2
100
AcDbEntity
  8
0
100
AcDbSpline
 62
7
  6
CONTINUOUS
 70
0
 71
3
 72
15
 73
11
 74
0
 42
0.0000001
 43
0.0000001
 44
0.0000000001
 40
0.0
 40
0.0
 40
0.0
 40
0.0
 40
0.1355564044
 40
0.268332564
 40
0.3978311682
 40
0.5238364
 40
0.6464560677
 40
0.7661375745
 40
0.8836464508
 40
1.0
 40
1.0
 40
1.0
 40
1.0
 10
19.8569507316
 20
234.2507622789
 30
0.0
 10
20.0937642956
 20
232.6708468602
 30
0.0
 10
20.7694881751
 20
229.5699260595
 30
0.0
 10
22.3917689496
 20
225.1552159699
 30
0.0
 10
24.5784077032
 20
221.1163009455
 30
0.0
 10
27.2801585092
 20
217.5496243326
 30
0.0
 10
30.4356739718
 20
214.5404461811
 30
0.0
 10
33.9727610121
 20
212.1624905523
 30
0.0
 10
37.8062980592
 20
210.4758282828
 30
0.0
 10
40.5068260082
 20
209.8392587854
 30
0.0
 10
41.8648365075
 20
209.6491362867
 30
0.0
  0
SPLINE
  5
4B3
100
AcDbEntity
  8
0
100
AcDbSpline
 62
7
  6
CONTINUOUS
 70
0
 71
3
 72
12
 73
8
 74
0
 42
0.0000001
 43
0.0000001
 44
0.0000000001
 40
0.0
 40
0.0
 40
0.0
 40
0.0
 40
0.2506985134
 40
0.5033490088
 40
0.6293671582
 40
0.7544707049
 40
1.0
 40
1.0
 40
1.0
 40
1.0
 10
37.0979517802
 20
228.8848959115
 30
0.0
 10
36.6510866418
 20
231.8661825844
 30
0.0
 10
36.3371266815
 20
237.9530423159
 30
0.0
 10
37.3669748723
 20
245.4963712333
 30
0.0
 10
39.0209251934
 20
251.3328490468
 30
0.0
 10
41.1875111149
 20
256.9044423948
 30
0.0
 10
43.4005397771
 20
260.8171218962
 30
0.0
 10
45.1114886275
 20
263.2232620935
 30
0.0
  0
SPLINE
  5
4B4
100
AcDbEntity
  8
0
100
AcDbSpline
 62
7
  6
CONTINUOUS
 70
0
 71
3
 72
11
 73
7
 74
0
 42
0.0000001
 43
0.0000001
 44
0.0000000001
 40
0.0
 40
0.0
 40
0.0
 40
0.0
 40
0.2398875673
 40
0.4868618074
 40
0.740567957
 40
1.0
 40
1.0
 40
1.0
 40
1.0
 10
47.6079814315
 20
206.6998821869
 30
0.0
 10
46.222947922
 20
208.1322605357
 30
0.0
 10
43.6626089878
 20
211.2914568999
 30
0.0
 10
40.6043319279
 20
216.6565517053
 30
0.0
 10
38.344593408
 20
222.5763399462
 30
0.0
 10
37.4173706794
 20
226.7538742103
 30
0.0
 10
37.0979517802
 20
228.8848959115
 30
0.0
  0
SPLINE
  5
4B5
100
AcDbEntity
  8
0
100
AcDbSpline
 62
7
  6
CONTINUOUS
 70
0
 71
3
 72
9
 73
5
 74
0
 42
0.0000001
 43
0.0000001
 44
0.0000000001
 40
0.0
 40
0.0
 40
0.0
 40
0.0
 40
0.2523018
 40
1.0
 40
1.0
 40
1.0
 40
1.0
 10
19.9404451529
 20
261.6640416626
 30
0.0
 10
19.9070785426
 20
261.5946815488
 30
0.0
 10
19.7692179275
 20
261.3225158559
 30
0.0
 10
19.6089112948
 20
261.0616518075
 30
0.0
 10
19.4770688989
 20
260.8755181397
 30
0.0
  0
SPLINE
  5
4B6
100
AcDbEntity
  8
0
100
AcDbSpline
 62
7
  6
CONTINUOUS
 70
0
 71
3
 72
9
 73
5
 74
0
 42
0.0000001
 43
0.0000001
 44
0.0000000001
 40
0.0
 40
0.0
 40
0.0
 40
0.0
 40
0.5148991544
 40
1.0
 40
1.0
 40
1.0
 40
1.0
 10
19.4770688989
 20
260.8755181397
 30
0.0
 10
19.175052761
 20
260.4491350245
 30
0.0
 10
18.4598283553
 20
259.7017556768
 30
0.0
 10
17.5266023895
 20
259.2398766658
 30
0.0
 10
17.051117868
 20
259.1124204329
 30
0.0
  0
SPLINE
  5
4B7
100
AcDbEntity
  8
0
100
AcDbSpline
 62
7
  6
CONTINUOUS
 70
0
 71
3
 72
13
 73
9
 74
0
 42
0.0000001
 43
0.0000001
 44
0.0000000001
 40
0.0
 40
0.0
 40
0.0
 40
0.0
 40
0.2608067127
 40
0.3918049855
 40
0.5209402171
 40
0.7680455474
 40
0.885948595
 40
1.0
 40
1.0
 40
1.0
 40
1.0
 10
10.1241748258
 20
262.311788038
 30
0.0
 10
9.9800302514
 20
263.2734569217
 30
0.0
 10
10.0111357747
 20
264.7688896075
 30
0.0
 10
10.5215902751
 20
266.6497525686
 30
0.0
 10
11.3123467567
 20
268.3746846958
 30
0.0
 10
12.5108824716
 20
269.8392610155
 30
0.0
 10
14.006603498
 20
270.8339709715
 30
0.0
 10
14.8188910897
 20
271.1544914709
 30
0.0
 10
15.2296285643
 20
271.2645919029
 30
0.0
  0
SPLINE
  5
4B8
100
AcDbEntity
  8
0
100
AcDbSpline
 62
7
  6
CONTINUOUS
 70
0
 71
3
 72
14
 73
10
 74
0
 42
0.0000001
 43
0.0000001
 44
0.0000000001
 40
0.0
 40
0.0
 40
0.0
 40
0.0
 40
0.1124445437
 40
0.2274830372
 40
0.3469930647
 40
0.4717110303
 40
0.601197547
 40
0.7340251568
 40
1.0
 40
1.0
 40
1.0
 40
1.0
 10
76.0408715746
 20
203.1843727679
 30
0.0
 10
76.2717122786
 20
203.152005151
 30
0.0
 10
76.7508823651
 20
203.1544541853
 30
0.0
 10
77.448984316
 20
203.3604563448
 30
0.0
 10
78.0909739893
 20
203.7535252373
 30
0.0
 10
78.6411115531
 20
204.308524259
 30
0.0
 10
79.0705604815
 20
204.9939487062
 30
0.0
 10
79.4521340294
 20
206.0258466096
 30
0.0
 10
79.5006077773
 20
206.8805840099
 30
0.0
 10
79.4188760899
 20
207.4258617002
 30
0.0
  0
SPLINE
  5
4B9
100
AcDbEntity
  8
0
100
AcDbSpline
 62
7
  6
CONTINUOUS
 70
0
 71
3
 72
10
 73
6
 74
0
 42
0.0000001
 43
0.0000001
 44
0.0000000001
 40
0.0
 40
0.0
 40
0.0
 40
0.0
 40
0.4867889011
 40
0.7418713421
 40
1.0
 40
1.0
 40
1.0
 40
1.0
 10
-14.2865483664
 20
271.8696145021
 30
0.0
 10
-17.8797792967
 20
270.0295970096
 30
0.0
 10
-22.8937649827
 20
266.2410672015
 30
0.0
 10
-28.3075672113
 20
259.942212694
 30
0.0
 10
-30.6148211631
 20
256.3435820155
 30
0.0
 10
-31.6419990172
 20
254.4654555483
 30
0.0
  0
SPLINE
  5
4BA
100
AcDbEntity
  8
0
100
AcDbSpline
 62
7
  6
CONTINUOUS
 70
0
 71
3
 72
17
 73
13
 74
0
 42
0.0000001
 43
0.0000001
 44
0.0000000001
 40
0.0
 40
0.0
 40
0.0
 40
0.0
 40
0.1179824722
 40
0.260576598
 40
0.4170373008
 40
0.5742978923
 40
0.719183279
 40
0.8405142201
 40
0.8902234175
 40
0.9324220067
 40
0.9681667655
 40
1.0
 40
1.0
 40
1.0
 40
1.0
 10
-31.4715575704
 20
226.6514171478
 30
0.0
 10
-31.2913775286
 20
226.5473485019
 30
0.0
 10
-30.8581351622
 20
226.3800583702
 30
0.0
 10
-30.1355320756
 20
226.233829573
 30
0.0
 10
-29.3303451519
 20
226.1792151193
 30
0.0
 10
-28.5205033588
 20
226.2222493612
 30
0.0
 10
-27.7842929557
 20
226.358465206
 30
0.0
 10
-27.2551273031
 20
226.5481259437
 30
0.0
 10
-26.9334677538
 20
226.7457651844
 30
0.0
 10
-26.765086539
 20
226.897788795
 30
0.0
 10
-26.6575542652
 20
227.0623045607
 30
0.0
 10
-26.6315286414
 20
227.1823394957
 30
0.0
 10
-26.631495823
 20
227.23848083
 30
0.0
  0
SPLINE
  5
4BB
100
AcDbEntity
  8
0
100
AcDbSpline
 62
7
  6
CONTINUOUS
 70
0
 71
3
 72
17
 73
13
 74
0
 42
0.0000001
 43
0.0000001
 44
0.0000000001
 40
0.0
 40
0.0
 40
0.0
 40
0.0
 40
0.1179824722
 40
0.260576598
 40
0.4170373008
 40
0.5742978923
 40
0.719183279
 40
0.8405142201
 40
0.8902234175
 40
0.9324220067
 40
0.9681667655
 40
1.0
 40
1.0
 40
1.0
 40
1.0
 10
-5.0098272174
 20
211.3676131354
 30
0.0
 10
-4.8296471756
 20
211.2635444895
 30
0.0
 10
-4.3964048092
 20
211.0962543579
 30
0.0
 10
-3.6738017226
 20
210.9500255607
 30
0.0
 10
-2.8686147989
 20
210.895411107
 30
0.0
 10
-2.0587730058
 20
210.9384453489
 30
0.0
 10
-1.3225626026
 20
211.0746611937
 30
0.0
 10
-0.7933969501
 20
211.2643219313
 30
0.0
 10
-0.4717374008
 20
211.4619611721
 30
0.0
 10
-0.303356186
 20
211.6139847826
 30
0.0
 10
-0.1958239122
 20
211.7785005484
 30
0.0
 10
-0.1697982884
 20
211.8985354834
 30
0.0
 10
-0.16976547
 20
211.9546768176
 30
0.0
  0
SPLINE
  5
4BC
100
AcDbEntity
  8
0
100
AcDbSpline
 62
7
  6
CONTINUOUS
 70
0
 71
3
 72
11
 73
7
 74
0
 42
0.0000001
 43
0.0000001
 44
0.0000000001
 40
0.0
 40
0.0
 40
0.0
 40
0.0
 40
0.2032237194
 40
0.4289289409
 40
0.6925283262
 40
1.0
 40
1.0
 40
1.0
 40
1.0
 10
-5.4697235248
 20
211.9546768145
 30
0.0
 10
-5.4697543232
 20
211.9019911455
 30
0.0
 10
-5.4470966988
 20
211.7900147415
 30
0.0
 10
-5.3522736738
 20
211.634542922
 30
0.0
 10
-5.2026478599
 20
211.4899099062
 30
0.0
 10
-5.078852858
 20
211.4074810635
 30
0.0
 10
-5.0098272174
 20
211.3676131354
 30
0.0
  0
SPLINE
  5
4BD
100
AcDbEntity
  8
0
100
AcDbSpline
 62
7
  6
CONTINUOUS
 70
0
 71
3
 72
11
 73
7
 74
0
 42
0.0000001
 43
0.0000001
 44
0.0000000001
 40
0.0
 40
0.0
 40
0.0
 40
0.0
 40
0.2032237194
 40
0.4289289409
 40
0.6925283262
 40
1.0
 40
1.0
 40
1.0
 40
1.0
 10
-31.9314538778
 20
227.2384808268
 30
0.0
 10
-31.9314846762
 20
227.1857951578
 30
0.0
 10
-31.9088270518
 20
227.0738187539
 30
0.0
 10
-31.8140040268
 20
226.9183469343
 30
0.0
 10
-31.6643782129
 20
226.7737139185
 30
0.0
 10
-31.5405832111
 20
226.6912850759
 30
0.0
 10
-31.4715575704
 20
226.6514171478
 30
0.0
  0
SPLINE
  5
4BE
100
AcDbEntity
  8
0
100
AcDbSpline
 62
7
  6
CONTINUOUS
 70
0
 71
3
 72
11
 73
7
 74
0
 42
0.0000001
 43
0.0000001
 44
0.0000000001
 40
0.0
 40
0.0
 40
0.0
 40
0.0
 40
0.2032665715
 40
0.4289015617
 40
0.692283341
 40
1.0
 40
1.0
 40
1.0
 40
1.0
 10
-39.1987705354
 20
222.6094392157
 30
0.0
 10
-39.1987474383
 20
222.5100100599
 30
0.0
 10
-39.1561573304
 20
222.298728316
 30
0.0
 10
-38.9771791407
 20
222.0055420883
 30
0.0
 10
-38.6950979738
 20
221.7324605264
 30
0.0
 10
-38.4613963438
 20
221.5770552529
 30
0.0
 10
-38.3310538677
 20
221.5017718593
 30
0.0
  0
SPLINE
  5
4BF
100
AcDbEntity
  8
0
100
AcDbSpline
 62
7
  6
CONTINUOUS
 70
0
 71
3
 72
13
 73
9
 74
0
 42
0.0000001
 43
0.0000001
 44
0.0000000001
 40
0.0
 40
0.0
 40
0.0
 40
0.0
 40
0.083672979
 40
0.1736474593
 40
0.2747441703
 40
0.3898444162
 40
0.6656232473
 40
1.0
 40
1.0
 40
1.0
 40
1.0
 10
-39.1987705354
 20
229.729212686
 30
0.0
 10
-39.1987892332
 20
229.8097032045
 30
0.0
 10
-39.171776201
 20
229.9776835923
 30
0.0
 10
-39.0549344193
 20
230.2179908498
 30
0.0
 10
-38.8669661733
 20
230.4474459352
 30
0.0
 10
-38.5047184133
 20
230.754945704
 30
0.0
 10
-37.8832730806
 20
231.0864310258
 30
0.0
 10
-37.3245904051
 20
231.2718669868
 30
0.0
 10
-37.0139000177
 20
231.3551492485
 30
0.0
  0
SPLINE
  5
4C0
100
AcDbEntity
  8
0
100
AcDbSpline
 62
7
  6
CONTINUOUS
 70
0
 71
3
 72
13
 73
9
 74
0
 42
0.0000001
 43
0.0000001
 44
0.0000000001
 40
0.0
 40
0.0
 40
0.0
 40
0.0
 40
0.1140354166
 40
0.2319219367
 40
0.3540191309
 40
0.4800422958
 40
0.7392299027
 40
1.0
 40
1.0
 40
1.0
 40
1.0
 10
10.2427650773
 20
274.342433146
 30
0.0
 10
9.6951150546
 20
274.1956325548
 30
0.0
 10
8.6122457548
 20
273.7685833426
 30
0.0
 10
7.1374331942
 20
272.7868829405
 30
0.0
 10
5.8404361764
 20
271.4942476624
 30
0.0
 10
4.4016720651
 20
269.4080853395
 30
0.0
 10
3.2963670144
 20
266.3259333078
 30
0.0
 10
3.2433006801
 20
263.6875863714
 30
0.0
 10
3.4354934261
 20
262.4053613262
 30
0.0
  0
SPLINE
  5
4C1
100
AcDbEntity
  8
0
100
AcDbSpline
 62
7
  6
CONTINUOUS
 70
0
 71
3
 72
12
 73
8
 74
0
 42
0.0000001
 43
0.0000001
 44
0.0000000001
 40
0.0
 40
0.0
 40
0.0
 40
0.0
 40
0.1142372862
 40
0.2323070729
 40
0.4796608302
 40
0.7390117088
 40
1.0
 40
1.0
 40
1.0
 40
1.0
 10
12.6942361542
 20
271.8362583828
 30
0.0
 10
12.2740156463
 20
271.7194307087
 30
0.0
 10
11.4438247695
 20
271.3842349642
 30
0.0
 10
9.9159808912
 20
270.3553396047
 30
0.0
 10
8.3726881313
 20
268.4592384001
 30
0.0
 10
7.3695902526
 20
265.6543788517
 30
0.0
 10
7.3212296799
 20
263.6262806926
 30
0.0
 10
7.4642764991
 20
262.6401478902
 30
0.0
  0
SPLINE
  5
4C2
100
AcDbEntity
  8
0
100
AcDbSpline
 62
7
  6
CONTINUOUS
 70
0
 71
3
 72
10
 73
6
 74
0
 42
0.0000001
 43
0.0000001
 44
0.0000000001
 40
0.0
 40
0.0
 40
0.0
 40
0.0
 40
0.515408323
 40
0.7619545271
 40
1.0
 40
1.0
 40
1.0
 40
1.0
 10
16.2134712804
 20
204.2687264711
 30
0.0
 10
16.3575086753
 20
203.3077726417
 30
0.0
 10
16.8134345178
 20
201.9018555976
 30
0.0
 10
17.8858192248
 20
200.340429882
 30
0.0
 10
18.5510990781
 20
199.701902353
 30
0.0
 10
18.9074205094
 20
199.4290643996
 30
0.0
  0
SPLINE
  5
4C3
100
AcDbEntity
  8
0
100
AcDbSpline
 62
7
  6
CONTINUOUS
 70
0
 71
3
 72
9
 73
5
 74
0
 42
0.0000001
 43
0.0000001
 44
0.0000000001
 40
0.0
 40
0.0
 40
0.0
 40
0.0
 40
0.489337343
 40
1.0
 40
1.0
 40
1.0
 40
1.0
 10
-5.3603471541
 20
274.8662418226
 30
0.0
 10
-6.8808677502
 20
274.6189455525
 30
0.0
 10
-9.948376896
 20
273.8429890286
 30
0.0
 10
-12.8556176909
 20
272.6023665034
 30
0.0
 10
-14.2865483664
 20
271.8696145021
 30
0.0
  0
SPLINE
  5
4C4
100
AcDbEntity
  8
0
100
AcDbSpline
 62
7
  6
CONTINUOUS
 70
0
 71
3
 72
11
 73
7
 74
0
 42
0.0000001
 43
0.0000001
 44
0.0000000001
 40
0.0
 40
0.0
 40
0.0
 40
0.0
 40
0.2032237194
 40
0.4289289409
 40
0.6925283262
 40
1.0
 40
1.0
 40
1.0
 40
1.0
 10
-0.16976547
 20
211.9546768176
 30
0.0
 10
-0.1697346716
 20
212.0073624866
 30
0.0
 10
-0.1923922961
 20
212.1193388906
 30
0.0
 10
-0.287215321
 20
212.2748107101
 30
0.0
 10
-0.4368411349
 20
212.4194437259
 30
0.0
 10
-0.5606361368
 20
212.5018725685
 30
0.0
 10
-0.6296617774
 20
212.5417404967
 30
0.0
  0
SPLINE
  5
4C5
100
AcDbEntity
  8
0
100
AcDbSpline
 62
7
  6
CONTINUOUS
 70
0
 71
3
 72
11
 73
7
 74
0
 42
0.0000001
 43
0.0000001
 44
0.0000000001
 40
0.0
 40
0.0
 40
0.0
 40
0.0
 40
0.2032237194
 40
0.4289289409
 40
0.6925283262
 40
1.0
 40
1.0
 40
1.0
 40
1.0
 10
-26.631495823
 20
227.23848083
 30
0.0
 10
-26.6314650247
 20
227.2911664989
 30
0.0
 10
-26.6541226491
 20
227.4031429029
 30
0.0
 10
-26.748945674
 20
227.5586147224
 30
0.0
 10
-26.8985714879
 20
227.7032477382
 30
0.0
 10
-27.0223664898
 20
227.7856765809
 30
0.0
 10
-27.0913921304
 20
227.825544509
 30
0.0
  0
SPLINE
  5
4C6
100
AcDbEntity
  8
0
100
AcDbSpline
 62
7
  6
CONTINUOUS
 70
0
 71
3
 72
17
 73
13
 74
0
 42
0.0000001
 43
0.0000001
 44
0.0000000001
 40
0.0
 40
0.0
 40
0.0
 40
0.0
 40
0.1179824722
 40
0.260576598
 40
0.4170373008
 40
0.5742978923
 40
0.719183279
 40
0.8405142201
 40
0.8902234175
 40
0.9324220067
 40
0.9681667655
 40
1.0
 40
1.0
 40
1.0
 40
1.0
 10
-27.0913921304
 20
227.825544509
 30
0.0
 10
-27.2715721722
 20
227.9296131549
 30
0.0
 10
-27.7048145386
 20
228.0969032865
 30
0.0
 10
-28.4274176252
 20
228.2431320838
 30
0.0
 10
-29.232604549
 20
228.2977465375
 30
0.0
 10
-30.042446342
 20
228.2547122955
 30
0.0
 10
-30.7786567452
 20
228.1184964508
 30
0.0
 10
-31.3078223978
 20
227.9288357131
 30
0.0
 10
-31.629481947
 20
227.7311964724
 30
0.0
 10
-31.7978631619
 20
227.5791728618
 30
0.0
 10
-31.9053954356
 20
227.4146570961
 30
0.0
 10
-31.9314210594
 20
227.294622161
 30
0.0
 10
-31.9314538778
 20
227.2384808268
 30
0.0
  0
SPLINE
  5
4C7
100
AcDbEntity
  8
0
100
AcDbSpline
 62
7
  6
CONTINUOUS
 70
0
 71
3
 72
17
 73
13
 74
0
 42
0.0000001
 43
0.0000001
 44
0.0000000001
 40
0.0
 40
0.0
 40
0.0
 40
0.0
 40
0.1179824722
 40
0.260576598
 40
0.4170373008
 40
0.5742978923
 40
0.719183279
 40
0.8405142201
 40
0.8902234175
 40
0.9324220067
 40
0.9681667655
 40
1.0
 40
1.0
 40
1.0
 40
1.0
 10
-0.6296617774
 20
212.5417404967
 30
0.0
 10
-0.8098418192
 20
212.6458091425
 30
0.0
 10
-1.2430841856
 20
212.8130992742
 30
0.0
 10
-1.9656872722
 20
212.9593280714
 30
0.0
 10
-2.7708741959
 20
213.0139425251
 30
0.0
 10
-3.580715989
 20
212.9709082832
 30
0.0
 10
-4.3169263922
 20
212.8346924384
 30
0.0
 10
-4.8460920447
 20
212.6450317008
 30
0.0
 10
-5.167751594
 20
212.44739246
 30
0.0
 10
-5.3361328088
 20
212.2953688495
 30
0.0
 10
-5.4436650826
 20
212.1308530837
 30
0.0
 10
-5.4696907064
 20
212.0108181487
 30
0.0
 10
-5.4697235248
 20
211.9546768145
 30
0.0
  0
SPLINE
  5
4C8
100
AcDbEntity
  8
0
100
AcDbSpline
 62
7
  6
CONTINUOUS
 70
0
 71
3
 72
11
 73
7
 74
0
 42
0.0000001
 43
0.0000001
 44
0.0000000001
 40
0.0
 40
0.0
 40
0.0
 40
0.0
 40
0.307716659
 40
0.5710984383
 40
0.7967334285
 40
1.0
 40
1.0
 40
1.0
 40
1.0
 10
-38.3310538677
 20
228.6215453296
 30
0.0
 10
-38.4613963438
 20
228.6968287231
 30
0.0
 10
-38.6950979738
 20
228.8522339967
 30
0.0
 10
-38.9771791407
 20
229.1253155586
 30
0.0
 10
-39.1561573304
 20
229.4185017862
 30
0.0
 10
-39.1987474383
 20
229.6297835302
 30
0.0
 10
-39.1987705354
 20
229.729212686
 30
0.0
  0
SPLINE
  5
4C9
100
AcDbEntity
  8
0
100
AcDbSpline
 62
7
  6
CONTINUOUS
 70
0
 71
3
 72
13
 73
9
 74
0
 42
0.0000001
 43
0.0000001
 44
0.0000000001
 40
0.0
 40
0.0
 40
0.0
 40
0.0
 40
0.2607701243
 40
0.5199577384
 40
0.6459808999
 40
0.7680780881
 40
0.8859645952
 40
1.0
 40
1.0
 40
1.0
 40
1.0
 10
5.6108184267
 20
262.1006992325
 30
0.0
 10
5.4186256607
 20
263.3829244107
 30
0.0
 10
5.4716920438
 20
266.0212715327
 30
0.0
 10
6.5769972747
 20
269.1034236661
 30
0.0
 10
8.0157614618
 20
271.1895859241
 30
0.0
 10
9.3127584678
 20
272.4822210528
 30
0.0
 10
10.7875709178
 20
273.4639213386
 30
0.0
 10
11.8704401117
 20
273.8909704763
 30
0.0
 10
12.4180900778
 20
274.0377710523
 30
0.0
  0
ELLIPSE
  5
4CA
100
AcDbEntity
  8
0
100
AcDbEllipse
 62
7
  6
CONTINUOUS
 10
23.419885472
 20
205.8733641223
 30
0.0
 11
3.5632876605
 21
7.0844674323
 31
0.0
 40
0.7512579716
 41
2.9498023987
 42
3.626540475
  0
ENDSEC
  0
SECTION
  2
OBJECTS
  0
DICTIONARY
  5
C
100
AcDbDictionary
280
0
281
1
  3
ACAD_GROUP
350
D
  3
ACAD_MLINESTYLE
350
17
  3
ACAD_LAYOUT
350
1A
  3
ACAD_PLOTSETTINGS
350
19
  3
ACAD_PLOTSTYLENAME
350
E
  0
DICTIONARY
  5
D
102
{ACAD_REACTORS
330
C
102
}
100
AcDbDictionary
280
0
281
1
  0
ACDBDICTIONARYWDFLT
  5
E
102
{ACAD_REACTORS
330
C
102
}
100
AcDbDictionary
281
1
  3
Normal
350
F
100
AcDbDictionaryWithDefault
340
F
  0
DICTIONARY
  5
17
102
{ACAD_REACTORS
330
C
102
}
100
AcDbDictionary
280
0
281
1
  3
Standard
350
18
  0
DICTIONARY
  5
19
102
{ACAD_REACTORS
330
C
102
}
100
AcDbDictionary
281
1
  0
DICTIONARY
  5
1A
102
{ACAD_REACTORS
330
C
102
}
100
AcDbDictionary
281
1
  3
Model
350
4CB
  3
Layout1
350
4CC
  0
ACDBPLACEHOLDER
  5
F
102
{ACAD_REACTORS
330
E
102
}
  0
MLINESTYLE
  5
18
102
{ACAD_REACTORS
330
17
102
}
100
AcDbMlineStyle
  2
STANDARD
 70
0
  3

 62
256
 51
90.0
 52
90.0
 71
2
 49
0.5
 62
256
  6
BYLAYER
 49
-0.5
 62
256
  6
BYLAYER
  0
LAYOUT
  5
4CB
102
{ACAD_REACTORS
330
1A
102
}
100
AcDbPlotSettings
  1

  2
none_device
  4
ANSI_C_(22.00_x_17.00_Inches)
  6

 40
0.0
 41
0.0
 42
0.0
 43
0.0
 44
558.8
 45
431.8
 46
0.0
 47
0.0
 48
0.0
 49
0.0
140
0.0
141
0.0
142
1.0
143
1.0
 70
1024
 72
1
 73
0
 74
0
  7

 75
0
147
1.0
148
0.0
149
0.0
100
AcDbLayout
  1
Model
 70
0
 71
0
 10
0.0
 20
0.0
 11
558.8
 21
431.8
 12
0.0
 22
0.0
 32
0.0
 14
0.0
 24
0.0
 34
0.0
 15
0.0
 25
0.0
 35
0.0
146
0.0
 13
0.0
 23
0.0
 33
0.0
 16
1.0
 26
0.0
 36
0.0
 17
0.0
 27
1.0
 37
0.0
 76
0
330
216
345
0
346
0
  0
LAYOUT
  5
4CC
102
{ACAD_REACTORS
330
1A
102
}
100
AcDbPlotSettings
  1

  2
none_device
  4
ANSI_C_(22.00_x_17.00_Inches)
  6

 40
0.0
 41
0.0
 42
0.0
 43
0.0
 44
558.8
 45
431.8
 46
0.0
 47
0.0
 48
0.0
 49
0.0
140
0.0
141
0.0
142
1.0
143
1.0
 70
0
 72
1
 73
0
 74
0
  7

 75
0
147
1.0
148
0.0
149
0.0
100
AcDbLayout
  1
Layout1
 70
0
 71
1
 10
0.0
 20
0.0
 11
558.8
 21
431.8
 12
0.0
 22
0.0
 32
0.0
 14
0.0
 24
0.0
 34
0.0
 15
0.0
 25
0.0
 35
0.0
146
0.0
 13
0.0
 23
0.0
 33
0.0
 16
1.0
 26
0.0
 36
0.0
 17
0.0
 27
1.0
 37
0.0
 76
0
330
217
345
0
346
0
  0
ENDSEC
  0
EOF
