999
DXF file: Y:\3D PRATIKA-KAEDRA_OLGA\TRAVAIL_PHASE_6\CAD3D\PKF32W734_3D-Simplified\PKF32W734_2D-isometric.dxf
999
Pro/ENGINEER 2018260 by Parametric Technology Corporation
  0
SECTION
  2
HEADER
  9
$ACADVER
  1
AC1027
  9
$DWGCODEPAGE
  3
ANSI_1252
  9
$EXTMAX
 10
558.8
 20
431.8
 30
0.0
  9
$EXTMIN
 10
0.0
 20
0.0
 30
0.0
  9
$LIMMIN
 10
0.0
 20
0.0
  9
$LIMMAX
 10
558.8
 20
431.8
  9
$VIEWCTR
 10
279.4
 20
215.9
  9
$VIEWSIZE
 40
431.8
  9
$CLAYER
  8
0
  9
$LTSCALE
 40
30.734
  9
$CELTYPE
  6
BYLAYER
  9
$DIMSCALE
 40
1.0
  9
$DIMASZ
 40
0.1875
  9
$DIMEXO
 40
0.0625
  9
$DIMDLI
 40
21.2344
  9
$DIMEXE
 40
0.125
  9
$DIMCEN
 40
5.0292
  9
$DIMLFAC
 40
1.0
  9
$DIMBLK
  1
_CLOSED
  9
$DIMALT
 70
0
  9
$DIMALTF
 40
0.0393700787
  9
$DIMTXT
 40
0.15625
  9
$DIMTOL
 70
0
  9
$DIMLIM
 70
0
  9
$DIMTFAC
 40
1.0
  9
$DIMGAP
 40
0.625
  9
$DIMDSEP
 70
46
  9
$AUNITS
 70
0
  9
$PDMODE
 70
3
  9
$PDSIZE
 40
0.3125
  9
$HANDSEED
  5
4E4
  9
$TILEMODE
 70
1
  9
$MEASUREMENT
 70
1
  9
$INSUNITS
 70
4
  0
ENDSEC
  0
SECTION
  2
CLASSES
  0
CLASS
  1
ACDBDICTIONARYWDFLT
  2
AcDbDictionaryWithDefault
  3
AutoCAD 2000
 90
0
 91
1
280
0
281
0
  0
CLASS
  1
ACDBPLACEHOLDER
  2
AcDbPlaceHolder
  3
AutoCAD 2000
 90
0
 91
1
280
0
281
0
  0
CLASS
  1
LAYOUT
  2
AcDbLayout
  3
AutoCAD 2000
 90
0
 91
0
280
0
281
0
  0
ENDSEC
  0
SECTION
  2
TABLES
  0
TABLE
  2
VPORT
  5
8
100
AcDbSymbolTable
 70
2
  0
VPORT
  5
1F4
100
AcDbSymbolTableRecord
100
AcDbViewportTableRecord
  2
*ACTIVE
 70
0
 10
0.0
 20
0.0
 11
1.0
 21
1.0
 12
279.4
 22
215.9
 13
0.0
 23
0.0
 14
1.0
 24
1.0
 15
0.0
 25
0.0
 16
0.0
 26
0.0
 36
1.0
 17
0.0
 27
0.0
 37
0.0
 40
431.8
 41
1.2941176471
 42
50.0
 43
0.0
 44
0.0
 50
0.0
 51
0.0
 71
0
 72
100
 73
1
 74
1
 75
0
 76
0
 77
0
 78
0
  0
ENDTAB
  0
TABLE
  2
LTYPE
  5
5
100
AcDbSymbolTable
 70
6
  0
LTYPE
  5
14
100
AcDbSymbolTableRecord
100
AcDbLinetypeTableRecord
  2
BYBLOCK
 70
0
  3

 72
65
 73
0
 40
0.0
  0
LTYPE
  5
15
100
AcDbSymbolTableRecord
100
AcDbLinetypeTableRecord
  2
BYLAYER
 70
0
  3

 72
65
 73
0
 40
0.0
  0
LTYPE
  5
16
100
AcDbSymbolTableRecord
100
AcDbLinetypeTableRecord
  2
CONTINUOUS
 70
64
  3
Solid line
 72
65
 73
0
 40
0.0
  0
LTYPE
  5
1F5
100
AcDbSymbolTableRecord
100
AcDbLinetypeTableRecord
  2
CENTER
 70
64
  3
____ _ ____ _ ____ _ ____ _ ____ _ ____ _ ____
 72
65
 73
4
 40
0.6
 49
0.375
 74
0
 49
-0.075
 74
0
 49
0.075
 74
0
 49
-0.075
 74
0
  0
LTYPE
  5
1F6
100
AcDbSymbolTableRecord
100
AcDbLinetypeTableRecord
  2
HIDDEN
 70
64
  3
- - - - - - - - - - - - - - - - - - - -
 72
65
 73
2
 40
0.2
 49
0.1
 74
0
 49
-0.1
 74
0
  0
LTYPE
  5
1F7
100
AcDbSymbolTableRecord
100
AcDbLinetypeTableRecord
  2
PHANTOM
 70
64
  3
_____ _ _ _____ _ _ _____ _ _ _____
 72
65
 73
6
 40
0.8
 49
0.45
 74
0
 49
-0.05
 74
0
 49
0.1
 74
0
 49
-0.05
 74
0
 49
0.1
 74
0
 49
-0.05
 74
0
  0
LTYPE
  5
1F8
100
AcDbSymbolTableRecord
100
AcDbLinetypeTableRecord
  2
DOT
 70
64
  3
. . . . . . . . . . . . . . . . . . . .
 72
65
 73
2
 40
0.2
 49
0.1
 74
0
 49
-0.1
 74
0
  0
LTYPE
  5
1F9
100
AcDbSymbolTableRecord
100
AcDbLinetypeTableRecord
  2
DASHED
 70
64
  3
- - - - - - - - - - - - - - - - - - - -
 72
65
 73
2
 40
0.2
 49
0.1
 74
0
 49
-0.1
 74
0
  0
ENDTAB
  0
TABLE
  2
LAYER
  5
2
100
AcDbSymbolTable
 70
36
  0
LAYER
  5
10
100
AcDbSymbolTableRecord
100
AcDbLayerTableRecord
  2
0
 70
0
 62
7
  6
CONTINUOUS
370
-3
390
F
  0
LAYER
  5
1FA
100
AcDbSymbolTableRecord
100
AcDbLayerTableRecord
  2
DEFAULT_1
 70
0
 62
7
  6
CENTER
370
-3
390
F
  0
LAYER
  5
1FB
100
AcDbSymbolTableRecord
100
AcDbLayerTableRecord
  2
DEFAULT_2
 70
0
 62
8
  6
HIDDEN
370
-3
390
F
  0
LAYER
  5
1FC
100
AcDbSymbolTableRecord
100
AcDbLayerTableRecord
  2
DEFAULT_3
 70
0
 62
7
  6
PHANTOM
370
-3
390
F
  0
LAYER
  5
1FD
100
AcDbSymbolTableRecord
100
AcDbLayerTableRecord
  2
01_ALL_DTM_PLN
 70
0
 62
7
  6
CONTINUOUS
370
-3
390
F
  0
LAYER
  5
1FE
100
AcDbSymbolTableRecord
100
AcDbLayerTableRecord
  2
01__ASM_ALL_DTM_PLN
 70
0
 62
7
  6
CONTINUOUS
370
-3
390
F
  0
LAYER
  5
1FF
100
AcDbSymbolTableRecord
100
AcDbLayerTableRecord
  2
01__ASM_DEF_DTM_PLN
 70
0
 62
7
  6
CONTINUOUS
370
-3
390
F
  0
LAYER
  5
200
100
AcDbSymbolTableRecord
100
AcDbLayerTableRecord
  2
01___PRT_ALL_DTM_PLN
 70
0
 62
7
  6
CONTINUOUS
370
-3
390
F
  0
LAYER
  5
201
100
AcDbSymbolTableRecord
100
AcDbLayerTableRecord
  2
01___PRT_DEF_DTM_PLN
 70
0
 62
7
  6
CONTINUOUS
370
-3
390
F
  0
LAYER
  5
202
100
AcDbSymbolTableRecord
100
AcDbLayerTableRecord
  2
02_ALL_AXES
 70
0
 62
7
  6
CONTINUOUS
370
-3
390
F
  0
LAYER
  5
203
100
AcDbSymbolTableRecord
100
AcDbLayerTableRecord
  2
02__ASM_ALL_AXES
 70
0
 62
7
  6
CONTINUOUS
370
-3
390
F
  0
LAYER
  5
204
100
AcDbSymbolTableRecord
100
AcDbLayerTableRecord
  2
02___PRT_ALL_AXES
 70
0
 62
7
  6
CONTINUOUS
370
-3
390
F
  0
LAYER
  5
205
100
AcDbSymbolTableRecord
100
AcDbLayerTableRecord
  2
03_ALL_CURVES
 70
0
 62
7
  6
CONTINUOUS
370
-3
390
F
  0
LAYER
  5
206
100
AcDbSymbolTableRecord
100
AcDbLayerTableRecord
  2
03__ASM_ALL_CURVES
 70
0
 62
7
  6
CONTINUOUS
370
-3
390
F
  0
LAYER
  5
207
100
AcDbSymbolTableRecord
100
AcDbLayerTableRecord
  2
03___PRT_ALL_CURVES
 70
0
 62
7
  6
CONTINUOUS
370
-3
390
F
  0
LAYER
  5
208
100
AcDbSymbolTableRecord
100
AcDbLayerTableRecord
  2
04_ALL_DTM_PNT
 70
0
 62
7
  6
CONTINUOUS
370
-3
390
F
  0
LAYER
  5
209
100
AcDbSymbolTableRecord
100
AcDbLayerTableRecord
  2
04__ASM_ALL_DTM_PNT
 70
0
 62
7
  6
CONTINUOUS
370
-3
390
F
  0
LAYER
  5
20A
100
AcDbSymbolTableRecord
100
AcDbLayerTableRecord
  2
04___PRT_ALL_DTM_PNT
 70
0
 62
7
  6
CONTINUOUS
370
-3
390
F
  0
LAYER
  5
20B
100
AcDbSymbolTableRecord
100
AcDbLayerTableRecord
  2
05_ALL_DTM_CSYS
 70
0
 62
7
  6
CONTINUOUS
370
-3
390
F
  0
LAYER
  5
20C
100
AcDbSymbolTableRecord
100
AcDbLayerTableRecord
  2
05__ASM_ALL_DTM_CSYS
 70
0
 62
7
  6
CONTINUOUS
370
-3
390
F
  0
LAYER
  5
20D
100
AcDbSymbolTableRecord
100
AcDbLayerTableRecord
  2
05__ASM_DEF_DTM_CSYS
 70
0
 62
7
  6
CONTINUOUS
370
-3
390
F
  0
LAYER
  5
20E
100
AcDbSymbolTableRecord
100
AcDbLayerTableRecord
  2
05___PRT_ALL_DTM_CSYS
 70
0
 62
7
  6
CONTINUOUS
370
-3
390
F
  0
LAYER
  5
20F
100
AcDbSymbolTableRecord
100
AcDbLayerTableRecord
  2
05___PRT_DEF_DTM_CSYS
 70
0
 62
7
  6
CONTINUOUS
370
-3
390
F
  0
LAYER
  5
210
100
AcDbSymbolTableRecord
100
AcDbLayerTableRecord
  2
06_ALL_SURFS
 70
0
 62
7
  6
CONTINUOUS
370
-3
390
F
  0
LAYER
  5
211
100
AcDbSymbolTableRecord
100
AcDbLayerTableRecord
  2
06__ASM_ALL_SURFS
 70
0
 62
7
  6
CONTINUOUS
370
-3
390
F
  0
LAYER
  5
212
100
AcDbSymbolTableRecord
100
AcDbLayerTableRecord
  2
06___PRT_ALL_SURFS
 70
0
 62
7
  6
CONTINUOUS
370
-3
390
F
  0
LAYER
  5
213
100
AcDbSymbolTableRecord
100
AcDbLayerTableRecord
  2
07__ASM_ALL_SKELETONS
 70
0
 62
7
  6
CONTINUOUS
370
-3
390
F
  0
ENDTAB
  0
TABLE
  2
STYLE
  5
3
100
AcDbSymbolTable
 70
1
  0
STYLE
  5
11
100
AcDbSymbolTableRecord
100
AcDbTextStyleTableRecord
  2
STANDARD
 70
0
 40
0.0
 41
0.8
 50
0.0
 71
0
 42
0.2
  3
txt
  4

  0
STYLE
  5
214
100
AcDbSymbolTableRecord
100
AcDbTextStyleTableRecord
  2
TEXTSTYLE_1
 70
0
 40
0.0
 41
0.8
 50
0.0
 71
0
 42
0.2
  3
gdt
  4

  0
ENDTAB
  0
TABLE
  2
VIEW
  5
6
100
AcDbSymbolTable
 70
0
  0
ENDTAB
  0
TABLE
  2
UCS
  5
7
100
AcDbSymbolTable
 70
0
  0
ENDTAB
  0
TABLE
  2
APPID
  5
9
100
AcDbSymbolTable
 70
1
  0
APPID
  5
215
100
AcDbSymbolTableRecord
100
AcDbRegAppTableRecord
  2
ACAD
 70
0
  0
ENDTAB
  0
TABLE
  2
BLOCK_RECORD
  5
1
100
AcDbSymbolTable
 70
0
  0
BLOCK_RECORD
  5
216
100
AcDbSymbolTableRecord
100
AcDbBlockTableRecord
  2
*Model_Space
  0
BLOCK_RECORD
  5
217
100
AcDbSymbolTableRecord
100
AcDbBlockTableRecord
  2
*Paper_Space
  0
BLOCK_RECORD
  5
218
100
AcDbSymbolTableRecord
100
AcDbBlockTableRecord
  2
_CLOSED
  0
ENDTAB
  0
TABLE
  2
DIMSTYLE
  5
A
100
AcDbSymbolTable
 70
1
100
AcDbDimStyleTable
 71
0
  0
DIMSTYLE
105
219
100
AcDbSymbolTableRecord
100
AcDbDimStyleTableRecord
  2
STANDARD
 70
0
  3

  4

 40
1.0
 41
0.1875
 42
0.0625
 43
0.38
 44
0.125
 45
0.0
 46
0.0
 47
0.01
 48
0.01
140
0.15625
141
0.09
142
0.0
143
25.4
144
1.0
145
0.0
146
1.0
147
0.625
 71
0.0
 72
0.0
 73
1
 74
1
 75
0
 76
0
 77
0
 78
8
 79
2
170
0
171
1
172
0
173
0
174
0
175
0
176
0
177
0
178
0
270
2
179
2
271
2
272
2
273
2
274
2
275
0
280
0
281
0
282
0
283
1
284
8
285
0
286
0
287
3
288
0
340
11
278
46
341
218
342
218
343
218
344
218
  0
ENDTAB
  0
ENDSEC
  0
SECTION
  2
BLOCKS
  0
BLOCK
  5
20
100
AcDbEntity
  8
0
100
AcDbBlockBegin
  2
*Model_Space
 70
0
 10
0.0
 20
0.0
 30
0.0
  3
*Model_Space
  1

  0
ENDBLK
  5
21
100
AcDbEntity
  8
0
100
AcDbBlockEnd
  0
BLOCK
  5
1C
100
AcDbEntity
  8
0
100
AcDbBlockBegin
  2
*Paper_Space
 70
0
 10
0.0
 20
0.0
 30
0.0
  3
*Paper_Space
  1

  0
ENDBLK
  5
1D
100
AcDbEntity
  8
0
100
AcDbBlockEnd
  0
BLOCK
  5
21A
100
AcDbEntity
  8
0
100
AcDbBlockBegin
  2
_CLOSED
 70
64
 10
0.0
 20
0.0
  3
_CLOSED
  1

  0
LINE
  5
21B
100
AcDbEntity
  8
0
  6
BYBLOCK
 62
0
100
AcDbLine
 10
0.0
 20
0.0
 11
-1.0
 21
0.1666666667
  0
LINE
  5
21C
100
AcDbEntity
  8
0
  6
BYBLOCK
 62
0
100
AcDbLine
 10
-1.0
 20
0.1666666667
 11
-1.0
 21
-0.1666666667
  0
LINE
  5
21D
100
AcDbEntity
  8
0
  6
BYBLOCK
 62
0
100
AcDbLine
 10
-1.0
 20
-0.1666666667
 11
0.0
 21
0.0
  0
LINE
  5
21E
100
AcDbEntity
  8
0
  6
BYBLOCK
 62
0
100
AcDbLine
 10
-1.0
 20
0.0
 11
0.0
 21
0.0
  0
ENDBLK
  5
21F
100
AcDbEntity
  8
0
  6
BYBLOCK
 62
0
100
AcDbBlockEnd
  0
ENDSEC
  0
SECTION
  2
ENTITIES
  0
LWPOLYLINE
  5
220
100
AcDbEntity
  8
0
100
AcDbPolyline
 62
7
  6
CONTINUOUS
 90
4
 70
0
 10
34.7069927806
 20
284.2272386503
 10
34.3350830519
 20
284.1095590283
 10
33.6967058695
 20
283.5338262589
 10
33.4482904427
 20
282.7165749949
  0
LINE
  5
221
100
AcDbEntity
  8
0
100
AcDbLine
 62
7
  6
CONTINUOUS
 10
15.0727777468
 20
190.5868231688
 11
60.5953447947
 21
202.7893968516
  0
LINE
  5
222
100
AcDbEntity
  8
0
100
AcDbLine
 62
7
  6
CONTINUOUS
 10
-31.7246436407
 20
254.443302205
 11
-6.1694927907
 21
266.4716740438
  0
LINE
  5
223
100
AcDbEntity
  8
0
100
AcDbLine
 62
7
  6
CONTINUOUS
 10
37.6648362948
 20
276.926294308
 11
37.6491559608
 21
276.9203557673
  0
LINE
  5
224
100
AcDbEntity
  8
0
100
AcDbLine
 62
7
  6
CONTINUOUS
 10
31.0238981776
 20
199.3228287729
 11
49.7033072843
 21
204.3299467972
  0
LINE
  5
225
100
AcDbEntity
  8
0
100
AcDbLine
 62
7
  6
CONTINUOUS
 10
26.0759197553
 20
198.3294097362
 11
30.2081513024
 21
199.4370770581
  0
LINE
  5
226
100
AcDbEntity
  8
0
100
AcDbLine
 62
7
  6
CONTINUOUS
 10
47.5253368006
 20
206.6777288404
 11
57.5065918944
 21
209.3532589923
  0
LINE
  5
227
100
AcDbEntity
  8
0
100
AcDbLine
 62
7
  6
CONTINUOUS
 10
18.8247758784
 20
199.4069110531
 11
15.0727777468
 21
198.401167383
  0
LINE
  5
228
100
AcDbEntity
  8
0
100
AcDbLine
 62
7
  6
CONTINUOUS
 10
37.6613792277
 20
276.9459483282
 11
37.1439688689
 21
276.7095500009
  0
LINE
  5
229
100
AcDbEntity
  8
0
100
AcDbLine
 62
7
  6
CONTINUOUS
 10
-16.2510210759
 20
246.0043971761
 11
-17.5008872877
 21
245.4628615945
  0
LINE
  5
22A
100
AcDbEntity
  8
0
100
AcDbLine
 62
7
  6
CONTINUOUS
 10
-17.2529533949
 20
245.5293216338
 11
-16.236077875
 21
245.9699082108
  0
LINE
  5
22B
100
AcDbEntity
  8
0
100
AcDbLine
 62
7
  6
CONTINUOUS
 10
-8.2344333698
 20
249.3538465732
 11
-9.4886642864
 21
248.8414303721
  0
LINE
  5
22C
100
AcDbEntity
  8
0
100
AcDbLine
 62
7
  6
CONTINUOUS
 10
-9.2407303936
 20
248.9078904114
 11
-8.2222377896
 21
249.3239956948
  0
LINE
  5
22D
100
AcDbEntity
  8
0
100
AcDbLine
 62
7
  6
CONTINUOUS
 10
-5.2248973406
 20
250.5323169009
 11
-4.2056617678
 21
250.9369943459
  0
LINE
  5
22E
100
AcDbEntity
  8
0
100
AcDbLine
 62
7
  6
CONTINUOUS
 10
-4.2164946603
 20
250.9642250522
 11
-5.4728312335
 21
250.4658568616
  0
LINE
  5
22F
100
AcDbEntity
  8
0
100
AcDbLine
 62
7
  6
CONTINUOUS
 10
16.7074713605
 20
264.7924078721
 11
17.6092015784
 21
265.1448961623
  0
LINE
  5
230
100
AcDbEntity
  8
0
100
AcDbLine
 62
7
  6
CONTINUOUS
 10
18.8718300061
 20
208.7058319382
 11
25.0701773268
 21
210.3673329211
  0
LINE
  5
231
100
AcDbEntity
  8
0
100
AcDbLine
 62
7
  6
CONTINUOUS
 10
25.7040047068
 20
204.4427207594
 11
25.9967846644
 21
204.4678269038
  0
LINE
  5
232
100
AcDbEntity
  8
0
100
AcDbLine
 62
7
  6
CONTINUOUS
 10
25.6784422452
 20
204.5560021661
 11
25.8067267552
 21
204.5670026781
  0
LINE
  5
233
100
AcDbEntity
  8
0
100
AcDbLine
 62
7
  6
CONTINUOUS
 10
27.0899701401
 20
206.4026437551
 11
26.7971901825
 21
206.3775376108
  0
LINE
  5
234
100
AcDbEntity
  8
0
100
AcDbLine
 62
7
  6
CONTINUOUS
 10
26.4629351015
 20
206.3807609765
 11
26.3346505916
 21
206.3697604646
  0
LINE
  5
235
100
AcDbEntity
  8
0
100
AcDbLine
 62
7
  6
CONTINUOUS
 10
18.3468214826
 20
264.7330668114
 11
19.0612787486
 21
265.1756258527
  0
LINE
  5
236
100
AcDbEntity
  8
0
100
AcDbLine
 62
7
  6
CONTINUOUS
 10
15.8880360287
 20
263.2100116841
 11
16.6023938006
 21
263.6525092753
  0
LINE
  5
237
100
AcDbEntity
  8
0
100
AcDbLine
 62
7
  6
CONTINUOUS
 10
19.4196421976
 20
264.2961988468
 11
18.7052837312
 21
263.8537013518
  0
LINE
  5
238
100
AcDbEntity
  8
0
100
AcDbLine
 62
7
  6
CONTINUOUS
 10
16.9608560492
 20
262.7731438157
 11
16.246398672
 21
262.3305847894
  0
LWPOLYLINE
  5
239
100
AcDbEntity
  8
0
100
AcDbPolyline
 62
7
  6
CONTINUOUS
 90
4
 70
0
 10
37.1681542345
 20
276.7205561324
 10
36.2170374422
 20
276.2081443629
 10
34.5008727704
 20
274.6238919774
 10
33.5649673363
 20
272.7755216108
  0
LINE
  5
23A
100
AcDbEntity
  8
0
100
AcDbLine
 62
7
  6
CONTINUOUS
 10
-0.8349887551
 20
219.5242219391
 11
-0.5870548622
 21
219.5906819784
  0
LINE
  5
23B
100
AcDbEntity
  8
0
100
AcDbLine
 62
7
  6
CONTINUOUS
 10
-5.4980013724
 20
222.2174914268
 11
-5.2500674796
 21
222.2839514661
  0
LINE
  5
23C
100
AcDbEntity
  8
0
100
AcDbLine
 62
7
  6
CONTINUOUS
 10
-10.1610139898
 20
224.9107609145
 11
-9.9130800969
 21
224.9772209538
  0
LINE
  5
23D
100
AcDbEntity
  8
0
100
AcDbLine
 62
7
  6
CONTINUOUS
 10
25.4856773065
 20
206.3759836575
 11
26.3346505916
 21
206.3697604646
  0
LINE
  5
23E
100
AcDbEntity
  8
0
100
AcDbLine
 62
7
  6
CONTINUOUS
 10
26.4629351015
 20
206.3807609765
 11
26.7971901825
 21
206.3775376108
  0
LINE
  5
23F
100
AcDbEntity
  8
0
100
AcDbLine
 62
7
  6
CONTINUOUS
 10
26.2525919279
 20
206.4827271187
 11
26.5961981271
 21
206.4787781389
  0
LINE
  5
240
100
AcDbEntity
  8
0
100
AcDbLine
 62
7
  6
CONTINUOUS
 10
71.4022911387
 20
205.8508808257
 11
67.3422609133
 21
206.0472053424
  0
LINE
  5
241
100
AcDbEntity
  8
0
100
AcDbLine
 62
7
  6
CONTINUOUS
 10
25.9021683406
 20
201.8929242422
 11
24.8079045913
 21
201.9757563002
  0
LINE
  5
242
100
AcDbEntity
  8
0
100
AcDbLine
 62
7
  6
CONTINUOUS
 10
21.4955362663
 20
198.5359490466
 11
23.9427768919
 21
198.1932041912
  0
LINE
  5
243
100
AcDbEntity
  8
0
100
AcDbLine
 62
7
  6
CONTINUOUS
 10
31.0238981776
 20
199.3228287729
 11
30.2081513024
 21
199.4370770581
  0
LINE
  5
244
100
AcDbEntity
  8
0
100
AcDbLine
 62
7
  6
CONTINUOUS
 10
48.5849082038
 20
291.6381390248
 11
48.6490317782
 21
291.6984039999
  0
LINE
  5
245
100
AcDbEntity
  8
0
100
AcDbLine
 62
7
  6
CONTINUOUS
 10
-14.8240266071
 20
227.6040304021
 11
-14.5760927143
 21
227.6704904414
  0
LINE
  5
246
100
AcDbEntity
  8
0
100
AcDbLine
 62
7
  6
CONTINUOUS
 10
-37.0965446486
 20
231.3329959021
 11
-31.7246436373
 21
232.7729634206
  0
LINE
  5
247
100
AcDbEntity
  8
0
100
AcDbLine
 62
7
  6
CONTINUOUS
 10
25.301875211
 20
205.8938210128
 11
25.5906689132
 21
205.8559193177
  0
LINE
  5
248
100
AcDbEntity
  8
0
100
AcDbLine
 62
7
  6
CONTINUOUS
 10
76.6310493882
 20
198.2741522462
 11
73.1962287213
 21
198.7541379612
  0
LINE
  5
249
100
AcDbEntity
  8
0
100
AcDbLine
 62
7
  6
CONTINUOUS
 10
16.3374382268
 20
204.3019564907
 11
18.7846788524
 21
203.9592116353
  0
LINE
  5
24A
100
AcDbEntity
  8
0
100
AcDbLine
 62
7
  6
CONTINUOUS
 10
29.9310045954
 20
206.614131655
 11
29.1152577202
 21
206.7283799401
  0
LINE
  5
24B
100
AcDbEntity
  8
0
100
AcDbLine
 62
7
  6
CONTINUOUS
 10
50.469690475
 20
204.2075311737
 11
75.6114699502
 21
200.6863344917
  0
LINE
  5
24C
100
AcDbEntity
  8
0
100
AcDbLine
 62
7
  6
CONTINUOUS
 10
49.9752229088
 20
204.2918640361
 11
49.7033072843
 21
204.3299467972
  0
LINE
  5
24D
100
AcDbEntity
  8
0
100
AcDbLine
 62
7
  6
CONTINUOUS
 10
18.8718300061
 20
208.7058319382
 11
18.0560831309
 21
208.8200802233
  0
LINE
  5
24E
100
AcDbEntity
  8
0
100
AcDbLine
 62
7
  6
CONTINUOUS
 10
52.3697461881
 20
207.9762993371
 11
71.4849915187
 21
205.299140447
  0
LINE
  5
24F
100
AcDbEntity
  8
0
100
AcDbLine
 62
7
  6
CONTINUOUS
 10
41.782191069
 20
209.6269771709
 11
43.1393391132
 21
209.4369037039
  0
LINE
  5
250
100
AcDbEntity
  8
0
100
AcDbLine
 62
7
  6
CONTINUOUS
 10
52.7810397626
 20
208.0865488347
 11
67.3422598253
 21
206.04719757
  0
LINE
  5
251
100
AcDbEntity
  8
0
100
AcDbLine
 62
7
  6
CONTINUOUS
 10
73.189634411
 20
208.2645613873
 11
79.336231459
 21
207.4037083537
  0
LINE
  5
252
100
AcDbEntity
  8
0
100
AcDbLine
 62
7
  6
CONTINUOUS
 10
62.4650686644
 20
209.9833393989
 11
73.1564469588
 21
208.4859733985
  0
LINE
  5
253
100
AcDbEntity
  8
0
100
AcDbLine
 62
7
  6
CONTINUOUS
 10
45.2407455566
 20
206.9978052664
 11
47.5253368006
 21
206.6777288404
  0
LINE
  5
254
100
AcDbEntity
  8
0
100
AcDbLine
 62
7
  6
CONTINUOUS
 10
26.8395021358
 20
205.0429421298
 11
27.2033059337
 21
204.9894451969
  0
LINE
  5
255
100
AcDbEntity
  8
0
100
AcDbLine
 62
7
  6
CONTINUOUS
 10
25.8638706666
 20
205.3362000066
 11
26.8149430396
 21
205.1915259618
  0
LINE
  5
256
100
AcDbEntity
  8
0
100
AcDbLine
 62
7
  6
CONTINUOUS
 10
49.9752229102
 20
204.2918640386
 11
50.4697022273
 21
204.2077119875
  0
LINE
  5
257
100
AcDbEntity
  8
0
100
AcDbLine
 62
7
  6
CONTINUOUS
 10
26.8986637412
 20
205.3118486519
 11
27.257359098
 21
205.2486693646
  0
LINE
  5
258
100
AcDbEntity
  8
0
100
AcDbLine
 62
7
  6
CONTINUOUS
 10
26.8908968063
 20
208.9525676791
 11
25.8159797063
 21
209.1735372044
  0
LINE
  5
259
100
AcDbEntity
  8
0
100
AcDbLine
 62
7
  6
CONTINUOUS
 10
27.2033059337
 20
204.9894451969
 11
28.0728560344
 21
204.808658325
  0
LINE
  5
25A
100
AcDbEntity
  8
0
100
AcDbLine
 62
7
  6
CONTINUOUS
 10
24.7878782045
 20
206.0006853682
 11
25.301875211
 21
205.8938210128
  0
LINE
  5
25B
100
AcDbEntity
  8
0
100
AcDbLine
 62
7
  6
CONTINUOUS
 10
25.5906689132
 20
205.8559193177
 11
24.7211188125
 21
206.0367061895
  0
LINE
  5
25C
100
AcDbEntity
  8
0
100
AcDbLine
 62
7
  6
CONTINUOUS
 10
26.3657782892
 20
205.7671283922
 11
27.4484323888
 21
205.5232782955
  0
LINE
  5
25D
100
AcDbEntity
  8
0
100
AcDbLine
 62
7
  6
CONTINUOUS
 10
24.6676146523
 20
204.7115372519
 11
25.7040047068
 21
204.4427207594
  0
LINE
  5
25E
100
AcDbEntity
  8
0
100
AcDbLine
 62
7
  6
CONTINUOUS
 10
25.6784422452
 20
204.5560021661
 11
25.9967846644
 21
204.4678269038
  0
LINE
  5
25F
100
AcDbEntity
  8
0
100
AcDbLine
 62
7
  6
CONTINUOUS
 10
25.9888943763
 20
204.4257035334
 11
26.1977767198
 21
204.3665863757
  0
LINE
  5
260
100
AcDbEntity
  8
0
100
AcDbLine
 62
7
  6
CONTINUOUS
 10
24.9969138262
 20
204.7991768266
 11
25.8067267552
 21
204.5670026781
  0
LINE
  5
261
100
AcDbEntity
  8
0
100
AcDbLine
 62
7
  6
CONTINUOUS
 10
-39.2814669515
 20
229.707059305
 11
-39.2814669515
 21
222.5872858348
  0
LINE
  5
262
100
AcDbEntity
  8
0
100
AcDbLine
 62
7
  6
CONTINUOUS
 10
-38.4136984986
 20
221.4796185129
 11
-38.4136984986
 21
228.5993919831
  0
LINE
  5
263
100
AcDbEntity
  8
0
100
AcDbLine
 62
7
  6
CONTINUOUS
 10
-31.7246436481
 20
254.4433022019
 11
-31.7246436373
 21
232.7729634206
  0
LINE
  5
264
100
AcDbEntity
  8
0
100
AcDbLine
 62
7
  6
CONTINUOUS
 10
39.8557500494
 20
266.2479870959
 11
39.8113637857
 21
266.2102584025
  0
LINE
  5
265
100
AcDbEntity
  8
0
100
AcDbLine
 62
7
  6
CONTINUOUS
 10
-17.5008872877
 20
245.4628615945
 11
-17.2529533949
 21
245.5293216338
  0
LINE
  5
266
100
AcDbEntity
  8
0
100
AcDbLine
 62
7
  6
CONTINUOUS
 10
-9.4886642864
 20
248.8414303721
 11
-9.2407303936
 21
248.9078904114
  0
LINE
  5
267
100
AcDbEntity
  8
0
100
AcDbLine
 62
7
  6
CONTINUOUS
 10
-5.2248973406
 20
250.5323169009
 11
-5.4728312335
 21
250.4658568616
  0
LINE
  5
268
100
AcDbEntity
  8
0
100
AcDbLine
 62
7
  6
CONTINUOUS
 10
11.5858727915
 20
257.3145178184
 11
17.7842201122
 21
258.9760188013
  0
LINE
  5
269
100
AcDbEntity
  8
0
100
AcDbLine
 62
7
  6
CONTINUOUS
 10
10.7701259163
 20
257.4287661036
 11
16.9684732371
 21
259.0902670864
  0
LINE
  5
26A
100
AcDbEntity
  8
0
100
AcDbLine
 62
7
  6
CONTINUOUS
 10
125.8687716683
 20
270.7827147149
 11
125.9770276679
 21
270.8041975742
  0
LINE
  5
26B
100
AcDbEntity
  8
0
100
AcDbLine
 62
7
  6
CONTINUOUS
 10
-12.2048278355
 20
247.4262739148
 11
-13.4980305291
 21
247.1738601832
  0
LINE
  5
26C
100
AcDbEntity
  8
0
100
AcDbLine
 62
7
  6
CONTINUOUS
 10
78.9415711248
 20
210.0367076492
 11
57.4160604235
 21
213.0514328771
  0
LINE
  5
26D
100
AcDbEntity
  8
0
100
AcDbLine
 62
7
  6
CONTINUOUS
 10
68.5905589628
 20
214.9602076823
 11
53.3609415632
 21
217.0931703992
  0
LINE
  5
26E
100
AcDbEntity
  8
0
100
AcDbLine
 62
7
  6
CONTINUOUS
 10
15.0727777468
 20
190.5868231688
 11
-38.4136984986
 21
221.4796185129
  0
LINE
  5
26F
100
AcDbEntity
  8
0
100
AcDbLine
 62
7
  6
CONTINUOUS
 10
-38.4136984986
 20
228.5993919831
 11
12.8552480411
 21
198.9874006138
  0
LINE
  5
270
100
AcDbEntity
  8
0
100
AcDbLine
 62
7
  6
CONTINUOUS
 10
12.339176023
 20
202.4304049959
 11
2.5852185815
 21
208.0641096665
  0
LINE
  5
271
100
AcDbEntity
  8
0
100
AcDbLine
 62
7
  6
CONTINUOUS
 10
16.5832856496
 20
264.0756602372
 11
16.5655109787
 21
264.0501146292
  0
LINE
  5
272
100
AcDbEntity
  8
0
100
AcDbLine
 62
7
  6
CONTINUOUS
 10
16.7934670914
 20
263.9271182062
 11
16.6023938006
 21
263.6525092753
  0
LINE
  5
273
100
AcDbEntity
  8
0
100
AcDbLine
 62
7
  6
CONTINUOUS
 10
18.071794382
 20
263.521949018
 11
18.1555150837
 21
263.6422717082
  0
LINE
  5
274
100
AcDbEntity
  8
0
100
AcDbLine
 62
7
  6
CONTINUOUS
 10
18.5142104405
 20
263.5790924209
 11
18.7052837312
 21
263.8537013518
  0
LINE
  5
275
100
AcDbEntity
  8
0
100
AcDbLine
 62
7
  6
CONTINUOUS
 10
39.8493057201
 20
266.2555685856
 11
39.8113635218
 21
266.2102579168
  0
LINE
  5
276
100
AcDbEntity
  8
0
100
AcDbLine
 62
7
  6
CONTINUOUS
 10
39.850241049
 20
266.2501983905
 11
39.8113637857
 21
266.2102584025
  0
LINE
  5
277
100
AcDbEntity
  8
0
100
AcDbLine
 62
7
  6
CONTINUOUS
 10
25.450620018
 20
206.4619848158
 11
26.3523502359
 21
206.814473106
  0
LINE
  5
278
100
AcDbEntity
  8
0
100
AcDbLine
 62
7
  6
CONTINUOUS
 10
27.5329678987
 20
274.2296557592
 11
20.0949623557
 21
272.2358575933
  0
LINE
  5
279
100
AcDbEntity
  8
0
100
AcDbLine
 62
7
  6
CONTINUOUS
 10
19.2792154805
 20
272.3501058784
 11
15.1469839334
 21
271.2424385565
  0
LINE
  5
27A
100
AcDbEntity
  8
0
100
AcDbLine
 62
7
  6
CONTINUOUS
 10
27.7696453867
 20
275.6247532876
 11
12.6997433078
 21
271.5851834119
  0
LINE
  5
27B
100
AcDbEntity
  8
0
100
AcDbLine
 62
7
  6
CONTINUOUS
 10
27.8753269901
 20
275.9058904541
 11
12.6633135217
 21
271.8282268413
  0
LINE
  5
27C
100
AcDbEntity
  8
0
100
AcDbLine
 62
7
  6
CONTINUOUS
 10
29.0331146203
 20
278.4915194757
 11
12.335445447
 21
274.0156177059
  0
LINE
  5
27D
100
AcDbEntity
  8
0
100
AcDbLine
 62
7
  6
CONTINUOUS
 10
29.6113990315
 20
279.5343016694
 11
10.1601204463
 21
274.3202797995
  0
LINE
  5
27E
100
AcDbEntity
  8
0
100
AcDbLine
 62
7
  6
CONTINUOUS
 10
-6.7815481092
 20
270.5550365784
 11
30.2172954912
 21
280.4727794713
  0
LINE
  5
27F
100
AcDbEntity
  8
0
100
AcDbLine
 62
7
  6
CONTINUOUS
 10
37.6667925391
 20
276.9248893301
 11
37.6491559608
 21
276.9203557673
  0
LINE
  5
280
100
AcDbEntity
  8
0
100
AcDbLine
 62
7
  6
CONTINUOUS
 10
97.8614841744
 20
277.780720974
 11
97.7814226852
 21
277.7644712808
  0
LINE
  5
281
100
AcDbEntity
  8
0
100
AcDbLine
 62
7
  6
CONTINUOUS
 10
97.8628653177
 20
277.7795704702
 11
97.7814226852
 21
277.7644712808
  0
LINE
  5
282
100
AcDbEntity
  8
0
100
AcDbLine
 62
7
  6
CONTINUOUS
 10
16.9608560492
 20
262.7731438157
 11
17.2536360069
 21
262.7982499601
  0
LINE
  5
283
100
AcDbEntity
  8
0
100
AcDbLine
 62
7
  6
CONTINUOUS
 10
16.9352935877
 20
262.8864252224
 11
17.0635780977
 21
262.8974257344
  0
LINE
  5
284
100
AcDbEntity
  8
0
100
AcDbLine
 62
7
  6
CONTINUOUS
 10
25.8870935486
 20
205.2479931196
 11
27.2762864521
 21
204.5479091972
  0
LINE
  5
285
100
AcDbEntity
  8
0
100
AcDbLine
 62
7
  6
CONTINUOUS
 10
24.7211188125
 20
206.0367061895
 11
25.5366157489
 21
205.5966951499
  0
LINE
  5
286
100
AcDbEntity
  8
0
100
AcDbLine
 62
7
  6
CONTINUOUS
 10
26.8986637412
 20
205.3118486519
 11
27.6797978923
 21
204.8903784604
  0
LINE
  5
287
100
AcDbEntity
  8
0
100
AcDbLine
 62
7
  6
CONTINUOUS
 10
28.0728560344
 20
204.808658325
 11
27.257359098
 21
205.2486693646
  0
LINE
  5
288
100
AcDbEntity
  8
0
100
AcDbLine
 62
7
  6
CONTINUOUS
 10
-31.7246436373
 20
232.7729634206
 11
1.7824398867
 21
213.4198942609
  0
LINE
  5
289
100
AcDbEntity
  8
0
100
AcDbLine
 62
7
  6
CONTINUOUS
 10
0.6222026879
 20
218.6825752242
 11
-0.8349887551
 21
219.5242219391
  0
LINE
  5
28A
100
AcDbEntity
  8
0
100
AcDbLine
 62
7
  6
CONTINUOUS
 10
-4.0408099295
 20
221.3758447119
 11
-5.4980013724
 21
222.2174914268
  0
LINE
  5
28B
100
AcDbEntity
  8
0
100
AcDbLine
 62
7
  6
CONTINUOUS
 10
-8.7038225468
 20
224.0691141996
 11
-10.1610139898
 21
224.9107609145
  0
LINE
  5
28C
100
AcDbEntity
  8
0
100
AcDbLine
 62
7
  6
CONTINUOUS
 10
-13.3668351642
 20
226.7623836872
 11
-14.8240266071
 21
227.6040304021
  0
LINE
  5
28D
100
AcDbEntity
  8
0
100
AcDbLine
 62
7
  6
CONTINUOUS
 10
0.5877978867
 20
218.9121088497
 11
-0.5870548622
 21
219.5906819784
  0
LINE
  5
28E
100
AcDbEntity
  8
0
100
AcDbLine
 62
7
  6
CONTINUOUS
 10
-4.0752147307
 20
221.6053783374
 11
-5.2500674796
 21
222.2839514661
  0
LINE
  5
28F
100
AcDbEntity
  8
0
100
AcDbLine
 62
7
  6
CONTINUOUS
 10
-8.738227348
 20
224.298647825
 11
-9.9130800969
 21
224.9772209538
  0
LINE
  5
290
100
AcDbEntity
  8
0
100
AcDbLine
 62
7
  6
CONTINUOUS
 10
-13.4012399654
 20
226.9919173127
 11
-14.5760927143
 21
227.6704904414
  0
LINE
  5
291
100
AcDbEntity
  8
0
100
AcDbLine
 62
7
  6
CONTINUOUS
 10
18.2543206309
 20
265.7771777602
 11
17.8530494696
 21
264.8092011952
  0
LINE
  5
292
100
AcDbEntity
  8
0
100
AcDbLine
 62
7
  6
CONTINUOUS
 10
17.053356901
 20
261.7290328669
 11
17.4546280623
 21
262.6970094319
  0
LINE
  5
293
100
AcDbEntity
  8
0
100
AcDbLine
 62
7
  6
CONTINUOUS
 10
27.0899701401
 20
206.4026437551
 11
27.8044274061
 21
206.8452027965
  0
LINE
  5
294
100
AcDbEntity
  8
0
100
AcDbLine
 62
7
  6
CONTINUOUS
 10
24.6311846862
 20
204.8795886278
 11
25.3455424581
 21
205.3220862191
  0
LINE
  5
295
100
AcDbEntity
  8
0
100
AcDbLine
 62
7
  6
CONTINUOUS
 10
28.1627908551
 20
205.9657757905
 11
27.4484323888
 21
205.5232782955
  0
LINE
  5
296
100
AcDbEntity
  8
0
100
AcDbLine
 62
7
  6
CONTINUOUS
 10
25.7040047068
 20
204.4427207594
 11
24.9895473295
 21
204.0001617332
  0
LINE
  5
297
100
AcDbEntity
  8
0
100
AcDbLine
 62
7
  6
CONTINUOUS
 10
35.638403936
 20
284.4121218663
 11
34.6975804882
 21
284.2254113988
  0
LINE
  5
298
100
AcDbEntity
  8
0
100
AcDbLine
 62
7
  6
CONTINUOUS
 10
16.6723061618
 20
278.808321545
 11
31.1646398333
 21
281.636035583
  0
LWPOLYLINE
  5
299
100
AcDbEntity
  8
0
100
AcDbPolyline
 62
7
  6
CONTINUOUS
 90
4
 70
0
 10
16.6723061618
 20
278.808321545
 10
9.1340098573
 20
277.3772651472
 10
1.4305446104
 20
275.9989707474
 10
-5.4430129361
 20
274.8438346636
  0
LINE
  5
29A
100
AcDbEntity
  8
0
100
AcDbLine
 62
7
  6
CONTINUOUS
 10
18.3468214826
 20
264.7330668114
 11
18.0540415249
 21
264.7079606671
  0
LINE
  5
29B
100
AcDbEntity
  8
0
100
AcDbLine
 62
7
  6
CONTINUOUS
 10
17.719786444
 20
264.7111840328
 11
17.591501934
 21
264.7001835208
  0
LINE
  5
29C
100
AcDbEntity
  8
0
100
AcDbLine
 62
7
  6
CONTINUOUS
 10
-14.3690095106
 20
271.8474286264
 11
1.4829151173
 21
272.7703712682
  0
LINE
  5
29D
100
AcDbEntity
  8
0
100
AcDbLine
 62
7
  6
CONTINUOUS
 10
117.9182694911
 20
264.3124705921
 11
117.7973606075
 21
264.3089238882
  0
LINE
  5
29E
100
AcDbEntity
  8
0
100
AcDbLine
 62
7
  6
CONTINUOUS
 10
16.7425286489
 20
264.7064067137
 11
17.591501934
 21
264.7001835208
  0
LINE
  5
29F
100
AcDbEntity
  8
0
100
AcDbLine
 62
7
  6
CONTINUOUS
 10
17.719786444
 20
264.7111840328
 11
18.0540415249
 21
264.7079606671
  0
LINE
  5
2A0
100
AcDbEntity
  8
0
100
AcDbLine
 62
7
  6
CONTINUOUS
 10
17.5094432704
 20
264.813150175
 11
17.8530494696
 21
264.8092011952
  0
LINE
  5
2A1
100
AcDbEntity
  8
0
100
AcDbLine
 62
7
  6
CONTINUOUS
 10
17.159019683
 20
260.2233472985
 11
16.0647559337
 21
260.3061793564
  0
LINE
  5
2A2
100
AcDbEntity
  8
0
100
AcDbLine
 62
7
  6
CONTINUOUS
 10
11.5858727915
 20
257.3145178184
 11
10.7701259163
 21
257.4287661036
  0
LINE
  5
2A3
100
AcDbEntity
  8
0
100
AcDbLine
 62
7
  6
CONTINUOUS
 10
17.7842201122
 20
258.9760188013
 11
16.9684732371
 21
259.0902670864
  0
LINE
  5
2A4
100
AcDbEntity
  8
0
100
AcDbLine
 62
7
  6
CONTINUOUS
 10
24.5467824007
 20
258.8585946846
 11
37.946917086
 21
256.9818576048
  0
LINE
  5
2A5
100
AcDbEntity
  8
0
100
AcDbLine
 62
7
  6
CONTINUOUS
 10
-27.3307180151
 20
260.933543825
 11
-28.0557251344
 21
261.3522944726
  0
LINE
  5
2A6
100
AcDbEntity
  8
0
100
AcDbLine
 62
7
  6
CONTINUOUS
 10
-17.5008872877
 20
245.4628615945
 11
-14.8240266071
 21
227.6040304021
  0
LINE
  5
2A7
100
AcDbEntity
  8
0
100
AcDbLine
 62
7
  6
CONTINUOUS
 10
-14.5760927143
 20
227.6704904414
 11
-17.2529533949
 21
245.5293216338
  0
LINE
  5
2A8
100
AcDbEntity
  8
0
100
AcDbLine
 62
7
  6
CONTINUOUS
 10
-13.3668351642
 20
226.7623836872
 11
-16.2510210759
 21
246.0043971761
  0
LINE
  5
2A9
100
AcDbEntity
  8
0
100
AcDbLine
 62
7
  6
CONTINUOUS
 10
-13.4980305291
 20
247.1738601832
 11
-10.1610139898
 21
224.9107609145
  0
LINE
  5
2AA
100
AcDbEntity
  8
0
100
AcDbLine
 62
7
  6
CONTINUOUS
 10
-9.9130800969
 20
224.9772209538
 11
-13.2500966362
 21
247.2403202225
  0
LINE
  5
2AB
100
AcDbEntity
  8
0
100
AcDbLine
 62
7
  6
CONTINUOUS
 10
-8.7038225468
 20
224.0691141996
 11
-12.2048278355
 21
247.4262739148
  0
LINE
  5
2AC
100
AcDbEntity
  8
0
100
AcDbLine
 62
7
  6
CONTINUOUS
 10
-9.4886642864
 20
248.8414303721
 11
-5.4980013724
 21
222.2174914268
  0
LINE
  5
2AD
100
AcDbEntity
  8
0
100
AcDbLine
 62
7
  6
CONTINUOUS
 10
-5.2500674796
 20
222.2839514661
 11
-9.2407303936
 21
248.9078904114
  0
LINE
  5
2AE
100
AcDbEntity
  8
0
100
AcDbLine
 62
7
  6
CONTINUOUS
 10
-4.0408099295
 20
221.3758447119
 11
-8.2344333698
 21
249.3538465732
  0
LINE
  5
2AF
100
AcDbEntity
  8
0
100
AcDbLine
 62
7
  6
CONTINUOUS
 10
-5.4728312335
 20
250.4658568616
 11
-0.8349887551
 21
219.5242219391
  0
LINE
  5
2B0
100
AcDbEntity
  8
0
100
AcDbLine
 62
7
  6
CONTINUOUS
 10
17.2536360069
 20
262.7982499601
 11
17.053356901
 21
261.7290328669
  0
LINE
  5
2B1
100
AcDbEntity
  8
0
100
AcDbLine
 62
7
  6
CONTINUOUS
 10
17.7383932364
 20
264.8105189105
 11
17.719786444
 21
264.7111840328
  0
LINE
  5
2B2
100
AcDbEntity
  8
0
100
AcDbLine
 62
7
  6
CONTINUOUS
 10
18.0540415249
 20
264.7079606671
 11
18.2543206309
 21
265.7771777602
  0
LINE
  5
2B3
100
AcDbEntity
  8
0
100
AcDbLine
 62
7
  6
CONTINUOUS
 10
27.2610522729
 20
274.2677385223
 11
27.2675389213
 21
274.289035581
  0
LINE
  5
2B4
100
AcDbEntity
  8
0
100
AcDbLine
 62
7
  6
CONTINUOUS
 10
86.7029042526
 20
257.2113367172
 11
86.7340651699
 21
257.2422649692
  0
LINE
  5
2B5
100
AcDbEntity
  8
0
100
AcDbLine
 62
7
  6
CONTINUOUS
 10
86.7029042526
 20
257.2113367172
 11
86.7347546256
 21
257.2421809445
  0
LWPOLYLINE
  5
2B6
100
AcDbEntity
  8
0
100
AcDbPolyline
 62
7
  6
CONTINUOUS
 90
4
 70
0
 10
36.4352771604
 20
291.2468811176
 10
36.0306741532
 20
291.1675058674
 10
35.5644754191
 20
290.7437788426
 10
35.4649763609
 20
290.4421073602
  0
LINE
  5
2B7
100
AcDbEntity
  8
0
100
AcDbLine
 62
7
  6
CONTINUOUS
 10
35.6357291531
 20
284.41159104
 11
36.1956444518
 21
284.4560855481
  0
LINE
  5
2B8
100
AcDbEntity
  8
0
100
AcDbLine
 62
7
  6
CONTINUOUS
 10
104.0441367922
 20
259.5432898465
 11
104.1592916388
 21
259.5283604549
  0
LINE
  5
2B9
100
AcDbEntity
  8
0
100
AcDbLine
 62
7
  6
CONTINUOUS
 10
16.5587265534
 20
264.2242440691
 11
16.8475202557
 21
264.1863423739
  0
LINE
  5
2BA
100
AcDbEntity
  8
0
100
AcDbLine
 62
7
  6
CONTINUOUS
 10
5.5281737957
 20
262.078545886
 11
3.3528487952
 21
262.3832079797
  0
LINE
  5
2BB
100
AcDbEntity
  8
0
100
AcDbLine
 62
7
  6
CONTINUOUS
 10
10.0415301949
 20
262.2896346916
 11
7.5942895693
 21
262.632379547
  0
LINE
  5
2BC
100
AcDbEntity
  8
0
100
AcDbLine
 62
7
  6
CONTINUOUS
 10
20.3721090628
 20
265.058802996
 11
21.1878559382
 21
264.9445547092
  0
LINE
  5
2BD
100
AcDbEntity
  8
0
100
AcDbLine
 62
7
  6
CONTINUOUS
 10
-6.7815481092
 20
270.5550365784
 11
4.3245032009
 21
268.9995941301
  0
LINE
  5
2BE
100
AcDbEntity
  8
0
100
AcDbLine
 62
7
  6
CONTINUOUS
 10
12.6997433078
 20
271.5851834119
 11
15.1469839334
 21
271.2424385565
  0
LINE
  5
2BF
100
AcDbEntity
  8
0
100
AcDbLine
 62
7
  6
CONTINUOUS
 10
20.0949623557
 20
272.2358575933
 11
19.2792154805
 21
272.3501058784
  0
LINE
  5
2C0
100
AcDbEntity
  8
0
100
AcDbLine
 62
7
  6
CONTINUOUS
 10
10.1601204465
 20
274.3202797996
 11
12.335445447
 21
274.0156177059
  0
LINE
  5
2C1
100
AcDbEntity
  8
0
100
AcDbLine
 62
7
  6
CONTINUOUS
 10
18.0963534782
 20
263.3733651861
 11
18.4601572761
 21
263.3198682532
  0
LINE
  5
2C2
100
AcDbEntity
  8
0
100
AcDbLine
 62
7
  6
CONTINUOUS
 10
17.120722009
 20
263.6666230628
 11
18.071794382
 21
263.521949018
  0
LINE
  5
2C3
100
AcDbEntity
  8
0
100
AcDbLine
 62
7
  6
CONTINUOUS
 10
18.1555150837
 20
263.6422717082
 11
18.5142104405
 21
263.5790924209
  0
LINE
  5
2C4
100
AcDbEntity
  8
0
100
AcDbLine
 62
7
  6
CONTINUOUS
 10
18.1477481487
 20
267.2829907354
 11
17.0728310488
 21
267.5039602606
  0
LINE
  5
2C5
100
AcDbEntity
  8
0
100
AcDbLine
 62
7
  6
CONTINUOUS
 10
18.4601572761
 20
263.3198682532
 11
19.3297073768
 21
263.1390813813
  0
LINE
  5
2C6
100
AcDbEntity
  8
0
100
AcDbLine
 62
7
  6
CONTINUOUS
 10
16.0447295469
 20
264.3311084245
 11
16.5587265534
 21
264.2242440691
  0
LINE
  5
2C7
100
AcDbEntity
  8
0
100
AcDbLine
 62
7
  6
CONTINUOUS
 10
16.8475202557
 20
264.1863423739
 11
15.977970155
 21
264.3671292458
  0
LINE
  5
2C8
100
AcDbEntity
  8
0
100
AcDbLine
 62
7
  6
CONTINUOUS
 10
17.6226296317
 20
264.0975514485
 11
18.7052837312
 21
263.8537013518
  0
LINE
  5
2C9
100
AcDbEntity
  8
0
100
AcDbLine
 62
7
  6
CONTINUOUS
 10
15.9244659948
 20
263.0419603082
 11
16.9608560492
 21
262.7731438157
  0
LINE
  5
2CA
100
AcDbEntity
  8
0
100
AcDbLine
 62
7
  6
CONTINUOUS
 10
16.9352935877
 20
262.8864252224
 11
17.2536360069
 21
262.7982499601
  0
LINE
  5
2CB
100
AcDbEntity
  8
0
100
AcDbLine
 62
7
  6
CONTINUOUS
 10
17.2457457188
 20
262.7561265897
 11
17.4546280623
 21
262.6970094319
  0
LINE
  5
2CC
100
AcDbEntity
  8
0
100
AcDbLine
 62
7
  6
CONTINUOUS
 10
16.2537651687
 20
263.1295998829
 11
17.0635780977
 21
262.8974257344
  0
LINE
  5
2CD
100
AcDbEntity
  8
0
100
AcDbLine
 62
7
  6
CONTINUOUS
 10
-26.7771634788
 20
264.1584558576
 11
-25.3347777403
 21
263.3253606426
  0
LINE
  5
2CE
100
AcDbEntity
  8
0
100
AcDbLine
 62
7
  6
CONTINUOUS
 10
25.8067267552
 20
204.5670026781
 11
25.8490420555
 21
204.5087490132
  0
LINE
  5
2CF
100
AcDbEntity
  8
0
100
AcDbLine
 62
7
  6
CONTINUOUS
 10
26.1977767198
 20
204.3665863757
 11
26.441624611
 21
204.0308914086
  0
LINE
  5
2D0
100
AcDbEntity
  8
0
100
AcDbLine
 62
7
  6
CONTINUOUS
 10
26.3346505916
 20
206.3697604646
 11
26.2525919279
 21
206.4827271187
  0
LINE
  5
2D1
100
AcDbEntity
  8
0
100
AcDbLine
 62
7
  6
CONTINUOUS
 10
26.5961981271
 20
206.4787781389
 11
26.3523502359
 21
206.814473106
  0
LINE
  5
2D2
100
AcDbEntity
  8
0
100
AcDbLine
 62
7
  6
CONTINUOUS
 10
-0.5870548622
 20
219.5906819784
 11
-5.2248973406
 21
250.5323169009
  0
LINE
  5
2D3
100
AcDbEntity
  8
0
100
AcDbLine
 62
7
  6
CONTINUOUS
 10
0.6222026879
 20
218.6825752242
 11
-4.2164946603
 21
250.9642250522
  0
LINE
  5
2D4
100
AcDbEntity
  8
0
100
AcDbLine
 62
7
  6
CONTINUOUS
 10
-6.7815481092
 20
270.5550365784
 11
2.5852185815
 21
208.0641096665
  0
LINE
  5
2D5
100
AcDbEntity
  8
0
100
AcDbLine
 62
7
  6
CONTINUOUS
 10
12.8552480411
 20
198.9874006138
 11
3.3528487952
 21
262.3832079797
  0
LINE
  5
2D6
100
AcDbEntity
  8
0
100
AcDbLine
 62
7
  6
CONTINUOUS
 10
5.5281737957
 20
262.078545886
 11
15.0727777468
 21
198.401167383
  0
LINE
  5
2D7
100
AcDbEntity
  8
0
100
AcDbLine
 62
7
  6
CONTINUOUS
 10
15.0727777468
 20
198.401167383
 11
15.0727777468
 21
190.5868231688
  0
LINE
  5
2D8
100
AcDbEntity
  8
0
100
AcDbLine
 62
7
  6
CONTINUOUS
 10
33.4483645914
 20
282.7177869635
 11
33.4472353811
 21
282.7047744158
  0
LINE
  5
2D9
100
AcDbEntity
  8
0
100
AcDbLine
 62
7
  6
CONTINUOUS
 10
34.5999058237
 20
284.239352806
 11
34.5973078752
 21
284.2125421736
  0
LINE
  5
2DA
100
AcDbEntity
  8
0
100
AcDbLine
 62
7
  6
CONTINUOUS
 10
34.6502272279
 20
284.2348800337
 11
34.6467186693
 21
284.2081667248
  0
LINE
  5
2DB
100
AcDbEntity
  8
0
100
AcDbLine
 62
7
  6
CONTINUOUS
 10
35.4636102097
 20
290.4335833159
 11
35.4649762123
 21
290.4419008532
  0
LINE
  5
2DC
100
AcDbEntity
  8
0
100
AcDbLine
 62
7
  6
CONTINUOUS
 10
35.4651885478
 20
290.4431236075
 11
35.4669192227
 21
290.4529735462
  0
LINE
  5
2DD
100
AcDbEntity
  8
0
100
AcDbLine
 62
7
  6
CONTINUOUS
 10
25.9967846644
 20
204.4678269038
 11
25.7965055585
 21
203.3986098106
  0
LINE
  5
2DE
100
AcDbEntity
  8
0
100
AcDbLine
 62
7
  6
CONTINUOUS
 10
26.4815418939
 20
206.4800958542
 11
26.4629351015
 21
206.3807609765
  0
LINE
  5
2DF
100
AcDbEntity
  8
0
100
AcDbLine
 62
7
  6
CONTINUOUS
 10
26.7971901825
 20
206.3775376108
 11
26.9974692884
 21
207.4467547039
  0
LINE
  5
2E0
100
AcDbEntity
  8
0
100
AcDbLine
 62
7
  6
CONTINUOUS
 10
36.4212088517
 20
290.1424392432
 11
36.5388493764
 21
290.7192121014
  0
LINE
  5
2E1
100
AcDbEntity
  8
0
100
AcDbLine
 62
7
  6
CONTINUOUS
 10
26.9974692884
 20
207.4467547039
 11
26.5961981271
 21
206.4787781389
  0
LINE
  5
2E2
100
AcDbEntity
  8
0
100
AcDbLine
 62
7
  6
CONTINUOUS
 10
25.7965055585
 20
203.3986098106
 11
26.1977767198
 21
204.3665863757
  0
LINE
  5
2E3
100
AcDbEntity
  8
0
100
AcDbLine
 62
7
  6
CONTINUOUS
 10
25.3264343072
 20
205.7452371809
 11
25.3086596362
 21
205.7196915729
  0
LINE
  5
2E4
100
AcDbEntity
  8
0
100
AcDbLine
 62
7
  6
CONTINUOUS
 10
25.5366157489
 20
205.5966951499
 11
25.3455424581
 21
205.3220862191
  0
LINE
  5
2E5
100
AcDbEntity
  8
0
100
AcDbLine
 62
7
  6
CONTINUOUS
 10
26.8149430396
 20
205.1915259618
 11
26.8986637412
 21
205.3118486519
  0
LINE
  5
2E6
100
AcDbEntity
  8
0
100
AcDbLine
 62
7
  6
CONTINUOUS
 10
27.257359098
 20
205.2486693646
 11
27.4484323888
 21
205.5232782955
  0
LINE
  5
2E7
100
AcDbEntity
  8
0
100
AcDbLine
 62
7
  6
CONTINUOUS
 10
36.7383787686
 20
291.264189929
 11
36.4681894399
 21
291.2562622536
  0
LINE
  5
2E8
100
AcDbEntity
  8
0
100
AcDbLine
 62
7
  6
CONTINUOUS
 10
48.6761713001
 20
292.6980515978
 11
48.5849082038
 21
292.6953738303
  0
LINE
  5
2E9
100
AcDbEntity
  8
0
100
AcDbLine
 62
7
  6
CONTINUOUS
 10
36.4681894399
 20
291.2562622536
 11
36.4838933763
 21
291.2565998618
  0
LINE
  5
2EA
100
AcDbEntity
  8
0
100
AcDbLine
 62
7
  6
CONTINUOUS
 10
27.2675389213
 20
274.289035581
 11
33.8332292159
 21
273.3694870302
  0
LINE
  5
2EB
100
AcDbEntity
  8
0
100
AcDbLine
 62
7
  6
CONTINUOUS
 10
27.2610541473
 20
274.2677390232
 11
27.5329678987
 21
274.2296557592
  0
LINE
  5
2EC
100
AcDbEntity
  8
0
100
AcDbLine
 62
7
  6
CONTINUOUS
 10
17.1439448911
 20
263.5784161758
 11
18.5331377946
 21
262.8783322535
  0
LINE
  5
2ED
100
AcDbEntity
  8
0
100
AcDbLine
 62
7
  6
CONTINUOUS
 10
15.977970155
 20
264.3671292458
 11
16.7934670914
 21
263.9271182062
  0
LINE
  5
2EE
100
AcDbEntity
  8
0
100
AcDbLine
 62
7
  6
CONTINUOUS
 10
18.1555150837
 20
263.6422717082
 11
18.9366492348
 21
263.2208015167
  0
LINE
  5
2EF
100
AcDbEntity
  8
0
100
AcDbLine
 62
7
  6
CONTINUOUS
 10
19.3297073768
 20
263.1390813813
 11
18.5142104405
 21
263.5790924209
  0
LINE
  5
2F0
100
AcDbEntity
  8
0
100
AcDbLine
 62
7
  6
CONTINUOUS
 10
-14.552312882
 20
271.7376945767
 11
-16.9375921487
 21
273.1153875824
  0
LINE
  5
2F1
100
AcDbEntity
  8
0
100
AcDbLine
 62
7
  6
CONTINUOUS
 10
-14.3804688374
 20
273.8008385059
 11
-12.4356410882
 21
272.6775421167
  0
LINE
  5
2F2
100
AcDbEntity
  8
0
100
AcDbLine
 62
7
  6
CONTINUOUS
 10
24.8381018729
 20
204.328510495
 11
24.7938756386
 21
204.4250937865
  0
LINE
  5
2F3
100
AcDbEntity
  8
0
100
AcDbLine
 62
7
  6
CONTINUOUS
 10
24.7656029157
 20
204.4121474886
 11
24.8080892429
 21
204.3147674802
  0
LINE
  5
2F4
100
AcDbEntity
  8
0
100
AcDbLine
 62
7
  6
CONTINUOUS
 10
24.8243662027
 20
207.9982859917
 11
25.5176883948
 21
206.2974553174
  0
LINE
  5
2F5
100
AcDbEntity
  8
0
100
AcDbLine
 62
7
  6
CONTINUOUS
 10
26.441624611
 20
204.0308914086
 11
27.134946803
 21
202.3300607342
  0
LINE
  5
2F6
100
AcDbEntity
  8
0
100
AcDbLine
 62
7
  6
CONTINUOUS
 10
24.8860031112
 20
208.9021302393
 11
25.6511173114
 21
207.0251822403
  0
LINE
  5
2F7
100
AcDbEntity
  8
0
100
AcDbLine
 62
7
  6
CONTINUOUS
 10
26.6723243764
 20
204.5199973191
 11
27.4374385766
 21
202.6430493201
  0
LINE
  5
2F8
100
AcDbEntity
  8
0
100
AcDbLine
 62
7
  6
CONTINUOUS
 10
27.9696086442
 20
202.8470785228
 11
27.2762864521
 21
204.5479091972
  0
LINE
  5
2F9
100
AcDbEntity
  8
0
100
AcDbLine
 62
7
  6
CONTINUOUS
 10
26.3523502359
 20
206.814473106
 11
25.6590280439
 21
208.5153037804
  0
LINE
  5
2FA
100
AcDbEntity
  8
0
100
AcDbLine
 62
7
  6
CONTINUOUS
 10
25.301875211
 20
205.8938210128
 11
25.3264343072
 21
205.7452371809
  0
LINE
  5
2FB
100
AcDbEntity
  8
0
100
AcDbLine
 62
7
  6
CONTINUOUS
 10
25.5176883948
 20
206.2974553174
 11
25.5906689132
 21
205.8559193177
  0
LINE
  5
2FC
100
AcDbEntity
  8
0
100
AcDbLine
 62
7
  6
CONTINUOUS
 10
16.5587265534
 20
264.2242440691
 11
16.5832856496
 21
264.0756602372
  0
LINE
  5
2FD
100
AcDbEntity
  8
0
100
AcDbLine
 62
7
  6
CONTINUOUS
 10
16.7745397372
 20
264.6278783736
 11
16.8475202557
 21
264.1863423739
  0
LINE
  5
2FE
100
AcDbEntity
  8
0
100
AcDbLine
 62
7
  6
CONTINUOUS
 10
26.8395021358
 20
205.0429421298
 11
26.8149430396
 21
205.1915259618
  0
LINE
  5
2FF
100
AcDbEntity
  8
0
100
AcDbLine
 62
7
  6
CONTINUOUS
 10
27.2762864521
 20
204.5479091972
 11
27.2033059337
 21
204.9894451969
  0
LINE
  5
300
100
AcDbEntity
  8
0
100
AcDbLine
 62
7
  6
CONTINUOUS
 10
18.0963534782
 20
263.3733651861
 11
18.071794382
 21
263.521949018
  0
LINE
  5
301
100
AcDbEntity
  8
0
100
AcDbLine
 62
7
  6
CONTINUOUS
 10
18.5331377946
 20
262.8783322535
 11
18.4601572761
 21
263.3198682532
  0
LINE
  5
302
100
AcDbEntity
  8
0
100
AcDbLine
 62
7
  6
CONTINUOUS
 10
7.3876779919
 20
262.5769961809
 11
16.1308266494
 21
204.2465731246
  0
LINE
  5
303
100
AcDbEntity
  8
0
100
AcDbLine
 62
7
  6
CONTINUOUS
 10
7.5942895693
 20
262.632379547
 11
16.3374382268
 21
204.3019564907
  0
LINE
  5
304
100
AcDbEntity
  8
0
100
AcDbLine
 62
7
  6
CONTINUOUS
 10
10.0415301949
 20
262.2896346916
 11
10.7701259163
 21
257.4287661036
  0
LINE
  5
305
100
AcDbEntity
  8
0
100
AcDbLine
 62
7
  6
CONTINUOUS
 10
18.0560831309
 20
208.8200802233
 11
18.7846788524
 21
203.9592116353
  0
LINE
  5
306
100
AcDbEntity
  8
0
100
AcDbLine
 62
7
  6
CONTINUOUS
 10
11.5858727915
 20
257.3145178184
 11
18.8718300061
 21
208.7058319382
  0
LINE
  5
307
100
AcDbEntity
  8
0
100
AcDbLine
 62
7
  6
CONTINUOUS
 10
30.2081513024
 20
199.4370770581
 11
29.2723096366
 21
205.6805989768
  0
LINE
  5
308
100
AcDbEntity
  8
0
100
AcDbLine
 62
7
  6
CONTINUOUS
 10
20.3721090628
 20
265.058802996
 11
19.2792154805
 21
272.3501058784
  0
LINE
  5
309
100
AcDbEntity
  8
0
100
AcDbLine
 62
7
  6
CONTINUOUS
 10
35.4644252854
 20
290.4339853159
 11
35.4651885478
 21
290.4431236075
  0
LINE
  5
30A
100
AcDbEntity
  8
0
100
AcDbLine
 62
7
  6
CONTINUOUS
 10
86.7029038741
 20
257.2113371723
 11
86.7947732077
 21
257.1802045425
  0
LINE
  5
30B
100
AcDbEntity
  8
0
100
AcDbLine
 62
7
  6
CONTINUOUS
 10
17.0635780977
 20
262.8974257344
 11
17.105893398
 21
262.8391720694
  0
LINE
  5
30C
100
AcDbEntity
  8
0
100
AcDbLine
 62
7
  6
CONTINUOUS
 10
17.4546280623
 20
262.6970094319
 11
17.6984759535
 21
262.3613144648
  0
LINE
  5
30D
100
AcDbEntity
  8
0
100
AcDbLine
 62
7
  6
CONTINUOUS
 10
17.591501934
 20
264.7001835208
 11
17.5094432704
 21
264.813150175
  0
LINE
  5
30E
100
AcDbEntity
  8
0
100
AcDbLine
 62
7
  6
CONTINUOUS
 10
17.8530494696
 20
264.8092011952
 11
17.6092015784
 21
265.1448961623
  0
LINE
  5
30F
100
AcDbEntity
  8
0
100
AcDbLine
 62
7
  6
CONTINUOUS
 10
16.0949532154
 20
262.6589335513
 11
16.050726981
 21
262.7555168428
  0
LINE
  5
310
100
AcDbEntity
  8
0
100
AcDbLine
 62
7
  6
CONTINUOUS
 10
16.0224542582
 20
262.7425705449
 11
16.0649405854
 21
262.6451905365
  0
LINE
  5
311
100
AcDbEntity
  8
0
100
AcDbLine
 62
7
  6
CONTINUOUS
 10
16.0812175452
 20
266.328709048
 11
16.7745397372
 21
264.6278783736
  0
LINE
  5
312
100
AcDbEntity
  8
0
100
AcDbLine
 62
7
  6
CONTINUOUS
 10
17.6984759535
 20
262.3613144648
 11
18.3917981455
 21
260.6604837905
  0
LINE
  5
313
100
AcDbEntity
  8
0
100
AcDbLine
 62
7
  6
CONTINUOUS
 10
16.1428544537
 20
267.2325532955
 11
16.9079686538
 21
265.3556052965
  0
LINE
  5
314
100
AcDbEntity
  8
0
100
AcDbLine
 62
7
  6
CONTINUOUS
 10
17.9291757189
 20
262.8504203754
 11
18.694289919
 21
260.9734723764
  0
LINE
  5
315
100
AcDbEntity
  8
0
100
AcDbLine
 62
7
  6
CONTINUOUS
 10
19.2264599867
 20
261.1775015791
 11
18.5331377946
 21
262.8783322535
  0
LINE
  5
316
100
AcDbEntity
  8
0
100
AcDbLine
 62
7
  6
CONTINUOUS
 10
17.6092015784
 20
265.1448961623
 11
16.9158793863
 21
266.8457268366
  0
LINE
  5
317
100
AcDbEntity
  8
0
100
AcDbLine
 62
7
  6
CONTINUOUS
 10
20.0949623557
 20
272.2358575933
 11
21.1878559382
 21
264.9445547092
  0
LINE
  5
318
100
AcDbEntity
  8
0
100
AcDbLine
 62
7
  6
CONTINUOUS
 10
31.0238981776
 20
199.3228287729
 11
29.9310045954
 21
206.614131655
  0
LINE
  5
319
100
AcDbEntity
  8
0
100
AcDbLine
 62
7
  6
CONTINUOUS
 10
48.5849082038
 20
292.6953738303
 11
48.5849082038
 21
291.6381390248
  0
LINE
  5
31A
100
AcDbEntity
  8
0
100
AcDbLine
 62
7
  6
CONTINUOUS
 10
48.6761713001
 20
293.304819299
 11
48.6761713001
 21
291.6006504376
  0
LINE
  5
31B
100
AcDbEntity
  8
0
100
AcDbLine
 62
7
  6
CONTINUOUS
 10
48.4761835228
 20
292.5282269733
 11
48.4761713001
 21
292.5172219179
  0
LINE
  5
31C
100
AcDbEntity
  8
0
100
AcDbLine
 62
7
  6
CONTINUOUS
 10
104.044138224
 20
259.5432895534
 11
104.0776320908
 21
259.588653155
  0
LINE
  5
31D
100
AcDbEntity
  8
0
100
AcDbLine
 62
7
  6
CONTINUOUS
 10
104.044138224
 20
259.5432895534
 11
104.0780821982
 21
259.5887276432
  0
LINE
  5
31E
100
AcDbEntity
  8
0
100
AcDbLine
 62
7
  6
CONTINUOUS
 10
68.4137073684
 20
257.6680845209
 11
68.4683048232
 21
257.6254883818
  0
LINE
  5
31F
100
AcDbEntity
  8
0
100
AcDbLine
 62
7
  6
CONTINUOUS
 10
112.006342019
 20
290.493159209
 11
112.0136531001
 21
290.5089274931
  0
LINE
  5
320
100
AcDbEntity
  8
0
100
AcDbLine
 62
7
  6
CONTINUOUS
 10
111.8949026989
 20
290.4907983954
 11
111.902727931
 21
290.506534064
  0
LINE
  5
321
100
AcDbEntity
  8
0
100
AcDbLine
 62
7
  6
CONTINUOUS
 10
112.5763436807
 20
290.5505480733
 11
112.5847214091
 21
290.5665734797
  0
LINE
  5
322
100
AcDbEntity
  8
0
100
AcDbLine
 62
7
  6
CONTINUOUS
 10
51.9699254089
 20
260.7964214273
 11
51.960911649
 21
260.8439962489
  0
LINE
  5
323
100
AcDbEntity
  8
0
100
AcDbLine
 62
7
  6
CONTINUOUS
 10
71.4022911387
 20
205.8508808257
 11
71.4849915187
 21
205.299140447
  0
LINE
  5
324
100
AcDbEntity
  8
0
100
AcDbLine
 62
7
  6
CONTINUOUS
 10
112.5648200618
 20
290.5514837784
 11
112.5705484625
 21
290.5677169253
  0
LINE
  5
325
100
AcDbEntity
  8
0
100
AcDbLine
 62
7
  6
CONTINUOUS
 10
117.8183042578
 20
264.3564854042
 11
117.7973628623
 21
264.3089238814
  0
LINE
  5
326
100
AcDbEntity
  8
0
100
AcDbLine
 62
7
  6
CONTINUOUS
 10
117.8191257545
 20
264.3566020947
 11
117.7973628623
 21
264.3089238814
  0
LINE
  5
327
100
AcDbEntity
  8
0
100
AcDbLine
 62
7
  6
CONTINUOUS
 10
73.1564469588
 20
208.4859733985
 11
73.551107293
 21
205.8529741031
  0
LINE
  5
328
100
AcDbEntity
  8
0
100
AcDbLine
 62
7
  6
CONTINUOUS
 10
76.2741611955
 20
200.655152511
 11
76.6310493882
 21
198.2741522462
  0
LINE
  5
329
100
AcDbEntity
  8
0
100
AcDbLine
 62
7
  6
CONTINUOUS
 10
79.336231459
 20
207.4037083537
 11
78.9415711248
 21
210.0367076492
  0
LINE
  5
32A
100
AcDbEntity
  8
0
100
AcDbLine
 62
7
  6
CONTINUOUS
 10
81.4023472318
 20
207.9575420196
 11
81.3196468518
 21
208.5092823983
  0
LINE
  5
32B
100
AcDbEntity
  8
0
100
AcDbLine
 62
7
  6
CONTINUOUS
 10
73.1962287213
 20
198.7541379612
 11
72.8905310378
 21
201.067411777
  0
LINE
  5
32C
100
AcDbEntity
  8
0
100
AcDbLine
 62
7
  6
CONTINUOUS
 10
112.4761713001
 20
292.5172219179
 11
112.4760219725
 21
292.5556880461
  0
LINE
  5
32D
100
AcDbEntity
  8
0
100
AcDbLine
 62
7
  6
CONTINUOUS
 10
112.2761713001
 20
293.304819299
 11
112.2761713001
 21
291.2574870164
  0
LINE
  5
32E
100
AcDbEntity
  8
0
100
AcDbLine
 62
7
  6
CONTINUOUS
 10
126.8603159741
 20
277.9849229953
 11
126.861655025
 21
278.0237537211
  0
LINE
  5
32F
100
AcDbEntity
  8
0
100
AcDbLine
 62
7
  6
CONTINUOUS
 10
126.926751246
 20
278.0124304492
 11
126.9289162522
 21
278.0516880987
  0
LINE
  5
330
100
AcDbEntity
  8
0
100
AcDbLine
 62
7
  6
CONTINUOUS
 10
125.868774424
 20
270.7827151043
 11
125.8721671177
 21
270.8151619573
  0
LINE
  5
331
100
AcDbEntity
  8
0
100
AcDbLine
 62
7
  6
CONTINUOUS
 10
125.868774424
 20
270.7827151043
 11
125.8738770684
 21
270.815532762
  0
LINE
  5
332
100
AcDbEntity
  8
0
100
AcDbLine
 62
7
  6
CONTINUOUS
 10
127.31516045
 20
283.3620713092
 11
127.3269101848
 21
283.2548624855
  0
LINE
  5
333
100
AcDbEntity
  8
0
100
AcDbLine
 62
7
  6
CONTINUOUS
 10
127.3151585057
 20
283.362081199
 11
127.3244275472
 21
283.2545161347
  0
LINE
  5
334
100
AcDbEntity
  8
0
100
AcDbLine
 62
7
  6
CONTINUOUS
 10
124.4612964986
 20
290.4483275932
 11
124.458445117
 21
290.4831481334
  0
LINE
  5
335
100
AcDbEntity
  8
0
100
AcDbLine
 62
7
  6
CONTINUOUS
 10
124.9815934691
 20
288.5892911204
 11
124.9829394491
 21
288.5663948099
  0
LINE
  5
336
100
AcDbEntity
  8
0
100
AcDbLine
 62
7
  6
CONTINUOUS
 10
124.458685854
 20
290.463437368
 11
124.4584651639
 21
290.4834475858
  0
LINE
  5
337
100
AcDbEntity
  8
0
100
AcDbLine
 62
7
  6
CONTINUOUS
 10
124.3795966255
 20
291.0588726888
 11
124.2745656548
 21
291.2463645809
  0
LWPOLYLINE
  5
338
100
AcDbEntity
  8
0
100
AcDbPolyline
 62
7
  6
CONTINUOUS
 90
4
 70
0
 10
125.9519424171
 20
289.3484757852
 10
124.4027146459
 20
292.5650479047
 10
122.39634259
 20
295.1529017662
 10
122.1188978363
 20
295.3767068844
  0
LWPOLYLINE
  5
339
100
AcDbEntity
  8
0
100
AcDbPolyline
 62
7
  6
CONTINUOUS
 90
3
 70
0
 10
124.6749398779
 20
290.4658224055
 10
124.5669115062
 20
290.695975852
 10
124.3795966255
 20
291.0588726888
  0
LINE
  5
33A
100
AcDbEntity
  8
0
100
AcDbLine
 62
7
  6
CONTINUOUS
 10
124.6749952804
 20
290.4656975952
 11
124.6751892947
 21
290.4652657376
  0
LWPOLYLINE
  5
33B
100
AcDbEntity
  8
0
100
AcDbPolyline
 62
7
  6
CONTINUOUS
 90
3
 70
0
 10
125.2599725344
 20
288.5826804464
 10
125.0557518312
 20
289.4242400649
 10
124.6749952804
 20
290.4656975952
  0
LINE
  5
33C
100
AcDbEntity
  8
0
100
AcDbLine
 62
7
  6
CONTINUOUS
 10
124.4229941044
 20
290.6727868289
 11
124.4135150697
 21
290.7191071111
  0
LINE
  5
33D
100
AcDbEntity
  8
0
100
AcDbLine
 62
7
  6
CONTINUOUS
 10
125.2554391528
 20
288.6053893826
 11
125.2599756104
 21
288.5826235784
  0
LINE
  5
33E
100
AcDbEntity
  8
0
100
AcDbLine
 62
7
  6
CONTINUOUS
 10
124.4638516649
 20
290.4516650403
 11
124.458445117
 21
290.4831481334
  0
LINE
  5
33F
100
AcDbEntity
  8
0
100
AcDbLine
 62
7
  6
CONTINUOUS
 10
124.9868967063
 20
288.5950659567
 11
124.9900217836
 21
288.5740994942
  0
LWPOLYLINE
  5
340
100
AcDbEntity
  8
0
100
AcDbPolyline
 62
7
  6
CONTINUOUS
 90
3
 70
0
 10
127.3268084902
 20
283.2547213041
 10
127.0011423806
 20
285.4922965572
 10
125.9519424171
 20
289.3484757852
  0
ARC
  5
341
100
AcDbEntity
  8
0
100
AcDbCircle
 62
7
  6
CONTINUOUS
 10
-905.3290449457
 20
257.7725210017
 40
991.1782350322
100
AcDbArc
 50
0.656042469
 51
0.8178047085
  0
ARC
  5
342
100
AcDbEntity
  8
0
100
AcDbCircle
 62
7
  6
CONTINUOUS
 10
101.3780851401
 20
-464.566458806
 40
674.5175740347
100
AcDbArc
 50
96.2314295555
 51
96.3850010019
  0
ARC
  5
343
100
AcDbEntity
  8
0
100
AcDbCircle
 62
7
  6
CONTINUOUS
 10
92.6349365035
 20
-406.2360357478
 40
674.517574035
100
AcDbArc
 50
96.2314295573
 51
96.3850010036
  0
ARC
  5
344
100
AcDbEntity
  8
0
100
AcDbCircle
 62
7
  6
CONTINUOUS
 10
-96.9555340286
 20
39.1622868528
 40
248.7446307224
100
AcDbArc
 50
70.0037423052
 51
70.6117782928
  0
ARC
  5
345
100
AcDbEntity
  8
0
100
AcDbCircle
 62
7
  6
CONTINUOUS
 10
22.5044886057
 20
204.2678266046
 40
5.8558111738
100
AcDbArc
 50
232.3275840798
 51
232.6373225923
  0
ARC
  5
346
100
AcDbEntity
  8
0
100
AcDbCircle
 62
7
  6
CONTINUOUS
 10
21.3934131864
 20
203.899293019
 40
5.5491818772
100
AcDbArc
 50
271.881969036
 51
278.0530853393
  0
ARC
  5
347
100
AcDbEntity
  8
0
100
AcDbCircle
 62
7
  6
CONTINUOUS
 10
21.3979398265
 20
203.810683666
 40
5.4604719009
100
AcDbArc
 50
270.9221220744
 51
271.8650314151
  0
ARC
  5
348
100
AcDbEntity
  8
0
100
AcDbCircle
 62
7
  6
CONTINUOUS
 10
21.3980965862
 20
203.7978166303
 40
5.447604009
100
AcDbArc
 50
267.9045756192
 51
270.9226514742
  0
ARC
  5
349
100
AcDbEntity
  8
0
100
AcDbCircle
 62
7
  6
CONTINUOUS
 10
25.0423413661
 20
204.6248563675
 40
2.6643929743
100
AcDbArc
 50
242.9174812033
 51
243.1802232625
  0
ARC
  5
34A
100
AcDbEntity
  8
0
100
AcDbCircle
 62
7
  6
CONTINUOUS
 10
25.0267791255
 20
204.5930628898
 40
2.6289980973
100
AcDbArc
 50
243.170273382
 51
250.9734225256
  0
ARC
  5
34B
100
AcDbEntity
  8
0
100
AcDbCircle
 62
7
  6
CONTINUOUS
 10
25.0071844653
 20
204.5401542436
 40
2.5725923106
100
AcDbArc
 50
251.0018317545
 51
253.762635346
  0
ARC
  5
34C
100
AcDbEntity
  8
0
100
AcDbCircle
 62
7
  6
CONTINUOUS
 10
25.0025069786
 20
204.5240480571
 40
2.5558206689
100
AcDbArc
 50
253.7623515544
 51
259.4994582212
  0
ARC
  5
34D
100
AcDbEntity
  8
0
100
AcDbCircle
 62
7
  6
CONTINUOUS
 10
24.9999531986
 20
204.5125608623
 40
2.5440604691
100
AcDbArc
 50
259.5088615901
 51
265.6706866838
  0
ARC
  5
34E
100
AcDbEntity
  8
0
100
AcDbCircle
 62
7
  6
CONTINUOUS
 10
-70.0862573853
 20
259.1484759489
 40
172.8358037746
100
AcDbArc
 50
4.0139580873
 51
4.9378008299
  0
ARC
  5
34F
100
AcDbEntity
  8
0
100
AcDbCircle
 62
7
  6
CONTINUOUS
 10
15.5265775134
 20
263.7044879306
 40
100.7309675095
100
AcDbArc
 50
6.8400833362
 51
8.4083375713
  0
ARC
  5
350
100
AcDbEntity
  8
0
100
AcDbCircle
 62
7
  6
CONTINUOUS
 10
-7.8766059668
 20
253.8525058604
 40
21.5277420926
100
AcDbArc
 50
151.3975896211
 51
159.6118704669
  0
ARC
  5
351
100
AcDbEntity
  8
0
100
AcDbCircle
 62
7
  6
CONTINUOUS
 10
16.0545790294
 20
263.8760691922
 40
8.7637186332
100
AcDbArc
 50
188.2536049118
 51
188.5245448595
  0
ARC
  5
352
100
AcDbEntity
  8
0
100
AcDbCircle
 62
7
  6
CONTINUOUS
 10
14.1610571115
 20
266.2408683313
 40
5.7846184817
100
AcDbArc
 50
105.0058876445
 51
105.5369401458
  0
ARC
  5
353
100
AcDbEntity
  8
0
100
AcDbCircle
 62
7
  6
CONTINUOUS
 10
16.5814908946
 20
263.4244574008
 40
3.235930671
100
AcDbArc
 50
303.4604217965
 51
310.7620079751
  0
ARC
  5
354
100
AcDbEntity
  8
0
100
AcDbCircle
 62
7
  6
CONTINUOUS
 10
16.2991927084
 20
262.9552794235
 40
2.6643929739
100
AcDbArc
 50
242.9174812033
 51
243.1802232626
  0
ARC
  5
355
100
AcDbEntity
  8
0
100
AcDbCircle
 62
7
  6
CONTINUOUS
 10
16.2836304679
 20
262.9234859461
 40
2.6289980973
100
AcDbArc
 50
243.170273382
 51
250.9734225256
  0
ARC
  5
356
100
AcDbEntity
  8
0
100
AcDbCircle
 62
7
  6
CONTINUOUS
 10
16.2640358078
 20
262.8705772999
 40
2.5725923106
100
AcDbArc
 50
251.0018317545
 51
253.762635346
  0
ARC
  5
357
100
AcDbEntity
  8
0
100
AcDbCircle
 62
7
  6
CONTINUOUS
 10
16.2593583211
 20
262.8544711134
 40
2.555820669
100
AcDbArc
 50
253.7623515545
 51
259.4994582211
  0
ARC
  5
358
100
AcDbEntity
  8
0
100
AcDbCircle
 62
7
  6
CONTINUOUS
 10
16.2568045411
 20
262.8429839186
 40
2.5440604692
100
AcDbArc
 50
259.5088615902
 51
265.6706866838
  0
ARC
  5
359
100
AcDbEntity
  8
0
100
AcDbCircle
 62
7
  6
CONTINUOUS
 10
16.5426407184
 20
263.7136847616
 40
0.8808388784
100
AcDbArc
 50
224.1529024653
 51
225.2384026056
  0
ARC
  5
35A
100
AcDbEntity
  8
0
100
AcDbCircle
 62
7
  6
CONTINUOUS
 10
56.2973251686
 20
254.5917734075
 40
84.6235294731
100
AcDbArc
 50
175.4177928363
 51
176.4112667724
  0
ARC
  5
35B
100
AcDbEntity
  8
0
100
AcDbCircle
 62
7
  6
CONTINUOUS
 10
80.4617085172
 20
223.4386345269
 40
82.6148762716
100
AcDbArc
 50
91.6806319164
 51
91.9175270657
  0
ARC
  5
35C
100
AcDbEntity
  8
0
100
AcDbCircle
 62
7
  6
CONTINUOUS
 10
97.8139365572
 20
237.8128206347
 40
80.2912670742
100
AcDbArc
 50
204.6475962434
 51
204.9056330891
  0
ARC
  5
35D
100
AcDbEntity
  8
0
100
AcDbCircle
 62
7
  6
CONTINUOUS
 10
112.5136150222
 20
276.132342229
 40
79.3390043122
100
AcDbArc
 50
175.2481093616
 51
179.9864909038
  0
ARC
  5
35E
100
AcDbEntity
  8
0
100
AcDbCircle
 62
7
  6
CONTINUOUS
 10
50.8495098687
 20
274.9386469856
 40
76.9282275849
100
AcDbArc
 50
359.9765607926
 51
6.2060058023
  0
ARC
  5
35F
100
AcDbEntity
  8
0
100
AcDbCircle
 62
7
  6
CONTINUOUS
 10
48.1339129327
 20
270.2444667384
 40
76.1661352235
100
AcDbArc
 50
8.7314253563
 51
10.7680677227
  0
ARC
  5
360
100
AcDbEntity
  8
0
100
AcDbCircle
 62
7
  6
CONTINUOUS
 10
109.2932099089
 20
276.9840553012
 40
75.0448467054
100
AcDbArc
 50
169.6606232268
 51
174.4520074825
  0
ARC
  5
361
100
AcDbEntity
  8
0
100
AcDbCircle
 62
7
  6
CONTINUOUS
 10
52.5209686833
 20
274.0308621098
 40
74.1803204918
100
AcDbArc
 50
6.2711669495
 51
11.3308619318
  0
ARC
  5
362
100
AcDbEntity
  8
0
100
AcDbCircle
 62
7
  6
CONTINUOUS
 10
104.6162597746
 20
273.2546148003
 40
69.331473493
100
AcDbArc
 50
168.4983997222
 51
170.7022746651
  0
ARC
  5
363
100
AcDbEntity
  8
0
100
AcDbCircle
 62
7
  6
CONTINUOUS
 10
55.6784813272
 20
280.9230435279
 40
43.5938381743
100
AcDbArc
 50
204.2490898761
 51
204.6293019949
  0
ARC
  5
364
100
AcDbEntity
  8
0
100
AcDbCircle
 62
7
  6
CONTINUOUS
 10
64.4216299831
 20
222.5926204708
 40
43.5938381724
100
AcDbArc
 50
204.2490898761
 51
204.6293019949
  0
ARC
  5
365
100
AcDbEntity
  8
0
100
AcDbCircle
 62
7
  6
CONTINUOUS
 10
96.697976152
 20
279.9859479319
 40
30.8026882586
100
AcDbArc
 50
5.471688443
 51
6.0925590667
  0
ARC
  5
366
100
AcDbEntity
  8
0
100
AcDbCircle
 62
7
  6
CONTINUOUS
 10
59.774869037
 20
278.8156974436
 40
25.916043672
100
AcDbArc
 50
120.4784622819
 51
122.7399091057
  0
ARC
  5
367
100
AcDbEntity
  8
0
100
AcDbCircle
 62
7
  6
CONTINUOUS
 10
42.6022397995
 20
237.0923745368
 40
25.4081268118
100
AcDbArc
 50
299.7121388867
 51
305.7108776536
  0
ARC
  5
368
100
AcDbEntity
  8
0
100
AcDbCircle
 62
7
  6
CONTINUOUS
 10
47.2461915932
 20
216.6568149665
 40
24.2151251331
100
AcDbArc
 50
208.1086110264
 51
208.655343196
  0
ARC
  5
369
100
AcDbEntity
  8
0
100
AcDbCircle
 62
7
  6
CONTINUOUS
 10
38.5030429344
 20
274.987238022
 40
24.2151251317
100
AcDbArc
 50
208.1086110264
 51
208.655343196
  0
ARC
  5
36A
100
AcDbEntity
  8
0
100
AcDbCircle
 62
7
  6
CONTINUOUS
 10
70.562508324
 20
229.1234253847
 40
20.7998303388
100
AcDbArc
 50
262.0591868901
 51
277.1639861771
  0
ARC
  5
36B
100
AcDbEntity
  8
0
100
AcDbCircle
 62
7
  6
CONTINUOUS
 10
106.9603255044
 20
283.498903888
 40
19.4040373291
100
AcDbArc
 50
46.2133634964
 51
49.0186252148
  0
ARC
  5
36C
100
AcDbEntity
  8
0
100
AcDbCircle
 62
7
  6
CONTINUOUS
 10
108.4296419231
 20
283.5134757704
 40
18.1574999391
100
AcDbArc
 50
23.2947066936
 51
24.3720080758
  0
ARC
  5
36D
100
AcDbEntity
  8
0
100
AcDbCircle
 62
7
  6
CONTINUOUS
 10
108.9458355171
 20
283.7484770286
 40
17.5903312815
100
AcDbArc
 50
24.3685976343
 51
26.1160573513
  0
ARC
  5
36E
100
AcDbEntity
  8
0
100
AcDbCircle
 62
7
  6
CONTINUOUS
 10
49.2978728928
 20
287.5000945943
 40
13.2174142916
100
AcDbArc
 50
146.8979304849
 51
150.4607081635
  0
ARC
  5
36F
100
AcDbEntity
  8
0
100
AcDbCircle
 62
7
  6
CONTINUOUS
 10
40.6337896567
 20
269.0562843372
 40
8.4114004635
100
AcDbArc
 50
110.783145829
 51
114.3298218349
  0
ARC
  5
370
100
AcDbEntity
  8
0
100
AcDbCircle
 62
7
  6
CONTINUOUS
 10
33.5092336112
 20
207.3018704109
 40
7.8940125851
100
AcDbArc
 50
194.4188044095
 51
195.0808403779
  0
ARC
  5
371
100
AcDbEntity
  8
0
100
AcDbCircle
 62
7
  6
CONTINUOUS
 10
24.766084954
 20
265.6322934672
 40
7.8940125854
100
AcDbArc
 50
194.4188044095
 51
195.0808403779
  0
ARC
  5
372
100
AcDbEntity
  8
0
100
AcDbCircle
 62
7
  6
CONTINUOUS
 10
39.6094448487
 20
270.4326519746
 40
6.4022624708
100
AcDbArc
 50
158.894205144
 51
160.4763769976
  0
ARC
  5
373
100
AcDbEntity
  8
0
100
AcDbCircle
 62
7
  6
CONTINUOUS
 10
34.701420177
 20
279.6766715433
 40
4.6023562776
100
AcDbArc
 50
76.4633035593
 51
78.8571781856
  0
ARC
  5
374
100
AcDbEntity
  8
0
100
AcDbCircle
 62
7
  6
CONTINUOUS
 10
67.6178501065
 20
249.9871525173
 40
3.6924623081
100
AcDbArc
 50
201.1958798885
 51
205.6323045955
  0
ARC
  5
375
100
AcDbEntity
  8
0
100
AcDbCircle
 62
7
  6
CONTINUOUS
 10
59.1087605423
 20
235.0658127425
 40
3.6924623081
100
AcDbArc
 50
201.1958798885
 51
205.6323045955
  0
ARC
  5
376
100
AcDbEntity
  8
0
100
AcDbCircle
 62
7
  6
CONTINUOUS
 10
79.769918278
 20
240.604149352
 40
3.6924623081
100
AcDbArc
 50
201.1958798885
 51
205.6323045955
  0
ARC
  5
377
100
AcDbEntity
  8
0
100
AcDbCircle
 62
7
  6
CONTINUOUS
 10
25.1788124325
 20
207.0643190231
 40
3.5436043265
100
AcDbArc
 50
68.9398843867
 51
75.073557376
  0
ARC
  5
378
100
AcDbEntity
  8
0
100
AcDbCircle
 62
7
  6
CONTINUOUS
 10
25.3246395521
 20
205.0940343445
 40
3.235930671
100
AcDbArc
 50
303.4604217965
 51
310.7620079751
  0
ARC
  5
379
100
AcDbEntity
  8
0
100
AcDbCircle
 62
7
  6
CONTINUOUS
 10
25.2857893759
 20
205.3832617053
 40
0.8808388783
100
AcDbArc
 50
224.1529024653
 51
225.2384026057
  0
ARC
  5
37A
100
AcDbEntity
  8
0
100
AcDbCircle
 62
7
  6
CONTINUOUS
 10
22.8997986274
 20
307.658075189
 40
104.3297476006
100
AcDbArc
 50
335.4778900628
 51
336.0619537968
  0
ARC
  5
37B
100
AcDbEntity
  8
0
100
AcDbCircle
 62
7
  6
CONTINUOUS
 10
78.9032829135
 20
360.3522296592
 40
103.4353797795
100
AcDbArc
 50
264.7675901963
 51
274.3245352927
  0
ARC
  5
37C
100
AcDbEntity
  8
0
100
AcDbCircle
 62
7
  6
CONTINUOUS
 10
73.5574405909
 20
370.7824182609
 40
98.4704882849
100
AcDbArc
 50
265.9598623314
 51
267.1059423981
  0
ARC
  5
37D
100
AcDbEntity
  8
0
100
AcDbCircle
 62
7
  6
CONTINUOUS
 10
75.4779923372
 20
368.5882427114
 40
97.2127615052
100
AcDbArc
 50
274.905009201
 51
276.0644436083
  0
ARC
  5
37E
100
AcDbEntity
  8
0
100
AcDbCircle
 62
7
  6
CONTINUOUS
 10
82.8148001713
 20
358.7520920188
 40
82.3589369909
100
AcDbArc
 50
279.1651502824
 51
280.4702131919
  0
ARC
  5
37F
100
AcDbEntity
  8
0
100
AcDbCircle
 62
7
  6
CONTINUOUS
 10
89.0707878984
 20
296.1432436903
 40
80.2912670728
100
AcDbArc
 50
204.6475962434
 51
204.9056330891
  0
ARC
  5
380
100
AcDbEntity
  8
0
100
AcDbCircle
 62
7
  6
CONTINUOUS
 10
83.6087089654
 20
354.4910972625
 40
78.0246071194
100
AcDbArc
 50
280.5263652174
 51
281.6774522676
  0
ARC
  5
381
100
AcDbEntity
  8
0
100
AcDbCircle
 62
7
  6
CONTINUOUS
 10
67.9687873174
 20
340.2428248637
 40
66.3981666069
100
AcDbArc
 50
255.6913473446
 51
257.1779305013
  0
ARC
  5
382
100
AcDbEntity
  8
0
100
AcDbCircle
 62
7
  6
CONTINUOUS
 10
83.6821584102
 20
335.5798218035
 40
64.2533000385
100
AcDbArc
 50
285.1306679369
 51
286.6647090267
  0
ARC
  5
383
100
AcDbEntity
  8
0
100
AcDbCircle
 62
7
  6
CONTINUOUS
 10
98.4526083343
 20
297.9558534294
 40
38.8538708683
100
AcDbArc
 50
295.4301513326
 51
296.9359045323
  0
ARC
  5
384
100
AcDbEntity
  8
0
100
AcDbCircle
 62
7
  6
CONTINUOUS
 10
99.8055825461
 20
295.8586620246
 40
36.3263447432
100
AcDbArc
 50
294.9885514279
 51
296.6275393676
  0
ARC
  5
385
100
AcDbEntity
  8
0
100
AcDbCircle
 62
7
  6
CONTINUOUS
 10
54.9732846112
 20
305.4006715503
 40
27.9386563275
100
AcDbArc
 50
239.7542660901
 51
242.3980760086
  0
ARC
  5
386
100
AcDbEntity
  8
0
100
AcDbCircle
 62
7
  6
CONTINUOUS
 10
100.1896573649
 20
301.1437632581
 40
27.2081624077
100
AcDbArc
 50
300.6798784288
 51
303.4191101515
  0
ARC
  5
387
100
AcDbEntity
  8
0
100
AcDbCircle
 62
7
  6
CONTINUOUS
 10
57.7624121639
 20
296.2301265154
 40
11.0180676489
100
AcDbArc
 50
223.5508687411
 51
223.9460868885
  0
ARC
  5
388
100
AcDbEntity
  8
0
100
AcDbCircle
 62
7
  6
CONTINUOUS
 10
113.8835377325
 20
288.5277508837
 40
10.7555783237
100
AcDbArc
 50
11.7556305631
 51
14.6728971512
  0
ARC
  5
389
100
AcDbEntity
  8
0
100
AcDbCircle
 62
7
  6
CONTINUOUS
 10
47.0525439147
 20
288.5311742326
 40
10.7389609697
100
AcDbArc
 50
165.628645381
 51
168.2445289038
  0
ARC
  5
38A
100
AcDbEntity
  8
0
100
AcDbCircle
 62
7
  6
CONTINUOUS
 10
57.4002096302
 20
295.8892768773
 40
10.5207121508
100
AcDbArc
 50
221.3619470939
 51
223.5646021673
  0
ARC
  5
38B
100
AcDbEntity
  8
0
100
AcDbCircle
 62
7
  6
CONTINUOUS
 10
57.3528677711
 20
295.1419890429
 40
9.6531285298
100
AcDbArc
 50
220.5149663397
 51
224.3768720729
  0
ARC
  5
38C
100
AcDbEntity
  8
0
100
AcDbCircle
 62
7
  6
CONTINUOUS
 10
111.9796104164
 20
291.072853752
 40
9.4542200811
100
AcDbArc
 50
36.2134984163
 51
36.8802776977
  0
ARC
  5
38D
100
AcDbEntity
  8
0
100
AcDbCircle
 62
7
  6
CONTINUOUS
 10
56.7043114423
 20
294.5851650168
 40
8.7983338276
100
AcDbArc
 50
217.9647840771
 51
220.5020372684
  0
ARC
  5
38E
100
AcDbEntity
  8
0
100
AcDbCircle
 62
7
  6
CONTINUOUS
 10
106.019834882
 20
294.0076199287
 40
7.4123889423
100
AcDbArc
 50
328.7414098516
 51
329.406273332
  0
ARC
  5
38F
100
AcDbEntity
  8
0
100
AcDbCircle
 62
7
  6
CONTINUOUS
 10
106.2492164588
 20
293.8733905476
 40
7.1466222324
100
AcDbArc
 50
329.3966626999
 51
331.6899835397
  0
ARC
  5
390
100
AcDbEntity
  8
0
100
AcDbCircle
 62
7
  6
CONTINUOUS
 10
43.4935447656
 20
289.2714952015
 40
7.1038019298
100
AcDbArc
 50
168.2419076432
 51
171.4056948085
  0
ARC
  5
391
100
AcDbEntity
  8
0
100
AcDbCircle
 62
7
  6
CONTINUOUS
 10
43.378724559
 20
289.2895790784
 40
6.9875686477
100
AcDbArc
 50
171.4116184363
 51
172.9802927892
  0
ARC
  5
392
100
AcDbEntity
  8
0
100
AcDbCircle
 62
7
  6
CONTINUOUS
 10
106.4631627325
 20
293.7567661979
 40
6.9029570453
100
AcDbArc
 50
331.7000524491
 51
332.3240576341
  0
ARC
  5
393
100
AcDbEntity
  8
0
100
AcDbCircle
 62
7
  6
CONTINUOUS
 10
43.2771368989
 20
289.3027400546
 40
6.8851340889
100
AcDbArc
 50
172.9856787538
 51
189.8684818465
  0
ARC
  5
394
100
AcDbEntity
  8
0
100
AcDbCircle
 62
7
  6
CONTINUOUS
 10
114.6078190022
 20
292.226093754
 40
6.5683182153
100
AcDbArc
 50
9.8338862281
 51
10.7309914209
  0
ARC
  5
395
100
AcDbEntity
  8
0
100
AcDbCircle
 62
7
  6
CONTINUOUS
 10
106.9882284039
 20
292.8314525527
 40
5.5361553473
100
AcDbArc
 50
335.1957454894
 51
338.3204129966
  0
ARC
  5
396
100
AcDbEntity
  8
0
100
AcDbCircle
 62
7
  6
CONTINUOUS
 10
107.1576148812
 20
292.4603415201
 40
5.3234287907
100
AcDbArc
 50
10.7527532523
 51
17.6691861659
  0
ARC
  5
397
100
AcDbEntity
  8
0
100
AcDbCircle
 62
7
  6
CONTINUOUS
 10
53.7609790291
 20
291.6075440763
 40
5.2891476405
100
AcDbArc
 50
165.5295605847
 51
168.1311578914
  0
ARC
  5
398
100
AcDbEntity
  8
0
100
AcDbCircle
 62
7
  6
CONTINUOUS
 10
107.2001623967
 20
290.5529356021
 40
5.2799979775
100
AcDbArc
 50
10.7807137334
 51
14.723918301
  0
ARC
  5
399
100
AcDbEntity
  8
0
100
AcDbCircle
 62
7
  6
CONTINUOUS
 10
107.342099622
 20
292.4972349378
 40
5.1353004113
100
AcDbArc
 50
9.1899080756
 51
10.7323793039
  0
ARC
  5
39A
100
AcDbEntity
  8
0
100
AcDbCircle
 62
7
  6
CONTINUOUS
 10
107.4554789017
 20
292.5143931571
 40
5.0206362645
100
AcDbArc
 50
0.4712638291
 51
9.2032546658
  0
ARC
  5
39B
100
AcDbEntity
  8
0
100
AcDbCircle
 62
7
  6
CONTINUOUS
 10
53.4939147376
 20
292.5140165456
 40
5.0177503567
100
AcDbArc
 50
170.7919137974
 51
179.8377363268
  0
ARC
  5
39C
100
AcDbEntity
  8
0
100
AcDbCircle
 62
7
  6
CONTINUOUS
 10
107.3008975093
 20
293.3071448628
 40
4.9752613759
100
AcDbArc
 50
351.8208103751
 51
359.9732184941
  0
ARC
  5
39D
100
AcDbEntity
  8
0
100
AcDbCircle
 62
7
  6
CONTINUOUS
 10
53.6439201197
 20
293.3064848383
 40
4.9677361403
100
AcDbArc
 50
180.0192096313
 51
188.142076191
  0
ARC
  5
39E
100
AcDbEntity
  8
0
100
AcDbCircle
 62
7
  6
CONTINUOUS
 10
36.4974866252
 20
290.3012789076
 40
0.9554059154
100
AcDbArc
 50
91.6835664944
 51
93.2307854456
  0
ARC
  5
39F
100
AcDbEntity
  8
0
100
AcDbCircle
 62
7
  6
CONTINUOUS
 10
244.2536048879
 20
87.2434446988
 40
231.6717205188
100
AcDbArc
 50
130.6678879176
 51
132.8173596572
  0
ARC
  5
3A0
100
AcDbEntity
  8
0
100
AcDbCircle
 62
7
  6
CONTINUOUS
 10
326.2677176818
 20
257.0899825578
 40
258.1386317879
100
AcDbArc
 50
176.5914916438
 51
177.2114703392
  0
ARC
  5
3A1
100
AcDbEntity
  8
0
100
AcDbCircle
 62
7
  6
CONTINUOUS
 10
171.7788262828
 20
260.5419247054
 40
119.4854112911
100
AcDbArc
 50
172.8082442754
 51
174.1368462949
  0
ARC
  5
3A2
100
AcDbEntity
  8
0
100
AcDbCircle
 62
7
  6
CONTINUOUS
 10
123.8968451946
 20
266.1643960173
 40
83.1384683203
100
AcDbArc
 50
169.9716427108
 51
171.8521161176
  0
ARC
  5
3A3
100
AcDbEntity
  8
0
100
AcDbCircle
 62
7
  6
CONTINUOUS
 10
114.8203452392
 20
287.0691969796
 40
10.2804204616
100
AcDbArc
 50
8.5356503309
 51
8.872985208
  0
ARC
  5
3A4
100
AcDbEntity
  8
0
100
AcDbCircle
 62
7
  6
CONTINUOUS
 10
117.2469753843
 20
289.22934734
 40
7.319752504
100
AcDbArc
 50
10.7393225924
 51
11.3759066016
  0
ARC
  5
3A5
100
AcDbEntity
  8
0
100
AcDbCircle
 62
7
  6
CONTINUOUS
 10
118.351570516
 20
287.9939877926
 40
6.6216685486
100
AcDbArc
 50
21.625404778
 51
23.0932594891
  0
ARC
  5
3A6
100
AcDbEntity
  8
0
100
AcDbCircle
 62
7
  6
CONTINUOUS
 10
124.0461051576
 20
290.5160842661
 40
0.4035756596
100
AcDbArc
 50
5.6550843874
 51
10.7264105288
  0
SPLINE
  5
3A7
100
AcDbEntity
  8
0
100
AcDbSpline
 62
7
  6
CONTINUOUS
 70
0
 71
3
 72
9
 73
5
 74
0
 42
0.0000001
 43
0.0000001
 44
0.0000000001
 40
0.0
 40
0.0
 40
0.0
 40
0.0
 40
0.4783466213
 40
1.0
 40
1.0
 40
1.0
 40
1.0
 10
27.9731347967
 20
202.6171049275
 30
0.0
 10
27.9664628451
 20
202.6113170604
 30
0.0
 10
27.9495699147
 20
202.6022698047
 30
0.0
 10
27.9306446571
 20
202.6011819698
 30
0.0
 10
27.9210469474
 20
202.6019966446
 30
0.0
  0
SPLINE
  5
3A8
100
AcDbEntity
  8
0
100
AcDbSpline
 62
7
  6
CONTINUOUS
 70
0
 71
3
 72
23
 73
19
 74
0
 42
0.0000001
 43
0.0000001
 44
0.0000000001
 40
0.0
 40
0.0
 40
0.0
 40
0.0
 40
0.061941701
 40
0.1251231665
 40
0.1893964993
 40
0.2545200668
 40
0.3201883668
 40
0.386052843
 40
0.4517503243
 40
0.5169302777
 40
0.5812820549
 40
0.6445600174
 40
0.7066046729
 40
0.7673583389
 40
0.8268720419
 40
0.8853042472
 40
0.942905098
 40
1.0
 40
1.0
 40
1.0
 40
1.0
 10
27.9731470613
 20
202.6170864965
 30
0.0
 10
28.0949237226
 20
202.7225274168
 30
0.0
 10
28.3257152717
 20
202.9537038102
 30
0.0
 10
28.6236463602
 20
203.3476561674
 30
0.0
 10
28.8716172762
 20
203.7843822102
 30
0.0
 10
29.0648402636
 20
204.2548390056
 30
0.0
 10
29.1996761787
 20
204.7494882454
 30
0.0
 10
29.2735107243
 20
205.2583342572
 30
0.0
 10
29.2848643389
 20
205.7711251852
 30
0.0
 10
29.2334011423
 20
206.2775358331
 30
0.0
 10
29.1199350892
 20
206.7673535104
 30
0.0
 10
28.9464081699
 20
207.2306433915
 30
0.0
 10
28.7158681666
 20
207.657886455
 30
0.0
 10
28.4324552801
 20
208.0400904542
 30
0.0
 10
28.1014583666
 20
208.3689034551
 30
0.0
 10
27.7293023415
 20
208.6367728725
 30
0.0
 10
27.3238916798
 20
208.8371707573
 30
0.0
 10
27.0363331383
 20
208.9226704924
 30
0.0
 10
26.8908968063
 20
208.9525676791
 30
0.0
  0
LINE
  5
3A9
100
AcDbEntity
  8
0
100
AcDbLine
 62
7
  6
CONTINUOUS
 10
24.05134127
 20
208.3851124507
 11
24.5580168116
 21
208.287472301
  0
SPLINE
  5
3AA
100
AcDbEntity
  8
0
100
AcDbSpline
 62
7
  6
CONTINUOUS
 70
0
 71
3
 72
13
 73
9
 74
0
 42
0.0000001
 43
0.0000001
 44
0.0000000001
 40
0.0
 40
0.0
 40
0.0
 40
0.0
 40
0.0840719031
 40
0.1726675138
 40
0.2727203396
 40
0.3880341442
 40
0.6664886596
 40
1.0
 40
1.0
 40
1.0
 40
1.0
 10
27.1215488423
 20
202.0896789374
 30
0.0
 10
27.1283386607
 20
202.0924447919
 30
0.0
 10
27.1413616712
 20
202.1007830758
 30
0.0
 10
27.1557310439
 20
202.1202569324
 30
0.0
 10
27.164780823
 20
202.1454707236
 30
0.0
 10
27.1702743338
 20
202.1884246307
 30
0.0
 10
27.1625279879
 20
202.2521843642
 30
0.0
 10
27.145925449
 20
202.3031283527
 30
0.0
 10
27.134946803
 20
202.3300607342
 30
0.0
  0
LINE
  5
3AB
100
AcDbEntity
  8
0
100
AcDbLine
 62
7
  6
CONTINUOUS
 10
27.4374385766
 20
202.6430493201
 11
27.9210469474
 21
202.6019966446
  0
SPLINE
  5
3AC
100
AcDbEntity
  8
0
100
AcDbSpline
 62
7
  6
CONTINUOUS
 70
0
 71
3
 72
9
 73
5
 74
0
 42
0.0000001
 43
0.0000001
 44
0.0000000001
 40
0.0
 40
0.0
 40
0.0
 40
0.0
 40
0.4961673286
 40
1.0
 40
1.0
 40
1.0
 40
1.0
 10
25.9021683406
 20
201.8929242422
 30
0.0
 10
26.107246113
 20
201.8774005497
 30
0.0
 10
26.5257616961
 20
201.8958439877
 30
0.0
 10
26.9281804639
 20
202.0107908651
 30
0.0
 10
27.1215510356
 20
202.0896751107
 30
0.0
  0
SPLINE
  5
3AD
100
AcDbEntity
  8
0
100
AcDbSpline
 62
7
  6
CONTINUOUS
 70
0
 71
3
 72
9
 73
5
 74
0
 42
0.0000001
 43
0.0000001
 44
0.0000000001
 40
0.0
 40
0.0
 40
0.0
 40
0.0
 40
0.2530263163
 40
1.0
 40
1.0
 40
1.0
 40
1.0
 10
24.6310990853
 20
204.8795433112
 30
0.0
 10
24.6383142578
 20
204.8391189702
 30
0.0
 10
24.6708845265
 20
204.6801136373
 30
0.0
 10
24.7198429415
 20
204.5244040538
 30
0.0
 10
24.7656029157
 20
204.4121474886
 30
0.0
  0
SPLINE
  5
3AE
100
AcDbEntity
  8
0
100
AcDbSpline
 62
7
  6
CONTINUOUS
 70
0
 71
3
 72
13
 73
9
 74
0
 42
0.0000001
 43
0.0000001
 44
0.0000000001
 40
0.0
 40
0.0
 40
0.0
 40
0.0
 40
0.2813978411
 40
0.5611549679
 40
0.6905433494
 40
0.8082323026
 40
0.9117716848
 40
1.0
 40
1.0
 40
1.0
 40
1.0
 10
24.8243662027
 20
207.9982859917
 30
0.0
 10
24.810026101
 20
208.033464564
 30
0.0
 10
24.774737763
 20
208.1009695282
 30
0.0
 10
24.718555951
 20
208.1760018079
 30
0.0
 10
24.6679523894
 20
208.226147957
 30
0.0
 10
24.6306692505
 20
208.2555255551
 30
0.0
 10
24.5944208686
 20
208.2765941431
 30
0.0
 10
24.5697125516
 20
208.2852183802
 30
0.0
 10
24.5580168116
 20
208.287472301
 30
0.0
  0
SPLINE
  5
3AF
100
AcDbEntity
  8
0
100
AcDbSpline
 62
7
  6
CONTINUOUS
 70
0
 71
3
 72
21
 73
17
 74
0
 42
0.0000001
 43
0.0000001
 44
0.0000000001
 40
0.0
 40
0.0
 40
0.0
 40
0.0
 40
0.0571758139
 40
0.1145681696
 40
0.1725134375
 40
0.2313027477
 40
0.2911607567
 40
0.3522257654
 40
0.4145410403
 40
0.4780519509
 40
0.6077611421
 40
0.6736952377
 40
0.7398526685
 40
0.8712660323
 40
0.9361257949
 40
1.0
 40
1.0
 40
1.0
 40
1.0
 10
25.8159796986
 20
209.173537206
 30
0.0
 10
25.6740223112
 20
209.20271923
 30
0.0
 10
25.3841558111
 20
209.2377051202
 30
0.0
 10
24.9454551649
 20
209.2178236496
 30
0.0
 10
24.5116955097
 20
209.1264424721
 30
0.0
 10
24.091932215
 20
208.965970782
 30
0.0
 10
23.6943366527
 20
208.74027599
 30
0.0
 10
23.3263558545
 20
208.4543950043
 30
0.0
 10
22.9945703315
 20
208.1141900549
 30
0.0
 10
22.6058956674
 20
207.5942541543
 30
0.0
 10
22.3153997604
 20
206.9964154708
 30
0.0
 10
22.1346981618
 20
206.3566742545
 30
0.0
 10
22.0291163976
 20
205.6959249951
 30
0.0
 10
22.0401722661
 20
205.0233517094
 30
0.0
 10
22.1698625011
 20
204.375595579
 30
0.0
 10
22.2734177856
 20
204.0650013304
 30
0.0
 10
22.3345334171
 20
203.9150748718
 30
0.0
  0
SPLINE
  5
3B0
100
AcDbEntity
  8
0
100
AcDbSpline
 62
7
  6
CONTINUOUS
 70
0
 71
3
 72
15
 73
11
 74
0
 42
0.0000001
 43
0.0000001
 44
0.0000000001
 40
0.0
 40
0.0
 40
0.0
 40
0.0
 40
0.1320959108
 40
0.2618025357
 40
0.3891159631
 40
0.5141927127
 40
0.637337633
 40
0.7589861803
 40
0.8796735295
 40
1.0
 40
1.0
 40
1.0
 40
1.0
 10
22.3345334171
 20
203.9150748718
 30
0.0
 10
22.3895442681
 20
203.7801244205
 30
0.0
 10
22.5144287133
 20
203.5187731979
 30
0.0
 10
22.7463806483
 20
203.1562537906
 30
0.0
 10
23.0181279426
 20
202.8323839434
 30
0.0
 10
23.3256297942
 20
202.5527886658
 30
0.0
 10
23.6641427302
 20
202.3224600152
 30
0.0
 10
24.0282022185
 20
202.1457201511
 30
0.0
 10
24.4114850934
 20
202.0260107294
 30
0.0
 10
24.675535654
 20
201.9857761801
 30
0.0
 10
24.8079045829
 20
201.9757563008
 30
0.0
  0
SPLINE
  5
3B1
100
AcDbEntity
  8
0
100
AcDbSpline
 62
7
  6
CONTINUOUS
 70
0
 71
3
 72
11
 73
7
 74
0
 42
0.0000001
 43
0.0000001
 44
0.0000000001
 40
0.0
 40
0.0
 40
0.0
 40
0.0
 40
0.2545340139
 40
0.5050780432
 40
0.7530286465
 40
1.0
 40
1.0
 40
1.0
 40
1.0
 10
25.3926786528
 20
208.8044900896
 30
0.0
 10
25.5125673968
 20
208.8534758549
 30
0.0
 10
25.7575891286
 20
208.9343117428
 30
0.0
 10
26.1363185919
 20
209.0006615455
 30
0.0
 10
26.5168897268
 20
209.0099423149
 30
0.0
 10
26.7678080935
 20
208.9778695513
 30
0.0
 10
26.8908967856
 20
208.9525675678
 30
0.0
  0
SPLINE
  5
3B2
100
AcDbEntity
  8
0
100
AcDbSpline
 62
7
  6
CONTINUOUS
 70
0
 71
3
 72
15
 73
11
 74
0
 42
0.0000001
 43
0.0000001
 44
0.0000000001
 40
0.0
 40
0.0
 40
0.0
 40
0.0
 40
0.1233295424
 40
0.2492095504
 40
0.3766969296
 40
0.5046768993
 40
0.63199542
 40
0.7575605562
 40
0.8804426019
 40
1.0
 40
1.0
 40
1.0
 40
1.0
 10
23.9021472181
 20
203.9208620874
 30
0.0
 10
23.8352628985
 20
204.0903419374
 30
0.0
 10
23.7277340313
 20
204.4443222107
 30
0.0
 10
23.6484823995
 20
204.9971442151
 30
0.0
 10
23.6512077351
 20
205.562548225
 30
0.0
 10
23.7358573076
 20
206.1236771452
 30
0.0
 10
23.8998995936
 20
206.6639922693
 30
0.0
 10
24.1386215883
 20
207.1675333128
 30
0.0
 10
24.4449463019
 20
207.6192407161
 30
0.0
 10
24.6923517116
 20
207.8809427096
 30
0.0
 10
24.8243662027
 20
207.9982859917
 30
0.0
  0
SPLINE
  5
3B3
100
AcDbEntity
  8
0
100
AcDbSpline
 62
7
  6
CONTINUOUS
 70
0
 71
3
 72
15
 73
11
 74
0
 42
0.0000001
 43
0.0000001
 44
0.0000000001
 40
0.0
 40
0.0
 40
0.0
 40
0.0
 40
0.1230757341
 40
0.2439018168
 40
0.3639653423
 40
0.4848571716
 40
0.6080430287
 40
0.7346360828
 40
0.8652526683
 40
1.0
 40
1.0
 40
1.0
 40
1.0
 10
25.6590280439
 20
208.5153037804
 30
0.0
 10
25.8125500632
 20
208.575208541
 30
0.0
 10
26.1293524289
 20
208.6646413631
 30
0.0
 10
26.6189809227
 20
208.6982497994
 30
0.0
 10
27.1020908672
 20
208.6285476824
 30
0.0
 10
27.5625756438
 20
208.4577224024
 30
0.0
 10
27.9855918091
 20
208.1917546357
 30
0.0
 10
28.357908987
 20
207.839640935
 30
0.0
 10
28.6682500688
 20
207.4130898511
 30
0.0
 10
28.8255955022
 20
207.092329669
 30
0.0
 10
28.8918276288
 20
206.9245024272
 30
0.0
  0
SPLINE
  5
3B4
100
AcDbEntity
  8
0
100
AcDbSpline
 62
7
  6
CONTINUOUS
 70
0
 71
3
 72
15
 73
11
 74
0
 42
0.0000001
 43
0.0000001
 44
0.0000000001
 40
0.0
 40
0.0
 40
0.0
 40
0.0
 40
0.1233295424
 40
0.2492095504
 40
0.3766969296
 40
0.5046768993
 40
0.63199542
 40
0.7575605562
 40
0.8804426019
 40
1.0
 40
1.0
 40
1.0
 40
1.0
 10
28.8918276288
 20
206.9245024272
 30
0.0
 10
28.9587119484
 20
206.7550225772
 30
0.0
 10
29.0662408157
 20
206.4010423038
 30
0.0
 10
29.1454924474
 20
205.8482202995
 30
0.0
 10
29.1427671118
 20
205.2828162896
 30
0.0
 10
29.0581175393
 20
204.7216873693
 30
0.0
 10
28.8940752533
 20
204.1813722453
 30
0.0
 10
28.6553532586
 20
203.6778312018
 30
0.0
 10
28.349028545
 20
203.2261237984
 30
0.0
 10
28.1016231354
 20
202.964421805
 30
0.0
 10
27.9696086442
 20
202.8470785228
 30
0.0
  0
SPLINE
  5
3B5
100
AcDbEntity
  8
0
100
AcDbSpline
 62
7
  6
CONTINUOUS
 70
0
 71
3
 72
9
 73
5
 74
0
 42
0.0000001
 43
0.0000001
 44
0.0000000001
 40
0.0
 40
0.0
 40
0.0
 40
0.0
 40
0.2531066687
 40
1.0
 40
1.0
 40
1.0
 40
1.0
 10
24.8080888998
 20
204.3147672409
 30
0.0
 10
24.8210361925
 20
204.2869708113
 30
0.0
 10
24.8745289764
 20
204.1782591463
 30
0.0
 10
24.9374768407
 20
204.0741643032
 30
0.0
 10
24.989561986
 20
204.0001718463
 30
0.0
  0
SPLINE
  5
3B6
100
AcDbEntity
  8
0
100
AcDbSpline
 62
7
  6
CONTINUOUS
 70
0
 71
3
 72
9
 73
5
 74
0
 42
0.0000001
 43
0.0000001
 44
0.0000000001
 40
0.0
 40
0.0
 40
0.0
 40
0.0
 40
0.2530263163
 40
1.0
 40
1.0
 40
1.0
 40
1.0
 10
28.1628757616
 20
205.9658212034
 30
0.0
 10
28.1556605891
 20
206.0062455444
 30
0.0
 10
28.1230903205
 20
206.1652508773
 30
0.0
 10
28.0741319054
 20
206.3209604607
 30
0.0
 10
28.0283719312
 20
206.4332170259
 30
0.0
  0
SPLINE
  5
3B7
100
AcDbEntity
  8
0
100
AcDbSpline
 62
7
  6
CONTINUOUS
 70
0
 71
3
 72
9
 73
5
 74
0
 42
0.0000001
 43
0.0000001
 44
0.0000000001
 40
0.0
 40
0.0
 40
0.0
 40
0.0
 40
0.2539471459
 40
1.0
 40
1.0
 40
1.0
 40
1.0
 10
28.0283719312
 20
206.4332170259
 30
0.0
 10
28.0133707449
 20
206.4700173448
 30
0.0
 10
27.9504027362
 20
206.6133001615
 30
0.0
 10
27.8716160907
 20
206.7497233736
 30
0.0
 10
27.8044128609
 20
206.8451926683
 30
0.0
  0
SPLINE
  5
3B8
100
AcDbEntity
  8
0
100
AcDbSpline
 62
7
  6
CONTINUOUS
 70
0
 71
3
 72
13
 73
9
 74
0
 42
0.0000001
 43
0.0000001
 44
0.0000000001
 40
0.0
 40
0.0
 40
0.0
 40
0.0
 40
0.3226140649
 40
0.6000470459
 40
0.7187783444
 40
0.8236007309
 40
0.9161456764
 40
1.0
 40
1.0
 40
1.0
 40
1.0
 10
27.9696086442
 20
202.8470785228
 30
0.0
 10
27.9794287945
 20
202.8229881173
 30
0.0
 10
27.9948231372
 20
202.7769313116
 30
0.0
 10
28.0037144349
 20
202.7191677979
 30
0.0
 10
28.0020592286
 20
202.6786707033
 30
0.0
 10
27.9968074841
 20
202.653571254
 30
0.0
 10
27.9874829135
 20
202.6326750913
 30
0.0
 10
27.9782425809
 20
202.6215358912
 30
0.0
 10
27.9731347967
 20
202.6171049275
 30
0.0
  0
SPLINE
  5
3B9
100
AcDbEntity
  8
0
100
AcDbSpline
 62
7
  6
CONTINUOUS
 70
0
 71
3
 72
9
 73
5
 74
0
 42
0.0000001
 43
0.0000001
 44
0.0000000001
 40
0.0
 40
0.0
 40
0.0
 40
0.0
 40
0.4925207518
 40
1.0
 40
1.0
 40
1.0
 40
1.0
 10
26.3237993636
 20
204.1918763834
 30
0.0
 10
26.3896046626
 20
204.2353328011
 30
0.0
 10
26.5154837178
 20
204.3357323327
 30
0.0
 10
26.6229009858
 20
204.4555022934
 30
0.0
 10
26.6723243764
 20
204.5199973191
 30
0.0
  0
SPLINE
  5
3BA
100
AcDbEntity
  8
0
100
AcDbSpline
 62
7
  6
CONTINUOUS
 70
0
 71
3
 72
22
 73
18
 74
0
 42
0.0000001
 43
0.0000001
 44
0.0000000001
 40
0.0
 40
0.0
 40
0.0
 40
0.0
 40
0.0558893422
 40
0.1120659123
 40
0.168965754
 40
0.2269541315
 40
0.286294849
 40
0.3471334439
 40
0.4094935264
 40
0.4732835609
 40
0.5383109225
 40
0.6043005315
 40
0.7375549742
 40
0.8042828803
 40
0.8704906313
 40
0.9358276202
 40
1.0
 40
1.0
 40
1.0
 40
1.0
 10
25.8159792259
 20
209.1735345977
 30
0.0
 10
25.6775980598
 20
209.2019841675
 30
0.0
 10
25.3947848665
 20
209.23588615
 30
0.0
 10
24.9663026344
 20
209.2154286054
 30
0.0
 10
24.5416591128
 20
209.1242821738
 30
0.0
 10
24.1293954672
 20
208.9644169488
 30
0.0
 10
23.7374884428
 20
208.7391908368
 30
0.0
 10
23.3734684565
 20
208.453178118
 30
0.0
 10
23.0442494589
 20
208.1120508359
 30
0.0
 10
22.756064788
 20
207.7225108986
 30
0.0
 10
22.5143346745
 20
207.2919928487
 30
0.0
 10
22.259435394
 20
206.6731978388
 30
0.0
 10
22.1154331304
 20
206.0089486983
 30
0.0
 10
22.0888123538
 20
205.3354800956
 30
0.0
 10
22.1278966473
 20
204.8345433463
 30
0.0
 10
22.2254083103
 20
204.3483594957
 30
0.0
 10
22.3293041865
 20
204.0368144431
 30
0.0
 10
22.3905362593
 20
203.8866023355
 30
0.0
  0
LINE
  5
3BB
100
AcDbEntity
  8
0
100
AcDbLine
 62
7
  6
CONTINUOUS
 10
25.3926786528
 20
208.8044900896
 11
24.8860031112
 21
208.9021302393
  0
SPLINE
  5
3BC
100
AcDbEntity
  8
0
100
AcDbSpline
 62
7
  6
CONTINUOUS
 70
0
 71
3
 72
9
 73
5
 74
0
 42
0.0000001
 43
0.0000001
 44
0.0000000001
 40
0.0
 40
0.0
 40
0.0
 40
0.0
 40
0.2429398799
 40
1.0
 40
1.0
 40
1.0
 40
1.0
 10
24.6655392273
 20
204.7578283494
 30
0.0
 10
24.6923319753
 20
204.7615003133
 30
0.0
 10
24.802651434
 20
204.7763615202
 30
0.0
 10
24.9131455279
 20
204.7899654567
 30
0.0
 10
24.9969138262
 20
204.7991768266
 30
0.0
  0
SPLINE
  5
3BD
100
AcDbEntity
  8
0
100
AcDbSpline
 62
7
  6
CONTINUOUS
 70
0
 71
3
 72
11
 73
7
 74
0
 42
0.0000001
 43
0.0000001
 44
0.0000000001
 40
0.0
 40
0.0
 40
0.0
 40
0.0
 40
0.2611852057
 40
0.5146282933
 40
0.7605358499
 40
1.0
 40
1.0
 40
1.0
 40
1.0
 10
22.3905362593
 20
203.8866023355
 30
0.0
 10
22.4635193489
 20
203.7075630966
 30
0.0
 10
22.6351181831
 20
203.3652566913
 30
0.0
 10
22.9692405857
 20
202.9087606912
 30
0.0
 10
23.3672376621
 20
202.529389429
 30
0.0
 10
23.6714870145
 20
202.3333129452
 30
0.0
 10
23.8293144427
 20
202.2526094149
 30
0.0
  0
SPLINE
  5
3BE
100
AcDbEntity
  8
0
100
AcDbSpline
 62
7
  6
CONTINUOUS
 70
0
 71
3
 72
8
 73
4
 74
0
 42
0.0000001
 43
0.0000001
 44
0.0000000001
 40
0.0
 40
0.0
 40
0.0
 40
0.0
 40
1.0
 40
1.0
 40
1.0
 40
1.0
 10
24.6655392273
 20
204.7578283494
 30
0.0
 10
24.6640030784
 20
204.7485923115
 30
0.0
 10
24.6632599637
 20
204.739207998
 30
0.0
 10
24.6630895223
 20
204.729846636
 30
0.0
  0
SPLINE
  5
3BF
100
AcDbEntity
  8
0
100
AcDbSpline
 62
7
  6
CONTINUOUS
 70
0
 71
3
 72
15
 73
11
 74
0
 42
0.0000001
 43
0.0000001
 44
0.0000000001
 40
0.0
 40
0.0
 40
0.0
 40
0.0
 40
0.1190276239
 40
0.2385340071
 40
0.3593024903
 40
0.482013101
 40
0.6071931224
 40
0.7351852297
 40
0.8661370267
 40
1.0
 40
1.0
 40
1.0
 40
1.0
 10
25.9021683545
 20
201.8929243893
 30
0.0
 10
25.7762578353
 20
201.9024568303
 30
0.0
 10
25.5249646196
 20
201.9408314992
 30
0.0
 10
25.1599260843
 20
202.055259748
 30
0.0
 10
24.8125031682
 20
202.2246092702
 30
0.0
 10
24.488477888
 20
202.4459859394
 30
0.0
 10
24.1930362459
 20
202.7156611958
 30
0.0
 10
23.930871335
 20
203.0291787507
 30
0.0
 10
23.7061362293
 20
203.3813390298
 30
0.0
 10
23.5847988364
 20
203.6355950871
 30
0.0
 10
23.5311933545
 20
203.7670979427
 30
0.0
  0
SPLINE
  5
3C0
100
AcDbEntity
  8
0
100
AcDbSpline
 62
7
  6
CONTINUOUS
 70
0
 71
3
 72
9
 73
5
 74
0
 42
0.0000001
 43
0.0000001
 44
0.0000000001
 40
0.0
 40
0.0
 40
0.0
 40
0.0
 40
0.4921372466
 40
1.0
 40
1.0
 40
1.0
 40
1.0
 10
25.8756228451
 20
206.3747863868
 30
0.0
 10
25.9140542329
 20
206.3325888843
 30
0.0
 10
25.9841159495
 20
206.2392557364
 30
0.0
 10
26.0367272343
 20
206.1352078953
 30
0.0
 10
26.0589604598
 20
206.0806662228
 30
0.0
  0
SPLINE
  5
3C1
100
AcDbEntity
  8
0
100
AcDbSpline
 62
7
  6
CONTINUOUS
 70
0
 71
3
 72
15
 73
11
 74
0
 42
0.0000001
 43
0.0000001
 44
0.0000000001
 40
0.0
 40
0.0
 40
0.0
 40
0.0
 40
0.1232498674
 40
0.2491454621
 40
0.3767124408
 40
0.5047974735
 40
0.6322006356
 40
0.7577884056
 40
0.8806054487
 40
1.0
 40
1.0
 40
1.0
 40
1.0
 10
23.5311933545
 20
203.7670979427
 30
0.0
 10
23.4547976482
 20
203.954508878
 30
0.0
 10
23.3316276485
 20
204.3468094886
 30
0.0
 10
23.2397713054
 20
204.9608318222
 30
0.0
 10
23.2407916336
 20
205.5897001763
 30
0.0
 10
23.3346804923
 20
206.2139547338
 30
0.0
 10
23.5185118391
 20
206.8145106096
 30
0.0
 10
23.7868233794
 20
207.3729594162
 30
0.0
 10
24.1313721415
 20
207.8719581896
 30
0.0
 10
24.4096522874
 20
208.1593131712
 30
0.0
 10
24.5580168116
 20
208.287472301
 30
0.0
  0
SPLINE
  5
3C2
100
AcDbEntity
  8
0
100
AcDbSpline
 62
7
  6
CONTINUOUS
 70
0
 71
3
 72
9
 73
5
 74
0
 42
0.0000001
 43
0.0000001
 44
0.0000000001
 40
0.0
 40
0.0
 40
0.0
 40
0.0
 40
0.5026145978
 40
1.0
 40
1.0
 40
1.0
 40
1.0
 10
25.9969304483
 20
205.044701205
 30
0.0
 10
26.1087444816
 20
204.9550905543
 30
0.0
 10
26.3331510399
 20
204.7792263079
 30
0.0
 10
26.5594769606
 20
204.6058628617
 30
0.0
 10
26.6723243764
 20
204.5199973191
 30
0.0
  0
SPLINE
  5
3C3
100
AcDbEntity
  8
0
100
AcDbSpline
 62
7
  6
CONTINUOUS
 70
0
 71
3
 72
9
 73
5
 74
0
 42
0.0000001
 43
0.0000001
 44
0.0000000001
 40
0.0
 40
0.0
 40
0.0
 40
0.0
 40
0.4977230606
 40
1.0
 40
1.0
 40
1.0
 40
1.0
 10
25.6511173114
 20
207.0251822403
 30
0.0
 10
25.6024618005
 20
206.9667806758
 30
0.0
 10
25.5057713635
 20
206.8485542126
 30
0.0
 10
25.4126275881
 20
206.7274500889
 30
0.0
 10
25.3675835654
 20
206.6653585938
 30
0.0
  0
SPLINE
  5
3C4
100
AcDbEntity
  8
0
100
AcDbSpline
 62
7
  6
CONTINUOUS
 70
0
 71
3
 72
9
 73
5
 74
0
 42
0.0000001
 43
0.0000001
 44
0.0000000001
 40
0.0
 40
0.0
 40
0.0
 40
0.0
 40
0.5067693305
 40
1.0
 40
1.0
 40
1.0
 40
1.0
 10
24.05134127
 20
208.3851124507
 30
0.0
 10
24.1774062806
 20
208.4937085183
 30
0.0
 10
24.4426922723
 20
208.689676564
 30
0.0
 10
24.7361832307
 20
208.8406486535
 30
0.0
 10
24.8860031112
 20
208.9021302393
 30
0.0
  0
SPLINE
  5
3C5
100
AcDbEntity
  8
0
100
AcDbSpline
 62
7
  6
CONTINUOUS
 70
0
 71
3
 72
9
 73
5
 74
0
 42
0.0000001
 43
0.0000001
 44
0.0000000001
 40
0.0
 40
0.0
 40
0.0
 40
0.0
 40
0.512697143
 40
1.0
 40
1.0
 40
1.0
 40
1.0
 10
25.9969304483
 20
205.044701205
 30
0.0
 10
25.9491725551
 20
204.9560851981
 30
0.0
 10
25.8332925349
 20
204.7942697314
 30
0.0
 10
25.6756408243
 20
204.6714735009
 30
0.0
 10
25.5915980555
 20
204.6257412864
 30
0.0
  0
SPLINE
  5
3C6
100
AcDbEntity
  8
0
100
AcDbSpline
 62
7
  6
CONTINUOUS
 70
0
 71
3
 72
9
 73
5
 74
0
 42
0.0000001
 43
0.0000001
 44
0.0000000001
 40
0.0
 40
0.0
 40
0.0
 40
0.0
 40
0.4942281648
 40
1.0
 40
1.0
 40
1.0
 40
1.0
 10
26.0589604598
 20
206.0806662228
 30
0.0
 10
26.0849319776
 20
206.0169539191
 30
0.0
 10
26.1253045224
 20
205.8828082289
 30
0.0
 10
26.141406218
 20
205.7437491778
 30
0.0
 10
26.1435739753
 20
205.6733730876
 30
0.0
  0
SPLINE
  5
3C7
100
AcDbEntity
  8
0
100
AcDbSpline
 62
7
  6
CONTINUOUS
 70
0
 71
3
 72
9
 73
5
 74
0
 42
0.0000001
 43
0.0000001
 44
0.0000000001
 40
0.0
 40
0.0
 40
0.0
 40
0.0
 40
0.4945819734
 40
1.0
 40
1.0
 40
1.0
 40
1.0
 10
25.6511173114
 20
207.0251822403
 30
0.0
 10
25.5857635287
 20
207.015678072
 30
0.0
 10
25.4551203726
 20
206.9845150623
 30
0.0
 10
25.3318182302
 20
206.9314754189
 30
0.0
 10
25.2721704006
 20
206.8999034291
 30
0.0
  0
SPLINE
  5
3C8
100
AcDbEntity
  8
0
100
AcDbSpline
 62
7
  6
CONTINUOUS
 70
0
 71
3
 72
15
 73
11
 74
0
 42
0.0000001
 43
0.0000001
 44
0.0000000001
 40
0.0
 40
0.0
 40
0.0
 40
0.0
 40
0.1230757341
 40
0.2439018168
 40
0.3639653423
 40
0.4848571716
 40
0.6080430287
 40
0.7346360828
 40
0.8652526683
 40
1.0
 40
1.0
 40
1.0
 40
1.0
 10
27.134946803
 20
202.3300607342
 30
0.0
 10
26.9814247837
 20
202.2701559735
 30
0.0
 10
26.664622418
 20
202.1807231515
 30
0.0
 10
26.1749939242
 20
202.1471147152
 30
0.0
 10
25.6918839797
 20
202.2168168322
 30
0.0
 10
25.2313992031
 20
202.3876421122
 30
0.0
 10
24.8083830378
 20
202.6536098789
 30
0.0
 10
24.4360658599
 20
203.0057235796
 30
0.0
 10
24.1257247781
 20
203.4322746635
 30
0.0
 10
23.9683793447
 20
203.7530348455
 30
0.0
 10
23.9021472181
 20
203.9208620874
 30
0.0
  0
SPLINE
  5
3C9
100
AcDbEntity
  8
0
100
AcDbSpline
 62
7
  6
CONTINUOUS
 70
0
 71
3
 72
13
 73
9
 74
0
 42
0.0000001
 43
0.0000001
 44
0.0000000001
 40
0.0
 40
0.0
 40
0.0
 40
0.0
 40
0.0882338457
 40
0.1917572865
 40
0.3094424488
 40
0.4388730957
 40
0.7185791159
 40
1.0
 40
1.0
 40
1.0
 40
1.0
 10
25.3926786528
 20
208.8044900896
 30
0.0
 10
25.4043751339
 20
208.802236026
 30
0.0
 10
25.4290783738
 20
208.7936034614
 30
0.0
 10
25.4653378299
 20
208.7725597986
 30
0.0
 10
25.5026193684
 20
208.7431708755
 30
0.0
 10
25.553187851
 20
208.6929945509
 30
0.0
 10
25.6094239858
 20
208.6180034121
 30
0.0
 10
25.6446867582
 20
208.5504852572
 30
0.0
 10
25.6590280439
 20
208.5153037804
 30
0.0
  0
SPLINE
  5
3CA
100
AcDbEntity
  8
0
100
AcDbSpline
 62
7
  6
CONTINUOUS
 70
0
 71
3
 72
9
 73
5
 74
0
 42
0.0000001
 43
0.0000001
 44
0.0000000001
 40
0.0
 40
0.0
 40
0.0
 40
0.0
 40
0.2485115566
 40
1.0
 40
1.0
 40
1.0
 40
1.0
 10
26.3657782892
 20
205.7671283922
 30
0.0
 10
26.3472824642
 20
205.7595757609
 30
0.0
 10
26.27292946
 20
205.7290056911
 30
0.0
 10
26.1989123048
 20
205.6976117561
 30
0.0
 10
26.1435739753
 20
205.6733730876
 30
0.0
  0
SPLINE
  5
3CB
100
AcDbEntity
  8
0
100
AcDbSpline
 62
7
  6
CONTINUOUS
 70
0
 71
3
 72
9
 73
5
 74
0
 42
0.0000001
 43
0.0000001
 44
0.0000000001
 40
0.0
 40
0.0
 40
0.0
 40
0.0
 40
0.2486547341
 40
1.0
 40
1.0
 40
1.0
 40
1.0
 10
25.8638716723
 20
205.3361998536
 30
0.0
 10
25.886228823
 20
205.3648146803
 30
0.0
 10
25.9772163981
 20
205.4790545152
 30
0.0
 10
26.0716772224
 20
205.5904843182
 30
0.0
 10
26.1435739753
 20
205.6733730876
 30
0.0
  0
SPLINE
  5
3CC
100
AcDbEntity
  8
0
100
AcDbSpline
 62
7
  6
CONTINUOUS
 70
0
 71
3
 72
9
 73
5
 74
0
 42
0.0000001
 43
0.0000001
 44
0.0000000001
 40
0.0
 40
0.0
 40
0.0
 40
0.0
 40
0.4783466213
 40
1.0
 40
1.0
 40
1.0
 40
1.0
 10
19.2299861392
 20
260.9475279837
 30
0.0
 10
19.2233141876
 20
260.9417401167
 30
0.0
 10
19.2064212572
 20
260.932692861
 30
0.0
 10
19.1874959995
 20
260.9316050261
 30
0.0
 10
19.1778982899
 20
260.9324197008
 30
0.0
  0
SPLINE
  5
3CD
100
AcDbEntity
  8
0
100
AcDbSpline
 62
7
  6
CONTINUOUS
 70
0
 71
3
 72
23
 73
19
 74
0
 42
0.0000001
 43
0.0000001
 44
0.0000000001
 40
0.0
 40
0.0
 40
0.0
 40
0.0
 40
0.061941701
 40
0.1251231665
 40
0.1893964993
 40
0.2545200668
 40
0.3201883668
 40
0.386052843
 40
0.4517503243
 40
0.5169302777
 40
0.5812820549
 40
0.6445600174
 40
0.7066046729
 40
0.7673583389
 40
0.8268720419
 40
0.8853042472
 40
0.942905098
 40
1.0
 40
1.0
 40
1.0
 40
1.0
 10
19.2299984037
 20
260.9475095527
 30
0.0
 10
19.3517750651
 20
261.0529504731
 30
0.0
 10
19.5825666142
 20
261.2841268665
 30
0.0
 10
19.8804977027
 20
261.6780792237
 30
0.0
 10
20.1284686186
 20
262.1148052665
 30
0.0
 10
20.3216916061
 20
262.5852620619
 30
0.0
 10
20.4565275211
 20
263.0799113017
 30
0.0
 10
20.5303620668
 20
263.5887573135
 30
0.0
 10
20.5417156814
 20
264.1015482414
 30
0.0
 10
20.4902524847
 20
264.6079588894
 30
0.0
 10
20.3767864317
 20
265.0977765667
 30
0.0
 10
20.2032595124
 20
265.5610664478
 30
0.0
 10
19.9727195091
 20
265.9883095113
 30
0.0
 10
19.6893066225
 20
266.3705135105
 30
0.0
 10
19.3583097091
 20
266.6993265113
 30
0.0
 10
18.986153684
 20
266.9671959287
 30
0.0
 10
18.5807430223
 20
267.1675938136
 30
0.0
 10
18.2931844807
 20
267.2530935487
 30
0.0
 10
18.1477481487
 20
267.2829907354
 30
0.0
  0
LINE
  5
3CE
100
AcDbEntity
  8
0
100
AcDbLine
 62
7
  6
CONTINUOUS
 10
15.3081926125
 20
266.7155355069
 11
15.8148681541
 21
266.6178953573
  0
SPLINE
  5
3CF
100
AcDbEntity
  8
0
100
AcDbSpline
 62
7
  6
CONTINUOUS
 70
0
 71
3
 72
13
 73
9
 74
0
 42
0.0000001
 43
0.0000001
 44
0.0000000001
 40
0.0
 40
0.0
 40
0.0
 40
0.0
 40
0.0840719031
 40
0.1726675138
 40
0.2727203396
 40
0.3880341442
 40
0.6664886596
 40
1.0
 40
1.0
 40
1.0
 40
1.0
 10
18.3784001848
 20
260.4201019937
 30
0.0
 10
18.3851900032
 20
260.4228678481
 30
0.0
 10
18.3982130136
 20
260.4312061321
 30
0.0
 10
18.4125823864
 20
260.4506799887
 30
0.0
 10
18.4216321655
 20
260.4758937799
 30
0.0
 10
18.4271256763
 20
260.518847687
 30
0.0
 10
18.4193793304
 20
260.5826074205
 30
0.0
 10
18.4027767915
 20
260.6335514089
 30
0.0
 10
18.3917981455
 20
260.6604837905
 30
0.0
  0
LINE
  5
3D0
100
AcDbEntity
  8
0
100
AcDbLine
 62
7
  6
CONTINUOUS
 10
18.694289919
 20
260.9734723764
 11
19.1778982899
 21
260.9324197008
  0
SPLINE
  5
3D1
100
AcDbEntity
  8
0
100
AcDbSpline
 62
7
  6
CONTINUOUS
 70
0
 71
3
 72
9
 73
5
 74
0
 42
0.0000001
 43
0.0000001
 44
0.0000000001
 40
0.0
 40
0.0
 40
0.0
 40
0.0
 40
0.4961673286
 40
1.0
 40
1.0
 40
1.0
 40
1.0
 10
17.159019683
 20
260.2233472985
 30
0.0
 10
17.3640974555
 20
260.207823606
 30
0.0
 10
17.7826130386
 20
260.226267044
 30
0.0
 10
18.1850318064
 20
260.3412139214
 30
0.0
 10
18.3784023781
 20
260.420098167
 30
0.0
  0
SPLINE
  5
3D2
100
AcDbEntity
  8
0
100
AcDbSpline
 62
7
  6
CONTINUOUS
 70
0
 71
3
 72
9
 73
5
 74
0
 42
0.0000001
 43
0.0000001
 44
0.0000000001
 40
0.0
 40
0.0
 40
0.0
 40
0.0
 40
0.2530263163
 40
1.0
 40
1.0
 40
1.0
 40
1.0
 10
15.8879504278
 20
263.2099663674
 30
0.0
 10
15.8951656003
 20
263.1695420264
 30
0.0
 10
15.9277358689
 20
263.0105366936
 30
0.0
 10
15.976694284
 20
262.8548271101
 30
0.0
 10
16.0224542582
 20
262.7425705449
 30
0.0
  0
SPLINE
  5
3D3
100
AcDbEntity
  8
0
100
AcDbSpline
 62
7
  6
CONTINUOUS
 70
0
 71
3
 72
13
 73
9
 74
0
 42
0.0000001
 43
0.0000001
 44
0.0000000001
 40
0.0
 40
0.0
 40
0.0
 40
0.0
 40
0.2813978411
 40
0.5611549679
 40
0.6905433494
 40
0.8082323026
 40
0.9117716848
 40
1.0
 40
1.0
 40
1.0
 40
1.0
 10
16.0812175452
 20
266.328709048
 30
0.0
 10
16.0668774435
 20
266.3638876202
 30
0.0
 10
16.0315891054
 20
266.4313925845
 30
0.0
 10
15.9754072935
 20
266.5064248641
 30
0.0
 10
15.9248037318
 20
266.5565710133
 30
0.0
 10
15.887520593
 20
266.5859486114
 30
0.0
 10
15.851272211
 20
266.6070171994
 30
0.0
 10
15.8265638941
 20
266.6156414365
 30
0.0
 10
15.8148681541
 20
266.6178953573
 30
0.0
  0
SPLINE
  5
3D4
100
AcDbEntity
  8
0
100
AcDbSpline
 62
7
  6
CONTINUOUS
 70
0
 71
3
 72
21
 73
17
 74
0
 42
0.0000001
 43
0.0000001
 44
0.0000000001
 40
0.0
 40
0.0
 40
0.0
 40
0.0
 40
0.0571758139
 40
0.1145681696
 40
0.1725134375
 40
0.2313027477
 40
0.2911607567
 40
0.3522257654
 40
0.4145410403
 40
0.4780519509
 40
0.6077611421
 40
0.6736952377
 40
0.7398526685
 40
0.8712660323
 40
0.9361257949
 40
1.0
 40
1.0
 40
1.0
 40
1.0
 10
17.0728310411
 20
267.5039602622
 30
0.0
 10
16.9308736537
 20
267.5331422863
 30
0.0
 10
16.6410071535
 20
267.5681281765
 30
0.0
 10
16.2023065074
 20
267.5482467059
 30
0.0
 10
15.7685468522
 20
267.4568655284
 30
0.0
 10
15.3487835575
 20
267.2963938383
 30
0.0
 10
14.9511879951
 20
267.0706990463
 30
0.0
 10
14.583207197
 20
266.7848180606
 30
0.0
 10
14.251421674
 20
266.4446131111
 30
0.0
 10
13.8627470099
 20
265.9246772105
 30
0.0
 10
13.5722511028
 20
265.3268385271
 30
0.0
 10
13.3915495042
 20
264.6870973108
 30
0.0
 10
13.2859677401
 20
264.0263480514
 30
0.0
 10
13.2970236086
 20
263.3537747657
 30
0.0
 10
13.4267138436
 20
262.7060186353
 30
0.0
 10
13.530269128
 20
262.3954243866
 30
0.0
 10
13.5913847596
 20
262.2454979281
 30
0.0
  0
SPLINE
  5
3D5
100
AcDbEntity
  8
0
100
AcDbSpline
 62
7
  6
CONTINUOUS
 70
0
 71
3
 72
15
 73
11
 74
0
 42
0.0000001
 43
0.0000001
 44
0.0000000001
 40
0.0
 40
0.0
 40
0.0
 40
0.0
 40
0.1320959108
 40
0.2618025357
 40
0.3891159631
 40
0.5141927127
 40
0.637337633
 40
0.7589861803
 40
0.8796735295
 40
1.0
 40
1.0
 40
1.0
 40
1.0
 10
13.5913847596
 20
262.2454979281
 30
0.0
 10
13.6463956106
 20
262.1105474768
 30
0.0
 10
13.7712800558
 20
261.8491962542
 30
0.0
 10
14.0032319907
 20
261.4866768469
 30
0.0
 10
14.2749792851
 20
261.1628069997
 30
0.0
 10
14.5824811366
 20
260.8832117221
 30
0.0
 10
14.9209940727
 20
260.6528830715
 30
0.0
 10
15.285053561
 20
260.4761432074
 30
0.0
 10
15.6683364359
 20
260.3564337857
 30
0.0
 10
15.9323869965
 20
260.3161992363
 30
0.0
 10
16.0647559254
 20
260.3061793571
 30
0.0
  0
SPLINE
  5
3D6
100
AcDbEntity
  8
0
100
AcDbSpline
 62
7
  6
CONTINUOUS
 70
0
 71
3
 72
11
 73
7
 74
0
 42
0.0000001
 43
0.0000001
 44
0.0000000001
 40
0.0
 40
0.0
 40
0.0
 40
0.0
 40
0.2545340139
 40
0.5050780432
 40
0.7530286465
 40
1.0
 40
1.0
 40
1.0
 40
1.0
 10
16.6495299952
 20
267.1349131459
 30
0.0
 10
16.7694187392
 20
267.1838989112
 30
0.0
 10
17.0144404711
 20
267.2647347991
 30
0.0
 10
17.3931699343
 20
267.3310846018
 30
0.0
 10
17.7737410693
 20
267.3403653712
 30
0.0
 10
18.024659436
 20
267.3082926075
 30
0.0
 10
18.1477481281
 20
267.282990624
 30
0.0
  0
SPLINE
  5
3D7
100
AcDbEntity
  8
0
100
AcDbSpline
 62
7
  6
CONTINUOUS
 70
0
 71
3
 72
15
 73
11
 74
0
 42
0.0000001
 43
0.0000001
 44
0.0000000001
 40
0.0
 40
0.0
 40
0.0
 40
0.0
 40
0.1233295424
 40
0.2492095504
 40
0.3766969296
 40
0.5046768993
 40
0.63199542
 40
0.7575605562
 40
0.8804426019
 40
1.0
 40
1.0
 40
1.0
 40
1.0
 10
15.1589985606
 20
262.2512851437
 30
0.0
 10
15.092114241
 20
262.4207649937
 30
0.0
 10
14.9845853737
 20
262.774745267
 30
0.0
 10
14.9053337419
 20
263.3275672714
 30
0.0
 10
14.9080590776
 20
263.8929712812
 30
0.0
 10
14.9927086501
 20
264.4541002015
 30
0.0
 10
15.1567509361
 20
264.9944153256
 30
0.0
 10
15.3954729307
 20
265.497956369
 30
0.0
 10
15.7017976444
 20
265.9496637724
 30
0.0
 10
15.949203054
 20
266.2113657659
 30
0.0
 10
16.0812175452
 20
266.328709048
 30
0.0
  0
SPLINE
  5
3D8
100
AcDbEntity
  8
0
100
AcDbSpline
 62
7
  6
CONTINUOUS
 70
0
 71
3
 72
15
 73
11
 74
0
 42
0.0000001
 43
0.0000001
 44
0.0000000001
 40
0.0
 40
0.0
 40
0.0
 40
0.0
 40
0.1230757341
 40
0.2439018168
 40
0.3639653423
 40
0.4848571716
 40
0.6080430287
 40
0.7346360828
 40
0.8652526683
 40
1.0
 40
1.0
 40
1.0
 40
1.0
 10
16.9158793863
 20
266.8457268366
 30
0.0
 10
17.0694014057
 20
266.9056315973
 30
0.0
 10
17.3862037713
 20
266.9950644193
 30
0.0
 10
17.8758322651
 20
267.0286728557
 30
0.0
 10
18.3589422097
 20
266.9589707387
 30
0.0
 10
18.8194269863
 20
266.7881454586
 30
0.0
 10
19.2424431516
 20
266.5221776919
 30
0.0
 10
19.6147603294
 20
266.1700639912
 30
0.0
 10
19.9251014113
 20
265.7435129074
 30
0.0
 10
20.0824468447
 20
265.4227527253
 30
0.0
 10
20.1486789713
 20
265.2549254834
 30
0.0
  0
SPLINE
  5
3D9
100
AcDbEntity
  8
0
100
AcDbSpline
 62
7
  6
CONTINUOUS
 70
0
 71
3
 72
15
 73
11
 74
0
 42
0.0000001
 43
0.0000001
 44
0.0000000001
 40
0.0
 40
0.0
 40
0.0
 40
0.0
 40
0.1233295424
 40
0.2492095504
 40
0.3766969296
 40
0.5046768993
 40
0.63199542
 40
0.7575605562
 40
0.8804426019
 40
1.0
 40
1.0
 40
1.0
 40
1.0
 10
20.1486789713
 20
265.2549254834
 30
0.0
 10
20.2155632909
 20
265.0854456334
 30
0.0
 10
20.3230921581
 20
264.7314653601
 30
0.0
 10
20.4023437899
 20
264.1786433558
 30
0.0
 10
20.3996184542
 20
263.6132393459
 30
0.0
 10
20.3149688818
 20
263.0521104256
 30
0.0
 10
20.1509265958
 20
262.5117953015
 30
0.0
 10
19.9122046011
 20
262.0082542581
 30
0.0
 10
19.6058798874
 20
261.5565468547
 30
0.0
 10
19.3584744778
 20
261.2948448612
 30
0.0
 10
19.2264599867
 20
261.1775015791
 30
0.0
  0
SPLINE
  5
3DA
100
AcDbEntity
  8
0
100
AcDbSpline
 62
7
  6
CONTINUOUS
 70
0
 71
3
 72
9
 73
5
 74
0
 42
0.0000001
 43
0.0000001
 44
0.0000000001
 40
0.0
 40
0.0
 40
0.0
 40
0.0
 40
0.2531066687
 40
1.0
 40
1.0
 40
1.0
 40
1.0
 10
16.0649402423
 20
262.6451902972
 30
0.0
 10
16.077887535
 20
262.6173938676
 30
0.0
 10
16.1313803188
 20
262.5086822025
 30
0.0
 10
16.1943281832
 20
262.4045873594
 30
0.0
 10
16.2464133285
 20
262.3305949025
 30
0.0
  0
SPLINE
  5
3DB
100
AcDbEntity
  8
0
100
AcDbSpline
 62
7
  6
CONTINUOUS
 70
0
 71
3
 72
9
 73
5
 74
0
 42
0.0000001
 43
0.0000001
 44
0.0000000001
 40
0.0
 40
0.0
 40
0.0
 40
0.0
 40
0.2530263163
 40
1.0
 40
1.0
 40
1.0
 40
1.0
 10
19.4197271041
 20
264.2962442597
 30
0.0
 10
19.4125119315
 20
264.3366686007
 30
0.0
 10
19.3799416629
 20
264.4956739335
 30
0.0
 10
19.3309832479
 20
264.651383517
 30
0.0
 10
19.2852232736
 20
264.7636400822
 30
0.0
  0
SPLINE
  5
3DC
100
AcDbEntity
  8
0
100
AcDbSpline
 62
7
  6
CONTINUOUS
 70
0
 71
3
 72
9
 73
5
 74
0
 42
0.0000001
 43
0.0000001
 44
0.0000000001
 40
0.0
 40
0.0
 40
0.0
 40
0.0
 40
0.2539471459
 40
1.0
 40
1.0
 40
1.0
 40
1.0
 10
19.2852232736
 20
264.7636400822
 30
0.0
 10
19.2702220874
 20
264.800440401
 30
0.0
 10
19.2072540787
 20
264.9437232177
 30
0.0
 10
19.1284674332
 20
265.0801464298
 30
0.0
 10
19.0612642034
 20
265.1756157246
 30
0.0
  0
SPLINE
  5
3DD
100
AcDbEntity
  8
0
100
AcDbSpline
 62
7
  6
CONTINUOUS
 70
0
 71
3
 72
13
 73
9
 74
0
 42
0.0000001
 43
0.0000001
 44
0.0000000001
 40
0.0
 40
0.0
 40
0.0
 40
0.0
 40
0.3226140649
 40
0.6000470459
 40
0.7187783444
 40
0.8236007309
 40
0.9161456764
 40
1.0
 40
1.0
 40
1.0
 40
1.0
 10
19.2264599867
 20
261.1775015791
 30
0.0
 10
19.2362801369
 20
261.1534111736
 30
0.0
 10
19.2516744796
 20
261.1073543679
 30
0.0
 10
19.2605657774
 20
261.0495908541
 30
0.0
 10
19.2589105711
 20
261.0090937596
 30
0.0
 10
19.2536588266
 20
260.9839943102
 30
0.0
 10
19.244334256
 20
260.9630981476
 30
0.0
 10
19.2350939234
 20
260.9519589475
 30
0.0
 10
19.2299861392
 20
260.9475279837
 30
0.0
  0
SPLINE
  5
3DE
100
AcDbEntity
  8
0
100
AcDbSpline
 62
7
  6
CONTINUOUS
 70
0
 71
3
 72
9
 73
5
 74
0
 42
0.0000001
 43
0.0000001
 44
0.0000000001
 40
0.0
 40
0.0
 40
0.0
 40
0.0
 40
0.4925207518
 40
1.0
 40
1.0
 40
1.0
 40
1.0
 10
17.5806507061
 20
262.5222994397
 30
0.0
 10
17.646456005
 20
262.5657558574
 30
0.0
 10
17.7723350603
 20
262.6661553889
 30
0.0
 10
17.8797523282
 20
262.7859253497
 30
0.0
 10
17.9291757189
 20
262.8504203754
 30
0.0
  0
SPLINE
  5
3DF
100
AcDbEntity
  8
0
100
AcDbSpline
 62
7
  6
CONTINUOUS
 70
0
 71
3
 72
22
 73
18
 74
0
 42
0.0000001
 43
0.0000001
 44
0.0000000001
 40
0.0
 40
0.0
 40
0.0
 40
0.0
 40
0.0558893422
 40
0.1120659123
 40
0.168965754
 40
0.2269541315
 40
0.286294849
 40
0.3471334439
 40
0.4094935264
 40
0.4732835609
 40
0.5383109225
 40
0.6043005315
 40
0.7375549742
 40
0.8042828803
 40
0.8704906313
 40
0.9358276202
 40
1.0
 40
1.0
 40
1.0
 40
1.0
 10
17.0728305684
 20
267.5039576539
 30
0.0
 10
16.9344494022
 20
267.5324072238
 30
0.0
 10
16.651636209
 20
267.5663092063
 30
0.0
 10
16.2231539768
 20
267.5458516617
 30
0.0
 10
15.7985104553
 20
267.45470523
 30
0.0
 10
15.3862468097
 20
267.2948400051
 30
0.0
 10
14.9943397853
 20
267.0696138931
 30
0.0
 10
14.630319799
 20
266.7836011742
 30
0.0
 10
14.3011008014
 20
266.4424738921
 30
0.0
 10
14.0129161305
 20
266.0529339549
 30
0.0
 10
13.771186017
 20
265.622415905
 30
0.0
 10
13.5162867364
 20
265.0036208951
 30
0.0
 10
13.3722844728
 20
264.3393717546
 30
0.0
 10
13.3456636963
 20
263.6659031518
 30
0.0
 10
13.3847479898
 20
263.1649664025
 30
0.0
 10
13.4822596527
 20
262.678782552
 30
0.0
 10
13.586155529
 20
262.3672374993
 30
0.0
 10
13.6473876018
 20
262.2170253917
 30
0.0
  0
LINE
  5
3E0
100
AcDbEntity
  8
0
100
AcDbLine
 62
7
  6
CONTINUOUS
 10
16.6495299952
 20
267.1349131459
 11
16.1428544537
 21
267.2325532955
  0
SPLINE
  5
3E1
100
AcDbEntity
  8
0
100
AcDbSpline
 62
7
  6
CONTINUOUS
 70
0
 71
3
 72
9
 73
5
 74
0
 42
0.0000001
 43
0.0000001
 44
0.0000000001
 40
0.0
 40
0.0
 40
0.0
 40
0.0
 40
0.2429398799
 40
1.0
 40
1.0
 40
1.0
 40
1.0
 10
15.9223905698
 20
263.0882514056
 30
0.0
 10
15.9491833177
 20
263.0919233695
 30
0.0
 10
16.0595027764
 20
263.1067845765
 30
0.0
 10
16.1699968703
 20
263.120388513
 30
0.0
 10
16.2537651687
 20
263.1295998829
 30
0.0
  0
SPLINE
  5
3E2
100
AcDbEntity
  8
0
100
AcDbSpline
 62
7
  6
CONTINUOUS
 70
0
 71
3
 72
11
 73
7
 74
0
 42
0.0000001
 43
0.0000001
 44
0.0000000001
 40
0.0
 40
0.0
 40
0.0
 40
0.0
 40
0.2611852057
 40
0.5146282933
 40
0.7605358499
 40
1.0
 40
1.0
 40
1.0
 40
1.0
 10
13.6473876018
 20
262.2170253917
 30
0.0
 10
13.7203706914
 20
262.0379861529
 30
0.0
 10
13.8919695256
 20
261.6956797475
 30
0.0
 10
14.2260919282
 20
261.2391837475
 30
0.0
 10
14.6240890045
 20
260.8598124853
 30
0.0
 10
14.928338357
 20
260.6637360015
 30
0.0
 10
15.0861657851
 20
260.5830324712
 30
0.0
  0
SPLINE
  5
3E3
100
AcDbEntity
  8
0
100
AcDbSpline
 62
7
  6
CONTINUOUS
 70
0
 71
3
 72
8
 73
4
 74
0
 42
0.0000001
 43
0.0000001
 44
0.0000000001
 40
0.0
 40
0.0
 40
0.0
 40
0.0
 40
1.0
 40
1.0
 40
1.0
 40
1.0
 10
15.9223905698
 20
263.0882514056
 30
0.0
 10
15.9208544208
 20
263.0790153678
 30
0.0
 10
15.9201113062
 20
263.0696310543
 30
0.0
 10
15.9199408648
 20
263.0602696923
 30
0.0
  0
SPLINE
  5
3E4
100
AcDbEntity
  8
0
100
AcDbSpline
 62
7
  6
CONTINUOUS
 70
0
 71
3
 72
15
 73
11
 74
0
 42
0.0000001
 43
0.0000001
 44
0.0000000001
 40
0.0
 40
0.0
 40
0.0
 40
0.0
 40
0.1190276239
 40
0.2385340071
 40
0.3593024903
 40
0.482013101
 40
0.6071931224
 40
0.7351852297
 40
0.8661370267
 40
1.0
 40
1.0
 40
1.0
 40
1.0
 10
17.159019697
 20
260.2233474456
 30
0.0
 10
17.0331091777
 20
260.2328798866
 30
0.0
 10
16.7818159621
 20
260.2712545555
 30
0.0
 10
16.4167774268
 20
260.3856828043
 30
0.0
 10
16.0693545106
 20
260.5550323265
 30
0.0
 10
15.7453292305
 20
260.7764089957
 30
0.0
 10
15.4498875884
 20
261.046084252
 30
0.0
 10
15.1877226775
 20
261.359601807
 30
0.0
 10
14.9629875717
 20
261.7117620861
 30
0.0
 10
14.8416501789
 20
261.9660181434
 30
0.0
 10
14.7880446969
 20
262.0975209989
 30
0.0
  0
SPLINE
  5
3E5
100
AcDbEntity
  8
0
100
AcDbSpline
 62
7
  6
CONTINUOUS
 70
0
 71
3
 72
9
 73
5
 74
0
 42
0.0000001
 43
0.0000001
 44
0.0000000001
 40
0.0
 40
0.0
 40
0.0
 40
0.0
 40
0.4921372466
 40
1.0
 40
1.0
 40
1.0
 40
1.0
 10
17.1324741876
 20
264.705209443
 30
0.0
 10
17.1709055754
 20
264.6630119406
 30
0.0
 10
17.240967292
 20
264.5696787927
 30
0.0
 10
17.2935785768
 20
264.4656309516
 30
0.0
 10
17.3158118023
 20
264.411089279
 30
0.0
  0
SPLINE
  5
3E6
100
AcDbEntity
  8
0
100
AcDbSpline
 62
7
  6
CONTINUOUS
 70
0
 71
3
 72
15
 73
11
 74
0
 42
0.0000001
 43
0.0000001
 44
0.0000000001
 40
0.0
 40
0.0
 40
0.0
 40
0.0
 40
0.1232498674
 40
0.2491454621
 40
0.3767124408
 40
0.5047974735
 40
0.6322006356
 40
0.7577884056
 40
0.8806054487
 40
1.0
 40
1.0
 40
1.0
 40
1.0
 10
14.7880446969
 20
262.0975209989
 30
0.0
 10
14.7116489907
 20
262.2849319343
 30
0.0
 10
14.588478991
 20
262.6772325448
 30
0.0
 10
14.4966226478
 20
263.2912548785
 30
0.0
 10
14.4976429761
 20
263.9201232325
 30
0.0
 10
14.5915318348
 20
264.5443777901
 30
0.0
 10
14.7753631816
 20
265.1449336659
 30
0.0
 10
15.0436747219
 20
265.7033824724
 30
0.0
 10
15.3882234839
 20
266.2023812459
 30
0.0
 10
15.6665036299
 20
266.4897362274
 30
0.0
 10
15.8148681541
 20
266.6178953573
 30
0.0
  0
SPLINE
  5
3E7
100
AcDbEntity
  8
0
100
AcDbSpline
 62
7
  6
CONTINUOUS
 70
0
 71
3
 72
9
 73
5
 74
0
 42
0.0000001
 43
0.0000001
 44
0.0000000001
 40
0.0
 40
0.0
 40
0.0
 40
0.0
 40
0.5026145978
 40
1.0
 40
1.0
 40
1.0
 40
1.0
 10
17.2537817908
 20
263.3751242613
 30
0.0
 10
17.3655958241
 20
263.2855136106
 30
0.0
 10
17.5900023823
 20
263.1096493642
 30
0.0
 10
17.8163283031
 20
262.936285918
 30
0.0
 10
17.9291757189
 20
262.8504203754
 30
0.0
  0
SPLINE
  5
3E8
100
AcDbEntity
  8
0
100
AcDbSpline
 62
7
  6
CONTINUOUS
 70
0
 71
3
 72
9
 73
5
 74
0
 42
0.0000001
 43
0.0000001
 44
0.0000000001
 40
0.0
 40
0.0
 40
0.0
 40
0.0
 40
0.4977230606
 40
1.0
 40
1.0
 40
1.0
 40
1.0
 10
16.9079686538
 20
265.3556052965
 30
0.0
 10
16.859313143
 20
265.2972037321
 30
0.0
 10
16.7626227059
 20
265.1789772689
 30
0.0
 10
16.6694789306
 20
265.0578731452
 30
0.0
 10
16.6244349079
 20
264.99578165
 30
0.0
  0
SPLINE
  5
3E9
100
AcDbEntity
  8
0
100
AcDbSpline
 62
7
  6
CONTINUOUS
 70
0
 71
3
 72
9
 73
5
 74
0
 42
0.0000001
 43
0.0000001
 44
0.0000000001
 40
0.0
 40
0.0
 40
0.0
 40
0.0
 40
0.5067693305
 40
1.0
 40
1.0
 40
1.0
 40
1.0
 10
15.3081926125
 20
266.7155355069
 30
0.0
 10
15.4342576231
 20
266.8241315745
 30
0.0
 10
15.6995436147
 20
267.0200996203
 30
0.0
 10
15.9930345732
 20
267.1710717097
 30
0.0
 10
16.1428544537
 20
267.2325532955
 30
0.0
  0
SPLINE
  5
3EA
100
AcDbEntity
  8
0
100
AcDbSpline
 62
7
  6
CONTINUOUS
 70
0
 71
3
 72
9
 73
5
 74
0
 42
0.0000001
 43
0.0000001
 44
0.0000000001
 40
0.0
 40
0.0
 40
0.0
 40
0.0
 40
0.512697143
 40
1.0
 40
1.0
 40
1.0
 40
1.0
 10
17.2537817908
 20
263.3751242613
 30
0.0
 10
17.2060238976
 20
263.2865082544
 30
0.0
 10
17.0901438773
 20
263.1246927877
 30
0.0
 10
16.9324921667
 20
263.0018965572
 30
0.0
 10
16.848449398
 20
262.9561643426
 30
0.0
  0
SPLINE
  5
3EB
100
AcDbEntity
  8
0
100
AcDbSpline
 62
7
  6
CONTINUOUS
 70
0
 71
3
 72
9
 73
5
 74
0
 42
0.0000001
 43
0.0000001
 44
0.0000000001
 40
0.0
 40
0.0
 40
0.0
 40
0.0
 40
0.4942281648
 40
1.0
 40
1.0
 40
1.0
 40
1.0
 10
17.3158118023
 20
264.411089279
 30
0.0
 10
17.3417833201
 20
264.3473769753
 30
0.0
 10
17.3821558649
 20
264.2132312852
 30
0.0
 10
17.3982575605
 20
264.074172234
 30
0.0
 10
17.4004253177
 20
264.0037961439
 30
0.0
  0
SPLINE
  5
3EC
100
AcDbEntity
  8
0
100
AcDbSpline
 62
7
  6
CONTINUOUS
 70
0
 71
3
 72
9
 73
5
 74
0
 42
0.0000001
 43
0.0000001
 44
0.0000000001
 40
0.0
 40
0.0
 40
0.0
 40
0.0
 40
0.4945819734
 40
1.0
 40
1.0
 40
1.0
 40
1.0
 10
16.9079686538
 20
265.3556052965
 30
0.0
 10
16.8426148711
 20
265.3461011283
 30
0.0
 10
16.7119717151
 20
265.3149381186
 30
0.0
 10
16.5886695726
 20
265.2618984752
 30
0.0
 10
16.5290217431
 20
265.2303264853
 30
0.0
  0
SPLINE
  5
3ED
100
AcDbEntity
  8
0
100
AcDbSpline
 62
7
  6
CONTINUOUS
 70
0
 71
3
 72
15
 73
11
 74
0
 42
0.0000001
 43
0.0000001
 44
0.0000000001
 40
0.0
 40
0.0
 40
0.0
 40
0.0
 40
0.1230757341
 40
0.2439018168
 40
0.3639653423
 40
0.4848571716
 40
0.6080430287
 40
0.7346360828
 40
0.8652526683
 40
1.0
 40
1.0
 40
1.0
 40
1.0
 10
18.3917981455
 20
260.6604837905
 30
0.0
 10
18.2382761262
 20
260.6005790298
 30
0.0
 10
17.9214737605
 20
260.5111462078
 30
0.0
 10
17.4318452667
 20
260.4775377714
 30
0.0
 10
16.9487353222
 20
260.5472398884
 30
0.0
 10
16.4882505456
 20
260.7180651685
 30
0.0
 10
16.0652343803
 20
260.9840329352
 30
0.0
 10
15.6929172024
 20
261.3361466359
 30
0.0
 10
15.3825761205
 20
261.7626977197
 30
0.0
 10
15.2252306871
 20
262.0834579018
 30
0.0
 10
15.1589985606
 20
262.2512851437
 30
0.0
  0
SPLINE
  5
3EE
100
AcDbEntity
  8
0
100
AcDbSpline
 62
7
  6
CONTINUOUS
 70
0
 71
3
 72
13
 73
9
 74
0
 42
0.0000001
 43
0.0000001
 44
0.0000000001
 40
0.0
 40
0.0
 40
0.0
 40
0.0
 40
0.0882338457
 40
0.1917572865
 40
0.3094424488
 40
0.4388730957
 40
0.7185791159
 40
1.0
 40
1.0
 40
1.0
 40
1.0
 10
16.6495299952
 20
267.1349131459
 30
0.0
 10
16.6612264763
 20
267.1326590823
 30
0.0
 10
16.6859297163
 20
267.1240265176
 30
0.0
 10
16.7221891724
 20
267.1029828549
 30
0.0
 10
16.7594707109
 20
267.0735939318
 30
0.0
 10
16.8100391935
 20
267.0234176072
 30
0.0
 10
16.8662753283
 20
266.9484264684
 30
0.0
 10
16.9015381006
 20
266.8809083134
 30
0.0
 10
16.9158793863
 20
266.8457268366
 30
0.0
  0
SPLINE
  5
3EF
100
AcDbEntity
  8
0
100
AcDbSpline
 62
7
  6
CONTINUOUS
 70
0
 71
3
 72
9
 73
5
 74
0
 42
0.0000001
 43
0.0000001
 44
0.0000000001
 40
0.0
 40
0.0
 40
0.0
 40
0.0
 40
0.2485115566
 40
1.0
 40
1.0
 40
1.0
 40
1.0
 10
17.6226296317
 20
264.0975514485
 30
0.0
 10
17.6041338066
 20
264.0899988172
 30
0.0
 10
17.5297808024
 20
264.0594287473
 30
0.0
 10
17.4557636473
 20
264.0280348123
 30
0.0
 10
17.4004253177
 20
264.0037961439
 30
0.0
  0
SPLINE
  5
3F0
100
AcDbEntity
  8
0
100
AcDbSpline
 62
7
  6
CONTINUOUS
 70
0
 71
3
 72
9
 73
5
 74
0
 42
0.0000001
 43
0.0000001
 44
0.0000000001
 40
0.0
 40
0.0
 40
0.0
 40
0.0
 40
0.2486547341
 40
1.0
 40
1.0
 40
1.0
 40
1.0
 10
17.1207230148
 20
263.6666229099
 30
0.0
 10
17.1430801655
 20
263.6952377366
 30
0.0
 10
17.2340677406
 20
263.8094775715
 30
0.0
 10
17.3285285648
 20
263.9209073745
 30
0.0
 10
17.4004253177
 20
264.0037961439
 30
0.0
  0
SPLINE
  5
3F1
100
AcDbEntity
  8
0
100
AcDbSpline
 62
7
  6
CONTINUOUS
 70
0
 71
3
 72
17
 73
13
 74
0
 42
0.0000001
 43
0.0000001
 44
0.0000000001
 40
0.0
 40
0.0
 40
0.0
 40
0.0
 40
0.1230898135
 40
0.2507369842
 40
0.3812862037
 40
0.5121302181
 40
0.6405646998
 40
0.7646752291
 40
0.8250232959
 40
0.8842405236
 40
0.9424925217
 40
1.0
 40
1.0
 40
1.0
 40
1.0
 10
-31.1065443793
 20
255.4614142329
 30
0.0
 10
-31.3136881868
 20
256.5876518379
 30
0.0
 10
-31.4265963321
 20
258.9463246448
 30
0.0
 10
-30.7665203025
 20
262.4592284457
 30
0.0
 10
-29.3507216409
 20
265.8191251213
 30
0.0
 10
-27.2725527651
 20
268.823173961
 30
0.0
 10
-24.655064879
 20
271.2859586757
 30
0.0
 10
-22.1112753041
 20
272.7651089002
 30
0.0
 10
-19.9628485862
 20
273.5068771247
 30
0.0
 10
-18.3343801429
 20
273.8290410466
 30
0.0
 10
-16.7027098223
 20
273.9092386664
 30
0.0
 10
-15.626458298
 20
273.7948224233
 30
0.0
 10
-15.1008086316
 20
273.6952181288
 30
0.0
  0
SPLINE
  5
3F2
100
AcDbEntity
  8
0
100
AcDbSpline
 62
7
  6
CONTINUOUS
 70
0
 71
3
 72
9
 73
5
 74
0
 42
0.0000001
 43
0.0000001
 44
0.0000000001
 40
0.0
 40
0.0
 40
0.0
 40
0.0
 40
0.2452798743
 40
1.0
 40
1.0
 40
1.0
 40
1.0
 10
-14.3804688374
 20
273.8008385059
 30
0.0
 10
-14.5942835711
 20
273.7659237311
 30
0.0
 10
-15.4622460653
 20
273.6011059513
 30
0.0
 10
-16.3129724325
 20
273.3482560832
 30
0.0
 10
-16.9375921487
 20
273.1153875824
 30
0.0
  0
SPLINE
  5
3F3
100
AcDbEntity
  8
0
100
AcDbSpline
 62
7
  6
CONTINUOUS
 70
0
 71
3
 72
11
 73
7
 74
0
 42
0.0000001
 43
0.0000001
 44
0.0000000001
 40
0.0
 40
0.0
 40
0.0
 40
0.0
 40
0.2546272404
 40
0.5066601154
 40
0.7552231618
 40
1.0
 40
1.0
 40
1.0
 40
1.0
 10
-16.9375921487
 20
273.1153875824
 30
0.0
 10
-17.8302890399
 20
272.4216619189
 30
0.0
 10
-19.5854157559
 20
271.0135897815
 30
0.0
 10
-22.1160435192
 20
268.8120019119
 30
0.0
 10
-24.5141124775
 20
266.5296485086
 30
0.0
 10
-26.0360100526
 20
264.9533612266
 30
0.0
 10
-26.7771634788
 20
264.1584558576
 30
0.0
  0
SPLINE
  5
3F4
100
AcDbEntity
  8
0
100
AcDbSpline
 62
7
  6
CONTINUOUS
 70
0
 71
3
 72
17
 73
13
 74
0
 42
0.0000001
 43
0.0000001
 44
0.0000000001
 40
0.0
 40
0.0
 40
0.0
 40
0.0
 40
0.0534046964
 40
0.1084878047
 40
0.224290902
 40
0.3480279667
 40
0.478149582
 40
0.6118187404
 40
0.6789799843
 40
0.7457070259
 40
0.8760053273
 40
1.0
 40
1.0
 40
1.0
 40
1.0
 10
-15.2421622244
 20
273.6589895047
 30
0.0
 10
-15.7096086972
 20
273.7219224691
 30
0.0
 10
-16.6708235982
 20
273.7744007219
 30
0.0
 10
-18.6489010157
 20
273.589535541
 30
0.0
 10
-21.1630322831
 20
272.8024623479
 30
0.0
 10
-23.9811868845
 20
271.1029999949
 30
0.0
 10
-26.4942370273
 20
268.7455399361
 30
0.0
 10
-28.2085590314
 20
266.3541258447
 30
0.0
 10
-29.2995936946
 20
264.254541744
 30
0.0
 10
-30.1724303583
 20
262.0872581916
 30
0.0
 10
-30.8441746236
 20
259.3128882013
 30
0.0
 10
-30.904492645
 20
257.0455569162
 30
0.0
 10
-30.7997092946
 20
255.9554754879
 30
0.0
  0
SPLINE
  5
3F5
100
AcDbEntity
  8
0
100
AcDbSpline
 62
7
  6
CONTINUOUS
 70
0
 71
3
 72
15
 73
11
 74
0
 42
0.0000001
 43
0.0000001
 44
0.0000000001
 40
0.0
 40
0.0
 40
0.0
 40
0.0
 40
0.0836175766
 40
0.1735327936
 40
0.2745582891
 40
0.3895840814
 40
0.5198999086
 40
0.6656225368
 40
0.8260944682
 40
1.0
 40
1.0
 40
1.0
 40
1.0
 10
48.6761842586
 20
293.3048192989
 30
0.0
 10
48.6762145998
 20
293.8167463266
 30
0.0
 10
48.8480680237
 20
294.8850682692
 30
0.0
 10
49.5911183554
 20
296.4134894257
 30
0.0
 10
50.7866979877
 20
297.8726681349
 30
0.0
 10
52.4088953213
 20
299.251626469
 30
0.0
 10
54.4345818599
 20
300.5389299934
 30
0.0
 10
56.8367620131
 20
301.7196989172
 30
0.0
 10
59.5822782232
 20
302.7779242872
 30
0.0
 10
61.5438912414
 20
303.3701115761
 30
0.0
 10
62.5722771464
 20
303.6457760563
 30
0.0
  0
SPLINE
  5
3F6
100
AcDbEntity
  8
0
100
AcDbSpline
 62
7
  6
CONTINUOUS
 70
0
 71
3
 72
19
 73
15
 74
0
 42
0.0000001
 43
0.0000001
 44
0.0000000001
 40
0.0
 40
0.0
 40
0.0
 40
0.0
 40
0.1437927501
 40
0.2990289408
 40
0.4562714565
 40
0.6058605483
 40
0.6750130013
 40
0.7390970209
 40
0.7973619681
 40
0.8493061298
 40
0.8947794449
 40
0.9341460629
 40
0.9685228895
 40
1.0
 40
1.0
 40
1.0
 40
1.0
 10
62.5722771464
 20
303.6457760563
 30
0.0
 10
65.095998321
 20
304.3222733539
 30
0.0
 10
70.4525657825
 20
305.3347214929
 30
0.0
 10
78.7351177482
 20
305.9469042105
 30
0.0
 10
87.1421552955
 20
305.6901097353
 30
0.0
 10
93.9265195066
 20
304.7471220783
 30
0.0
 10
98.9263357302
 20
303.5425986084
 30
0.0
 10
102.2432834651
 20
302.4784359306
 30
0.0
 10
105.1675070376
 20
301.2497538199
 30
0.0
 10
107.6489199327
 20
299.8772935758
 30
0.0
 10
109.6467768693
 20
298.3819721965
 30
0.0
 10
111.1280979202
 20
296.779393666
 30
0.0
 10
112.0579303697
 20
295.0810401496
 30
0.0
 10
112.276192241
 20
293.8767810721
 30
0.0
 10
112.2761583416
 20
293.3048192991
 30
0.0
  0
SPLINE
  5
3F7
100
AcDbEntity
  8
0
100
AcDbSpline
 62
7
  6
CONTINUOUS
 70
0
 71
3
 72
9
 73
5
 74
0
 42
0.0000001
 43
0.0000001
 44
0.0000000001
 40
0.0
 40
0.0
 40
0.0
 40
0.0
 40
0.2419351213
 40
1.0
 40
1.0
 40
1.0
 40
1.0
 10
112.2255503763
 20
292.5993172722
 30
0.0
 10
112.2024334623
 20
292.4382228092
 30
0.0
 10
112.0749016856
 20
291.7770085704
 30
0.0
 10
111.819675074
 20
291.1432393072
 30
0.0
 10
111.5766940892
 20
290.6949167205
 30
0.0
  0
SPLINE
  5
3F8
100
AcDbEntity
  8
0
100
AcDbSpline
 62
7
  6
CONTINUOUS
 70
0
 71
3
 72
9
 73
5
 74
0
 42
0.0000001
 43
0.0000001
 44
0.0000000001
 40
0.0
 40
0.0
 40
0.0
 40
0.0
 40
0.2457462779
 40
1.0
 40
1.0
 40
1.0
 40
1.0
 10
111.5766940892
 20
290.6949167205
 30
0.0
 10
111.5496611176
 20
290.6450383658
 30
0.0
 10
111.4371138702
 20
290.4434566198
 30
0.0
 10
111.3146157215
 20
290.2474619242
 30
0.0
 10
111.217421815
 20
290.1029850643
 30
0.0
  0
SPLINE
  5
3F9
100
AcDbEntity
  8
0
100
AcDbSpline
 62
7
  6
CONTINUOUS
 70
0
 71
3
 72
12
 73
8
 74
0
 42
0.0000001
 43
0.0000001
 44
0.0000000001
 40
0.0
 40
0.0
 40
0.0
 40
0.0
 40
0.1907963364
 40
0.3008762151
 40
0.4211957345
 40
0.6919474663
 40
1.0
 40
1.0
 40
1.0
 40
1.0
 10
111.217421815
 20
290.1029850643
 30
0.0
 10
110.686775936
 20
289.3141902412
 30
0.0
 10
109.6255576607
 20
288.2198386344
 30
0.0
 10
107.9425870126
 20
286.9661164672
 30
0.0
 10
105.8044109629
 20
285.668299005
 30
0.0
 10
102.6173594008
 20
284.2333318368
 30
0.0
 10
99.862648095
 20
283.3612769472
 30
0.0
 10
98.3800654539
 20
282.9638625417
 30
0.0
  0
SPLINE
  5
3FA
100
AcDbEntity
  8
0
100
AcDbSpline
 62
7
  6
CONTINUOUS
 70
0
 71
3
 72
17
 73
13
 74
0
 42
0.0000001
 43
0.0000001
 44
0.0000000001
 40
0.0
 40
0.0
 40
0.0
 40
0.0
 40
0.1317962045
 40
0.2736268951
 40
0.4193478327
 40
0.5624968122
 40
0.6968171174
 40
0.8167904614
 40
0.8700791697
 40
0.9184101897
 40
0.9616655595
 40
1.0
 40
1.0
 40
1.0
 40
1.0
 10
98.3800654539
 20
282.9638625417
 30
0.0
 10
96.2573522257
 20
282.3948576227
 30
0.0
 10
91.7731590374
 20
281.4940203327
 30
0.0
 10
84.8059365686
 20
280.800454532
 30
0.0
 10
77.6148023785
 20
280.7352463381
 30
0.0
 10
70.5707328474
 20
281.3019589229
 30
0.0
 10
64.0365937891
 20
282.4699677007
 30
0.0
 10
59.1059437924
 20
283.9437166346
 30
0.0
 10
55.7109204401
 20
285.4122051385
 30
0.0
 10
53.5876721936
 20
286.573540016
 30
0.0
 10
51.8121135737
 20
287.8235350878
 30
0.0
 10
50.8173819318
 20
288.7624257957
 30
0.0
 10
50.3972739938
 20
289.244195499
 30
0.0
  0
SPLINE
  5
3FB
100
AcDbEntity
  8
0
100
AcDbSpline
 62
7
  6
CONTINUOUS
 70
0
 71
3
 72
9
 73
5
 74
0
 42
0.0000001
 43
0.0000001
 44
0.0000000001
 40
0.0
 40
0.0
 40
0.0
 40
0.0
 40
0.5288157009
 40
1.0
 40
1.0
 40
1.0
 40
1.0
 10
50.3972739938
 20
289.244195499
 30
0.0
 10
49.9580866108
 20
289.7478450519
 30
0.0
 10
49.2183949612
 20
290.79040169
 30
0.0
 10
48.8104596244
 20
292.0134804341
 30
0.0
 10
48.72625917
 20
292.6029131336
 30
0.0
  0
SPLINE
  5
3FC
100
AcDbEntity
  8
0
100
AcDbSpline
 62
7
  6
CONTINUOUS
 70
0
 71
3
 72
9
 73
5
 74
0
 42
0.0000001
 43
0.0000001
 44
0.0000000001
 40
0.0
 40
0.0
 40
0.0
 40
0.0
 40
0.5030187629
 40
1.0
 40
1.0
 40
1.0
 40
1.0
 10
75.1321970773
 20
215.3779046869
 30
0.0
 10
74.0651991008
 20
215.0918900292
 30
0.0
 10
71.8832185834
 20
214.7270335321
 30
0.0
 10
69.6714135061
 20
214.8087971216
 30
0.0
 10
68.5905625564
 20
214.9602330485
 30
0.0
  0
SPLINE
  5
3FD
100
AcDbEntity
  8
0
100
AcDbSpline
 62
7
  6
CONTINUOUS
 70
0
 71
3
 72
13
 73
9
 74
0
 42
0.0000001
 43
0.0000001
 44
0.0000000001
 40
0.0
 40
0.0
 40
0.0
 40
0.0
 40
0.2680782262
 40
0.5231815334
 40
0.6459686261
 40
0.765812841
 40
0.883485265
 40
1.0
 40
1.0
 40
1.0
 40
1.0
 10
64.1953551392
 20
248.3450501694
 30
0.0
 10
64.2972831165
 20
247.6650317603
 30
0.0
 10
64.6702200795
 20
246.3560932245
 30
0.0
 10
65.5729829759
 20
244.9339589814
 30
0.0
 10
66.5009022413
 20
244.0493990077
 30
0.0
 10
67.2718399947
 20
243.5310809961
 30
0.0
 10
68.1072990682
 20
243.1634416494
 30
0.0
 10
68.6958817799
 20
243.0247635481
 30
0.0
 10
68.9918479579
 20
242.9832903965
 30
0.0
  0
SPLINE
  5
3FE
100
AcDbEntity
  8
0
100
AcDbSpline
 62
7
  6
CONTINUOUS
 70
0
 71
3
 72
13
 73
9
 74
0
 42
0.0000001
 43
0.0000001
 44
0.0000000001
 40
0.0
 40
0.0
 40
0.0
 40
0.0
 40
0.2680782262
 40
0.5231815334
 40
0.6459686261
 40
0.765812841
 40
0.883485265
 40
1.0
 40
1.0
 40
1.0
 40
1.0
 10
55.686265575
 20
233.4237103946
 30
0.0
 10
55.7881935523
 20
232.7436919854
 30
0.0
 10
56.1611305153
 20
231.4347534497
 30
0.0
 10
57.0638934117
 20
230.0126192065
 30
0.0
 10
57.9918126772
 20
229.1280592329
 30
0.0
 10
58.7627504305
 20
228.6097412213
 30
0.0
 10
59.598209504
 20
228.2421018745
 30
0.0
 10
60.1867922157
 20
228.1034237733
 30
0.0
 10
60.4827583937
 20
228.0619506217
 30
0.0
  0
SPLINE
  5
3FF
100
AcDbEntity
  8
0
100
AcDbSpline
 62
7
  6
CONTINUOUS
 70
0
 71
3
 72
13
 73
9
 74
0
 42
0.0000001
 43
0.0000001
 44
0.0000000001
 40
0.0
 40
0.0
 40
0.0
 40
0.0
 40
0.2680782262
 40
0.5231815334
 40
0.6459686261
 40
0.765812841
 40
0.883485265
 40
1.0
 40
1.0
 40
1.0
 40
1.0
 10
76.3474233106
 20
238.9620470041
 30
0.0
 10
76.449351288
 20
238.282028595
 30
0.0
 10
76.8222882509
 20
236.9730900592
 30
0.0
 10
77.7250511474
 20
235.5509558161
 30
0.0
 10
78.6529704128
 20
234.6663958424
 30
0.0
 10
79.4239081662
 20
234.1480778308
 30
0.0
 10
80.2593672397
 20
233.7804384841
 30
0.0
 10
80.8479499514
 20
233.6417603829
 30
0.0
 10
81.1439161294
 20
233.6002872312
 30
0.0
  0
SPLINE
  5
400
100
AcDbEntity
  8
0
100
AcDbSpline
 62
7
  6
CONTINUOUS
 70
0
 71
3
 72
13
 73
9
 74
0
 42
0.0000001
 43
0.0000001
 44
0.0000000001
 40
0.0
 40
0.0
 40
0.0
 40
0.0
 40
0.1126084257
 40
0.227816271
 40
0.3475015298
 40
0.4724025418
 40
0.7336674034
 40
1.0
 40
1.0
 40
1.0
 40
1.0
 10
73.159433877
 20
230.3430847219
 30
0.0
 10
72.8527258278
 20
230.3860369784
 30
0.0
 10
72.2160877322
 20
230.3828636023
 30
0.0
 10
71.2885919459
 20
230.1091473095
 30
0.0
 10
70.4355069947
 20
229.5867949852
 30
0.0
 10
69.448249804
 20
228.5906586668
 30
0.0
 10
68.6449716456
 20
226.924974494
 30
0.0
 10
68.562929643
 20
225.4323174507
 30
0.0
 10
68.6715082232
 20
224.7079291592
 30
0.0
  0
SPLINE
  5
401
100
AcDbEntity
  8
0
100
AcDbSpline
 62
7
  6
CONTINUOUS
 70
0
 71
3
 72
11
 73
7
 74
0
 42
0.0000001
 43
0.0000001
 44
0.0000000001
 40
0.0
 40
0.0
 40
0.0
 40
0.0
 40
0.2372801692
 40
0.4807048744
 40
0.7345138971
 40
1.0
 40
1.0
 40
1.0
 40
1.0
 10
79.626416006
 20
244.5406821918
 30
0.0
 10
79.3702459781
 20
244.5765331282
 30
0.0
 10
78.8367397095
 20
244.5689117996
 30
0.0
 10
78.0649350245
 20
244.3183500155
 30
0.0
 10
77.3661260883
 20
243.8505862234
 30
0.0
 10
76.984722581
 20
243.4236428797
 30
0.0
 10
76.8174488841
 20
243.1874641809
 30
0.0
  0
SPLINE
  5
402
100
AcDbEntity
  8
0
100
AcDbSpline
 62
7
  6
CONTINUOUS
 70
0
 71
3
 72
15
 73
11
 74
0
 42
0.0000001
 43
0.0000001
 44
0.0000000001
 40
0.0
 40
0.0
 40
0.0
 40
0.0
 40
0.1122971141
 40
0.2271854932
 40
0.3465387839
 40
0.4710939575
 40
0.6004021822
 40
0.7330568959
 40
0.8670061248
 40
1.0
 40
1.0
 40
1.0
 40
1.0
 10
83.0785551235
 20
247.4138497618
 30
0.0
 10
82.6185511953
 20
247.478309197
 30
0.0
 10
81.6637083386
 20
247.4735174959
 30
0.0
 10
80.272595197
 20
247.0629413327
 30
0.0
 10
78.993295553
 20
246.2797259809
 30
0.0
 10
77.8971382131
 20
245.1734535532
 30
0.0
 10
77.0413258803
 20
243.8087097621
 30
0.0
 10
76.4709244411
 20
242.2615376691
 30
0.0
 10
76.2156798545
 20
240.6180570391
 30
0.0
 10
76.2658787085
 20
239.506076544
 30
0.0
 10
76.3474233106
 20
238.9620470041
 30
0.0
  0
SPLINE
  5
403
100
AcDbEntity
  8
0
100
AcDbSpline
 62
7
  6
CONTINUOUS
 70
0
 71
3
 72
11
 73
7
 74
0
 42
0.0000001
 43
0.0000001
 44
0.0000000001
 40
0.0
 40
0.0
 40
0.0
 40
0.0
 40
0.2372801692
 40
0.4807048744
 40
0.7345138971
 40
1.0
 40
1.0
 40
1.0
 40
1.0
 10
58.9652582703
 20
239.0023455822
 30
0.0
 10
58.7090882424
 20
239.0381965187
 30
0.0
 10
58.1755819738
 20
239.03057519
 30
0.0
 10
57.4037772888
 20
238.780013406
 30
0.0
 10
56.7049683527
 20
238.3122496139
 30
0.0
 10
56.3235648454
 20
237.8853062702
 30
0.0
 10
56.1562911484
 20
237.6491275714
 30
0.0
  0
SPLINE
  5
404
100
AcDbEntity
  8
0
100
AcDbSpline
 62
7
  6
CONTINUOUS
 70
0
 71
3
 72
15
 73
11
 74
0
 42
0.0000001
 43
0.0000001
 44
0.0000000001
 40
0.0
 40
0.0
 40
0.0
 40
0.0
 40
0.1122971141
 40
0.2271854932
 40
0.3465387839
 40
0.4710939575
 40
0.6004021822
 40
0.7330568959
 40
0.8670061248
 40
1.0
 40
1.0
 40
1.0
 40
1.0
 10
62.4173973879
 20
241.8755131523
 30
0.0
 10
61.9573934596
 20
241.9399725875
 30
0.0
 10
61.0025506029
 20
241.9351808863
 30
0.0
 10
59.6114374613
 20
241.5246047232
 30
0.0
 10
58.3321378173
 20
240.7413893714
 30
0.0
 10
57.2359804774
 20
239.6351169437
 30
0.0
 10
56.3801681446
 20
238.2703731526
 30
0.0
 10
55.8097667054
 20
236.7232010595
 30
0.0
 10
55.5545221189
 20
235.0797204296
 30
0.0
 10
55.6047209728
 20
233.9677399344
 30
0.0
 10
55.686265575
 20
233.4237103946
 30
0.0
  0
SPLINE
  5
405
100
AcDbEntity
  8
0
100
AcDbSpline
 62
7
  6
CONTINUOUS
 70
0
 71
3
 72
11
 73
7
 74
0
 42
0.0000001
 43
0.0000001
 44
0.0000000001
 40
0.0
 40
0.0
 40
0.0
 40
0.0
 40
0.2372801692
 40
0.4807048744
 40
0.7345138971
 40
1.0
 40
1.0
 40
1.0
 40
1.0
 10
67.4743478345
 20
253.923685357
 30
0.0
 10
67.2181778066
 20
253.9595362935
 30
0.0
 10
66.684671538
 20
253.9519149648
 30
0.0
 10
65.912866853
 20
253.7013531808
 30
0.0
 10
65.2140579168
 20
253.2335893887
 30
0.0
 10
64.8326544095
 20
252.806646045
 30
0.0
 10
64.6653807126
 20
252.5704673462
 30
0.0
  0
SPLINE
  5
406
100
AcDbEntity
  8
0
100
AcDbSpline
 62
7
  6
CONTINUOUS
 70
0
 71
3
 72
15
 73
11
 74
0
 42
0.0000001
 43
0.0000001
 44
0.0000000001
 40
0.0
 40
0.0
 40
0.0
 40
0.0
 40
0.1122971141
 40
0.2271854932
 40
0.3465387839
 40
0.4710939575
 40
0.6004021822
 40
0.7330568959
 40
0.8670061248
 40
1.0
 40
1.0
 40
1.0
 40
1.0
 10
70.9264869521
 20
256.7968529271
 30
0.0
 10
70.4664830238
 20
256.8613123623
 30
0.0
 10
69.5116401671
 20
256.8565206612
 30
0.0
 10
68.1205270255
 20
256.445944498
 30
0.0
 10
66.8412273815
 20
255.6627291462
 30
0.0
 10
65.7450700416
 20
254.5564567185
 30
0.0
 10
64.8892577088
 20
253.1917129274
 30
0.0
 10
64.3188562696
 20
251.6445408344
 30
0.0
 10
64.063611683
 20
250.0010602044
 30
0.0
 10
64.113810537
 20
248.8890797093
 30
0.0
 10
64.1953551392
 20
248.3450501694
 30
0.0
  0
SPLINE
  5
407
100
AcDbEntity
  8
0
100
AcDbSpline
 62
7
  6
CONTINUOUS
 70
0
 71
3
 72
11
 73
7
 74
0
 42
0.0000001
 43
0.0000001
 44
0.0000000001
 40
0.0
 40
0.0
 40
0.0
 40
0.0
 40
0.2632910783
 40
0.516264249
 40
0.7605899591
 40
1.0
 40
1.0
 40
1.0
 40
1.0
 10
64.2887675787
 20
248.3898149137
 30
0.0
 10
64.3975890397
 20
248.1631524464
 30
0.0
 10
64.6583145198
 20
247.7392265049
 30
0.0
 10
65.174681289
 20
247.2187777134
 30
0.0
 10
65.7844602243
 20
246.853031553
 30
0.0
 10
66.2354234096
 20
246.7259661391
 30
0.0
 10
66.461843324
 20
246.6942787242
 30
0.0
  0
SPLINE
  5
408
100
AcDbEntity
  8
0
100
AcDbSpline
 62
7
  6
CONTINUOUS
 70
0
 71
3
 72
11
 73
7
 74
0
 42
0.0000001
 43
0.0000001
 44
0.0000000001
 40
0.0
 40
0.0
 40
0.0
 40
0.0
 40
0.2632910783
 40
0.516264249
 40
0.7605899591
 40
1.0
 40
1.0
 40
1.0
 40
1.0
 10
55.7796780145
 20
233.4684751389
 30
0.0
 10
55.8884994755
 20
233.2418126716
 30
0.0
 10
56.1492249556
 20
232.8178867301
 30
0.0
 10
56.6655917249
 20
232.2974379385
 30
0.0
 10
57.2753706601
 20
231.9316917782
 30
0.0
 10
57.7263338454
 20
231.8046263643
 30
0.0
 10
57.9527537598
 20
231.7729389494
 30
0.0
  0
SPLINE
  5
409
100
AcDbEntity
  8
0
100
AcDbSpline
 62
7
  6
CONTINUOUS
 70
0
 71
3
 72
11
 73
7
 74
0
 42
0.0000001
 43
0.0000001
 44
0.0000000001
 40
0.0
 40
0.0
 40
0.0
 40
0.0
 40
0.2632910783
 40
0.516264249
 40
0.7605899591
 40
1.0
 40
1.0
 40
1.0
 40
1.0
 10
76.4408357502
 20
239.0068117484
 30
0.0
 10
76.5496572112
 20
238.7801492811
 30
0.0
 10
76.8103826912
 20
238.3562233396
 30
0.0
 10
77.3267494605
 20
237.8357745481
 30
0.0
 10
77.9365283958
 20
237.4700283878
 30
0.0
 10
78.3874915811
 20
237.3429629739
 30
0.0
 10
78.6139114955
 20
237.3112755589
 30
0.0
  0
SPLINE
  5
40A
100
AcDbEntity
  8
0
100
AcDbSpline
 62
7
  6
CONTINUOUS
 70
0
 71
3
 72
11
 73
7
 74
0
 42
0.0000001
 43
0.0000001
 44
0.0000000001
 40
0.0
 40
0.0
 40
0.0
 40
0.0
 40
0.2685754896
 40
0.5241420781
 40
0.7663548172
 40
1.0
 40
1.0
 40
1.0
 40
1.0
 10
68.6715082232
 20
224.7079291592
 30
0.0
 10
68.7394687009
 20
224.2545268925
 30
0.0
 10
68.9885161105
 20
223.3814642339
 30
0.0
 10
69.6995907977
 20
222.260082666
 30
0.0
 10
70.6844868054
 20
221.4551485931
 30
0.0
 10
71.4745475859
 20
221.1883497164
 30
0.0
 10
71.869533247
 20
221.1330348152
 30
0.0
  0
SPLINE
  5
40B
100
AcDbEntity
  8
0
100
AcDbSpline
 62
7
  6
CONTINUOUS
 70
0
 71
3
 72
19
 73
15
 74
0
 42
0.0000001
 43
0.0000001
 44
0.0000000001
 40
0.0
 40
0.0
 40
0.0
 40
0.0
 40
0.0582758683
 40
0.1180773244
 40
0.1794685463
 40
0.2423780551
 40
0.3716203141
 40
0.5035210287
 40
0.6347706204
 40
0.7622336986
 40
0.8239850101
 40
0.8841509866
 40
0.9427672602
 40
1.0
 40
1.0
 40
1.0
 40
1.0
 10
82.9873640077
 20
257.0458509044
 30
0.0
 10
83.7645219987
 20
256.4338551264
 30
0.0
 10
85.2396331402
 20
255.0622226011
 30
0.0
 10
87.131535878
 20
252.6608104009
 30
0.0
 10
88.6926507773
 20
249.940886459
 30
0.0
 10
90.3023592228
 20
245.9372048234
 30
0.0
 10
91.3121550969
 20
240.4628650318
 30
0.0
 10
90.8763426401
 20
233.7518173846
 30
0.0
 10
88.8517030461
 20
227.3694371559
 30
0.0
 10
85.9280616212
 20
222.7001935718
 30
0.0
 10
82.9824851666
 20
219.643022791
 30
0.0
 10
80.5516615531
 20
217.7577988086
 30
0.0
 10
77.9300167776
 20
216.3009644817
 30
0.0
 10
76.0705612167
 20
215.6294383392
 30
0.0
 10
75.1321970773
 20
215.3779046869
 30
0.0
  0
SPLINE
  5
40C
100
AcDbEntity
  8
0
100
AcDbSpline
 62
7
  6
CONTINUOUS
 70
0
 71
3
 72
9
 73
5
 74
0
 42
0.0000001
 43
0.0000001
 44
0.0000000001
 40
0.0
 40
0.0
 40
0.0
 40
0.0
 40
0.4861864965
 40
1.0
 40
1.0
 40
1.0
 40
1.0
 10
71.0232603812
 20
229.9278564561
 30
0.0
 10
71.3584100343
 20
229.5952177627
 30
0.0
 10
71.9239230821
 20
228.7795049625
 30
0.0
 10
72.20475078
 20
227.8329519378
 30
0.0
 10
72.2787245248
 20
227.3394318036
 30
0.0
  0
SPLINE
  5
40D
100
AcDbEntity
  8
0
100
AcDbSpline
 62
7
  6
CONTINUOUS
 70
0
 71
3
 72
13
 73
9
 74
0
 42
0.0000001
 43
0.0000001
 44
0.0000000001
 40
0.0
 40
0.0
 40
0.0
 40
0.0
 40
0.2680782262
 40
0.5231815334
 40
0.6459686261
 40
0.765812841
 40
0.883485265
 40
1.0
 40
1.0
 40
1.0
 40
1.0
 10
87.8750479422
 20
242.0520899889
 30
0.0
 10
87.7731199649
 20
242.7321083981
 30
0.0
 10
87.4001830019
 20
244.0410469338
 30
0.0
 10
86.4974201055
 20
245.463181177
 30
0.0
 10
85.5695008401
 20
246.3477411506
 30
0.0
 10
84.7985630867
 20
246.8660591622
 30
0.0
 10
83.9631040132
 20
247.233698509
 30
0.0
 10
83.3745213015
 20
247.3723766102
 30
0.0
 10
83.0785551235
 20
247.4138497618
 30
0.0
  0
SPLINE
  5
40E
100
AcDbEntity
  8
0
100
AcDbSpline
 62
7
  6
CONTINUOUS
 70
0
 71
3
 72
10
 73
6
 74
0
 42
0.0000001
 43
0.0000001
 44
0.0000000001
 40
0.0
 40
0.0
 40
0.0
 40
0.0
 40
0.2370694099
 40
0.4831648138
 40
1.0
 40
1.0
 40
1.0
 40
1.0
 10
78.5098454073
 20
244.4473182182
 30
0.0
 10
78.7012526542
 20
244.323565495
 30
0.0
 10
79.0612147228
 20
244.0215380295
 30
0.0
 10
79.643454105
 20
243.24929411
 30
0.0
 10
79.8877091628
 20
242.5306558458
 30
0.0
 10
79.9613677796
 20
242.039238114
 30
0.0
  0
SPLINE
  5
40F
100
AcDbEntity
  8
0
100
AcDbSpline
 62
7
  6
CONTINUOUS
 70
0
 71
3
 72
13
 73
9
 74
0
 42
0.0000001
 43
0.0000001
 44
0.0000000001
 40
0.0
 40
0.0
 40
0.0
 40
0.0
 40
0.1126064723
 40
0.2278109263
 40
0.3474931953
 40
0.4723914513
 40
0.7336564518
 40
1.0
 40
1.0
 40
1.0
 40
1.0
 10
78.6139114955
 20
237.3112755589
 30
0.0
 10
78.8546599119
 20
237.2775828735
 30
0.0
 10
79.3543704937
 20
237.2800413373
 30
0.0
 10
80.0823910821
 20
237.494896508
 30
0.0
 10
80.7520036148
 20
237.9048945102
 30
0.0
 10
81.5269546526
 20
238.6867848595
 30
0.0
 10
82.1575253546
 20
239.9942613204
 30
0.0
 10
82.2219246993
 20
241.1659463312
 30
0.0
 10
82.1366927801
 20
241.7345760203
 30
0.0
  0
SPLINE
  5
410
100
AcDbEntity
  8
0
100
AcDbSpline
 62
7
  6
CONTINUOUS
 70
0
 71
3
 72
20
 73
16
 74
0
 42
0.0000001
 43
0.0000001
 44
0.0000000001
 40
0.0
 40
0.0
 40
0.0
 40
0.0
 40
0.1300136163
 40
0.192217698
 40
0.2522860574
 40
0.3105656576
 40
0.3677207161
 40
0.4246267227
 40
0.4822092815
 40
0.5412627119
 40
0.6023106671
 40
0.7302582667
 40
0.7971234122
 40
0.8649526997
 40
1.0
 40
1.0
 40
1.0
 40
1.0
 10
68.1062781046
 20
224.1125311835
 30
0.0
 10
68.2293259445
 20
223.291610387
 30
0.0
 10
68.6176434493
 20
222.0906719799
 30
0.0
 10
69.531358246
 20
220.7542902562
 30
0.0
 10
70.3666207694
 20
219.9468984384
 30
0.0
 10
71.3298716121
 20
219.3562919965
 30
0.0
 10
72.3839526011
 20
219.0070389201
 30
0.0
 10
73.4862186449
 20
218.9147023481
 30
0.0
 10
74.5913385285
 20
219.0825371195
 30
0.0
 10
75.6551794726
 20
219.5025177456
 30
0.0
 10
76.9819637712
 20
220.3846171962
 30
0.0
 10
78.0444276823
 20
221.683099343
 30
0.0
 10
78.745598268
 20
223.2125430764
 30
0.0
 10
79.1982584251
 20
224.8802417346
 30
0.0
 10
79.2258258502
 20
226.2062222082
 30
0.0
 10
79.09801402
 20
227.0589262598
 30
0.0
  0
SPLINE
  5
411
100
AcDbEntity
  8
0
100
AcDbSpline
 62
7
  6
CONTINUOUS
 70
0
 71
3
 72
11
 73
7
 74
0
 42
0.0000001
 43
0.0000001
 44
0.0000000001
 40
0.0
 40
0.0
 40
0.0
 40
0.0
 40
0.2350656353
 40
0.4796604125
 40
0.7350314605
 40
1.0
 40
1.0
 40
1.0
 40
1.0
 10
81.5330431111
 20
247.3955700096
 30
0.0
 10
81.9700500181
 20
247.1865713763
 30
0.0
 10
82.8038773734
 20
246.6286426391
 30
0.0
 10
83.8075792371
 20
245.4735821266
 30
0.0
 10
84.5336812878
 20
244.0589344266
 30
0.0
 10
84.8030350624
 20
243.0110029682
 30
0.0
 10
84.8839760665
 20
242.4710003677
 30
0.0
  0
SPLINE
  5
412
100
AcDbEntity
  8
0
100
AcDbSpline
 62
7
  6
CONTINUOUS
 70
0
 71
3
 72
15
 73
11
 74
0
 42
0.0000001
 43
0.0000001
 44
0.0000000001
 40
0.0
 40
0.0
 40
0.0
 40
0.0
 40
0.1122971141
 40
0.2271854932
 40
0.3465387839
 40
0.4710939575
 40
0.6004021822
 40
0.7330568959
 40
0.8670061248
 40
1.0
 40
1.0
 40
1.0
 40
1.0
 10
81.1439161294
 20
233.6002872312
 30
0.0
 10
81.6039200576
 20
233.535827796
 30
0.0
 10
82.5587629143
 20
233.5406194972
 30
0.0
 10
83.9498760559
 20
233.9511956603
 30
0.0
 10
85.2291756999
 20
234.7344110121
 30
0.0
 10
86.3253330398
 20
235.8406834398
 30
0.0
 10
87.1811453726
 20
237.2054272309
 30
0.0
 10
87.7515468118
 20
238.7525993239
 30
0.0
 10
88.0067913984
 20
240.3960799539
 30
0.0
 10
87.9565925444
 20
241.508060449
 30
0.0
 10
87.8750479422
 20
242.0520899889
 30
0.0
  0
SPLINE
  5
413
100
AcDbEntity
  8
0
100
AcDbSpline
 62
7
  6
CONTINUOUS
 70
0
 71
3
 72
20
 73
16
 74
0
 42
0.0000001
 43
0.0000001
 44
0.0000000001
 40
0.0
 40
0.0
 40
0.0
 40
0.0
 40
0.1300136163
 40
0.192217698
 40
0.2522860574
 40
0.3105656576
 40
0.3677207161
 40
0.4246267227
 40
0.4822092815
 40
0.5412627119
 40
0.6023106671
 40
0.7302582667
 40
0.7971234122
 40
0.8649526997
 40
1.0
 40
1.0
 40
1.0
 40
1.0
 10
79.09801402
 20
227.0589262598
 30
0.0
 10
78.9749661825
 20
227.8798470568
 30
0.0
 10
78.5866486746
 20
229.0807854634
 30
0.0
 10
77.6729338787
 20
230.4171671872
 30
0.0
 10
76.8376713551
 20
231.224559005
 30
0.0
 10
75.8744205124
 20
231.8151654469
 30
0.0
 10
74.8203395235
 20
232.1644185233
 30
0.0
 10
73.7180734797
 20
232.2567550953
 30
0.0
 10
72.612953596
 20
232.0889203239
 30
0.0
 10
71.5491126519
 20
231.6689396978
 30
0.0
 10
70.2223283533
 20
230.7868402472
 30
0.0
 10
69.1598644423
 20
229.4883581004
 30
0.0
 10
68.4586938563
 20
227.958914367
 30
0.0
 10
68.0060337001
 20
226.2912157088
 30
0.0
 10
67.9784662717
 20
224.9652352348
 30
0.0
 10
68.1062781046
 20
224.1125311835
 30
0.0
  0
SPLINE
  5
414
100
AcDbEntity
  8
0
100
AcDbSpline
 62
7
  6
CONTINUOUS
 70
0
 71
3
 72
10
 73
6
 74
0
 42
0.0000001
 43
0.0000001
 44
0.0000000001
 40
0.0
 40
0.0
 40
0.0
 40
0.0
 40
0.2370694099
 40
0.4831648138
 40
1.0
 40
1.0
 40
1.0
 40
1.0
 10
57.8486876716
 20
238.9089816086
 30
0.0
 10
58.0400949185
 20
238.7852288854
 30
0.0
 10
58.4000569871
 20
238.4832014199
 30
0.0
 10
58.9822963693
 20
237.7109575005
 30
0.0
 10
59.2265514271
 20
236.9923192363
 30
0.0
 10
59.3002100439
 20
236.5009015045
 30
0.0
  0
SPLINE
  5
415
100
AcDbEntity
  8
0
100
AcDbSpline
 62
7
  6
CONTINUOUS
 70
0
 71
3
 72
13
 73
9
 74
0
 42
0.0000001
 43
0.0000001
 44
0.0000000001
 40
0.0
 40
0.0
 40
0.0
 40
0.0
 40
0.1126064723
 40
0.2278109263
 40
0.3474931953
 40
0.4723914513
 40
0.7336564518
 40
1.0
 40
1.0
 40
1.0
 40
1.0
 10
57.9527537598
 20
231.7729389494
 30
0.0
 10
58.1935021763
 20
231.7392462639
 30
0.0
 10
58.693212758
 20
231.7417047278
 30
0.0
 10
59.4212333464
 20
231.9565598985
 30
0.0
 10
60.0908458791
 20
232.3665579007
 30
0.0
 10
60.865796917
 20
233.1484482499
 30
0.0
 10
61.4963676189
 20
234.4559247109
 30
0.0
 10
61.5607669636
 20
235.6276097217
 30
0.0
 10
61.4755350445
 20
236.1962394108
 30
0.0
  0
SPLINE
  5
416
100
AcDbEntity
  8
0
100
AcDbSpline
 62
7
  6
CONTINUOUS
 70
0
 71
3
 72
11
 73
7
 74
0
 42
0.0000001
 43
0.0000001
 44
0.0000000001
 40
0.0
 40
0.0
 40
0.0
 40
0.0
 40
0.2350656353
 40
0.4796604125
 40
0.7350314605
 40
1.0
 40
1.0
 40
1.0
 40
1.0
 10
60.8718853755
 20
241.8572334001
 30
0.0
 10
61.3088922824
 20
241.6482347667
 30
0.0
 10
62.1427196377
 20
241.0903060295
 30
0.0
 10
63.1464215014
 20
239.935245517
 30
0.0
 10
63.8725235522
 20
238.5205978171
 30
0.0
 10
64.1418773268
 20
237.4726663586
 30
0.0
 10
64.2228183308
 20
236.9326637582
 30
0.0
  0
SPLINE
  5
417
100
AcDbEntity
  8
0
100
AcDbSpline
 62
7
  6
CONTINUOUS
 70
0
 71
3
 72
13
 73
9
 74
0
 42
0.0000001
 43
0.0000001
 44
0.0000000001
 40
0.0
 40
0.0
 40
0.0
 40
0.0
 40
0.2620352514
 40
0.5218290612
 40
0.6477006197
 40
0.7693200866
 40
0.8865472593
 40
1.0
 40
1.0
 40
1.0
 40
1.0
 10
72.731907895
 20
251.854003533
 30
0.0
 10
72.8721515952
 20
250.9183595585
 30
0.0
 10
72.8188275833
 20
248.9923203436
 30
0.0
 10
71.9619684545
 20
246.7623213349
 30
0.0
 10
70.8609802403
 20
245.2864395455
 30
0.0
 10
69.8772730922
 20
244.3970533199
 30
0.0
 10
68.7685579204
 20
243.7543557742
 30
0.0
 10
67.9639684526
 20
243.5065935935
 30
0.0
 10
67.5607971035
 20
243.4341458949
 30
0.0
  0
SPLINE
  5
418
100
AcDbEntity
  8
0
100
AcDbSpline
 62
7
  6
CONTINUOUS
 70
0
 71
3
 72
15
 73
11
 74
0
 42
0.0000001
 43
0.0000001
 44
0.0000000001
 40
0.0
 40
0.0
 40
0.0
 40
0.0
 40
0.1122971141
 40
0.2271854932
 40
0.3465387839
 40
0.4710939575
 40
0.6004021822
 40
0.7330568959
 40
0.8670061248
 40
1.0
 40
1.0
 40
1.0
 40
1.0
 10
60.4827583937
 20
228.0619506217
 30
0.0
 10
60.9427623219
 20
227.9974911865
 30
0.0
 10
61.8976051786
 20
228.0022828876
 30
0.0
 10
63.2887183203
 20
228.4128590508
 30
0.0
 10
64.5680179642
 20
229.1960744025
 30
0.0
 10
65.6641753041
 20
230.3023468303
 30
0.0
 10
66.5199876369
 20
231.6670906213
 30
0.0
 10
67.0903890761
 20
233.2142627144
 30
0.0
 10
67.3456336627
 20
234.8577433443
 30
0.0
 10
67.2954348087
 20
235.9697238395
 30
0.0
 10
67.2138902066
 20
236.5137533794
 30
0.0
  0
SPLINE
  5
419
100
AcDbEntity
  8
0
100
AcDbSpline
 62
7
  6
CONTINUOUS
 70
0
 71
3
 72
11
 73
7
 74
0
 42
0.0000001
 43
0.0000001
 44
0.0000000001
 40
0.0
 40
0.0
 40
0.0
 40
0.0
 40
0.2685843535
 40
0.5241471175
 40
0.7663573237
 40
1.0
 40
1.0
 40
1.0
 40
1.0
 10
69.9846246086
 20
251.1175791856
 30
0.0
 10
69.9312776957
 20
251.4734862075
 30
0.0
 10
69.7358006295
 20
252.1588059261
 30
0.0
 10
69.1775853895
 20
253.0389957563
 30
0.0
 10
68.4045283842
 20
253.670813938
 30
0.0
 10
67.7843899956
 20
253.8802950279
 30
0.0
 10
67.4743478345
 20
253.923685357
 30
0.0
  0
SPLINE
  5
41A
100
AcDbEntity
  8
0
100
AcDbSpline
 62
7
  6
CONTINUOUS
 70
0
 71
3
 72
11
 73
7
 74
0
 42
0.0000001
 43
0.0000001
 44
0.0000000001
 40
0.0
 40
0.0
 40
0.0
 40
0.0
 40
0.2608334125
 40
0.5203113883
 40
0.7682235138
 40
1.0
 40
1.0
 40
1.0
 40
1.0
 10
67.8092996081
 20
251.4222412793
 30
0.0
 10
67.8780883266
 20
250.9633133569
 30
0.0
 10
67.8618553661
 20
250.0187212271
 30
0.0
 10
67.405408074
 20
248.7061764315
 30
0.0
 10
66.5762891366
 20
247.6516129868
 30
0.0
 10
65.8113785971
 20
247.2123454572
 30
0.0
 10
65.4170436535
 20
247.0917645788
 30
0.0
  0
SPLINE
  5
41B
100
AcDbEntity
  8
0
100
AcDbSpline
 62
7
  6
CONTINUOUS
 70
0
 71
3
 72
10
 73
6
 74
0
 42
0.0000001
 43
0.0000001
 44
0.0000000001
 40
0.0
 40
0.0
 40
0.0
 40
0.0
 40
0.2370694099
 40
0.4831648138
 40
1.0
 40
1.0
 40
1.0
 40
1.0
 10
66.3577772358
 20
253.8303213835
 30
0.0
 10
66.5491844827
 20
253.7065686602
 30
0.0
 10
66.9091465513
 20
253.4045411948
 30
0.0
 10
67.4913859335
 20
252.6322972753
 30
0.0
 10
67.7356409913
 20
251.9136590111
 30
0.0
 10
67.8092996081
 20
251.4222412793
 30
0.0
  0
SPLINE
  5
41C
100
AcDbEntity
  8
0
100
AcDbSpline
 62
7
  6
CONTINUOUS
 70
0
 71
3
 72
13
 73
9
 74
0
 42
0.0000001
 43
0.0000001
 44
0.0000000001
 40
0.0
 40
0.0
 40
0.0
 40
0.0
 40
0.2620352514
 40
0.5218290612
 40
0.6477006197
 40
0.7693200866
 40
0.8865472593
 40
1.0
 40
1.0
 40
1.0
 40
1.0
 10
64.2228183308
 20
236.9326637582
 30
0.0
 10
64.363062031
 20
235.9970197837
 30
0.0
 10
64.3097380191
 20
234.0709805687
 30
0.0
 10
63.4528788903
 20
231.8409815601
 30
0.0
 10
62.3518906761
 20
230.3650997707
 30
0.0
 10
61.368183528
 20
229.4757135451
 30
0.0
 10
60.2594683562
 20
228.8330159993
 30
0.0
 10
59.4548788884
 20
228.5852538187
 30
0.0
 10
59.0517075393
 20
228.5128061201
 30
0.0
  0
SPLINE
  5
41D
100
AcDbEntity
  8
0
100
AcDbSpline
 62
7
  6
CONTINUOUS
 70
0
 71
3
 72
11
 73
7
 74
0
 42
0.0000001
 43
0.0000001
 44
0.0000000001
 40
0.0
 40
0.0
 40
0.0
 40
0.0
 40
0.2685843535
 40
0.5241471175
 40
0.7663573237
 40
1.0
 40
1.0
 40
1.0
 40
1.0
 10
61.4755350445
 20
236.1962394108
 30
0.0
 10
61.4221881315
 20
236.5521464326
 30
0.0
 10
61.2267110653
 20
237.2374661513
 30
0.0
 10
60.6684958253
 20
238.1176559814
 30
0.0
 10
59.89543882
 20
238.7494741631
 30
0.0
 10
59.2753004314
 20
238.9589552531
 30
0.0
 10
58.9652582703
 20
239.0023455822
 30
0.0
  0
SPLINE
  5
41E
100
AcDbEntity
  8
0
100
AcDbSpline
 62
7
  6
CONTINUOUS
 70
0
 71
3
 72
11
 73
7
 74
0
 42
0.0000001
 43
0.0000001
 44
0.0000000001
 40
0.0
 40
0.0
 40
0.0
 40
0.0
 40
0.2608334125
 40
0.5203113883
 40
0.7682235138
 40
1.0
 40
1.0
 40
1.0
 40
1.0
 10
59.3002100439
 20
236.5009015045
 30
0.0
 10
59.3689987624
 20
236.0419735821
 30
0.0
 10
59.3527658019
 20
235.0973814522
 30
0.0
 10
58.8963185098
 20
233.7848366567
 30
0.0
 10
58.0671995724
 20
232.7302732119
 30
0.0
 10
57.3022890329
 20
232.2910056824
 30
0.0
 10
56.9079540893
 20
232.170424804
 30
0.0
  0
SPLINE
  5
41F
100
AcDbEntity
  8
0
100
AcDbSpline
 62
7
  6
CONTINUOUS
 70
0
 71
3
 72
13
 73
9
 74
0
 42
0.0000001
 43
0.0000001
 44
0.0000000001
 40
0.0
 40
0.0
 40
0.0
 40
0.0
 40
0.2620352514
 40
0.5218290612
 40
0.6477006197
 40
0.7693200866
 40
0.8865472593
 40
1.0
 40
1.0
 40
1.0
 40
1.0
 10
84.8839760665
 20
242.4710003677
 30
0.0
 10
85.0242197666
 20
241.5353563932
 30
0.0
 10
84.9708957548
 20
239.6093171783
 30
0.0
 10
84.114036626
 20
237.3793181696
 30
0.0
 10
83.0130484117
 20
235.9034363802
 30
0.0
 10
82.0293412636
 20
235.0140501546
 30
0.0
 10
80.9206260919
 20
234.3713526089
 30
0.0
 10
80.1160366241
 20
234.1235904283
 30
0.0
 10
79.712865275
 20
234.0511427296
 30
0.0
  0
SPLINE
  5
420
100
AcDbEntity
  8
0
100
AcDbSpline
 62
7
  6
CONTINUOUS
 70
0
 71
3
 72
11
 73
7
 74
0
 42
0.0000001
 43
0.0000001
 44
0.0000000001
 40
0.0
 40
0.0
 40
0.0
 40
0.0
 40
0.2685843535
 40
0.5241471175
 40
0.7663573237
 40
1.0
 40
1.0
 40
1.0
 40
1.0
 10
82.1366927801
 20
241.7345760203
 30
0.0
 10
82.0833458672
 20
242.0904830422
 30
0.0
 10
81.887868801
 20
242.7758027609
 30
0.0
 10
81.329653561
 20
243.655992591
 30
0.0
 10
80.5565965556
 20
244.2878107727
 30
0.0
 10
79.9364581671
 20
244.4972918626
 30
0.0
 10
79.626416006
 20
244.5406821918
 30
0.0
  0
SPLINE
  5
421
100
AcDbEntity
  8
0
100
AcDbSpline
 62
7
  6
CONTINUOUS
 70
0
 71
3
 72
11
 73
7
 74
0
 42
0.0000001
 43
0.0000001
 44
0.0000000001
 40
0.0
 40
0.0
 40
0.0
 40
0.0
 40
0.2608334125
 40
0.5203113883
 40
0.7682235138
 40
1.0
 40
1.0
 40
1.0
 40
1.0
 10
79.9613677796
 20
242.039238114
 30
0.0
 10
80.030156498
 20
241.5803101917
 30
0.0
 10
80.0139235376
 20
240.6357180618
 30
0.0
 10
79.5574762455
 20
239.3231732663
 30
0.0
 10
78.7283573081
 20
238.2686098215
 30
0.0
 10
77.9634467685
 20
237.8293422919
 30
0.0
 10
77.569111825
 20
237.7087614136
 30
0.0
  0
SPLINE
  5
422
100
AcDbEntity
  8
0
100
AcDbSpline
 62
7
  6
CONTINUOUS
 70
0
 71
3
 72
11
 73
7
 74
0
 42
0.0000001
 43
0.0000001
 44
0.0000000001
 40
0.0
 40
0.0
 40
0.0
 40
0.0
 40
0.2685754896
 40
0.5241420781
 40
0.7663548172
 40
1.0
 40
1.0
 40
1.0
 40
1.0
 10
76.3574589026
 20
226.7681903663
 30
0.0
 10
76.2894984254
 20
227.2215926341
 30
0.0
 10
76.0404510174
 20
228.0946552954
 30
0.0
 10
75.3293763301
 20
229.2160368671
 30
0.0
 10
74.3444803211
 20
230.020970943
 30
0.0
 10
73.5544195389
 20
230.2877698206
 30
0.0
 10
73.159433877
 20
230.3430847219
 30
0.0
  0
SPLINE
  5
423
100
AcDbEntity
  8
0
100
AcDbSpline
 62
7
  6
CONTINUOUS
 70
0
 71
3
 72
11
 73
7
 74
0
 42
0.0000001
 43
0.0000001
 44
0.0000000001
 40
0.0
 40
0.0
 40
0.0
 40
0.0
 40
0.2574459355
 40
0.5149197525
 40
0.7641809651
 40
1.0
 40
1.0
 40
1.0
 40
1.0
 10
72.2787245248
 20
227.3394318036
 30
0.0
 10
72.3557406831
 20
226.8256140317
 30
0.0
 10
72.3584355421
 20
225.7698682433
 30
0.0
 10
71.9311588315
 20
224.2674715044
 30
0.0
 10
71.1184154189
 20
222.9828559862
 30
0.0
 10
70.3445313022
 20
222.3472133688
 30
0.0
 10
69.9274764383
 20
222.1179593446
 30
0.0
  0
SPLINE
  5
424
100
AcDbEntity
  8
0
100
AcDbSpline
 62
7
  6
CONTINUOUS
 70
0
 71
3
 72
13
 73
9
 74
0
 42
0.0000001
 43
0.0000001
 44
0.0000000001
 40
0.0
 40
0.0
 40
0.0
 40
0.0
 40
0.1126064723
 40
0.2278109263
 40
0.3474931953
 40
0.4723914513
 40
0.7336564518
 40
1.0
 40
1.0
 40
1.0
 40
1.0
 10
66.461843324
 20
246.6942787242
 30
0.0
 10
66.7025917404
 20
246.6605860387
 30
0.0
 10
67.2023023222
 20
246.6630445026
 30
0.0
 10
67.9303229106
 20
246.8778996733
 30
0.0
 10
68.5999354433
 20
247.2878976755
 30
0.0
 10
69.3748864812
 20
248.0697880248
 30
0.0
 10
70.0054571831
 20
249.3772644857
 30
0.0
 10
70.0698565278
 20
250.5489494965
 30
0.0
 10
69.9846246086
 20
251.1175791856
 30
0.0
  0
SPLINE
  5
425
100
AcDbEntity
  8
0
100
AcDbSpline
 62
7
  6
CONTINUOUS
 70
0
 71
3
 72
13
 73
9
 74
0
 42
0.0000001
 43
0.0000001
 44
0.0000000001
 40
0.0
 40
0.0
 40
0.0
 40
0.0
 40
0.1126084257
 40
0.227816271
 40
0.3475015298
 40
0.4724025418
 40
0.7336674034
 40
1.0
 40
1.0
 40
1.0
 40
1.0
 10
71.869533247
 20
221.1330348152
 30
0.0
 10
72.1762412958
 20
221.0900825587
 30
0.0
 10
72.8128793905
 20
221.0932559347
 30
0.0
 10
73.7403751756
 20
221.3669722266
 30
0.0
 10
74.593460126
 20
221.8893245494
 30
0.0
 10
75.5807173162
 20
222.8854608652
 30
0.0
 10
76.3839954756
 20
224.5511450344
 30
0.0
 10
76.4660374814
 20
226.0438020755
 30
0.0
 10
76.3574589026
 20
226.7681903663
 30
0.0
  0
SPLINE
  5
426
100
AcDbEntity
  8
0
100
AcDbSpline
 62
7
  6
CONTINUOUS
 70
0
 71
3
 72
21
 73
17
 74
0
 42
0.0000001
 43
0.0000001
 44
0.0000000001
 40
0.0
 40
0.0
 40
0.0
 40
0.0
 40
0.0559985605
 40
0.1125963897
 40
0.1703180108
 40
0.2295444475
 40
0.290484061
 40
0.3531616717
 40
0.482673549
 40
0.5491391189
 40
0.6160244589
 40
0.7487173411
 40
0.8138701944
 40
0.877605037
 40
0.9396787097
 40
1.0
 40
1.0
 40
1.0
 40
1.0
 10
68.5905625564
 20
214.9602330485
 30
0.0
 10
67.5756770513
 20
215.1024266851
 30
0.0
 10
65.5573380756
 20
215.585886536
 30
0.0
 10
62.7023769753
 20
216.8793643639
 30
0.0
 10
60.0836328091
 20
218.7068976841
 30
0.0
 10
57.7691503076
 20
221.0183970109
 30
0.0
 10
55.8156970297
 20
223.7536021997
 30
0.0
 10
53.7355438954
 20
227.9092391753
 30
0.0
 10
52.590454466
 20
232.5804302586
 30
0.0
 10
52.4093675897
 20
237.3983485483
 30
0.0
 10
52.8757916283
 20
242.2563235692
 30
0.0
 10
54.302660202
 20
246.9598493123
 30
0.0
 10
56.6123728706
 20
251.1670403835
 30
0.0
 10
58.7224623664
 20
253.9695684453
 30
0.0
 10
61.1660065135
 20
256.3609288108
 30
0.0
 10
63.005356421
 20
257.6601628037
 30
0.0
 10
63.9582358756
 20
258.217504373
 30
0.0
  0
SPLINE
  5
427
100
AcDbEntity
  8
0
100
AcDbSpline
 62
7
  6
CONTINUOUS
 70
0
 71
3
 72
11
 73
7
 74
0
 42
0.0000001
 43
0.0000001
 44
0.0000000001
 40
0.0
 40
0.0
 40
0.0
 40
0.0
 40
0.2350656353
 40
0.4796604125
 40
0.7350314605
 40
1.0
 40
1.0
 40
1.0
 40
1.0
 10
69.3809749397
 20
256.7785731749
 30
0.0
 10
69.8179818466
 20
256.5695745415
 30
0.0
 10
70.6518092019
 20
256.0116458044
 30
0.0
 10
71.6555110656
 20
254.8565852919
 30
0.0
 10
72.3816131164
 20
253.4419375919
 30
0.0
 10
72.6509668909
 20
252.3940061335
 30
0.0
 10
72.731907895
 20
251.854003533
 30
0.0
  0
SPLINE
  5
428
100
AcDbEntity
  8
0
100
AcDbSpline
 62
7
  6
CONTINUOUS
 70
0
 71
3
 72
15
 73
11
 74
0
 42
0.0000001
 43
0.0000001
 44
0.0000000001
 40
0.0
 40
0.0
 40
0.0
 40
0.0
 40
0.1122971141
 40
0.2271854932
 40
0.3465387839
 40
0.4710939575
 40
0.6004021822
 40
0.7330568959
 40
0.8670061248
 40
1.0
 40
1.0
 40
1.0
 40
1.0
 10
68.9918479579
 20
242.9832903965
 30
0.0
 10
69.4518518861
 20
242.9188309613
 30
0.0
 10
70.4066947428
 20
242.9236226625
 30
0.0
 10
71.7978078844
 20
243.3341988256
 30
0.0
 10
73.0771075284
 20
244.1174141774
 30
0.0
 10
74.1732648683
 20
245.2236866051
 30
0.0
 10
75.0290772011
 20
246.5884303962
 30
0.0
 10
75.5994786403
 20
248.1356024892
 30
0.0
 10
75.8547232269
 20
249.7790831192
 30
0.0
 10
75.8045243729
 20
250.8910636143
 30
0.0
 10
75.7229797708
 20
251.4350931542
 30
0.0
  0
SPLINE
  5
429
100
AcDbEntity
  8
0
100
AcDbSpline
 62
7
  6
CONTINUOUS
 70
0
 71
3
 72
13
 73
9
 74
0
 42
0.0000001
 43
0.0000001
 44
0.0000000001
 40
0.0
 40
0.0
 40
0.0
 40
0.0
 40
0.2680782262
 40
0.5231815334
 40
0.6459686261
 40
0.765812841
 40
0.883485265
 40
1.0
 40
1.0
 40
1.0
 40
1.0
 10
67.2138902066
 20
236.5137533794
 30
0.0
 10
67.1119622292
 20
237.1937717885
 30
0.0
 10
66.7390252663
 20
238.5027103243
 30
0.0
 10
65.8362623699
 20
239.9248445674
 30
0.0
 10
64.9083431044
 20
240.809404541
 30
0.0
 10
64.137405351
 20
241.3277225527
 30
0.0
 10
63.3019462776
 20
241.6953618994
 30
0.0
 10
62.7133635659
 20
241.8340400006
 30
0.0
 10
62.4173973879
 20
241.8755131523
 30
0.0
  0
SPLINE
  5
42A
100
AcDbEntity
  8
0
100
AcDbSpline
 62
7
  6
CONTINUOUS
 70
0
 71
3
 72
13
 73
9
 74
0
 42
0.0000001
 43
0.0000001
 44
0.0000000001
 40
0.0
 40
0.0
 40
0.0
 40
0.0
 40
0.2680782262
 40
0.5231815334
 40
0.6459686261
 40
0.765812841
 40
0.883485265
 40
1.0
 40
1.0
 40
1.0
 40
1.0
 10
75.7229797708
 20
251.4350931542
 30
0.0
 10
75.6210517934
 20
252.1151115633
 30
0.0
 10
75.2481148305
 20
253.4240500991
 30
0.0
 10
74.345351934
 20
254.8461843422
 30
0.0
 10
73.4174326686
 20
255.7307443159
 30
0.0
 10
72.6464949152
 20
256.2490623275
 30
0.0
 10
71.8110358417
 20
256.6167016742
 30
0.0
 10
71.22245313
 20
256.7553797755
 30
0.0
 10
70.9264869521
 20
256.7968529271
 30
0.0
  0
SPLINE
  5
42B
100
AcDbEntity
  8
0
100
AcDbSpline
 62
7
  6
CONTINUOUS
 70
0
 71
3
 72
10
 73
6
 74
0
 42
0.0000001
 43
0.0000001
 44
0.0000000001
 40
0.0
 40
0.0
 40
0.0
 40
0.0
 40
0.4439739728
 40
0.7068753513
 40
1.0
 40
1.0
 40
1.0
 40
1.0
 10
33.5752853771
 20
272.5722626216
 30
0.0
 10
34.0856804508
 20
271.3384467123
 30
0.0
 10
35.406685986
 20
269.5845275506
 30
0.0
 10
37.692758712
 20
267.6334261957
 30
0.0
 10
39.0919344191
 20
266.7066986403
 30
0.0
 10
39.8493057201
 20
266.2555685856
 30
0.0
  0
SPLINE
  5
42C
100
AcDbEntity
  8
0
100
AcDbSpline
 62
7
  6
CONTINUOUS
 70
0
 71
3
 72
11
 73
7
 74
0
 42
0.0000001
 43
0.0000001
 44
0.0000000001
 40
0.0
 40
0.0
 40
0.0
 40
0.0
 40
0.2250466147
 40
0.4400291887
 40
0.6936798141
 40
1.0
 40
1.0
 40
1.0
 40
1.0
 10
39.8113635218
 20
266.2102579168
 30
0.0
 10
39.7829937062
 20
266.1763764011
 30
0.0
 10
39.7440403822
 20
266.0905630293
 30
0.0
 10
39.783107553
 20
265.9523666685
 30
0.0
 10
39.8816479384
 20
265.8338024345
 30
0.0
 10
39.970293319
 20
265.7674165894
 30
0.0
 10
40.0210478972
 20
265.7351374691
 30
0.0
  0
SPLINE
  5
42D
100
AcDbEntity
  8
0
100
AcDbSpline
 62
7
  6
CONTINUOUS
 70
0
 71
3
 72
10
 73
6
 74
0
 42
0.0000001
 43
0.0000001
 44
0.0000000001
 40
0.0
 40
0.0
 40
0.0
 40
0.0
 40
0.2197223308
 40
0.4605271679
 40
1.0
 40
1.0
 40
1.0
 40
1.0
 10
40.0210478972
 20
265.7351374691
 30
0.0
 10
40.821037448
 20
265.2263634077
 30
0.0
 10
42.5576757641
 20
264.2527637921
 30
0.0
 10
46.4938028154
 20
262.4766004933
 30
0.0
 10
49.7113483497
 20
261.4422076251
 30
0.0
 10
51.960911649
 20
260.8439962489
 30
0.0
  0
SPLINE
  5
42E
100
AcDbEntity
  8
0
100
AcDbSpline
 62
7
  6
CONTINUOUS
 70
0
 71
3
 72
10
 73
6
 74
0
 42
0.0000001
 43
0.0000001
 44
0.0000000001
 40
0.0
 40
0.0
 40
0.0
 40
0.0
 40
0.1759905786
 40
0.4056688575
 40
1.0
 40
1.0
 40
1.0
 40
1.0
 10
51.9699254089
 20
260.7964214273
 30
0.0
 10
51.9786171918
 20
260.750558003
 30
0.0
 10
52.0460156666
 20
260.6573793469
 30
0.0
 10
52.2645613166
 20
260.5076522559
 30
0.0
 10
52.4740655214
 20
260.4320121543
 30
0.0
 10
52.6257362287
 20
260.3890410129
 30
0.0
  0
SPLINE
  5
42F
100
AcDbEntity
  8
0
100
AcDbSpline
 62
7
  6
CONTINUOUS
 70
0
 71
3
 72
9
 73
5
 74
0
 42
0.0000001
 43
0.0000001
 44
0.0000000001
 40
0.0
 40
0.0
 40
0.0
 40
0.0
 40
0.480989723
 40
1.0
 40
1.0
 40
1.0
 40
1.0
 10
52.6257362287
 20
260.3890410129
 30
0.0
 10
55.0999506241
 20
259.6880587717
 30
0.0
 10
60.3335310885
 20
258.5406120445
 30
0.0
 10
65.6477652942
 20
257.8905374921
 30
0.0
 10
68.4137073684
 20
257.6680845209
 30
0.0
  0
SPLINE
  5
430
100
AcDbEntity
  8
0
100
AcDbSpline
 62
7
  6
CONTINUOUS
 70
0
 71
3
 72
10
 73
6
 74
0
 42
0.0000001
 43
0.0000001
 44
0.0000000001
 40
0.0
 40
0.0
 40
0.0
 40
0.0
 40
0.1991913198
 40
0.4418509133
 40
1.0
 40
1.0
 40
1.0
 40
1.0
 10
68.4683048232
 20
257.6254883818
 30
0.0
 10
68.5232135383
 20
257.5826514679
 30
0.0
 10
68.6638261743
 20
257.513277085
 30
0.0
 10
68.9972368145
 20
257.4083689683
 30
0.0
 10
69.2760924241
 20
257.365878497
 30
0.0
 10
69.4704008353
 20
257.3478679757
 30
0.0
  0
SPLINE
  5
431
100
AcDbEntity
  8
0
100
AcDbSpline
 62
7
  6
CONTINUOUS
 70
0
 71
3
 72
10
 73
6
 74
0
 42
0.0000001
 43
0.0000001
 44
0.0000000001
 40
0.0
 40
0.0
 40
0.0
 40
0.0
 40
0.2280014197
 40
0.4792192833
 40
1.0
 40
1.0
 40
1.0
 40
1.0
 10
86.7947732077
 20
257.1802045425
 30
0.0
 10
86.8815819377
 20
257.1507880114
 30
0.0
 10
87.070388884
 20
257.1080665768
 30
0.0
 10
87.4698509838
 20
257.061227468
 30
0.0
 10
87.7816664062
 20
257.0612288369
 30
0.0
 10
87.9905942271
 20
257.0746093842
 30
0.0
  0
SPLINE
  5
432
100
AcDbEntity
  8
0
100
AcDbSpline
 62
7
  6
CONTINUOUS
 70
0
 71
3
 72
9
 73
5
 74
0
 42
0.0000001
 43
0.0000001
 44
0.0000000001
 40
0.0
 40
0.0
 40
0.0
 40
0.0
 40
0.5170648612
 40
1.0
 40
1.0
 40
1.0
 40
1.0
 10
87.9905942271
 20
257.0746093842
 30
0.0
 10
90.7873857415
 20
257.2537335233
 30
0.0
 10
96.1847705816
 20
257.8230817749
 30
0.0
 10
101.5107784939
 20
258.8848113221
 30
0.0
 10
104.0441367922
 20
259.5432898465
 30
0.0
  0
SPLINE
  5
433
100
AcDbEntity
  8
0
100
AcDbSpline
 62
7
  6
CONTINUOUS
 70
0
 71
3
 72
9
 73
5
 74
0
 42
0.0000001
 43
0.0000001
 44
0.0000000001
 40
0.0
 40
0.0
 40
0.0
 40
0.0
 40
0.5139577698
 40
1.0
 40
1.0
 40
1.0
 40
1.0
 10
104.1592916388
 20
259.5283604549
 30
0.0
 10
104.3656714909
 20
259.5016058471
 30
0.0
 10
104.7738631223
 20
259.503534361
 30
0.0
 10
105.1755658569
 20
259.5643160836
 30
0.0
 10
105.3667848472
 20
259.6108663819
 30
0.0
  0
SPLINE
  5
434
100
AcDbEntity
  8
0
100
AcDbSpline
 62
7
  6
CONTINUOUS
 70
0
 71
3
 72
9
 73
5
 74
0
 42
0.0000001
 43
0.0000001
 44
0.0000000001
 40
0.0
 40
0.0
 40
0.0
 40
0.0
 40
0.5257904642
 40
1.0
 40
1.0
 40
1.0
 40
1.0
 10
105.3667848472
 20
259.6108663819
 30
0.0
 10
107.1284677958
 20
260.0397357404
 30
0.0
 10
110.4495610569
 20
260.9842952603
 30
0.0
 10
113.6690640917
 20
262.2417934879
 30
0.0
 10
115.1511804222
 20
262.9327459671
 30
0.0
  0
SPLINE
  5
435
100
AcDbEntity
  8
0
100
AcDbSpline
 62
7
  6
CONTINUOUS
 70
0
 71
3
 72
9
 73
5
 74
0
 42
0.0000001
 43
0.0000001
 44
0.0000000001
 40
0.0
 40
0.0
 40
0.0
 40
0.0
 40
0.2560399182
 40
1.0
 40
1.0
 40
1.0
 40
1.0
 10
116.0866439023
 20
263.3851287473
 30
0.0
 10
116.2349655177
 20
263.4595527283
 30
0.0
 10
116.8121412929
 20
263.7544091884
 30
0.0
 10
117.3806598068
 20
264.0663155068
 30
0.0
 10
117.7973606075
 20
264.3089238882
 30
0.0
  0
SPLINE
  5
436
100
AcDbEntity
  8
0
100
AcDbSpline
 62
7
  6
CONTINUOUS
 70
0
 71
3
 72
9
 73
5
 74
0
 42
0.0000001
 43
0.0000001
 44
0.0000000001
 40
0.0
 40
0.0
 40
0.0
 40
0.0
 40
0.5513740569
 40
1.0
 40
1.0
 40
1.0
 40
1.0
 10
117.9182694911
 20
264.3124705921
 30
0.0
 10
118.1154882589
 20
264.3182572599
 30
0.0
 10
118.4722893328
 20
264.3716229615
 30
0.0
 10
118.8127310211
 20
264.4935339618
 30
0.0
 10
118.9536051884
 20
264.570516832
 30
0.0
  0
SPLINE
  5
437
100
AcDbEntity
  8
0
100
AcDbSpline
 62
7
  6
CONTINUOUS
 70
0
 71
3
 72
10
 73
6
 74
0
 42
0.0000001
 43
0.0000001
 44
0.0000000001
 40
0.0
 40
0.0
 40
0.0
 40
0.0
 40
0.2925933366
 40
0.5558495953
 40
1.0
 40
1.0
 40
1.0
 40
1.0
 10
118.9536051884
 20
264.570516832
 30
0.0
 10
119.7581633979
 20
265.0101856838
 30
0.0
 10
121.2527864725
 20
265.9151818669
 30
0.0
 10
123.7324591759
 20
267.8274176556
 30
0.0
 10
125.2271958044
 20
269.5476469067
 30
0.0
 10
125.8687716683
 20
270.7827147149
 30
0.0
  0
SPLINE
  5
438
100
AcDbEntity
  8
0
100
AcDbSpline
 62
7
  6
CONTINUOUS
 70
0
 71
3
 72
9
 73
5
 74
0
 42
0.0000001
 43
0.0000001
 44
0.0000000001
 40
0.0
 40
0.0
 40
0.0
 40
0.0
 40
0.5920245929
 40
1.0
 40
1.0
 40
1.0
 40
1.0
 10
125.9770276679
 20
270.8041975742
 30
0.0
 10
126.1364340976
 20
270.835832519
 30
0.0
 10
126.4000166595
 20
270.9229707155
 30
0.0
 10
126.6250585524
 20
271.10241052
 30
0.0
 10
126.682585019
 20
271.198498913
 30
0.0
  0
SPLINE
  5
439
100
AcDbEntity
  8
0
100
AcDbSpline
 62
7
  6
CONTINUOUS
 70
0
 71
3
 72
9
 73
5
 74
0
 42
0.0000001
 43
0.0000001
 44
0.0000000001
 40
0.0
 40
0.0
 40
0.0
 40
0.0
 40
0.5165516479
 40
1.0
 40
1.0
 40
1.0
 40
1.0
 10
126.682585019
 20
271.198498913
 30
0.0
 10
127.0277986741
 20
271.7751363893
 30
0.0
 10
127.5784572895
 20
272.9709945414
 30
0.0
 10
127.7777629326
 20
274.2781724537
 30
0.0
 10
127.7777581468
 20
274.9071763335
 30
0.0
  0
SPLINE
  5
43A
100
AcDbEntity
  8
0
100
AcDbSpline
 62
7
  6
CONTINUOUS
 70
0
 71
3
 72
9
 73
5
 74
0
 42
0.0000001
 43
0.0000001
 44
0.0000000001
 40
0.0
 40
0.0
 40
0.0
 40
0.0
 40
0.4843128838
 40
1.0
 40
1.0
 40
1.0
 40
1.0
 10
48.4760171522
 20
292.5272522885
 30
0.0
 10
48.47555672
 20
292.1705809851
 30
0.0
 10
48.5654816466
 20
291.4314175853
 30
0.0
 10
48.8264182245
 20
290.7355847026
 30
0.0
 10
48.9934890474
 20
290.3945304602
 30
0.0
  0
SPLINE
  5
43B
100
AcDbEntity
  8
0
100
AcDbSpline
 62
7
  6
CONTINUOUS
 70
0
 71
3
 72
9
 73
5
 74
0
 42
0.0000001
 43
0.0000001
 44
0.0000000001
 40
0.0
 40
0.0
 40
0.0
 40
0.0
 40
0.2377626778
 40
1.0
 40
1.0
 40
1.0
 40
1.0
 10
48.9934890474
 20
290.3945304602
 30
0.0
 10
49.0439762021
 20
290.2914672321
 30
0.0
 10
49.2689472796
 20
289.8642096239
 30
0.0
 10
49.5416046879
 20
289.4628069902
 30
0.0
 10
49.7678017367
 20
289.1726322228
 30
0.0
  0
SPLINE
  5
43C
100
AcDbEntity
  8
0
100
AcDbSpline
 62
7
  6
CONTINUOUS
 70
0
 71
3
 72
9
 73
5
 74
0
 42
0.0000001
 43
0.0000001
 44
0.0000000001
 40
0.0
 40
0.0
 40
0.0
 40
0.0
 40
0.4708192734
 40
1.0
 40
1.0
 40
1.0
 40
1.0
 10
50.4532454403
 20
288.3908334303
 30
0.0
 10
50.841647777
 20
287.9929970334
 30
0.0
 10
51.7334114788
 20
287.2125437237
 30
0.0
 10
52.7094755509
 20
286.5437510991
 30
0.0
 10
53.2407097035
 20
286.2146489922
 30
0.0
  0
SPLINE
  5
43D
100
AcDbEntity
  8
0
100
AcDbSpline
 62
7
  6
CONTINUOUS
 70
0
 71
3
 72
19
 73
15
 74
0
 42
0.0000001
 43
0.0000001
 44
0.0000000001
 40
0.0
 40
0.0
 40
0.0
 40
0.0
 40
0.047483682
 40
0.1005570849
 40
0.1587221973
 40
0.2213311523
 40
0.3567007901
 40
0.4997496477
 40
0.6428339569
 40
0.778306103
 40
0.8409896729
 40
0.8992413741
 40
0.9524119308
 40
1.0
 40
1.0
 40
1.0
 40
1.0
 10
53.2407097035
 20
286.2146489922
 30
0.0
 10
53.9977573478
 20
285.7456543435
 30
0.0
 10
55.6661980364
 20
284.8565004758
 30
0.0
 10
58.4203232677
 20
283.7179015121
 30
0.0
 10
61.5269329985
 20
282.7177215605
 30
0.0
 10
66.1933646084
 20
281.564011708
 30
0.0
 10
72.5320871837
 20
280.6064467676
 30
0.0
 10
80.439936079
 20
280.2208713996
 30
0.0
 10
88.3500435954
 20
280.5995529759
 30
0.0
 10
94.6935934567
 20
281.5515733169
 30
0.0
 10
99.3661680169
 20
282.7009598295
 30
0.0
 10
102.4787400915
 20
283.6984188583
 30
0.0
 10
105.2395402597
 20
284.834922233
 30
0.0
 10
106.9131736609
 20
285.7223086495
 30
0.0
 10
107.6729092712
 20
286.1906778656
 30
0.0
  0
SPLINE
  5
43E
100
AcDbEntity
  8
0
100
AcDbSpline
 62
7
  6
CONTINUOUS
 70
0
 71
3
 72
10
 73
6
 74
0
 42
0.0000001
 43
0.0000001
 44
0.0000000001
 40
0.0
 40
0.0
 40
0.0
 40
0.0
 40
0.2962017662
 40
0.560804856
 40
1.0
 40
1.0
 40
1.0
 40
1.0
 10
107.6729092712
 20
286.1906778656
 30
0.0
 10
108.1917852606
 20
286.5105595944
 30
0.0
 10
109.1493576932
 20
287.1612878586
 30
0.0
 10
110.7073541336
 20
288.5040734085
 30
0.0
 10
111.6249135896
 20
289.6737663933
 30
0.0
 10
112.006342019
 20
290.493159209
 30
0.0
  0
SPLINE
  5
43F
100
AcDbEntity
  8
0
100
AcDbSpline
 62
7
  6
CONTINUOUS
 70
0
 71
3
 72
9
 73
5
 74
0
 42
0.0000001
 43
0.0000001
 44
0.0000000001
 40
0.0
 40
0.0
 40
0.0
 40
0.0
 40
0.5111884355
 40
1.0
 40
1.0
 40
1.0
 40
1.0
 10
112.1327796158
 20
290.7863098053
 30
0.0
 10
112.2466671767
 20
291.0730370256
 30
0.0
 10
112.421387353
 20
291.6548843692
 30
0.0
 10
112.4783035169
 20
292.2603768071
 30
0.0
 10
112.4758031204
 20
292.5553783331
 30
0.0
  0
SPLINE
  5
440
100
AcDbEntity
  8
0
100
AcDbSpline
 62
7
  6
CONTINUOUS
 70
0
 71
3
 72
9
 73
5
 74
0
 42
0.0000001
 43
0.0000001
 44
0.0000000001
 40
0.0
 40
0.0
 40
0.0
 40
0.0
 40
0.7419410223
 40
1.0
 40
1.0
 40
1.0
 40
1.0
 10
33.5649671014
 20
272.7755216095
 30
0.0
 10
33.5492727929
 20
272.7270631904
 30
0.0
 10
33.5468195572
 20
272.6538654933
 30
0.0
 10
33.5685133379
 20
272.5886337938
 30
0.0
 10
33.5752853771
 20
272.5722626216
 30
0.0
  0
SPLINE
  5
441
100
AcDbEntity
  8
0
100
AcDbSpline
 62
7
  6
CONTINUOUS
 70
0
 71
3
 72
9
 73
5
 74
0
 42
0.0000001
 43
0.0000001
 44
0.0000000001
 40
0.0
 40
0.0
 40
0.0
 40
0.0
 40
0.4901071673
 40
1.0
 40
1.0
 40
1.0
 40
1.0
 10
33.1745844548
 20
276.1510348609
 30
0.0
 10
33.1745741631
 20
275.6755581458
 30
0.0
 10
33.2854346285
 20
274.7025578696
 30
0.0
 10
33.6028055944
 20
273.7778583664
 30
0.0
 10
33.80599921
 20
273.326845625
 30
0.0
  0
SPLINE
  5
442
100
AcDbEntity
  8
0
100
AcDbSpline
 62
7
  6
CONTINUOUS
 70
0
 71
3
 72
10
 73
6
 74
0
 42
0.0000001
 43
0.0000001
 44
0.0000000001
 40
0.0
 40
0.0
 40
0.0
 40
0.0
 40
0.2448540968
 40
0.4910384262
 40
1.0
 40
1.0
 40
1.0
 40
1.0
 10
124.2883517015
 20
291.2521428067
 30
0.0
 10
124.1342757291
 20
291.8406386548
 30
0.0
 10
123.7235623232
 20
292.9965836874
 30
0.0
 10
122.5331427575
 20
295.1853582638
 30
0.0
 10
121.3001445037
 20
296.631938386
 30
0.0
 10
120.3874306231
 20
297.5070983756
 30
0.0
  0
SPLINE
  5
443
100
AcDbEntity
  8
0
100
AcDbSpline
 62
7
  6
CONTINUOUS
 70
0
 71
3
 72
23
 73
19
 74
0
 42
0.0000001
 43
0.0000001
 44
0.0000000001
 40
0.0
 40
0.0
 40
0.0
 40
0.0
 40
0.0491305774
 40
0.1032728672
 40
0.1627808368
 40
0.2273641509
 40
0.2962654517
 40
0.3684140078
 40
0.4425370999
 40
0.5172504073
 40
0.5911376441
 40
0.6628274343
 40
0.7310741281
 40
0.7948508569
 40
0.8534662607
 40
0.906724667
 40
0.9551103853
 40
1.0
 40
1.0
 40
1.0
 40
1.0
 10
119.6857582418
 20
298.1474542025
 30
0.0
 10
118.6098608468
 20
299.0831047508
 30
0.0
 10
116.1441010702
 20
300.8178145605
 30
0.0
 10
111.9186279618
 20
302.9540360595
 30
0.0
 10
107.0614488209
 20
304.7589846483
 30
0.0
 10
101.6500311424
 20
306.2275216321
 30
0.0
 10
95.7821503256
 20
307.3430292861
 30
0.0
 10
89.5776032292
 20
308.0874682144
 30
0.0
 10
83.1702992754
 20
308.4468429753
 30
0.0
 10
76.7026562584
 20
308.4139664143
 30
0.0
 10
70.3194996836
 20
307.9895130939
 30
0.0
 10
64.1622423825
 20
307.1818955301
 30
0.0
 10
58.3628712255
 20
306.0061131174
 30
0.0
 10
53.0378888287
 20
304.4801803536
 30
0.0
 10
48.2819529439
 20
302.6205901368
 30
0.0
 10
44.1658169052
 20
300.4255680006
 30
0.0
 10
40.7424165192
 20
297.8703251295
 30
0.0
 10
38.9367751269
 20
295.8101000461
 30
0.0
 10
38.2256582777
 20
294.7185503899
 30
0.0
  0
SPLINE
  5
444
100
AcDbEntity
  8
0
100
AcDbSpline
 62
7
  6
CONTINUOUS
 70
0
 71
3
 72
9
 73
5
 74
0
 42
0.0000001
 43
0.0000001
 44
0.0000000001
 40
0.0
 40
0.0
 40
0.0
 40
0.0
 40
0.2510022906
 40
1.0
 40
1.0
 40
1.0
 40
1.0
 10
37.798487175
 20
294.0165482826
 30
0.0
 10
37.6727585833
 20
293.794500849
 30
0.0
 10
37.1982319132
 20
292.8953411843
 30
0.0
 10
36.8386101543
 20
291.9342615896
 30
0.0
 10
36.6496332328
 20
291.196644558
 30
0.0
  0
SPLINE
  5
445
100
AcDbEntity
  8
0
100
AcDbSpline
 62
7
  6
CONTINUOUS
 70
0
 71
3
 72
9
 73
5
 74
0
 42
0.0000001
 43
0.0000001
 44
0.0000000001
 40
0.0
 40
0.0
 40
0.0
 40
0.0
 40
0.5987074265
 40
1.0
 40
1.0
 40
1.0
 40
1.0
 10
83.7900746109
 20
271.7314913322
 30
0.0
 10
83.801678049
 20
271.7852063979
 30
0.0
 10
83.782670804
 20
271.8788950384
 30
0.0
 10
83.7675586495
 20
271.9688838027
 30
0.0
 10
83.7560035985
 20
272.0038581887
 30
0.0
  0
SPLINE
  5
446
100
AcDbEntity
  8
0
100
AcDbSpline
 62
7
  6
CONTINUOUS
 70
0
 71
3
 72
8
 73
4
 74
0
 42
0.0000001
 43
0.0000001
 44
0.0000000001
 40
0.0
 40
0.0
 40
0.0
 40
0.0
 40
1.0
 40
1.0
 40
1.0
 40
1.0
 10
83.7557516819
 20
272.0055060849
 30
0.0
 10
83.8229725774
 20
272.0078429763
 30
0.0
 10
83.8902148591
 20
272.0095186127
 30
0.0
 10
83.9574442355
 20
272.0115972644
 30
0.0
  0
SPLINE
  5
447
100
AcDbEntity
  8
0
100
AcDbSpline
 62
7
  6
CONTINUOUS
 70
0
 71
3
 72
17
 73
13
 74
0
 42
0.0000001
 43
0.0000001
 44
0.0000000001
 40
0.0
 40
0.0
 40
0.0
 40
0.0
 40
0.2512076663
 40
0.3767007079
 40
0.502102161
 40
0.6273920959
 40
0.7525309062
 40
0.8150233505
 40
0.8774303132
 40
0.9396681885
 40
0.9706415858
 40
1.0
 40
1.0
 40
1.0
 40
1.0
 10
83.9562638715
 20
272.0116882254
 30
0.0
 10
84.1079252388
 20
272.0163757913
 30
0.0
 10
84.335396314
 20
272.0220854512
 30
0.0
 10
84.6386594353
 20
272.0258331207
 30
0.0
 10
84.8658770232
 20
272.0260228233
 30
0.0
 10
85.0929137244
 20
272.0227877515
 30
0.0
 10
85.2816934071
 20
272.0157043974
 30
0.0
 10
85.4326509572
 20
272.0052710867
 30
0.0
 10
85.544304796
 20
271.993953447
 30
0.0
 10
85.6397300109
 20
271.9780817437
 30
0.0
 10
85.7062116243
 20
271.9596997643
 30
0.0
 10
85.747918861
 20
271.9372373826
 30
0.0
 10
85.7482379336
 20
271.9195072615
 30
0.0
  0
SPLINE
  5
448
100
AcDbEntity
  8
0
100
AcDbSpline
 62
7
  6
CONTINUOUS
 70
0
 71
3
 72
9
 73
5
 74
0
 42
0.0000001
 43
0.0000001
 44
0.0000000001
 40
0.0
 40
0.0
 40
0.0
 40
0.0
 40
0.5113639303
 40
1.0
 40
1.0
 40
1.0
 40
1.0
 10
83.9562638715
 20
272.0116882254
 30
0.0
 10
86.7650725951
 20
272.0992303029
 30
0.0
 10
92.2535276257
 20
272.4771379498
 30
0.0
 10
97.6958449375
 20
273.2934469674
 30
0.0
 10
100.3297437919
 20
273.8161967058
 30
0.0
  0
SPLINE
  5
449
100
AcDbEntity
  8
0
100
AcDbSpline
 62
7
  6
CONTINUOUS
 70
0
 71
3
 72
9
 73
5
 74
0
 42
0.0000001
 43
0.0000001
 44
0.0000000001
 40
0.0
 40
0.0
 40
0.0
 40
0.0
 40
0.5115475857
 40
1.0
 40
1.0
 40
1.0
 40
1.0
 10
85.7842403764
 20
269.1213367073
 30
0.0
 10
88.1741042463
 20
270.1710304957
 30
0.0
 10
92.9438755735
 20
272.0086742826
 30
0.0
 10
97.8865468551
 20
273.3298643092
 30
0.0
 10
100.3312667061
 20
273.8149718307
 30
0.0
  0
SPLINE
  5
44A
100
AcDbEntity
  8
0
100
AcDbSpline
 62
7
  6
CONTINUOUS
 70
0
 71
3
 72
13
 73
9
 74
0
 42
0.0000001
 43
0.0000001
 44
0.0000000001
 40
0.0
 40
0.0
 40
0.0
 40
0.0
 40
0.1175689252
 40
0.2416899141
 40
0.4997060883
 40
0.7565871101
 40
0.8805148428
 40
1.0
 40
1.0
 40
1.0
 40
1.0
 10
100.3312667061
 20
273.8149718307
 30
0.0
 10
98.9619500066
 20
273.4777828882
 30
0.0
 10
96.1715934153
 20
272.6821293295
 30
0.0
 10
90.5162225075
 20
270.687395028
 30
0.0
 10
83.5245361718
 20
267.5054920521
 30
0.0
 10
76.8919670525
 20
263.6439684421
 30
0.0
 10
71.9295061341
 20
260.2669389531
 30
0.0
 10
69.5919147848
 20
258.5151981527
 30
0.0
 10
68.4683053497
 20
257.6254889963
 30
0.0
  0
SPLINE
  5
44B
100
AcDbEntity
  8
0
100
AcDbSpline
 62
7
  6
CONTINUOUS
 70
0
 71
3
 72
9
 73
5
 74
0
 42
0.0000001
 43
0.0000001
 44
0.0000000001
 40
0.0
 40
0.0
 40
0.0
 40
0.0
 40
0.4887520924
 40
1.0
 40
1.0
 40
1.0
 40
1.0
 10
68.4137066353
 20
257.6680841116
 30
0.0
 10
71.0158911696
 20
259.8489872137
 30
0.0
 10
76.5996857721
 20
264.0077493871
 30
0.0
 10
82.6131504679
 20
267.5221228371
 30
0.0
 10
85.7842403764
 20
269.1213367073
 30
0.0
  0
SPLINE
  5
44C
100
AcDbEntity
  8
0
100
AcDbSpline
 62
7
  6
CONTINUOUS
 70
0
 71
3
 72
19
 73
15
 74
0
 42
0.0000001
 43
0.0000001
 44
0.0000000001
 40
0.0
 40
0.0
 40
0.0
 40
0.0
 40
0.1170422104
 40
0.2405867729
 40
0.3683448789
 40
0.4330940767
 40
0.498052165
 40
0.5629819276
 40
0.6276556688
 40
0.6918422269
 40
0.7553586333
 40
0.8180605349
 40
0.8798069028
 40
1.0
 40
1.0
 40
1.0
 40
1.0
 10
100.45364098
 20
273.5538830096
 30
0.0
 10
99.1288311994
 20
273.1950553008
 30
0.0
 10
96.4314470719
 20
272.3601338691
 30
0.0
 10
92.3856124161
 20
270.8408696987
 30
0.0
 10
88.9919857893
 20
269.3461698396
 30
0.0
 10
86.2756102641
 20
268.0275231046
 30
0.0
 10
84.2501430248
 20
266.9745770672
 30
0.0
 10
82.2529147149
 20
265.87118425
 30
0.0
 10
80.2807723419
 20
264.7417683141
 30
0.0
 10
78.347552007
 20
263.5783775044
 30
0.0
 10
76.4698890189
 20
262.369557203
 30
0.0
 10
74.640919192
 20
261.1391112436
 30
0.0
 10
72.2903262416
 20
259.493950864
 30
0.0
 10
70.5862267159
 20
258.2090510437
 30
0.0
 10
69.4704131907
 20
257.3478685199
 30
0.0
  0
SPLINE
  5
44D
100
AcDbEntity
  8
0
100
AcDbSpline
 62
7
  6
CONTINUOUS
 70
0
 71
3
 72
13
 73
9
 74
0
 42
0.0000001
 43
0.0000001
 44
0.0000000001
 40
0.0
 40
0.0
 40
0.0
 40
0.0
 40
0.1432277377
 40
0.2851640737
 40
0.4267616432
 40
0.5627294786
 40
0.8094110874
 40
1.0
 40
1.0
 40
1.0
 40
1.0
 10
100.4536472555
 20
273.5538814575
 30
0.0
 10
100.4570130208
 20
273.5677964326
 30
0.0
 10
100.4614146227
 20
273.597049228
 30
0.0
 10
100.445624674
 20
273.6376262894
 30
0.0
 10
100.4307765536
 20
273.6765510091
 30
0.0
 10
100.4119736805
 20
273.7257368681
 30
0.0
 10
100.3786604688
 20
273.7728435522
 30
0.0
 10
100.3476088817
 20
273.804772621
 30
0.0
 10
100.331273023
 20
273.8145731335
 30
0.0
  0
SPLINE
  5
44E
100
AcDbEntity
  8
0
100
AcDbSpline
 62
7
  6
CONTINUOUS
 70
0
 71
3
 72
8
 73
4
 74
0
 42
0.0000001
 43
0.0000001
 44
0.0000000001
 40
0.0
 40
0.0
 40
0.0
 40
0.0
 40
1.0
 40
1.0
 40
1.0
 40
1.0
 10
100.3297550241
 20
273.8160676813
 30
0.0
 10
100.3888932513
 20
273.8281654791
 30
0.0
 10
100.4481633843
 20
273.8396096028
 30
0.0
 10
100.5073465446
 20
273.8514856366
 30
0.0
  0
SPLINE
  5
44F
100
AcDbEntity
  8
0
100
AcDbSpline
 62
7
  6
CONTINUOUS
 70
0
 71
3
 72
17
 73
13
 74
0
 42
0.0000001
 43
0.0000001
 44
0.0000000001
 40
0.0
 40
0.0
 40
0.0
 40
0.0
 40
0.2539189596
 40
0.3802182186
 40
0.5060196865
 40
0.6312548961
 40
0.7557849977
 40
0.8177109983
 40
0.8793104926
 40
0.9403997855
 40
0.9706388987
 40
1.0
 40
1.0
 40
1.0
 40
1.0
 10
100.5090628949
 20
273.8519345899
 30
0.0
 10
100.6442145222
 20
273.8790578405
 30
0.0
 10
100.8468460883
 20
273.9184289558
 30
0.0
 10
101.117211672
 20
273.9671075762
 30
0.0
 10
101.3192509001
 20
274.000898929
 30
0.0
 10
101.5209132618
 20
274.0312102004
 30
0.0
 10
101.6887695799
 20
274.052085264
 30
0.0
 10
101.8231363436
 20
274.0639416037
 30
0.0
 10
101.922612051
 20
274.0693107991
 30
0.0
 10
102.0077551733
 20
274.067130798
 30
0.0
 10
102.0688887778
 20
274.0595631465
 30
0.0
 10
102.1067094091
 20
274.0410742066
 30
0.0
 10
102.1081149337
 20
274.0251968706
 30
0.0
  0
SPLINE
  5
450
100
AcDbEntity
  8
0
100
AcDbSpline
 62
7
  6
CONTINUOUS
 70
0
 71
3
 72
9
 73
5
 74
0
 42
0.0000001
 43
0.0000001
 44
0.0000000001
 40
0.0
 40
0.0
 40
0.0
 40
0.0
 40
0.5293889568
 40
1.0
 40
1.0
 40
1.0
 40
1.0
 10
100.5090628949
 20
273.8519345899
 30
0.0
 10
102.9339802794
 20
274.3386407929
 30
0.0
 10
107.4776957322
 20
275.4577697041
 30
0.0
 10
111.8788349181
 20
277.0698080998
 30
0.0
 10
113.8787013181
 20
277.9834214431
 30
0.0
  0
SPLINE
  5
451
100
AcDbEntity
  8
0
100
AcDbSpline
 62
7
  6
CONTINUOUS
 70
0
 71
3
 72
10
 73
6
 74
0
 42
0.0000001
 43
0.0000001
 44
0.0000000001
 40
0.0
 40
0.0
 40
0.0
 40
0.0
 40
0.5339526603
 40
0.7770598879
 40
1.0
 40
1.0
 40
1.0
 40
1.0
 10
102.3255830524
 20
271.2468643716
 30
0.0
 10
104.2930498593
 20
272.5921886847
 30
0.0
 10
107.2143134125
 20
274.469539962
 30
0.0
 10
111.111295539
 20
276.649111051
 30
0.0
 10
112.9791325601
 20
277.567957124
 30
0.0
 10
113.8842734348
 20
277.98154525
 30
0.0
  0
SPLINE
  5
452
100
AcDbEntity
  8
0
100
AcDbSpline
 62
7
  6
CONTINUOUS
 70
0
 71
3
 72
9
 73
5
 74
0
 42
0.0000001
 43
0.0000001
 44
0.0000000001
 40
0.0
 40
0.0
 40
0.0
 40
0.0
 40
0.5079590769
 40
1.0
 40
1.0
 40
1.0
 40
1.0
 10
86.7340651699
 20
257.2422649692
 30
0.0
 10
89.2537788944
 20
259.742696356
 30
0.0
 10
94.324648664
 20
264.5551609535
 30
0.0
 10
99.6367309975
 20
269.1035516084
 30
0.0
 10
102.3255830524
 20
271.2468643716
 30
0.0
  0
SPLINE
  5
453
100
AcDbEntity
  8
0
100
AcDbSpline
 62
7
  6
CONTINUOUS
 70
0
 71
3
 72
14
 73
10
 74
0
 42
0.0000001
 43
0.0000001
 44
0.0000000001
 40
0.0
 40
0.0
 40
0.0
 40
0.0
 40
0.0988245995
 40
0.2081598111
 40
0.4524412578
 40
0.5842797726
 40
0.7204836685
 40
0.8594571299
 40
1.0
 40
1.0
 40
1.0
 40
1.0
 10
114.0723655199
 20
277.7438872719
 30
0.0
 10
113.3607695102
 20
277.3213466223
 30
0.0
 10
111.8820285395
 20
276.3973390602
 30
0.0
 10
108.7328016817
 20
274.2899073891
 30
0.0
 10
105.4505522589
 20
271.8878580077
 30
0.0
 10
102.0665861882
 20
269.2500760426
 30
0.0
 10
99.4261776191
 20
267.0943944112
 30
0.0
 10
96.7400599959
 20
264.8794527356
 30
0.0
 10
94.9738438251
 20
263.3429733991
 30
0.0
 10
94.0892397443
 20
262.5666346883
 30
0.0
  0
SPLINE
  5
454
100
AcDbEntity
  8
0
100
AcDbSpline
 62
7
  6
CONTINUOUS
 70
0
 71
3
 72
9
 73
5
 74
0
 42
0.0000001
 43
0.0000001
 44
0.0000000001
 40
0.0
 40
0.0
 40
0.0
 40
0.0
 40
0.5015841333
 40
1.0
 40
1.0
 40
1.0
 40
1.0
 10
94.0892397443
 20
262.5666346883
 30
0.0
 10
93.0578863828
 20
261.6615071217
 30
0.0
 10
91.0105490057
 20
259.8467211795
 30
0.0
 10
88.995669227
 20
257.9960684121
 30
0.0
 10
87.9906064098
 20
257.074611849
 30
0.0
  0
LINE
  5
455
100
AcDbEntity
  8
0
100
AcDbLine
 62
7
  6
CONTINUOUS
 10
93.2793079561
 20
262.9663736356
 11
93.5502157163
 21
263.1986249702
  0
SPLINE
  5
456
100
AcDbEntity
  8
0
100
AcDbSpline
 62
7
  6
CONTINUOUS
 70
0
 71
3
 72
12
 73
8
 74
0
 42
0.0000001
 43
0.0000001
 44
0.0000000001
 40
0.0
 40
0.0
 40
0.0
 40
0.0
 40
0.279234604
 40
0.5470670374
 40
0.7915242388
 40
0.901009812
 40
1.0
 40
1.0
 40
1.0
 40
1.0
 10
93.5502157163
 20
263.1986249702
 30
0.0
 10
95.3305847922
 20
264.7224474229
 30
0.0
 10
98.8660006749
 20
267.6533214957
 30
0.0
 10
104.1375505475
 20
271.6980620567
 30
0.0
 10
108.4249260012
 20
274.6778102763
 30
0.0
 10
111.6440504701
 20
276.7002353546
 30
0.0
 10
113.1566245406
 20
277.5806740078
 30
0.0
 10
113.8842734348
 20
277.98154525
 30
0.0
  0
SPLINE
  5
457
100
AcDbEntity
  8
0
100
AcDbSpline
 62
7
  6
CONTINUOUS
 70
0
 71
3
 72
9
 73
5
 74
0
 42
0.0000001
 43
0.0000001
 44
0.0000000001
 40
0.0
 40
0.0
 40
0.0
 40
0.0
 40
0.2233990443
 40
1.0
 40
1.0
 40
1.0
 40
1.0
 10
113.8842751738
 20
277.9813171519
 30
0.0
 10
113.9062523987
 20
277.9741659288
 30
0.0
 10
113.9979224611
 20
277.9229858801
 30
0.0
 10
114.0559750422
 20
277.8225383245
 30
0.0
 10
114.0723713837
 20
277.7438870501
 30
0.0
  0
LINE
  5
458
100
AcDbEntity
  8
0
100
AcDbLine
 62
7
  6
CONTINUOUS
 10
113.8787230275
 20
277.9832759173
 11
114.0094527111
 21
278.0432802033
  0
SPLINE
  5
459
100
AcDbEntity
  8
0
100
AcDbSpline
 62
7
  6
CONTINUOUS
 70
0
 71
3
 72
14
 73
10
 74
0
 42
0.0000001
 43
0.0000001
 44
0.0000000001
 40
0.0
 40
0.0
 40
0.0
 40
0.0
 40
0.2594612568
 40
0.5144436155
 40
0.6398811306
 40
0.763487711
 40
0.8844014132
 40
0.9432079281
 40
1.0
 40
1.0
 40
1.0
 40
1.0
 10
114.0093201404
 20
278.0433850911
 30
0.0
 10
114.1076039569
 20
278.0886964775
 30
0.0
 10
114.3031240184
 20
278.1772967749
 30
0.0
 10
114.548122455
 20
278.2826511115
 30
0.0
 10
114.7442594332
 20
278.3598240962
 30
0.0
 10
114.8877810249
 20
278.4122676794
 30
0.0
 10
115.0146322902
 20
278.4471178499
 30
0.0
 10
115.1015769655
 20
278.4663150826
 30
0.0
 10
115.1712827668
 20
278.4574992259
 30
0.0
 10
115.1748076518
 20
278.4340739759
 30
0.0
  0
SPLINE
  5
45A
100
AcDbEntity
  8
0
100
AcDbSpline
 62
7
  6
CONTINUOUS
 70
0
 71
3
 72
11
 73
7
 74
0
 42
0.0000001
 43
0.0000001
 44
0.0000000001
 40
0.0
 40
0.0
 40
0.0
 40
0.0
 40
0.2863109557
 40
0.5482568767
 40
0.7857926306
 40
1.0
 40
1.0
 40
1.0
 40
1.0
 10
114.0093201404
 20
278.0433850911
 30
0.0
 10
114.8974642103
 20
278.4528796339
 30
0.0
 10
116.571284375
 20
279.2979861871
 30
0.0
 10
118.8560522031
 20
280.7145841906
 30
0.0
 10
120.7850680181
 20
282.2133245341
 30
0.0
 10
121.8760128957
 20
283.3138224364
 30
0.0
 10
122.3458096963
 20
283.8747879575
 30
0.0
  0
SPLINE
  5
45B
100
AcDbEntity
  8
0
100
AcDbSpline
 62
7
  6
CONTINUOUS
 70
0
 71
3
 72
10
 73
6
 74
0
 42
0.0000001
 43
0.0000001
 44
0.0000000001
 40
0.0
 40
0.0
 40
0.0
 40
0.0
 40
0.5635848681
 40
0.799644386
 40
1.0
 40
1.0
 40
1.0
 40
1.0
 10
115.5406200127
 20
275.7013934759
 30
0.0
 10
116.8184168457
 20
277.2383178072
 30
0.0
 10
118.6323512217
 20
279.4182048968
 30
0.0
 10
120.8974191579
 20
282.1471104921
 30
0.0
 10
121.896621749
 20
283.3290945548
 30
0.0
 10
122.3527868763
 20
283.8738844195
 30
0.0
  0
SPLINE
  5
45C
100
AcDbEntity
  8
0
100
AcDbSpline
 62
7
  6
CONTINUOUS
 70
0
 71
3
 72
9
 73
5
 74
0
 42
0.0000001
 43
0.0000001
 44
0.0000000001
 40
0.0
 40
0.0
 40
0.0
 40
0.0
 40
0.5260927648
 40
1.0
 40
1.0
 40
1.0
 40
1.0
 10
104.0780821982
 20
259.5887276432
 30
0.0
 10
106.1534208458
 20
262.3671334442
 30
0.0
 10
110.0455781539
 20
267.6877599151
 30
0.0
 10
113.8111960669
 20
273.0998442811
 30
0.0
 10
115.5406200127
 20
275.7013934759
 30
0.0
  0
SPLINE
  5
45D
100
AcDbEntity
  8
0
100
AcDbSpline
 62
7
  6
CONTINUOUS
 70
0
 71
3
 72
19
 73
15
 74
0
 42
0.0000001
 43
0.0000001
 44
0.0000000001
 40
0.0
 40
0.0
 40
0.0
 40
0.0
 40
0.0791826739
 40
0.1764582363
 40
0.2896441961
 40
0.3513751466
 40
0.4161205515
 40
0.4834759488
 40
0.5529595297
 40
0.624343393
 40
0.6974297282
 40
0.7718160212
 40
0.8471921083
 40
1.0
 40
1.0
 40
1.0
 40
1.0
 10
122.5855130793
 20
283.6691604869
 30
0.0
 10
122.2211535856
 20
282.977601882
 30
0.0
 10
121.350915888
 20
281.4672812478
 30
0.0
 10
119.8179290142
 20
279.0532446162
 30
0.0
 10
118.3155802485
 20
276.8250773364
 30
0.0
 10
116.9608983506
 20
274.8854043083
 30
0.0
 10
115.8545567304
 20
273.3241942693
 30
0.0
 10
114.6915883913
 20
271.7093361242
 30
0.0
 10
113.4661336859
 20
270.0589805602
 30
0.0
 10
112.1940532948
 20
268.3729305834
 30
0.0
 10
110.8919180258
 20
266.6489173707
 30
0.0
 10
109.552321245
 20
264.9038584094
 30
0.0
 10
107.7141072171
 20
262.5496074307
 30
0.0
 10
106.3169001283
 20
260.7825440812
 30
0.0
 10
105.3667950022
 20
259.610870595
 30
0.0
  0
SPLINE
  5
45E
100
AcDbEntity
  8
0
100
AcDbSpline
 62
7
  6
CONTINUOUS
 70
0
 71
3
 72
12
 73
8
 74
0
 42
0.0000001
 43
0.0000001
 44
0.0000000001
 40
0.0
 40
0.0
 40
0.0
 40
0.0
 40
0.3025295725
 40
0.5844464028
 40
0.8245435397
 40
0.9216449699
 40
1.0
 40
1.0
 40
1.0
 40
1.0
 10
104.1592921143
 20
259.5283612357
 30
0.0
 10
106.0906074715
 20
261.9103758444
 30
0.0
 10
109.7927419056
 20
266.535830199
 30
0.0
 10
114.893026399
 20
273.157703941
 30
0.0
 10
118.6103745176
 20
278.2153947909
 30
0.0
 10
120.9988983047
 20
281.6854643152
 30
0.0
 10
121.9499423848
 20
283.1893830516
 30
0.0
 10
122.3527868763
 20
283.8738844195
 30
0.0
  0
SPLINE
  5
45F
100
AcDbEntity
  8
0
100
AcDbSpline
 62
7
  6
CONTINUOUS
 70
0
 71
3
 72
9
 73
5
 74
0
 42
0.0000001
 43
0.0000001
 44
0.0000000001
 40
0.0
 40
0.0
 40
0.0
 40
0.0
 40
0.5038262595
 40
1.0
 40
1.0
 40
1.0
 40
1.0
 10
122.3527891479
 20
283.8736561893
 30
0.0
 10
122.4069257516
 20
283.8675806715
 30
0.0
 10
122.5119265073
 20
283.8198437152
 30
0.0
 10
122.574070243
 20
283.7215742594
 30
0.0
 10
122.5855200511
 20
283.6691612918
 30
0.0
  0
SPLINE
  5
460
100
AcDbEntity
  8
0
100
AcDbSpline
 62
7
  6
CONTINUOUS
 70
0
 71
3
 72
9
 73
5
 74
0
 42
0.0000001
 43
0.0000001
 44
0.0000000001
 40
0.0
 40
0.0
 40
0.0
 40
0.0
 40
0.253837064
 40
1.0
 40
1.0
 40
1.0
 40
1.0
 10
122.5855243616
 20
283.6691615234
 30
0.0
 10
122.6205643524
 20
283.7356510021
 30
0.0
 10
122.7553401755
 20
283.9992916815
 30
0.0
 10
122.8767750041
 20
284.2697907074
 30
0.0
 10
122.9588874073
 20
284.4748926243
 30
0.0
  0
SPLINE
  5
461
100
AcDbEntity
  8
0
100
AcDbSpline
 62
7
  6
CONTINUOUS
 70
0
 71
3
 72
11
 73
7
 74
0
 42
0.0000001
 43
0.0000001
 44
0.0000000001
 40
0.0
 40
0.0
 40
0.0
 40
0.0
 40
0.2211465501
 40
0.4645771564
 40
0.7256954485
 40
1.0
 40
1.0
 40
1.0
 40
1.0
 10
123.4173931487
 20
281.8067505963
 30
0.0
 10
123.2444356879
 20
280.5417997051
 30
0.0
 10
122.7277970545
 20
277.9048664434
 30
0.0
 10
121.5890354038
 20
273.8697678056
 30
0.0
 10
120.0873811672
 20
269.6286036807
 30
0.0
 10
118.8980985092
 20
266.7738434437
 30
0.0
 10
118.2555944965
 20
265.3264271161
 30
0.0
  0
LINE
  5
462
100
AcDbEntity
  8
0
100
AcDbLine
 62
7
  6
CONTINUOUS
 10
122.3458379777
 20
283.8746406965
 11
122.4080362308
 21
283.9494730042
  0
SPLINE
  5
463
100
AcDbEntity
  8
0
100
AcDbSpline
 62
7
  6
CONTINUOUS
 70
0
 71
3
 72
17
 73
13
 74
0
 42
0.0000001
 43
0.0000001
 44
0.0000000001
 40
0.0
 40
0.0
 40
0.0
 40
0.0
 40
0.0346830254
 40
0.0574265539
 40
0.0815807203
 40
0.1071626281
 40
0.1614284375
 40
0.2186738009
 40
0.3389164875
 40
0.4645578442
 40
0.7268051171
 40
1.0
 40
1.0
 40
1.0
 40
1.0
 10
122.9588987101
 20
284.4748810662
 30
0.0
 10
122.9571583274
 20
284.4839644977
 30
0.0
 10
122.9456712173
 20
284.500519444
 30
0.0
 10
122.9225106277
 20
284.4950373913
 30
0.0
 10
122.9053291707
 20
284.4869807365
 30
0.0
 10
122.8817855188
 20
284.4719562103
 30
0.0
 10
122.8532251495
 20
284.4491526878
 30
0.0
 10
122.8075727595
 20
284.4074290331
 30
0.0
 10
122.7510868896
 20
284.3495588764
 30
0.0
 10
122.6599514094
 20
284.2492712941
 30
0.0
 10
122.5452748207
 20
284.115348642
 30
0.0
 10
122.4540764493
 20
284.0054885417
 30
0.0
 10
122.4077255729
 20
283.9492850373
 30
0.0
  0
SPLINE
  5
464
100
AcDbEntity
  8
0
100
AcDbSpline
 62
7
  6
CONTINUOUS
 70
0
 71
3
 72
11
 73
7
 74
0
 42
0.0000001
 43
0.0000001
 44
0.0000000001
 40
0.0
 40
0.0
 40
0.0
 40
0.0
 40
0.2751173975
 40
0.5274030715
 40
0.7654331343
 40
1.0
 40
1.0
 40
1.0
 40
1.0
 10
122.4077255729
 20
283.9492850373
 30
0.0
 10
122.8185822313
 20
284.4474545166
 30
0.0
 10
123.5365452503
 20
285.4647577377
 30
0.0
 10
124.277256261
 20
287.1158120829
 30
0.0
 10
124.6108316886
 20
288.8000176213
 30
0.0
 10
124.5543682207
 20
289.9207796909
 30
0.0
 10
124.4618905937
 20
290.4635167355
 30
0.0
  0
SPLINE
  5
465
100
AcDbEntity
  8
0
100
AcDbSpline
 62
7
  6
CONTINUOUS
 70
0
 71
3
 72
11
 73
7
 74
0
 42
0.0000001
 43
0.0000001
 44
0.0000000001
 40
0.0
 40
0.0
 40
0.0
 40
0.0
 40
0.3021609322
 40
0.5709102339
 40
0.8037192859
 40
1.0
 40
1.0
 40
1.0
 40
1.0
 10
123.4173931487
 20
281.8067505963
 30
0.0
 10
123.6586344535
 20
282.6561678123
 30
0.0
 10
124.0699934029
 20
284.2743916865
 30
0.0
 10
124.4784593613
 20
286.5903616898
 30
0.0
 10
124.6348988654
 20
288.6271465733
 30
0.0
 10
124.5597481175
 20
289.8861435159
 30
0.0
 10
124.4638516649
 20
290.4516650403
 30
0.0
  0
SPLINE
  5
466
100
AcDbEntity
  8
0
100
AcDbSpline
 62
7
  6
CONTINUOUS
 70
0
 71
3
 72
8
 73
4
 74
0
 42
0.0000001
 43
0.0000001
 44
0.0000000001
 40
0.0
 40
0.0
 40
0.0
 40
0.0
 40
1.0
 40
1.0
 40
1.0
 40
1.0
 10
124.458445117
 20
290.4831481334
 30
0.0
 10
124.4542481821
 20
290.5072831544
 30
0.0
 10
124.4501316871
 20
290.5314745958
 30
0.0
 10
124.4477166643
 20
290.5558524785
 30
0.0
  0
SPLINE
  5
467
100
AcDbEntity
  8
0
100
AcDbSpline
 62
7
  6
CONTINUOUS
 70
0
 71
3
 72
9
 73
5
 74
0
 42
0.0000001
 43
0.0000001
 44
0.0000000001
 40
0.0
 40
0.0
 40
0.0
 40
0.0
 40
0.2363235284
 40
1.0
 40
1.0
 40
1.0
 40
1.0
 10
124.5071608006
 20
290.4343161753
 30
0.0
 10
124.5606708688
 20
290.2993736359
 30
0.0
 10
124.7686745673
 20
289.7210859911
 30
0.0
 10
124.9053774095
 20
289.1183795685
 30
0.0
 10
124.9777368399
 20
288.6548957966
 30
0.0
  0
SPLINE
  5
468
100
AcDbEntity
  8
0
100
AcDbSpline
 62
7
  6
CONTINUOUS
 70
0
 71
3
 72
14
 73
10
 74
0
 42
0.0000001
 43
0.0000001
 44
0.0000000001
 40
0.0
 40
0.0
 40
0.0
 40
0.0
 40
0.0867484883
 40
0.186752641
 40
0.2994261661
 40
0.4234732337
 40
0.5572415274
 40
0.6989975208
 40
1.0
 40
1.0
 40
1.0
 40
1.0
 10
124.9900217836
 20
288.5740994942
 30
0.0
 10
125.0982983747
 20
287.8425485058
 30
0.0
 10
125.1680297023
 20
286.2433340096
 30
0.0
 10
124.9400205571
 20
283.6967174991
 30
0.0
 10
124.4077759963
 20
280.872115121
 30
0.0
 10
123.5864166234
 20
277.8199773481
 30
0.0
 10
122.5012493007
 20
274.5893037819
 30
0.0
 10
120.7023232679
 20
270.0137164498
 30
0.0
 10
119.0806148882
 20
266.6001259968
 30
0.0
 10
117.9182698343
 20
264.3124714353
 30
0.0
  0
SPLINE
  5
469
100
AcDbEntity
  8
0
100
AcDbSpline
 62
7
  6
CONTINUOUS
 70
0
 71
3
 72
8
 73
4
 74
0
 42
0.0000001
 43
0.0000001
 44
0.0000000001
 40
0.0
 40
0.0
 40
0.0
 40
0.0
 40
1.0
 40
1.0
 40
1.0
 40
1.0
 10
124.4426157156
 20
290.5907685785
 30
0.0
 10
124.4804896471
 20
290.5935366983
 30
0.0
 10
124.5199251796
 20
290.5882818272
 30
0.0
 10
124.5554096392
 20
290.5747559147
 30
0.0
  0
SPLINE
  5
46A
100
AcDbEntity
  8
0
100
AcDbSpline
 62
7
  6
CONTINUOUS
 70
0
 71
3
 72
9
 73
5
 74
0
 42
0.0000001
 43
0.0000001
 44
0.0000000001
 40
0.0
 40
0.0
 40
0.0
 40
0.0
 40
0.2608098456
 40
1.0
 40
1.0
 40
1.0
 40
1.0
 10
124.5554096392
 20
290.5747559147
 30
0.0
 10
124.5687434625
 20
290.5696733482
 30
0.0
 10
124.6180614159
 20
290.5458356283
 30
0.0
 10
124.6582644745
 20
290.5025040145
 30
0.0
 10
124.674930374
 20
290.4656542712
 30
0.0
  0
SPLINE
  5
46B
100
AcDbEntity
  8
0
100
AcDbSpline
 62
7
  6
CONTINUOUS
 70
0
 71
3
 72
9
 73
5
 74
0
 42
0.0000001
 43
0.0000001
 44
0.0000000001
 40
0.0
 40
0.0
 40
0.0
 40
0.0
 40
0.5144448085
 40
1.0
 40
1.0
 40
1.0
 40
1.0
 10
125.8738770684
 20
270.815532762
 30
0.0
 10
126.172305264
 20
272.7386597049
 30
0.0
 10
126.5586870847
 20
276.5107050311
 30
0.0
 10
126.4580047715
 20
280.3080014655
 30
0.0
 10
126.2573734404
 20
282.1338662197
 30
0.0
  0
SPLINE
  5
46C
100
AcDbEntity
  8
0
100
AcDbSpline
 62
7
  6
CONTINUOUS
 70
0
 71
3
 72
9
 73
5
 74
0
 42
0.0000001
 43
0.0000001
 44
0.0000000001
 40
0.0
 40
0.0
 40
0.0
 40
0.0
 40
0.2559147804
 40
1.0
 40
1.0
 40
1.0
 40
1.0
 10
125.9770278177
 20
270.8041984568
 30
0.0
 10
126.0992836045
 20
271.4125296566
 30
0.0
 10
126.540117372
 20
273.7966510431
 30
0.0
 10
126.8265816174
 20
276.2110944046
 30
0.0
 10
126.926751246
 20
278.0124304492
 30
0.0
  0
SPLINE
  5
46D
100
AcDbEntity
  8
0
100
AcDbSpline
 62
7
  6
CONTINUOUS
 70
0
 71
3
 72
9
 73
5
 74
0
 42
0.0000001
 43
0.0000001
 44
0.0000000001
 40
0.0
 40
0.0
 40
0.0
 40
0.0
 40
0.5213775357
 40
1.0
 40
1.0
 40
1.0
 40
1.0
 10
126.9289162522
 20
278.0516880987
 30
0.0
 10
127.031593717
 20
279.9291853736
 30
0.0
 10
126.9946707485
 20
283.5492365742
 30
0.0
 10
126.3310990298
 20
287.123617419
 30
0.0
 10
125.8163767634
 20
288.7711968473
 30
0.0
  0
SPLINE
  5
46E
100
AcDbEntity
  8
0
100
AcDbSpline
 62
7
  6
CONTINUOUS
 70
0
 71
3
 72
9
 73
5
 74
0
 42
0.0000001
 43
0.0000001
 44
0.0000000001
 40
0.0
 40
0.0
 40
0.0
 40
0.0
 40
0.2539492909
 40
1.0
 40
1.0
 40
1.0
 40
1.0
 10
125.8163767634
 20
288.7711968473
 30
0.0
 10
125.7646287369
 20
288.9368376005
 30
0.0
 10
125.5529215139
 20
289.5865780263
 30
0.0
 10
125.3086242943
 20
290.225805847
 30
0.0
 10
125.1069954897
 20
290.694052492
 30
0.0
  0
SPLINE
  5
46F
100
AcDbEntity
  8
0
100
AcDbSpline
 62
7
  6
CONTINUOUS
 70
0
 71
3
 72
9
 73
5
 74
0
 42
0.0000001
 43
0.0000001
 44
0.0000000001
 40
0.0
 40
0.0
 40
0.0
 40
0.0
 40
0.2550360829
 40
1.0
 40
1.0
 40
1.0
 40
1.0
 10
124.7402686622
 20
291.4915795216
 30
0.0
 10
124.6407906121
 20
291.6944442255
 30
0.0
 10
124.2352013681
 20
292.4821007846
 30
0.0
 10
123.7654397236
 20
293.2372373277
 30
0.0
 10
123.3787054757
 20
293.7720376532
 30
0.0
  0
SPLINE
  5
470
100
AcDbEntity
  8
0
100
AcDbSpline
 62
7
  6
CONTINUOUS
 70
0
 71
3
 72
9
 73
5
 74
0
 42
0.0000001
 43
0.0000001
 44
0.0000000001
 40
0.0
 40
0.0
 40
0.0
 40
0.0
 40
0.4848079679
 40
1.0
 40
1.0
 40
1.0
 40
1.0
 10
127.360310024
 20
282.9231039513
 30
0.0
 10
127.5417505212
 20
281.029332045
 30
0.0
 10
127.563249922
 20
277.0867675305
 30
0.0
 10
127.0546221859
 20
273.1856532598
 30
0.0
 10
126.6825870248
 20
271.1985051081
 30
0.0
  0
SPLINE
  5
471
100
AcDbEntity
  8
0
100
AcDbSpline
 62
7
  6
CONTINUOUS
 70
0
 71
3
 72
9
 73
5
 74
0
 42
0.0000001
 43
0.0000001
 44
0.0000000001
 40
0.0
 40
0.0
 40
0.0
 40
0.0
 40
0.4993036088
 40
1.0
 40
1.0
 40
1.0
 40
1.0
 10
36.4938969863
 20
288.1224187887
 30
0.0
 10
36.4970587643
 20
288.1048212996
 30
0.0
 10
36.5041546754
 20
288.069681624
 30
0.0
 10
36.5063485623
 20
288.0338008301
 30
0.0
 10
36.509689497
 20
288.0161857086
 30
0.0
  0
SPLINE
  5
472
100
AcDbEntity
  8
0
100
AcDbSpline
 62
7
  6
CONTINUOUS
 70
0
 71
3
 72
14
 73
10
 74
0
 42
0.0000001
 43
0.0000001
 44
0.0000000001
 40
0.0
 40
0.0
 40
0.0
 40
0.0
 40
0.3984649755
 40
0.5537062031
 40
0.6805441577
 40
0.7814388004
 40
0.8613336015
 40
0.9296372251
 40
1.0
 40
1.0
 40
1.0
 40
1.0
 10
36.509689497
 20
288.0161857086
 30
0.0
 10
36.3230906058
 20
288.4537783712
 30
0.0
 10
36.081759581
 20
289.071762179
 30
0.0
 10
35.8833624049
 20
289.8607918063
 30
0.0
 10
35.8235258481
 20
290.3156009729
 30
0.0
 10
35.8373480406
 20
290.6848793034
 30
0.0
 10
35.9276194551
 20
290.9745841105
 30
0.0
 10
36.1088721738
 20
291.1758627382
 30
0.0
 10
36.2716799917
 20
291.2318265833
 30
0.0
 10
36.3545653778
 20
291.2454914385
 30
0.0
  0
SPLINE
  5
473
100
AcDbEntity
  8
0
100
AcDbSpline
 62
7
  6
CONTINUOUS
 70
0
 71
3
 72
8
 73
4
 74
0
 42
0.0000001
 43
0.0000001
 44
0.0000000001
 40
0.0
 40
0.0
 40
0.0
 40
0.0
 40
1.0
 40
1.0
 40
1.0
 40
1.0
 10
36.3545653778
 20
291.2454914385
 30
0.0
 10
36.3840343691
 20
291.2503498281
 30
0.0
 10
36.413822786
 20
291.2534791997
 30
0.0
 10
36.4436418906
 20
291.2551663264
 30
0.0
  0
SPLINE
  5
474
100
AcDbEntity
  8
0
100
AcDbSpline
 62
7
  6
CONTINUOUS
 70
0
 71
3
 72
15
 73
11
 74
0
 42
0.0000001
 43
0.0000001
 44
0.0000000001
 40
0.0
 40
0.0
 40
0.0
 40
0.0
 40
0.087719633
 40
0.1880678096
 40
0.3006802821
 40
0.4246802212
 40
0.5578521919
 40
0.6993892877
 40
0.847274301
 40
1.0
 40
1.0
 40
1.0
 40
1.0
 10
125.2599903704
 20
288.5824796968
 30
0.0
 10
125.4031214431
 20
287.8603981536
 30
0.0
 10
125.5517367294
 20
286.2803652783
 30
0.0
 10
125.4369900943
 20
283.7545121556
 30
0.0
 10
125.0093108911
 20
280.9552015344
 30
0.0
 10
124.3004316013
 20
277.9311187839
 30
0.0
 10
123.299104878
 20
274.7362688178
 30
0.0
 10
122.070859654
 20
271.4079761867
 30
0.0
 10
120.6125703993
 20
267.9947618452
 30
0.0
 10
119.52979392
 20
265.7153570524
 30
0.0
 10
118.9536117699
 20
264.5705223551
 30
0.0
  0
SPLINE
  5
475
100
AcDbEntity
  8
0
100
AcDbSpline
 62
7
  6
CONTINUOUS
 70
0
 71
3
 72
11
 73
7
 74
0
 42
0.0000001
 43
0.0000001
 44
0.0000000001
 40
0.0
 40
0.0
 40
0.0
 40
0.0
 40
0.347781971
 40
0.6290977968
 40
0.8450871094
 40
1.0
 40
1.0
 40
1.0
 40
1.0
 10
36.2644472349
 20
287.8279662711
 30
0.0
 10
36.1257260774
 20
288.1153025402
 30
0.0
 10
35.885817368
 20
288.6404137824
 30
0.0
 10
35.6127421308
 20
289.367716134
 30
0.0
 10
35.4644970897
 20
289.9476038088
 30
0.0
 10
35.4412847374
 20
290.2932240594
 30
0.0
 10
35.4636102097
 20
290.4335833159
 30
0.0
  0
SPLINE
  5
476
100
AcDbEntity
  8
0
100
AcDbSpline
 62
7
  6
CONTINUOUS
 70
0
 71
3
 72
9
 73
5
 74
0
 42
0.0000001
 43
0.0000001
 44
0.0000000001
 40
0.0
 40
0.0
 40
0.0
 40
0.0
 40
0.5080107723
 40
1.0
 40
1.0
 40
1.0
 40
1.0
 10
36.5097017119
 20
288.015759111
 30
0.0
 10
36.4539673981
 20
288.0180651251
 30
0.0
 10
36.3389727699
 20
287.9837566218
 30
0.0
 10
36.274069899
 20
287.8811247236
 30
0.0
 10
36.2644402084
 20
287.8279671524
 30
0.0
  0
SPLINE
  5
477
100
AcDbEntity
  8
0
100
AcDbSpline
 62
7
  6
CONTINUOUS
 70
0
 71
3
 72
9
 73
5
 74
0
 42
0.0000001
 43
0.0000001
 44
0.0000000001
 40
0.0
 40
0.0
 40
0.0
 40
0.0
 40
0.2457460842
 40
1.0
 40
1.0
 40
1.0
 40
1.0
 10
36.2644356098
 20
287.8279661293
 30
0.0
 10
36.2948900462
 20
287.7648678901
 30
0.0
 10
36.4223658494
 20
287.5098283844
 30
0.0
 10
36.5637254975
 20
287.2617762695
 30
0.0
 10
36.6770131729
 20
287.0789962296
 30
0.0
  0
LINE
  5
478
100
AcDbEntity
  8
0
100
AcDbLine
 62
7
  6
CONTINUOUS
 10
36.5138262219
 20
288.0135362653
 11
36.5293947564
 21
287.9341301909
  0
SPLINE
  5
479
100
AcDbEntity
  8
0
100
AcDbSpline
 62
7
  6
CONTINUOUS
 70
0
 71
3
 72
13
 73
9
 74
0
 42
0.0000001
 43
0.0000001
 44
0.0000000001
 40
0.0
 40
0.0
 40
0.0
 40
0.0
 40
0.2146358565
 40
0.4402545056
 40
0.6837589862
 40
0.819611241
 40
0.8968537511
 40
1.0
 40
1.0
 40
1.0
 40
1.0
 10
36.5293469609
 20
287.9346365272
 30
0.0
 10
36.5416133317
 20
287.8736129888
 30
0.0
 10
36.5674642783
 20
287.748589428
 30
0.0
 10
36.6086594782
 20
287.5545924188
 30
0.0
 10
36.6439497384
 20
287.3828495858
 30
0.0
 10
36.6672215883
 20
287.2522289189
 30
0.0
 10
36.678208993
 20
287.1615823718
 30
0.0
 10
36.6829479165
 20
287.108297423
 30
0.0
 10
36.6770072
 20
287.0789809842
 30
0.0
  0
SPLINE
  5
47A
100
AcDbEntity
  8
0
100
AcDbSpline
 62
7
  6
CONTINUOUS
 70
0
 71
3
 72
11
 73
7
 74
0
 42
0.0000001
 43
0.0000001
 44
0.0000000001
 40
0.0
 40
0.0
 40
0.0
 40
0.0
 40
0.2176560505
 40
0.4528662808
 40
0.7122680602
 40
1.0
 40
1.0
 40
1.0
 40
1.0
 10
36.5293469609
 20
287.9346365272
 30
0.0
 10
36.6447544972
 20
287.3611683199
 30
0.0
 10
37.0338822772
 20
286.1947307507
 30
0.0
 10
38.0156023064
 20
284.5382753423
 30
0.0
 10
39.3931203379
 20
282.9382584229
 30
0.0
 10
40.504534572
 20
281.9684244862
 30
0.0
 10
41.1142296415
 20
281.4927526265
 30
0.0
  0
SPLINE
  5
47B
100
AcDbEntity
  8
0
100
AcDbSpline
 62
7
  6
CONTINUOUS
 70
0
 71
3
 72
12
 73
8
 74
0
 42
0.0000001
 43
0.0000001
 44
0.0000000001
 40
0.0
 40
0.0
 40
0.0
 40
0.0
 40
0.0646077479
 40
0.1454361735
 40
0.3591714079
 40
0.6445201874
 40
1.0
 40
1.0
 40
1.0
 40
1.0
 10
36.1956444518
 20
284.4560855481
 30
0.0
 10
36.3189087501
 20
284.4387482868
 30
0.0
 10
36.5919238266
 20
284.3692377495
 30
0.0
 10
37.2368675757
 20
284.1161127233
 30
0.0
 10
38.2174418609
 20
283.5727681024
 30
0.0
 10
39.5871508538
 20
282.6584250666
 30
0.0
 10
40.5721476509
 20
281.9127281489
 30
0.0
 10
41.1121207009
 20
281.4914149377
 30
0.0
  0
SPLINE
  5
47C
100
AcDbEntity
  8
0
100
AcDbSpline
 62
7
  6
CONTINUOUS
 70
0
 71
3
 72
11
 73
7
 74
0
 42
0.0000001
 43
0.0000001
 44
0.0000000001
 40
0.0
 40
0.0
 40
0.0
 40
0.0
 40
0.3223436067
 40
0.5971516096
 40
0.8227161123
 40
1.0
 40
1.0
 40
1.0
 40
1.0
 10
41.1121207009
 20
281.4914149377
 30
0.0
 10
40.5682167017
 20
281.8333375909
 30
0.0
 10
39.5499893533
 20
282.4500937311
 30
0.0
 10
38.1100278085
 20
283.2364204739
 30
0.0
 10
36.8841041329
 20
283.8051856752
 30
0.0
 10
36.1222594389
 20
284.0686887145
 30
0.0
 10
35.7786849357
 20
284.1511753086
 30
0.0
  0
SPLINE
  5
47D
100
AcDbEntity
  8
0
100
AcDbSpline
 62
7
  6
CONTINUOUS
 70
0
 71
3
 72
9
 73
5
 74
0
 42
0.0000001
 43
0.0000001
 44
0.0000000001
 40
0.0
 40
0.0
 40
0.0
 40
0.0
 40
0.2895660472
 40
1.0
 40
1.0
 40
1.0
 40
1.0
 10
35.5908499792
 20
284.1922665133
 30
0.0
 10
35.5068251779
 20
284.2087608513
 30
0.0
 10
35.215625774
 20
284.2565550219
 30
0.0
 10
34.9134076251
 20
284.2665538723
 30
0.0
 10
34.7070335037
 20
284.2272443068
 30
0.0
  0
SPLINE
  5
47E
100
AcDbEntity
  8
0
100
AcDbSpline
 62
7
  6
CONTINUOUS
 70
0
 71
3
 72
16
 73
12
 74
0
 42
0.0000001
 43
0.0000001
 44
0.0000000001
 40
0.0
 40
0.0
 40
0.0
 40
0.0
 40
0.2247469423
 40
0.4175862398
 40
0.5774371192
 40
0.7046621104
 40
0.7567222991
 40
0.8017411402
 40
0.8744987443
 40
0.9345839508
 40
1.0
 40
1.0
 40
1.0
 40
1.0
 10
40.9003236803
 20
281.2652230753
 30
0.0
 10
40.347065079
 20
281.5875864877
 30
0.0
 10
39.3076565486
 20
282.1673455167
 30
0.0
 10
37.830665593
 20
282.8943891334
 30
0.0
 10
36.5621617646
 20
283.4083645784
 30
0.0
 10
35.6293679545
 20
283.6736252631
 30
0.0
 10
34.9949046972
 20
283.7622035486
 30
0.0
 10
34.5110228598
 20
283.7718834372
 30
0.0
 10
34.0000082683
 20
283.6620236888
 30
0.0
 10
33.5539932878
 20
283.2682104309
 30
0.0
 10
33.4650309352
 20
282.9026395485
 30
0.0
 10
33.4482472213
 20
282.7170210232
 30
0.0
  0
SPLINE
  5
47F
100
AcDbEntity
  8
0
100
AcDbSpline
 62
7
  6
CONTINUOUS
 70
0
 71
3
 72
9
 73
5
 74
0
 42
0.0000001
 43
0.0000001
 44
0.0000000001
 40
0.0
 40
0.0
 40
0.0
 40
0.0
 40
0.4871133785
 40
1.0
 40
1.0
 40
1.0
 40
1.0
 10
41.1121097622
 20
281.4910026047
 30
0.0
 10
41.0603468395
 20
281.4828317506
 30
0.0
 10
40.9587513108
 20
281.4206304805
 30
0.0
 10
40.9184361227
 20
281.3173398408
 30
0.0
 10
40.9003176656
 20
281.265222932
 30
0.0
  0
SPLINE
  5
480
100
AcDbEntity
  8
0
100
AcDbSpline
 62
7
  6
CONTINUOUS
 70
0
 71
3
 72
9
 73
5
 74
0
 42
0.0000001
 43
0.0000001
 44
0.0000000001
 40
0.0
 40
0.0
 40
0.0
 40
0.0
 40
0.4376177081
 40
1.0
 40
1.0
 40
1.0
 40
1.0
 10
36.421294784
 20
290.1424198975
 30
0.0
 10
36.363301857
 20
289.852117668
 30
0.0
 10
36.3382537241
 20
289.1687620868
 30
0.0
 10
36.4266194137
 20
288.4968612067
 30
0.0
 10
36.4938969863
 20
288.1224187887
 30
0.0
  0
SPLINE
  5
481
100
AcDbEntity
  8
0
100
AcDbSpline
 62
7
  6
CONTINUOUS
 70
0
 71
3
 72
9
 73
5
 74
0
 42
0.0000001
 43
0.0000001
 44
0.0000000001
 40
0.0
 40
0.0
 40
0.0
 40
0.0
 40
0.2739128142
 40
1.0
 40
1.0
 40
1.0
 40
1.0
 10
41.5976422864
 20
277.947446281
 30
0.0
 10
41.2279528811
 20
277.90871815
 30
0.0
 10
39.88422153
 20
277.7247982166
 30
0.0
 10
38.557600476
 20
277.3554249216
 30
0.0
 10
37.6613794876
 20
276.9459482361
 30
0.0
  0
LINE
  5
482
100
AcDbEntity
  8
0
100
AcDbLine
 62
7
  6
CONTINUOUS
 10
41.1146630162
 20
281.4922786634
 11
41.2074275465
 21
281.4203398216
  0
SPLINE
  5
483
100
AcDbEntity
  8
0
100
AcDbSpline
 62
7
  6
CONTINUOUS
 70
0
 71
3
 72
16
 73
12
 74
0
 42
0.0000001
 43
0.0000001
 44
0.0000000001
 40
0.0
 40
0.0
 40
0.0
 40
0.0
 40
0.2316333604
 40
0.4696625239
 40
0.5918002998
 40
0.7169922941
 40
0.7812758155
 40
0.8474367172
 40
0.9170949413
 40
0.9551304747
 40
1.0
 40
1.0
 40
1.0
 40
1.0
 10
41.2061220948
 20
281.4214983105
 30
0.0
 10
41.2761467957
 20
281.3674264341
 30
0.0
 10
41.4175209181
 20
281.2569982137
 30
0.0
 10
41.5930868933
 20
281.1145870366
 30
0.0
 10
41.7339678646
 20
280.9940614202
 30
0.0
 10
41.8221682808
 20
280.9141352559
 30
0.0
 10
41.8921282689
 20
280.8459278099
 30
0.0
 10
41.9445471011
 20
280.7904994613
 30
0.0
 10
41.9874750789
 20
280.7390063727
 30
0.0
 10
42.0182726687
 20
280.6907057365
 30
0.0
 10
42.0315319104
 20
280.6586369541
 30
0.0
 10
42.0285853233
 20
280.6417543951
 30
0.0
  0
SPLINE
  5
484
100
AcDbEntity
  8
0
100
AcDbSpline
 62
7
  6
CONTINUOUS
 70
0
 71
3
 72
10
 73
6
 74
0
 42
0.0000001
 43
0.0000001
 44
0.0000000001
 40
0.0
 40
0.0
 40
0.0
 40
0.0
 40
0.2186765518
 40
0.4586828129
 40
1.0
 40
1.0
 40
1.0
 40
1.0
 10
41.2061220948
 20
281.4214983105
 30
0.0
 10
41.8867267211
 20
280.8965698408
 30
0.0
 10
43.3813043837
 20
279.8810254337
 30
0.0
 10
46.8297989263
 20
277.9871724871
 30
0.0
 10
49.6941041356
 20
276.8424734306
 30
0.0
 10
51.7092355095
 20
276.1596558169
 30
0.0
  0
SPLINE
  5
485
100
AcDbEntity
  8
0
100
AcDbSpline
 62
7
  6
CONTINUOUS
 70
0
 71
3
 72
10
 73
6
 74
0
 42
0.0000001
 43
0.0000001
 44
0.0000000001
 40
0.0
 40
0.0
 40
0.0
 40
0.0
 40
0.2067917481
 40
0.4426291915
 40
1.0
 40
1.0
 40
1.0
 40
1.0
 10
41.5976422864
 20
277.947446281
 30
0.0
 10
42.3076834562
 20
277.9884426938
 30
0.0
 10
43.8348539194
 20
277.9611723455
 30
0.0
 10
47.2494916424
 20
277.5128267805
 30
0.0
 10
49.8914715778
 20
276.7738663763
 30
0.0
 10
51.7070271913
 20
276.1585905118
 30
0.0
  0
SPLINE
  5
486
100
AcDbEntity
  8
0
100
AcDbSpline
 62
7
  6
CONTINUOUS
 70
0
 71
3
 72
11
 73
7
 74
0
 42
0.0000001
 43
0.0000001
 44
0.0000000001
 40
0.0
 40
0.0
 40
0.0
 40
0.0
 40
0.3123160417
 40
0.5834593002
 40
0.8117218712
 40
1.0
 40
1.0
 40
1.0
 40
1.0
 10
51.7070271913
 20
276.1585905118
 30
0.0
 10
50.2776336465
 20
276.5591842809
 30
0.0
 10
47.5763534371
 20
277.2052756954
 30
0.0
 10
43.7408861013
 20
277.707260475
 30
0.0
 10
40.4597095544
 20
277.6635328235
 30
0.0
 10
38.5020328416
 20
277.2424486498
 30
0.0
 10
37.6648362948
 20
276.926294308
 30
0.0
  0
SPLINE
  5
487
100
AcDbEntity
  8
0
100
AcDbSpline
 62
7
  6
CONTINUOUS
 70
0
 71
3
 72
12
 73
8
 74
0
 42
0.0000001
 43
0.0000001
 44
0.0000000001
 40
0.0
 40
0.0
 40
0.0
 40
0.0
 40
0.3102569048
 40
0.5810862908
 40
0.700870645
 40
0.8102711011
 40
1.0
 40
1.0
 40
1.0
 40
1.0
 10
51.5587961433
 20
275.9044386315
 30
0.0
 10
50.1125427079
 20
276.2727182369
 30
0.0
 10
47.3739364761
 20
276.8531800476
 30
0.0
 10
44.0100849836
 20
277.1969575303
 30
0.0
 10
41.6022633646
 20
277.1690461943
 30
0.0
 10
39.5949804673
 20
276.9764193907
 30
0.0
 10
38.1857682528
 20
276.6168035706
 30
0.0
 10
37.3363497191
 20
276.283038279
 30
0.0
  0
SPLINE
  5
488
100
AcDbEntity
  8
0
100
AcDbSpline
 62
7
  6
CONTINUOUS
 70
0
 71
3
 72
11
 73
7
 74
0
 42
0.0000001
 43
0.0000001
 44
0.0000000001
 40
0.0
 40
0.0
 40
0.0
 40
0.0
 40
0.2763821032
 40
0.5294554491
 40
0.7671545179
 40
1.0
 40
1.0
 40
1.0
 40
1.0
 10
37.3363497191
 20
276.283038279
 30
0.0
 10
36.8842724721
 20
276.1054018275
 30
0.0
 10
36.0408952742
 20
275.6955393776
 30
0.0
 10
34.9768690072
 20
274.8514704908
 30
0.0
 10
34.1575036908
 20
273.8661007838
 30
0.0
 10
33.7840349072
 20
273.1198043387
 30
0.0
 10
33.6366645815
 20
272.7380501235
 30
0.0
  0
SPLINE
  5
489
100
AcDbEntity
  8
0
100
AcDbSpline
 62
7
  6
CONTINUOUS
 70
0
 71
3
 72
9
 73
5
 74
0
 42
0.0000001
 43
0.0000001
 44
0.0000000001
 40
0.0
 40
0.0
 40
0.0
 40
0.0
 40
0.5521881582
 40
1.0
 40
1.0
 40
1.0
 40
1.0
 10
51.5587889617
 20
275.9044344368
 30
0.0
 10
51.5767660777
 20
275.9568857909
 30
0.0
 10
51.5946984394
 20
276.0552845514
 30
0.0
 10
51.6652930625
 20
276.1414346136
 30
0.0
 10
51.707019939
 20
276.1581916493
 30
0.0
  0
SPLINE
  5
48A
100
AcDbEntity
  8
0
100
AcDbSpline
 62
7
  6
CONTINUOUS
 70
0
 71
3
 72
8
 73
4
 74
0
 42
0.0000001
 43
0.0000001
 44
0.0000000001
 40
0.0
 40
0.0
 40
0.0
 40
0.0
 40
1.0
 40
1.0
 40
1.0
 40
1.0
 10
51.7092182362
 20
276.1595202867
 30
0.0
 10
51.7608021208
 20
276.1424170505
 30
0.0
 10
51.8121936216
 20
276.1247388347
 30
0.0
 10
51.8637060792
 20
276.1074216597
 30
0.0
  0
SPLINE
  5
48B
100
AcDbEntity
  8
0
100
AcDbSpline
 62
7
  6
CONTINUOUS
 70
0
 71
3
 72
9
 73
5
 74
0
 42
0.0000001
 43
0.0000001
 44
0.0000000001
 40
0.0
 40
0.0
 40
0.0
 40
0.0
 40
0.4718305707
 40
1.0
 40
1.0
 40
1.0
 40
1.0
 10
47.7904419906
 20
292.1978659525
 30
0.0
 10
47.8992911586
 20
291.6235048145
 30
0.0
 10
48.3372888072
 20
290.4414930857
 30
0.0
 10
49.0715840028
 20
289.4283065593
 30
0.0
 10
49.5038879319
 20
288.9370478968
 30
0.0
  0
SPLINE
  5
48C
100
AcDbEntity
  8
0
100
AcDbSpline
 62
7
  6
CONTINUOUS
 70
0
 71
3
 72
9
 73
5
 74
0
 42
0.0000001
 43
0.0000001
 44
0.0000000001
 40
0.0
 40
0.0
 40
0.0
 40
0.0
 40
0.4712185241
 40
1.0
 40
1.0
 40
1.0
 40
1.0
 10
49.8294791681
 20
288.5837947937
 30
0.0
 10
50.2871379334
 20
288.1089741048
 30
0.0
 10
51.347550156
 20
287.1863062194
 30
0.0
 10
52.5167867292
 20
286.4113822225
 30
0.0
 10
53.1530775871
 20
286.0335141026
 30
0.0
  0
SPLINE
  5
48D
100
AcDbEntity
  8
0
100
AcDbSpline
 62
7
  6
CONTINUOUS
 70
0
 71
3
 72
13
 73
9
 74
0
 42
0.0000001
 43
0.0000001
 44
0.0000000001
 40
0.0
 40
0.0
 40
0.0
 40
0.0
 40
0.0965684164
 40
0.204094277
 40
0.3215572645
 40
0.4475469045
 40
0.7180122688
 40
1.0
 40
1.0
 40
1.0
 40
1.0
 10
53.1530775871
 20
286.0335141026
 30
0.0
 10
54.0105988875
 20
285.5242659224
 30
0.0
 10
55.8953439868
 20
284.5684507658
 30
0.0
 10
58.9950419382
 20
283.3657469577
 30
0.0
 10
62.473704936
 20
282.3339838996
 30
0.0
 10
67.6589820849
 20
281.1847866985
 30
0.0
 10
74.6282559545
 20
280.316338359
 30
0.0
 10
80.3443347231
 20
280.2091096638
 30
0.0
 10
83.2550033443
 20
280.3065588443
 30
0.0
  0
SPLINE
  5
48E
100
AcDbEntity
  8
0
100
AcDbSpline
 62
7
  6
CONTINUOUS
 70
0
 71
3
 72
12
 73
8
 74
0
 42
0.0000001
 43
0.0000001
 44
0.0000000001
 40
0.0
 40
0.0
 40
0.0
 40
0.0
 40
0.2848798685
 40
0.5531359821
 40
0.7941524003
 40
0.9018512909
 40
1.0
 40
1.0
 40
1.0
 40
1.0
 10
83.2550033443
 20
280.3065588443
 30
0.0
 10
85.6667984385
 20
280.3873057399
 30
0.0
 10
90.3462828967
 20
280.7474315932
 30
0.0
 10
96.984700314
 20
281.8937109794
 30
0.0
 10
102.0221585793
 20
283.3462111274
 30
0.0
 10
105.522378276
 20
284.7961589355
 30
0.0
 10
107.0722235497
 20
285.6023595892
 30
0.0
 10
107.7873262873
 20
286.0264384102
 30
0.0
  0
SPLINE
  5
48F
100
AcDbEntity
  8
0
100
AcDbSpline
 62
7
  6
CONTINUOUS
 70
0
 71
3
 72
9
 73
5
 74
0
 42
0.0000001
 43
0.0000001
 44
0.0000000001
 40
0.0
 40
0.0
 40
0.0
 40
0.0
 40
0.5463886711
 40
1.0
 40
1.0
 40
1.0
 40
1.0
 10
107.7873262873
 20
286.0264384102
 30
0.0
 10
108.7596184348
 20
286.6030387865
 30
0.0
 10
110.4674722759
 20
287.7910012852
 30
0.0
 10
111.86924105
 20
289.3590827995
 30
0.0
 10
112.3561975883
 20
290.1613207352
 30
0.0
  0
SPLINE
  5
490
100
AcDbEntity
  8
0
100
AcDbSpline
 62
7
  6
CONTINUOUS
 70
0
 71
3
 72
9
 73
5
 74
0
 42
0.0000001
 43
0.0000001
 44
0.0000000001
 40
0.0
 40
0.0
 40
0.0
 40
0.0
 40
0.5114502548
 40
1.0
 40
1.0
 40
1.0
 40
1.0
 10
112.5847214091
 20
290.5665734797
 30
0.0
 10
112.8721988102
 20
291.1182517985
 30
0.0
 10
113.2900878075
 20
292.2863308735
 30
0.0
 10
113.2725461329
 20
293.5321004406
 30
0.0
 10
113.1619006116
 20
294.1159411823
 30
0.0
  0
SPLINE
  5
491
100
AcDbEntity
  8
0
100
AcDbSpline
 62
7
  6
CONTINUOUS
 70
0
 71
3
 72
22
 73
18
 74
0
 42
0.0000001
 43
0.0000001
 44
0.0000000001
 40
0.0
 40
0.0
 40
0.0
 40
0.0
 40
0.0403831876
 40
0.0504518433
 40
0.0605542136
 40
0.0706872152
 40
0.0808814967
 40
0.1014955738
 40
0.1225484441
 40
0.1663554216
 40
0.2131719148
 40
0.2636189297
 40
0.3768432775
 40
0.5077983171
 40
0.6563386631
 40
0.8211272279
 40
1.0
 40
1.0
 40
1.0
 40
1.0
 10
121.0796293107
 20
293.3479117022
 30
0.0
 10
121.145632634
 20
292.9671378687
 30
0.0
 10
121.1907069712
 20
292.4821962182
 30
0.0
 10
121.1647828361
 20
291.9032930094
 30
0.0
 10
121.1477466261
 20
291.613725331
 30
0.0
 10
121.1121148461
 20
291.3244329596
 30
0.0
 10
121.0385366851
 20
290.9395437559
 30
0.0
 10
120.9276293418
 20
290.455179477
 30
0.0
 10
120.6622479143
 20
289.6802937803
 30
0.0
 10
120.2007227418
 20
288.7116460586
 30
0.0
 10
119.4427217371
 20
287.5893313225
 30
0.0
 10
118.1129763162
 20
286.0706206656
 30
0.0
 10
115.9152745738
 20
284.2748644948
 30
0.0
 10
112.6643590964
 20
282.3697964623
 30
0.0
 10
108.7593369649
 20
280.6674093511
 30
0.0
 10
104.2774712962
 20
279.2010645313
 30
0.0
 10
101.0773427614
 20
278.4279276223
 30
0.0
 10
99.4010395647
 20
278.0814014748
 30
0.0
  0
SPLINE
  5
492
100
AcDbEntity
  8
0
100
AcDbSpline
 62
7
  6
CONTINUOUS
 70
0
 71
3
 72
11
 73
7
 74
0
 42
0.0000001
 43
0.0000001
 44
0.0000000001
 40
0.0
 40
0.0
 40
0.0
 40
0.0
 40
0.2516205422
 40
0.5108975916
 40
0.7645984155
 40
1.0
 40
1.0
 40
1.0
 40
1.0
 10
95.9329926096
 20
277.4446044828
 30
0.0
 10
92.7355756992
 20
276.9281785576
 30
0.0
 10
86.1812648895
 20
276.2435098329
 30
0.0
 10
76.3253851023
 20
276.1696676552
 30
0.0
 10
66.715498966
 20
277.020851372
 30
0.0
 10
60.5197770052
 20
278.2327493386
 30
0.0
 10
57.5926396797
 20
279.0158660131
 30
0.0
  0
SPLINE
  5
493
100
AcDbEntity
  8
0
100
AcDbSpline
 62
7
  6
CONTINUOUS
 70
0
 71
3
 72
14
 73
10
 74
0
 42
0.0000001
 43
0.0000001
 44
0.0000000001
 40
0.0
 40
0.0
 40
0.0
 40
0.0
 40
0.3272330092
 40
0.4718593777
 40
0.6027085817
 40
0.7196767277
 40
0.8234555827
 40
0.9158316346
 40
1.0
 40
1.0
 40
1.0
 40
1.0
 10
57.5926396797
 20
279.0158660131
 30
0.0
 10
55.2383828499
 20
279.6457161274
 30
0.0
 10
51.8828338229
 20
280.7407894814
 30
0.0
 10
47.8143763837
 20
282.6486115454
 30
0.0
 10
45.2951482584
 20
284.1414948577
 30
0.0
 10
43.2105499121
 20
285.7385491262
 30
0.0
 10
41.5850105157
 20
287.4264008471
 30
0.0
 10
40.4418601594
 20
289.191381716
 30
0.0
 10
40.0077969703
 20
290.4515960916
 30
0.0
 10
39.8910798076
 20
291.0674744858
 30
0.0
  0
SPLINE
  5
494
100
AcDbEntity
  8
0
100
AcDbSpline
 62
7
  6
CONTINUOUS
 70
0
 71
3
 72
9
 73
5
 74
0
 42
0.0000001
 43
0.0000001
 44
0.0000000001
 40
0.0
 40
0.0
 40
0.0
 40
0.0
 40
0.2546658805
 40
1.0
 40
1.0
 40
1.0
 40
1.0
 10
48.8247214873
 20
294.3705637148
 30
0.0
 10
48.7919220304
 20
294.2838428805
 30
0.0
 10
48.6712234964
 20
293.9403293524
 30
0.0
 10
48.5841560427
 20
293.5848314184
 30
0.0
 10
48.540824662
 20
293.316959474
 30
0.0
  0
SPLINE
  5
495
100
AcDbEntity
  8
0
100
AcDbSpline
 62
7
  6
CONTINUOUS
 70
0
 71
3
 72
9
 73
5
 74
0
 42
0.0000001
 43
0.0000001
 44
0.0000000001
 40
0.0
 40
0.0
 40
0.0
 40
0.0
 40
0.5179002843
 40
1.0
 40
1.0
 40
1.0
 40
1.0
 10
77.6973392757
 20
306.0072486855
 30
0.0
 10
75.0402655798
 20
305.9182898633
 30
0.0
 10
69.9148580935
 20
305.5015276798
 30
0.0
 10
64.8564011469
 20
304.5510384479
 30
0.0
 10
62.4606004446
 20
303.930794061
 30
0.0
  0
SPLINE
  5
496
100
AcDbEntity
  8
0
100
AcDbSpline
 62
7
  6
CONTINUOUS
 70
0
 71
3
 72
15
 73
11
 74
0
 42
0.0000001
 43
0.0000001
 44
0.0000000001
 40
0.0
 40
0.0
 40
0.0
 40
0.0
 40
0.1780034988
 40
0.3411183657
 40
0.4878020557
 40
0.617309651
 40
0.7300397078
 40
0.8280641492
 40
0.9157747673
 40
1.0
 40
1.0
 40
1.0
 40
1.0
 10
62.4606004446
 20
303.930794061
 30
0.0
 10
61.2922675046
 20
303.6283265197
 30
0.0
 10
59.0715760247
 20
302.9733558025
 30
0.0
 10
55.9816245152
 20
301.782661953
 30
0.0
 10
53.3151475521
 20
300.4424559533
 30
0.0
 10
51.1152162978
 20
298.9733945162
 30
0.0
 10
49.4163308578
 20
297.3938799483
 30
0.0
 10
48.2493591238
 20
295.7152518009
 30
0.0
 10
47.6589406847
 20
293.9513838917
 30
0.0
 10
47.6841150031
 20
292.758920533
 30
0.0
 10
47.7904423894
 20
292.1978660046
 30
0.0
  0
SPLINE
  5
497
100
AcDbEntity
  8
0
100
AcDbSpline
 62
7
  6
CONTINUOUS
 70
0
 71
3
 72
8
 73
4
 74
0
 42
0.0000001
 43
0.0000001
 44
0.0000000001
 40
0.0
 40
0.0
 40
0.0
 40
0.0
 40
1.0
 40
1.0
 40
1.0
 40
1.0
 10
39.8911919756
 20
291.0674919359
 30
0.0
 10
39.8848120531
 20
291.1011567058
 30
0.0
 10
39.878458508
 20
291.1348291756
 30
0.0
 10
39.8726064649
 20
291.1685897109
 30
0.0
  0
SPLINE
  5
498
100
AcDbEntity
  8
0
100
AcDbSpline
 62
7
  6
CONTINUOUS
 70
0
 71
3
 72
14
 73
10
 74
0
 42
0.0000001
 43
0.0000001
 44
0.0000000001
 40
0.0
 40
0.0
 40
0.0
 40
0.0
 40
0.1049792334
 40
0.210352745
 40
0.3194174179
 40
0.4350690739
 40
0.5596065703
 40
0.6946881829
 40
1.0
 40
1.0
 40
1.0
 40
1.0
 10
39.8726064649
 20
291.1685897109
 30
0.0
 10
39.8021335098
 20
291.5751493796
 30
0.0
 10
39.7388891483
 20
292.4058022815
 30
0.0
 10
39.893192913
 20
293.6595010021
 30
0.0
 10
40.2948695195
 20
294.9008313269
 30
0.0
 10
40.9378300625
 20
296.1203244995
 30
0.0
 10
41.8153815788
 20
297.311840027
 30
0.0
 10
43.3521008826
 20
298.9208125237
 30
0.0
 10
44.7495253655
 20
299.9653685627
 30
0.0
 10
45.758789997
 20
300.614570074
 30
0.0
  0
SPLINE
  5
499
100
AcDbEntity
  8
0
100
AcDbSpline
 62
7
  6
CONTINUOUS
 70
0
 71
3
 72
20
 73
16
 74
0
 42
0.0000001
 43
0.0000001
 44
0.0000000001
 40
0.0
 40
0.0
 40
0.0
 40
0.0
 40
0.0513641089
 40
0.10876467
 40
0.1715845382
 40
0.2389783073
 40
0.3832714172
 40
0.532498726
 40
0.6768396558
 40
0.7442721423
 40
0.807136453
 40
0.864585714
 40
0.9160130377
 40
0.961078345
 40
1.0
 40
1.0
 40
1.0
 40
1.0
 10
46.629877532
 20
301.1506592287
 30
0.0
 10
47.7542059756
 20
301.8132157429
 30
0.0
 10
50.2332732958
 20
303.0513330445
 30
0.0
 10
54.3167561275
 20
304.5931231538
 30
0.0
 10
58.9063964981
 20
305.8990635352
 30
0.0
 10
65.7388492351
 20
307.3222823827
 30
0.0
 10
74.8779649399
 20
308.3232401772
 30
0.0
 10
86.0218529974
 20
308.3260536194
 30
0.0
 10
95.1636498674
 20
307.3298244851
 30
0.0
 10
102.0002890083
 20
305.9102138545
 30
0.0
 10
106.593987566
 20
304.606807221
 30
0.0
 10
110.6827172332
 20
303.0663652747
 30
0.0
 10
114.1924630351
 20
301.3197251427
 30
0.0
 10
117.0559619375
 20
299.3935411343
 30
0.0
 10
118.6111337063
 20
297.9064336907
 30
0.0
 10
119.234658109
 20
297.1388826739
 30
0.0
  0
SPLINE
  5
49A
100
AcDbEntity
  8
0
100
AcDbSpline
 62
7
  6
CONTINUOUS
 70
0
 71
3
 72
8
 73
4
 74
0
 42
0.0000001
 43
0.0000001
 44
0.0000000001
 40
0.0
 40
0.0
 40
0.0
 40
0.0
 40
1.0
 40
1.0
 40
1.0
 40
1.0
 10
119.234658109
 20
297.1388826739
 30
0.0
 10
119.3393660051
 20
297.009988517
 30
0.0
 10
119.4423095609
 20
296.879599824
 30
0.0
 10
119.5419586868
 20
296.7467559348
 30
0.0
  0
SPLINE
  5
49B
100
AcDbEntity
  8
0
100
AcDbSpline
 62
7
  6
CONTINUOUS
 70
0
 71
3
 72
14
 73
10
 74
0
 42
0.0000001
 43
0.0000001
 44
0.0000000001
 40
0.0
 40
0.0
 40
0.0
 40
0.0
 40
0.2660893145
 40
0.395027732
 40
0.5205157972
 40
0.6431943964
 40
0.7642193142
 40
0.882704387
 40
1.0
 40
1.0
 40
1.0
 40
1.0
 10
119.6074751147
 20
296.6583669323
 30
0.0
 10
119.7935691305
 20
296.4041723333
 30
0.0
 10
120.0477382759
 20
296.0105087334
 30
0.0
 10
120.352912292
 20
295.4749840596
 30
0.0
 10
120.548488058
 20
295.07314154
 30
0.0
 10
120.7133172481
 20
294.6682264183
 30
0.0
 10
120.8628659682
 20
294.2659509413
 30
0.0
 10
120.9729564604
 20
293.8577329982
 30
0.0
 10
121.0354051171
 20
293.5855450432
 30
0.0
 10
121.0612627163
 20
293.4491029268
 30
0.0
  0
SPLINE
  5
49C
100
AcDbEntity
  8
0
100
AcDbSpline
 62
7
  6
CONTINUOUS
 70
0
 71
3
 72
18
 73
14
 74
0
 42
0.0000001
 43
0.0000001
 44
0.0000000001
 40
0.0
 40
0.0
 40
0.0
 40
0.0
 40
0.0337283451
 40
0.0701778173
 40
0.1103996449
 40
0.1550789357
 40
0.2045602538
 40
0.2589381072
 40
0.3817990204
 40
0.5214803705
 40
0.6742477963
 40
0.8354638438
 40
1.0
 40
1.0
 40
1.0
 40
1.0
 10
113.1619006116
 20
294.1159411823
 30
0.0
 10
113.0801677566
 20
294.5472191057
 30
0.0
 10
112.7962221071
 20
295.4255146577
 30
0.0
 10
112.0660896875
 20
296.6730476715
 30
0.0
 10
111.0343080201
 20
297.8778509024
 30
0.0
 10
109.7135221192
 20
299.0315605814
 30
0.0
 10
108.1161552491
 20
300.1267685049
 30
0.0
 10
105.5301073994
 20
301.5550076398
 30
0.0
 10
101.6873241991
 20
303.0943381975
 30
0.0
 10
96.4617883625
 20
304.5086824764
 30
0.0
 10
90.6339497327
 20
305.5040911644
 30
0.0
 10
84.4234280079
 20
306.0417855671
 30
0.0
 10
80.1791691223
 20
306.0807751553
 30
0.0
 10
78.0387501513
 20
306.017972464
 30
0.0
  0
SPLINE
  5
49D
100
AcDbEntity
  8
0
100
AcDbSpline
 62
7
  6
CONTINUOUS
 70
0
 71
3
 72
17
 73
13
 74
0
 42
0.0000001
 43
0.0000001
 44
0.0000000001
 40
0.0
 40
0.0
 40
0.0
 40
0.0
 40
0.2429902522
 40
0.3655320709
 40
0.4888658583
 40
0.6131131545
 40
0.7385464293
 40
0.8018868701
 40
0.8658889633
 40
0.9310828807
 40
0.9647710759
 40
1.0
 40
1.0
 40
1.0
 40
1.0
 10
51.8614018611
 20
276.1083415642
 30
0.0
 10
51.9778592442
 20
276.0691860318
 30
0.0
 10
52.1526821762
 20
276.0091817775
 30
0.0
 10
52.3853482055
 20
275.9256920207
 30
0.0
 10
52.560673222
 20
275.8602304127
 30
0.0
 10
52.7362724741
 20
275.7913105901
 30
0.0
 10
52.8820119138
 20
275.7296680883
 30
0.0
 10
52.9981118046
 20
275.6758316598
 30
0.0
 10
53.0844765887
 20
275.6318302653
 30
0.0
 10
53.1567452016
 20
275.5891722995
 30
0.0
 10
53.2082114671
 20
275.549432214
 30
0.0
 10
53.235614079
 20
275.5180344902
 30
0.0
 10
53.2334413994
 20
275.5003546177
 30
0.0
  0
SPLINE
  5
49E
100
AcDbEntity
  8
0
100
AcDbSpline
 62
7
  6
CONTINUOUS
 70
0
 71
3
 72
9
 73
5
 74
0
 42
0.0000001
 43
0.0000001
 44
0.0000000001
 40
0.0
 40
0.0
 40
0.0
 40
0.0
 40
0.4779944755
 40
1.0
 40
1.0
 40
1.0
 40
1.0
 10
51.8614018611
 20
276.1083415642
 30
0.0
 10
54.1568001277
 20
275.3377558776
 30
0.0
 10
59.0594030757
 20
274.0202390189
 30
0.0
 10
64.0595710531
 20
273.1685767607
 30
0.0
 10
66.6818611081
 20
272.8286458807
 30
0.0
  0
SPLINE
  5
49F
100
AcDbEntity
  8
0
100
AcDbSpline
 62
7
  6
CONTINUOUS
 70
0
 71
3
 72
9
 73
5
 74
0
 42
0.0000001
 43
0.0000001
 44
0.0000000001
 40
0.0
 40
0.0
 40
0.0
 40
0.0
 40
0.4734269459
 40
1.0
 40
1.0
 40
1.0
 40
1.0
 10
52.9185230597
 20
272.7476604751
 30
0.0
 10
55.0661582664
 20
273.1080840223
 30
0.0
 10
59.6753152516
 20
273.4567659268
 30
0.0
 10
64.2787744619
 20
273.138735265
 30
0.0
 10
66.6808013055
 20
272.8273147999
 30
0.0
  0
SPLINE
  5
4A0
100
AcDbEntity
  8
0
100
AcDbSpline
 62
7
  6
CONTINUOUS
 70
0
 71
3
 72
12
 73
8
 74
0
 42
0.0000001
 43
0.0000001
 44
0.0000000001
 40
0.0
 40
0.0
 40
0.0
 40
0.0
 40
0.1585669478
 40
0.309883268
 40
0.4519571754
 40
0.5835230012
 40
1.0
 40
1.0
 40
1.0
 40
1.0
 10
66.6808013055
 20
272.8273147999
 30
0.0
 10
65.1898605751
 20
272.9623010939
 30
0.0
 10
62.2654118221
 20
273.1258065133
 30
0.0
 10
57.9967042768
 20
273.0440471235
 30
0.0
 10
53.9950398405
 20
272.6224099495
 30
0.0
 10
47.6340095025
 20
271.3389201856
 30
0.0
 10
42.5980308654
 20
269.0626934476
 30
0.0
 10
39.850241049
 20
266.2501983905
 30
0.0
  0
SPLINE
  5
4A1
100
AcDbEntity
  8
0
100
AcDbSpline
 62
7
  6
CONTINUOUS
 70
0
 71
3
 72
10
 73
6
 74
0
 42
0.0000001
 43
0.0000001
 44
0.0000000001
 40
0.0
 40
0.0
 40
0.0
 40
0.0
 40
0.4497681684
 40
0.711600904
 40
1.0
 40
1.0
 40
1.0
 40
1.0
 10
39.8493032535
 20
266.2555686978
 30
0.0
 10
41.3864123691
 20
267.8496615879
 30
0.0
 10
44.3445258492
 20
269.8812951123
 30
0.0
 10
48.9018392252
 20
271.7546918486
 30
0.0
 10
51.5287025528
 20
272.4566998461
 30
0.0
 10
52.9185230597
 20
272.7476604751
 30
0.0
  0
SPLINE
  5
4A2
100
AcDbEntity
  8
0
100
AcDbSpline
 62
7
  6
CONTINUOUS
 70
0
 71
3
 72
19
 73
15
 74
0
 42
0.0000001
 43
0.0000001
 44
0.0000000001
 40
0.0
 40
0.0
 40
0.0
 40
0.0
 40
0.1563655723
 40
0.306109452
 40
0.4471977022
 40
0.5140600184
 40
0.5782962123
 40
0.6398716455
 40
0.6987563053
 40
0.7549628655
 40
0.808623724
 40
0.859822802
 40
0.9086711448
 40
1.0
 40
1.0
 40
1.0
 40
1.0
 10
66.6196768338
 20
272.5566403578
 30
0.0
 10
65.1525749571
 20
272.6596773163
 30
0.0
 10
62.2723112334
 20
272.7619185779
 30
0.0
 10
58.0652724597
 20
272.5994803557
 30
0.0
 10
54.7211675346
 20
272.1900614128
 30
0.0
 10
52.2065388515
 20
271.7052194541
 30
0.0
 10
50.4463686347
 20
271.2701023163
 30
0.0
 10
48.7839998268
 20
270.7635359549
 30
0.0
 10
47.2163516053
 20
270.210911654
 30
0.0
 10
45.7496232881
 20
269.601176423
 30
0.0
 10
44.3956015191
 20
268.919067991
 30
0.0
 10
43.1464102241
 20
268.1895197253
 30
0.0
 10
41.6510624503
 20
267.1855835524
 30
0.0
 10
40.6397415433
 20
266.3310513038
 30
0.0
 10
40.0210552155
 20
265.7351348069
 30
0.0
  0
SPLINE
  5
4A3
100
AcDbEntity
  8
0
100
AcDbSpline
 62
7
  6
CONTINUOUS
 70
0
 71
3
 72
11
 73
7
 74
0
 42
0.0000001
 43
0.0000001
 44
0.0000000001
 40
0.0
 40
0.0
 40
0.0
 40
0.0
 40
0.1672050848
 40
0.4079677024
 40
0.6977269666
 40
1.0
 40
1.0
 40
1.0
 40
1.0
 10
66.6807981982
 20
272.8268998982
 30
0.0
 10
66.6708887962
 20
272.8149114099
 30
0.0
 10
66.6557463551
 20
272.7790416459
 30
0.0
 10
66.6413140036
 20
272.7158757395
 30
0.0
 10
66.6329523714
 20
272.6388856593
 30
0.0
 10
66.6280571898
 20
272.5834787115
 30
0.0
 10
66.6196753147
 20
272.5566389748
 30
0.0
  0
SPLINE
  5
4A4
100
AcDbEntity
  8
0
100
AcDbSpline
 62
7
  6
CONTINUOUS
 70
0
 71
3
 72
9
 73
5
 74
0
 42
0.0000001
 43
0.0000001
 44
0.0000000001
 40
0.0
 40
0.0
 40
0.0
 40
0.0
 40
0.5302697166
 40
1.0
 40
1.0
 40
1.0
 40
1.0
 10
68.4347938524
 20
269.6483459621
 30
0.0
 10
65.2888827007
 20
268.6024972055
 30
0.0
 10
59.5010566867
 20
266.1512276596
 30
0.0
 10
54.2315007855
 20
262.7064415308
 30
0.0
 10
51.9609099166
 20
260.8439960366
 30
0.0
  0
SPLINE
  5
4A5
100
AcDbEntity
  8
0
100
AcDbSpline
 62
7
  6
CONTINUOUS
 70
0
 71
3
 72
8
 73
4
 74
0
 42
0.0000001
 43
0.0000001
 44
0.0000000001
 40
0.0
 40
0.0
 40
0.0
 40
0.0
 40
1.0
 40
1.0
 40
1.0
 40
1.0
 10
66.6818524894
 20
272.8285027744
 30
0.0
 10
66.7454025851
 20
272.8206284375
 30
0.0
 10
66.8088704461
 20
272.8121037571
 30
0.0
 10
66.8723902683
 20
272.8039888296
 30
0.0
  0
SPLINE
  5
4A6
100
AcDbEntity
  8
0
100
AcDbSpline
 62
7
  6
CONTINUOUS
 70
0
 71
3
 72
17
 73
13
 74
0
 42
0.0000001
 43
0.0000001
 44
0.0000000001
 40
0.0
 40
0.0
 40
0.0
 40
0.0
 40
0.2482164586
 40
0.3727040656
 40
0.4974639353
 40
0.622522306
 40
0.7479396868
 40
0.8108247966
 40
0.8738785817
 40
0.9371954736
 40
0.9690652756
 40
1.0
 40
1.0
 40
1.0
 40
1.0
 10
66.8730188443
 20
272.8040496976
 30
0.0
 10
67.0181488634
 20
272.7855096562
 30
0.0
 10
67.2358945048
 20
272.7562928827
 30
0.0
 10
67.5260080353
 20
272.7136289078
 30
0.0
 10
67.7438974422
 20
272.6789678808
 30
0.0
 10
67.961823623
 20
272.6408956298
 30
0.0
 10
68.1428947779
 20
272.6048411469
 30
0.0
 10
68.2874794832
 20
272.5713214427
 30
0.0
 10
68.3945660835
 20
272.5427294024
 30
0.0
 10
68.485422526
 20
272.5125724967
 30
0.0
 10
68.548771291
 20
272.4832176568
 30
0.0
 10
68.5867547566
 20
272.4557160729
 30
0.0
 10
68.5857395584
 20
272.4375100991
 30
0.0
  0
SPLINE
  5
4A7
100
AcDbEntity
  8
0
100
AcDbSpline
 62
7
  6
CONTINUOUS
 70
0
 71
3
 72
9
 73
5
 74
0
 42
0.0000001
 43
0.0000001
 44
0.0000000001
 40
0.0
 40
0.0
 40
0.0
 40
0.0
 40
0.4950733887
 40
1.0
 40
1.0
 40
1.0
 40
1.0
 10
66.8730188443
 20
272.8040496976
 30
0.0
 10
69.6418250857
 20
272.4506138402
 30
0.0
 10
75.2662560312
 20
271.9714286818
 30
0.0
 10
80.910148894
 20
271.9221181432
 30
0.0
 10
83.7557496847
 20
272.0056460682
 30
0.0
  0
SPLINE
  5
4A8
100
AcDbEntity
  8
0
100
AcDbSpline
 62
7
  6
CONTINUOUS
 70
0
 71
3
 72
9
 73
5
 74
0
 42
0.0000001
 43
0.0000001
 44
0.0000000001
 40
0.0
 40
0.0
 40
0.0
 40
0.0
 40
0.2439392987
 40
1.0
 40
1.0
 40
1.0
 40
1.0
 10
68.4347938524
 20
269.6483459621
 30
0.0
 10
69.6486505084
 20
269.9945262002
 30
0.0
 10
74.6682938768
 20
271.2563319853
 30
0.0
 10
79.8454722152
 20
271.8896029953
 30
0.0
 10
83.7560015651
 20
272.0042579564
 30
0.0
  0
SPLINE
  5
4A9
100
AcDbEntity
  8
0
100
AcDbSpline
 62
7
  6
CONTINUOUS
 70
0
 71
3
 72
12
 73
8
 74
0
 42
0.0000001
 43
0.0000001
 44
0.0000000001
 40
0.0
 40
0.0
 40
0.0
 40
0.0
 40
0.2730508114
 40
0.5386352293
 40
0.7830340447
 40
0.8950729707
 40
1.0
 40
1.0
 40
1.0
 40
1.0
 10
83.7560015651
 20
272.0042579564
 30
0.0
 10
80.6535344596
 20
271.7991243371
 30
0.0
 10
74.5527422473
 20
270.9691192163
 30
0.0
 10
65.9426132675
 20
268.5490617846
 30
0.0
 10
59.442796748
 20
265.6599454949
 30
0.0
 10
54.9254320706
 20
262.9692282918
 30
0.0
 10
52.9095678079
 20
261.5344196542
 30
0.0
 10
51.9699258367
 20
260.7964219672
 30
0.0
  0
SPLINE
  5
4AA
100
AcDbEntity
  8
0
100
AcDbSpline
 62
7
  6
CONTINUOUS
 70
0
 71
3
 72
19
 73
15
 74
0
 42
0.0000001
 43
0.0000001
 44
0.0000000001
 40
0.0
 40
0.0
 40
0.0
 40
0.0
 40
0.1354661059
 40
0.2714859555
 40
0.4058444047
 40
0.4717930853
 40
0.5366202554
 40
0.6001697606
 40
0.6623039617
 40
0.7228682581
 40
0.7817747039
 40
0.8389756707
 40
0.8944233786
 40
1.0
 40
1.0
 40
1.0
 40
1.0
 10
83.7900730025
 20
271.7314977436
 30
0.0
 10
82.279074563
 20
271.6011652002
 30
0.0
 10
79.2591501181
 20
271.2337507779
 30
0.0
 10
74.7922073917
 20
270.3852177943
 30
0.0
 10
71.1465350061
 20
269.4307657287
 30
0.0
 10
68.3161807978
 20
268.5347277588
 30
0.0
 10
66.2675216205
 20
267.800865921
 30
0.0
 10
64.2868771808
 20
267.008668526
 30
0.0
 10
62.3717372249
 20
266.1834074255
 30
0.0
 10
60.5325616462
 20
265.3152830096
 30
0.0
 10
58.7836701916
 20
264.3901555403
 30
0.0
 10
57.1182030603
 20
263.4328934307
 30
0.0
 10
55.0419662135
 20
262.1442108918
 30
0.0
 10
53.5697505275
 20
261.100332786
 30
0.0
 10
52.6257468761
 20
260.3890397568
 30
0.0
  0
SPLINE
  5
4AB
100
AcDbEntity
  8
0
100
AcDbSpline
 62
7
  6
CONTINUOUS
 70
0
 71
3
 72
9
 73
5
 74
0
 42
0.0000001
 43
0.0000001
 44
0.0000000001
 40
0.0
 40
0.0
 40
0.0
 40
0.0
 40
0.4971284861
 40
1.0
 40
1.0
 40
1.0
 40
1.0
 10
26.492271609
 20
210.4581300145
 30
0.0
 10
26.2572352295
 20
210.4910529478
 30
0.0
 10
25.7764114716
 20
210.5087143323
 30
0.0
 10
25.3020636587
 20
210.4294913237
 30
0.0
 10
25.0701773268
 20
210.3673329211
 30
0.0
  0
SPLINE
  5
4AC
100
AcDbEntity
  8
0
100
AcDbSpline
 62
7
  6
CONTINUOUS
 70
0
 71
3
 72
9
 73
5
 74
0
 42
0.0000001
 43
0.0000001
 44
0.0000000001
 40
0.0
 40
0.0
 40
0.0
 40
0.0
 40
0.5029601385
 40
1.0
 40
1.0
 40
1.0
 40
1.0
 10
26.0759197553
 20
198.3294097362
 30
0.0
 10
25.7280270267
 20
198.2361551829
 30
0.0
 10
25.0165085567
 20
198.1172177127
 30
0.0
 10
24.295272891
 20
198.1438453984
 30
0.0
 10
23.9427775198
 20
198.1932091515
 30
0.0
  0
SPLINE
  5
4AD
100
AcDbEntity
  8
0
100
AcDbSpline
 62
7
  6
CONTINUOUS
 70
0
 71
3
 72
11
 73
7
 74
0
 42
0.0000001
 43
0.0000001
 44
0.0000000001
 40
0.0
 40
0.0
 40
0.0
 40
0.0
 40
0.2423527548
 40
0.4929010598
 40
0.7472019315
 40
1.0
 40
1.0
 40
1.0
 40
1.0
 10
56.1277284574
 20
259.5776488142
 30
0.0
 10
54.4001816303
 20
257.8028141494
 30
0.0
 10
51.3462362159
 20
253.7221913668
 30
0.0
 10
48.289479225
 20
246.6561921782
 30
0.0
 10
46.8406913438
 20
238.9884282896
 30
0.0
 10
47.0175231434
 20
233.757652781
 30
0.0
 10
47.4004906305
 20
231.2026629925
 30
0.0
  0
SPLINE
  5
4AE
100
AcDbEntity
  8
0
100
AcDbSpline
 62
7
  6
CONTINUOUS
 70
0
 71
3
 72
9
 73
5
 74
0
 42
0.0000001
 43
0.0000001
 44
0.0000000001
 40
0.0
 40
0.0
 40
0.0
 40
0.0
 40
0.4916893547
 40
1.0
 40
1.0
 40
1.0
 40
1.0
 10
93.5998529323
 20
257.5987504843
 30
0.0
 10
94.7886144566
 20
255.7024154446
 30
0.0
 10
96.7777462041
 20
251.5645828627
 30
0.0
 10
97.8839557944
 20
247.115201122
 30
0.0
 10
98.2269386603
 20
244.826971052
 30
0.0
  0
SPLINE
  5
4AF
100
AcDbEntity
  8
0
100
AcDbSpline
 62
7
  6
CONTINUOUS
 70
0
 71
3
 72
13
 73
9
 74
0
 42
0.0000001
 43
0.0000001
 44
0.0000000001
 40
0.0
 40
0.0
 40
0.0
 40
0.0
 40
0.2575113066
 40
0.5148919491
 40
0.6411240274
 40
0.7643270718
 40
0.8839871916
 40
1.0
 40
1.0
 40
1.0
 40
1.0
 10
98.2269386603
 20
244.826971052
 30
0.0
 10
98.7682943502
 20
241.2152851873
 30
0.0
 10
98.7656272699
 20
233.7947043189
 30
0.0
 10
96.1610621045
 20
224.943491696
 30
0.0
 10
92.6424889522
 20
218.6479858457
 30
0.0
 10
89.3967295054
 20
214.5115987781
 30
0.0
 10
85.625174053
 20
211.0601140018
 30
0.0
 10
82.7854799664
 20
209.2565005353
 30
0.0
 10
81.3196468518
 20
208.5092823983
 30
0.0
  0
SPLINE
  5
4B0
100
AcDbEntity
  8
0
100
AcDbSpline
 62
7
  6
CONTINUOUS
 70
0
 71
3
 72
13
 73
9
 74
0
 42
0.0000001
 43
0.0000001
 44
0.0000000001
 40
0.0
 40
0.0
 40
0.0
 40
0.0
 40
0.2663349783
 40
0.527594871
 40
0.6524963712
 40
0.7721829112
 40
0.8873913796
 40
1.0
 40
1.0
 40
1.0
 40
1.0
 10
81.4023472318
 20
207.9575420196
 30
0.0
 10
81.5424495881
 20
207.0228410285
 30
0.0
 10
81.4365827778
 20
205.096843398
 30
0.0
 10
80.4000963094
 20
202.9475911589
 30
0.0
 10
79.1262312788
 20
201.6622600867
 30
0.0
 10
78.0254728165
 20
200.9882518605
 30
0.0
 10
76.8286996635
 20
200.6350649122
 30
0.0
 10
76.0072304843
 20
200.6309720336
 30
0.0
 10
75.6114778377
 20
200.6863909884
 30
0.0
  0
SPLINE
  5
4B1
100
AcDbEntity
  8
0
100
AcDbSpline
 62
7
  6
CONTINUOUS
 70
0
 71
3
 72
11
 73
7
 74
0
 42
0.0000001
 43
0.0000001
 44
0.0000000001
 40
0.0
 40
0.0
 40
0.0
 40
0.0
 40
0.2685863187
 40
0.5241478096
 40
0.7663609521
 40
1.0
 40
1.0
 40
1.0
 40
1.0
 10
73.551107293
 20
205.8529741031
 30
0.0
 10
73.6022619981
 20
205.5116925226
 30
0.0
 10
73.789695825
 20
204.8545323513
 30
0.0
 10
74.3249894946
 20
204.0105361811
 30
0.0
 10
75.066279418
 20
203.4046595179
 30
0.0
 10
75.6609431555
 20
203.2039034382
 30
0.0
 10
75.9582269436
 20
203.1622194214
 30
0.0
  0
SPLINE
  5
4B2
100
AcDbEntity
  8
0
100
AcDbSpline
 62
7
  6
CONTINUOUS
 70
0
 71
3
 72
15
 73
11
 74
0
 42
0.0000001
 43
0.0000001
 44
0.0000000001
 40
0.0
 40
0.0
 40
0.0
 40
0.0
 40
0.1355589416
 40
0.2683335931
 40
0.3978337174
 40
0.523839062
 40
0.6464592006
 40
0.7661407765
 40
0.8836511463
 40
1.0
 40
1.0
 40
1.0
 40
1.0
 10
47.4004906305
 20
231.2026629925
 30
0.0
 10
47.6188070926
 20
229.7461520613
 30
0.0
 10
48.2417300988
 20
226.8874770928
 30
0.0
 10
49.737319236
 20
222.817658201
 30
0.0
 10
51.7531129864
 20
219.0942775442
 30
0.0
 10
54.2438278896
 20
215.8062488086
 30
0.0
 10
57.1528359092
 20
213.0321755331
 30
0.0
 10
60.4136097061
 20
210.8399945414
 30
0.0
 10
63.9476464516
 20
209.2851636
 30
0.0
 10
66.4371554673
 20
208.6983710291
 30
0.0
 10
67.6890102251
 20
208.523038233
 30
0.0
  0
SPLINE
  5
4B3
100
AcDbEntity
  8
0
100
AcDbSpline
 62
7
  6
CONTINUOUS
 70
0
 71
3
 72
9
 73
5
 74
0
 42
0.0000001
 43
0.0000001
 44
0.0000000001
 40
0.0
 40
0.0
 40
0.0
 40
0.0
 40
0.494585524
 40
1.0
 40
1.0
 40
1.0
 40
1.0
 10
100.822354647
 20
258.8584646475
 30
0.0
 10
101.6901689468
 20
256.991382042
 30
0.0
 10
103.1603570203
 20
253.0786819852
 30
0.0
 10
104.0587987693
 20
248.9984627439
 30
0.0
 10
104.3706813675
 20
246.9177199122
 30
0.0
  0
SPLINE
  5
4B4
100
AcDbEntity
  8
0
100
AcDbSpline
 62
7
  6
CONTINUOUS
 70
0
 71
3
 72
15
 73
11
 74
0
 42
0.0000001
 43
0.0000001
 44
0.0000000001
 40
0.0
 40
0.0
 40
0.0
 40
0.0
 40
0.1300482411
 40
0.2611913022
 40
0.3919362061
 40
0.5208213963
 40
0.6466182885
 40
0.7684962554
 40
0.8861669866
 40
1.0
 40
1.0
 40
1.0
 40
1.0
 10
104.3706813675
 20
246.9177199122
 30
0.0
 10
104.761966608
 20
244.3072377495
 30
0.0
 10
105.1003647942
 20
238.9872825538
 30
0.0
 10
104.2951633356
 20
231.039006884
 30
0.0
 10
102.2137927027
 20
223.3476554524
 30
0.0
 10
98.9319446252
 20
216.2049815169
 30
0.0
 10
94.5701351859
 20
209.8796813253
 30
0.0
 10
89.285381331
 20
204.6132646874
 30
0.0
 10
83.2754375838
 20
200.6125267477
 30
0.0
 10
78.8627779413
 20
198.8723793207
 30
0.0
 10
76.6310493883
 20
198.2741522462
 30
0.0
  0
SPLINE
  5
4B5
100
AcDbEntity
  8
0
100
AcDbSpline
 62
7
  6
CONTINUOUS
 70
0
 71
3
 72
10
 73
6
 74
0
 42
0.0000001
 43
0.0000001
 44
0.0000000001
 40
0.0
 40
0.0
 40
0.0
 40
0.0
 40
0.5153356293
 40
0.7619024795
 40
1.0
 40
1.0
 40
1.0
 40
1.0
 10
16.3374382268
 20
204.3019564907
 30
0.0
 10
16.4762141969
 20
203.3761045619
 30
0.0
 10
16.9144081157
 20
202.0214959733
 30
0.0
 10
17.9443476052
 20
200.5146732977
 30
0.0
 10
18.5833657621
 20
199.8971951747
 30
0.0
 10
18.9257327479
 20
199.632847531
 30
0.0
  0
SPLINE
  5
4B6
100
AcDbEntity
  8
0
100
AcDbSpline
 62
7
  6
CONTINUOUS
 70
0
 71
3
 72
9
 73
5
 74
0
 42
0.0000001
 43
0.0000001
 44
0.0000000001
 40
0.0
 40
0.0
 40
0.0
 40
0.0
 40
0.5049019063
 40
1.0
 40
1.0
 40
1.0
 40
1.0
 10
18.9508414161
 20
199.6135687524
 30
0.0
 10
19.3235876853
 20
199.3289677453
 30
0.0
 10
20.1335401465
 20
198.8521024565
 30
0.0
 10
21.0401122257
 20
198.59973206
 30
0.0
 10
21.4955368936
 20
198.5359540019
 30
0.0
  0
SPLINE
  5
4B7
100
AcDbEntity
  8
0
100
AcDbSpline
 62
7
  6
CONTINUOUS
 70
0
 71
3
 72
13
 73
9
 74
0
 42
0.0000001
 43
0.0000001
 44
0.0000000001
 40
0.0
 40
0.0
 40
0.0
 40
0.0
 40
0.1140514167
 40
0.2319544774
 40
0.4790598171
 40
0.6081950468
 40
0.7391933144
 40
1.0
 40
1.0
 40
1.0
 40
1.0
 10
12.6997433078
 20
271.5851834119
 30
0.0
 10
12.2890057907
 20
271.4750829685
 30
0.0
 10
11.4767181192
 20
271.1545624137
 30
0.0
 10
9.9809970069
 20
270.1598523523
 30
0.0
 10
8.7824613135
 20
268.6952759095
 30
0.0
 10
7.9917048931
 20
266.9703437458
 30
0.0
 10
7.4812505075
 20
265.0894808855
 30
0.0
 10
7.4501450098
 20
263.5940483309
 30
0.0
 10
7.5942895693
 20
262.632379547
 30
0.0
  0
SPLINE
  5
4B8
100
AcDbEntity
  8
0
100
AcDbSpline
 62
7
  6
CONTINUOUS
 70
0
 71
3
 72
11
 73
7
 74
0
 42
0.0000001
 43
0.0000001
 44
0.0000000001
 40
0.0
 40
0.0
 40
0.0
 40
0.0
 40
0.258636093
 40
0.5121610238
 40
0.7594576881
 40
1.0
 40
1.0
 40
1.0
 40
1.0
 10
34.2970405034
 20
229.238070337
 30
0.0
 10
34.6553043114
 20
227.0996188795
 30
0.0
 10
35.6615541673
 20
222.9079854801
 30
0.0
 10
38.0351231582
 20
216.9757064076
 30
0.0
 10
41.2003103169
 20
211.5990818547
 30
0.0
 10
43.8248464206
 20
208.4338377527
 30
0.0
 10
45.2405413335
 20
206.9977495039
 30
0.0
  0
SPLINE
  5
4B9
100
AcDbEntity
  8
0
100
AcDbSpline
 62
7
  6
CONTINUOUS
 70
0
 71
3
 72
12
 73
8
 74
0
 42
0.0000001
 43
0.0000001
 44
0.0000000001
 40
0.0
 40
0.0
 40
0.0
 40
0.0
 40
0.2441318602
 40
0.3688748474
 40
0.4947768566
 40
0.7479160527
 40
1.0
 40
1.0
 40
1.0
 40
1.0
 10
42.3469406485
 20
264.4946809304
 30
0.0
 10
40.563687627
 20
262.0615677144
 30
0.0
 10
38.2647219236
 20
258.0754796866
 30
0.0
 10
36.0388655044
 20
252.3742919867
 30
0.0
 10
34.3564748767
 20
246.3709229199
 30
0.0
 10
33.3632166999
 20
238.5850359578
 30
0.0
 10
33.7823633939
 20
232.3101417832
 30
0.0
 10
34.2970405034
 20
229.238070337
 30
0.0
  0
SPLINE
  5
4BA
100
AcDbEntity
  8
0
100
AcDbSpline
 62
7
  6
CONTINUOUS
 70
0
 71
3
 72
11
 73
7
 74
0
 42
0.0000001
 43
0.0000001
 44
0.0000000001
 40
0.0
 40
0.0
 40
0.0
 40
0.0
 40
0.2882613758
 40
0.5483792398
 40
0.7834223863
 40
1.0
 40
1.0
 40
1.0
 40
1.0
 10
27.2675389213
 20
274.289035581
 30
0.0
 10
27.6271024724
 20
275.4698061315
 30
0.0
 10
28.4552600081
 20
277.6773670735
 30
0.0
 10
30.135956748
 20
280.6012850428
 30
0.0
 10
32.1666302979
 20
282.9054864938
 30
0.0
 10
33.783209302
 20
284.0149517555
 30
0.0
 10
34.615112236
 20
284.4247527317
 30
0.0
  0
SPLINE
  5
4BB
100
AcDbEntity
  8
0
100
AcDbSpline
 62
7
  6
CONTINUOUS
 70
0
 71
3
 72
15
 73
11
 74
0
 42
0.0000001
 43
0.0000001
 44
0.0000000001
 40
0.0
 40
0.0
 40
0.0
 40
0.0
 40
0.1163535443
 40
0.2338624181
 40
0.3535439229
 40
0.4761635898
 40
0.6021688222
 40
0.7316674277
 40
0.8644435915
 40
1.0
 40
1.0
 40
1.0
 40
1.0
 10
67.3422606319
 20
206.0472033328
 30
0.0
 10
65.9842501918
 20
206.2373258382
 30
0.0
 10
63.283722328
 20
206.873895293
 30
0.0
 10
59.4501853626
 20
208.5605574745
 30
0.0
 10
55.9130983518
 20
210.938513033
 30
0.0
 10
52.7575828655
 20
213.9476911226
 30
0.0
 10
50.0558320162
 20
217.51436772
 30
0.0
 10
47.869193174
 20
221.5532827805
 30
0.0
 10
46.2469123443
 20
225.9679929727
 30
0.0
 10
45.571188428
 20
229.068913866
 30
0.0
 10
45.334374857
 20
230.6488293315
 30
0.0
  0
SPLINE
  5
4BC
100
AcDbEntity
  8
0
100
AcDbSpline
 62
7
  6
CONTINUOUS
 70
0
 71
3
 72
11
 73
7
 74
0
 42
0.0000001
 43
0.0000001
 44
0.0000000001
 40
0.0
 40
0.0
 40
0.0
 40
0.0
 40
0.2344249651
 40
0.4784322237
 40
0.7339769556
 40
1.0
 40
1.0
 40
1.0
 40
1.0
 10
26.4521970053
 20
210.3712244274
 30
0.0
 10
26.7959351586
 20
210.2389280559
 30
0.0
 10
27.4587507285
 20
209.856985829
 30
0.0
 10
28.261656347
 20
209.009873398
 30
0.0
 10
28.8416743881
 20
207.9421964503
 30
0.0
 10
29.053301262
 20
207.1417260424
 30
0.0
 10
29.1152577202
 20
206.7283799401
 30
0.0
  0
SPLINE
  5
4BD
100
AcDbEntity
  8
0
100
AcDbSpline
 62
7
  6
CONTINUOUS
 70
0
 71
3
 72
13
 73
9
 74
0
 42
0.0000001
 43
0.0000001
 44
0.0000000001
 40
0.0
 40
0.0
 40
0.0
 40
0.0
 40
0.2518507169
 40
0.5053906977
 40
0.6314851547
 40
0.7562618422
 40
0.8792313851
 40
1.0
 40
1.0
 40
1.0
 40
1.0
 10
45.334374857
 20
230.6488293315
 30
0.0
 10
44.9411854014
 20
233.2720155752
 30
0.0
 10
44.7267688487
 20
238.6368382938
 30
0.0
 10
45.8553396184
 20
245.2424401332
 30
0.0
 10
47.5650299254
 20
250.28132774
 30
0.0
 10
49.225517091
 20
253.8603105468
 30
0.0
 10
51.2396721498
 20
257.1868376894
 30
0.0
 10
52.8142450385
 20
259.2229500249
 30
0.0
 10
53.6509828578
 20
260.180909654
 30
0.0
  0
SPLINE
  5
4BE
100
AcDbEntity
  8
0
100
AcDbSpline
 62
7
  6
CONTINUOUS
 70
0
 71
3
 72
13
 73
9
 74
0
 42
0.0000001
 43
0.0000001
 44
0.0000000001
 40
0.0
 40
0.0
 40
0.0
 40
0.0
 40
0.1152188547
 40
0.2342166482
 40
0.357034554
 40
0.4832176241
 40
0.7412962888
 40
1.0
 40
1.0
 40
1.0
 40
1.0
 10
78.9415711248
 20
210.0367076492
 30
0.0
 10
80.3949425704
 20
210.643354839
 30
0.0
 10
83.2302737253
 20
212.1811606693
 30
0.0
 10
87.0282866944
 20
215.2858029021
 30
0.0
 10
90.3226361996
 20
219.1205946951
 30
0.0
 10
93.9245838452
 20
225.0734282839
 30
0.0
 10
96.6296669995
 20
233.5865518414
 30
0.0
 10
96.6850024854
 20
240.7760428145
 30
0.0
 10
96.1608228867
 20
244.273137391
 30
0.0
  0
SPLINE
  5
4BF
100
AcDbEntity
  8
0
100
AcDbSpline
 62
7
  6
CONTINUOUS
 70
0
 71
3
 72
9
 73
5
 74
0
 42
0.0000001
 43
0.0000001
 44
0.0000000001
 40
0.0
 40
0.0
 40
0.0
 40
0.0
 40
0.5097361383
 40
1.0
 40
1.0
 40
1.0
 40
1.0
 10
96.1608228867
 20
244.273137391
 30
0.0
 10
95.8032289475
 20
246.6588460837
 30
0.0
 10
94.5940583853
 20
251.2799893636
 30
0.0
 10
92.342339015
 20
255.5040383742
 30
0.0
 10
90.9948740348
 20
257.3928722716
 30
0.0
  0
SPLINE
  5
4C0
100
AcDbEntity
  8
0
100
AcDbSpline
 62
7
  6
CONTINUOUS
 70
0
 71
3
 72
11
 73
7
 74
0
 42
0.0000001
 43
0.0000001
 44
0.0000000001
 40
0.0
 40
0.0
 40
0.0
 40
0.0
 40
0.2336415731
 40
0.4758491086
 40
0.7314197845
 40
1.0
 40
1.0
 40
1.0
 40
1.0
 10
75.6114778377
 20
200.6863909884
 30
0.0
 10
75.1018271915
 20
200.7577595727
 30
0.0
 10
74.0824126497
 20
201.1020061366
 30
0.0
 10
72.811586619
 20
202.1406133865
 30
0.0
 10
71.8940416928
 20
203.5875454274
 30
0.0
 10
71.5726838302
 20
204.7140961074
 30
0.0
 10
71.4849915187
 20
205.299140447
 30
0.0
  0
SPLINE
  5
4C1
100
AcDbEntity
  8
0
100
AcDbSpline
 62
7
  6
CONTINUOUS
 70
0
 71
3
 72
11
 73
7
 74
0
 42
0.0000001
 43
0.0000001
 44
0.0000000001
 40
0.0
 40
0.0
 40
0.0
 40
0.0
 40
0.2616337704
 40
0.514400845
 40
0.759697946
 40
1.0
 40
1.0
 40
1.0
 40
1.0
 10
46.6189902588
 20
206.7805786838
 30
0.0
 10
46.7883696917
 20
206.4703189679
 30
0.0
 10
47.1785713636
 20
205.889151209
 30
0.0
 10
47.913270301
 20
205.1622040955
 30
0.0
 10
48.76180256
 20
204.6230056412
 30
0.0
 10
49.386721812
 20
204.4019164507
 30
0.0
 10
49.7033072874
 20
204.3299467999
 30
0.0
  0
SPLINE
  5
4C2
100
AcDbEntity
  8
0
100
AcDbSpline
 62
7
  6
CONTINUOUS
 70
0
 71
3
 72
12
 73
8
 74
0
 42
0.0000001
 43
0.0000001
 44
0.0000000001
 40
0.0
 40
0.0
 40
0.0
 40
0.0
 40
0.1166077285
 40
0.2343841738
 40
0.4763598884
 40
0.7316895257
 40
1.0
 40
1.0
 40
1.0
 40
1.0
 10
23.9427775198
 20
198.1932091515
 30
0.0
 10
23.6245177583
 20
198.2377785205
 30
0.0
 10
22.9915396862
 20
198.3871703831
 30
0.0
 10
21.7840670307
 20
198.9176042198
 30
0.0
 10
20.4413882651
 20
200.0112554858
 30
0.0
 10
19.2964588261
 20
201.8196900439
 30
0.0
 10
18.8942906895
 20
203.2279299105
 30
0.0
 10
18.7846788524
 20
203.9592116353
 30
0.0
  0
SPLINE
  5
4C3
100
AcDbEntity
  8
0
100
AcDbSpline
 62
7
  6
CONTINUOUS
 70
0
 71
3
 72
11
 73
7
 74
0
 42
0.0000001
 43
0.0000001
 44
0.0000000001
 40
0.0
 40
0.0
 40
0.0
 40
0.0
 40
0.2685847685
 40
0.5241532458
 40
0.766366416
 40
1.0
 40
1.0
 40
1.0
 40
1.0
 10
29.9310045954
 20
206.614131655
 30
0.0
 10
29.8579263742
 20
207.1016772435
 30
0.0
 10
29.590120454
 20
208.0404721158
 30
0.0
 10
28.8254903274
 20
209.2462647569
 30
0.0
 10
27.7664541865
 20
210.1117376705
 30
0.0
 10
26.9169638588
 20
210.3986408636
 30
0.0
 10
26.492271609
 20
210.4581300145
 30
0.0
  0
SPLINE
  5
4C4
100
AcDbEntity
  8
0
100
AcDbSpline
 62
7
  6
CONTINUOUS
 70
0
 71
3
 72
11
 73
7
 74
0
 42
0.0000001
 43
0.0000001
 44
0.0000000001
 40
0.0
 40
0.0
 40
0.0
 40
0.0
 40
0.2634939565
 40
0.5185233762
 40
0.7638353662
 40
1.0
 40
1.0
 40
1.0
 40
1.0
 10
44.2467123567
 20
230.8011603784
 30
0.0
 10
44.5849283026
 20
228.5447330906
 30
0.0
 10
45.6711984437
 20
224.1537301737
 30
0.0
 10
48.5298333244
 20
218.1374606527
 30
0.0
 10
52.4693691276
 20
213.0567202667
 30
0.0
 10
55.7608524692
 20
210.4183218662
 30
0.0
 10
57.5065918944
 20
209.3532589923
 30
0.0
  0
SPLINE
  5
4C5
100
AcDbEntity
  8
0
100
AcDbSpline
 62
7
  6
CONTINUOUS
 70
0
 71
3
 72
12
 73
8
 74
0
 42
0.0000001
 43
0.0000001
 44
0.0000000001
 40
0.0
 40
0.0
 40
0.0
 40
0.0
 40
0.2433823
 40
0.3681998329
 40
0.4943467728
 40
0.7480158696
 40
1.0
 40
1.0
 40
1.0
 40
1.0
 10
52.6220837957
 20
260.4003334471
 30
0.0
 10
50.9262230143
 20
258.4699697633
 30
0.0
 10
48.7058805429
 20
255.2252071867
 30
0.0
 10
46.4991168294
 20
250.4885347053
 30
0.0
 10
44.7767606494
 20
245.4367212308
 30
0.0
 10
43.6391069375
 20
238.8130799174
 30
0.0
 10
43.8523656757
 20
233.4320671183
 30
0.0
 10
44.2467123567
 20
230.8011603784
 30
0.0
  0
SPLINE
  5
4C6
100
AcDbEntity
  8
0
100
AcDbSpline
 62
7
  6
CONTINUOUS
 70
0
 71
3
 72
12
 73
8
 74
0
 42
0.0000001
 43
0.0000001
 44
0.0000000001
 40
0.0
 40
0.0
 40
0.0
 40
0.0
 40
0.1141465032
 40
0.2321738583
 40
0.4794960043
 40
0.7389461754
 40
1.0
 40
1.0
 40
1.0
 40
1.0
 10
17.7842201122
 20
258.9760188013
 30
0.0
 10
18.0580236525
 20
259.0494133414
 30
0.0
 10
18.5995130785
 20
259.2630975105
 30
0.0
 10
19.596928159
 20
259.9264319899
 30
0.0
 10
20.6044027375
 20
261.1578275604
 30
0.0
 10
21.2564733827
 20
262.9832477821
 30
0.0
 10
21.2839557095
 20
264.303419514
 30
0.0
 10
21.1878559383
 20
264.9445547088
 30
0.0
  0
SPLINE
  5
4C7
100
AcDbEntity
  8
0
100
AcDbSpline
 62
7
  6
CONTINUOUS
 70
0
 71
3
 72
9
 73
5
 74
0
 42
0.0000001
 43
0.0000001
 44
0.0000000001
 40
0.0
 40
0.0
 40
0.0
 40
0.0
 40
0.5018823071
 40
1.0
 40
1.0
 40
1.0
 40
1.0
 10
27.5329678987
 20
274.2296557592
 30
0.0
 10
27.924241767
 20
271.6011690507
 30
0.0
 10
27.7896779634
 20
266.1951847838
 30
0.0
 10
25.8952422563
 20
261.1253426637
 30
0.0
 10
24.546782398
 20
258.85859468
 30
0.0
  0
SPLINE
  5
4C8
100
AcDbEntity
  8
0
100
AcDbSpline
 62
7
  6
CONTINUOUS
 70
0
 71
3
 72
9
 73
5
 74
0
 42
0.0000001
 43
0.0000001
 44
0.0000000001
 40
0.0
 40
0.0
 40
0.0
 40
0.0
 40
0.4981323441
 40
1.0
 40
1.0
 40
1.0
 40
1.0
 10
24.546782398
 20
258.85859468
 30
0.0
 10
22.3861116192
 20
255.2265279949
 30
0.0
 10
19.3523808667
 20
247.1020340135
 30
0.0
 10
19.1431479154
 20
238.4394173496
 30
0.0
 10
19.7743061007
 20
234.2286089324
 30
0.0
  0
SPLINE
  5
4C9
100
AcDbEntity
  8
0
100
AcDbSpline
 62
7
  6
CONTINUOUS
 70
0
 71
3
 72
15
 73
11
 74
0
 42
0.0000001
 43
0.0000001
 44
0.0000000001
 40
0.0
 40
0.0
 40
0.0
 40
0.0
 40
0.1355564044
 40
0.268332564
 40
0.3978311682
 40
0.5238364
 40
0.6464560677
 40
0.7661375745
 40
0.8836464508
 40
1.0
 40
1.0
 40
1.0
 40
1.0
 10
19.7743061007
 20
234.2286089324
 30
0.0
 10
20.0111196646
 20
232.6486935138
 30
0.0
 10
20.6868435441
 20
229.547772713
 30
0.0
 10
22.3091243187
 20
225.1330626234
 30
0.0
 10
24.4957630722
 20
221.094147599
 30
0.0
 10
27.1975138783
 20
217.5274709862
 30
0.0
 10
30.3530293408
 20
214.5182928347
 30
0.0
 10
33.8901163812
 20
212.1403372059
 30
0.0
 10
37.7236534283
 20
210.4536749364
 30
0.0
 10
40.4241813772
 20
209.817105439
 30
0.0
 10
41.7821918766
 20
209.6269829403
 30
0.0
  0
SPLINE
  5
4CA
100
AcDbEntity
  8
0
100
AcDbSpline
 62
7
  6
CONTINUOUS
 70
0
 71
3
 72
12
 73
8
 74
0
 42
0.0000001
 43
0.0000001
 44
0.0000000001
 40
0.0
 40
0.0
 40
0.0
 40
0.0
 40
0.2507131045
 40
0.5033755926
 40
0.6293954476
 40
0.7544958683
 40
1.0
 40
1.0
 40
1.0
 40
1.0
 10
37.0153071492
 20
228.862742565
 30
0.0
 10
36.5677538941
 20
231.8486200486
 30
0.0
 10
36.2542112129
 20
237.9449940512
 30
0.0
 10
37.288890061
 20
245.4995338996
 30
0.0
 10
38.949134413
 20
251.3437305512
 30
0.0
 10
41.1233103042
 20
256.921548992
 30
0.0
 10
43.3436385863
 20
260.8375148417
 30
0.0
 10
45.0599683982
 20
263.2448215071
 30
0.0
  0
SPLINE
  5
4CB
100
AcDbEntity
  8
0
100
AcDbSpline
 62
7
  6
CONTINUOUS
 70
0
 71
3
 72
11
 73
7
 74
0
 42
0.0000001
 43
0.0000001
 44
0.0000000001
 40
0.0
 40
0.0
 40
0.0
 40
0.0
 40
0.2398875673
 40
0.4868618074
 40
0.740567957
 40
1.0
 40
1.0
 40
1.0
 40
1.0
 10
47.5253368006
 20
206.6777288404
 30
0.0
 10
46.140303291
 20
208.1101071893
 30
0.0
 10
43.5799643569
 20
211.2693035534
 30
0.0
 10
40.5216872969
 20
216.6343983589
 30
0.0
 10
38.2619487771
 20
222.5541865997
 30
0.0
 10
37.3347260485
 20
226.7317208639
 30
0.0
 10
37.0153071492
 20
228.862742565
 30
0.0
  0
SPLINE
  5
4CC
100
AcDbEntity
  8
0
100
AcDbSpline
 62
7
  6
CONTINUOUS
 70
0
 71
3
 72
9
 73
5
 74
0
 42
0.0000001
 43
0.0000001
 44
0.0000000001
 40
0.0
 40
0.0
 40
0.0
 40
0.0
 40
0.2523018
 40
1.0
 40
1.0
 40
1.0
 40
1.0
 10
19.857800522
 20
261.6418883162
 30
0.0
 10
19.8244339117
 20
261.5725282023
 30
0.0
 10
19.6865732966
 20
261.3003625094
 30
0.0
 10
19.5262666639
 20
261.0394984611
 30
0.0
 10
19.394424268
 20
260.8533647933
 30
0.0
  0
SPLINE
  5
4CD
100
AcDbEntity
  8
0
100
AcDbSpline
 62
7
  6
CONTINUOUS
 70
0
 71
3
 72
9
 73
5
 74
0
 42
0.0000001
 43
0.0000001
 44
0.0000000001
 40
0.0
 40
0.0
 40
0.0
 40
0.0
 40
0.5148991544
 40
1.0
 40
1.0
 40
1.0
 40
1.0
 10
19.394424268
 20
260.8533647933
 30
0.0
 10
19.0924081301
 20
260.4269816781
 30
0.0
 10
18.3771837244
 20
259.6796023304
 30
0.0
 10
17.4439577586
 20
259.2177233194
 30
0.0
 10
16.968473237
 20
259.0902670864
 30
0.0
  0
SPLINE
  5
4CE
100
AcDbEntity
  8
0
100
AcDbSpline
 62
7
  6
CONTINUOUS
 70
0
 71
3
 72
13
 73
9
 74
0
 42
0.0000001
 43
0.0000001
 44
0.0000000001
 40
0.0
 40
0.0
 40
0.0
 40
0.0
 40
0.2608067127
 40
0.3918049855
 40
0.5209402171
 40
0.7680455474
 40
0.885948595
 40
1.0
 40
1.0
 40
1.0
 40
1.0
 10
10.0415301949
 20
262.2896346916
 30
0.0
 10
9.8973856204
 20
263.2513035753
 30
0.0
 10
9.9284911437
 20
264.7467362611
 30
0.0
 10
10.4389456442
 20
266.6275992222
 30
0.0
 10
11.2297021257
 20
268.3525313494
 30
0.0
 10
12.4282378406
 20
269.8171076691
 30
0.0
 10
13.9239588671
 20
270.8118176251
 30
0.0
 10
14.7362464588
 20
271.1323381245
 30
0.0
 10
15.1469839333
 20
271.2424385565
 30
0.0
  0
SPLINE
  5
4CF
100
AcDbEntity
  8
0
100
AcDbSpline
 62
7
  6
CONTINUOUS
 70
0
 71
3
 72
14
 73
10
 74
0
 42
0.0000001
 43
0.0000001
 44
0.0000000001
 40
0.0
 40
0.0
 40
0.0
 40
0.0
 40
0.1124445437
 40
0.2274830372
 40
0.3469930647
 40
0.4717110303
 40
0.601197547
 40
0.7340251568
 40
1.0
 40
1.0
 40
1.0
 40
1.0
 10
75.9582269436
 20
203.1622194214
 30
0.0
 10
76.1890676476
 20
203.1298518045
 30
0.0
 10
76.6682377342
 20
203.1323008388
 30
0.0
 10
77.3663396851
 20
203.3383029984
 30
0.0
 10
78.0083293584
 20
203.7313718908
 30
0.0
 10
78.5584669222
 20
204.2863709126
 30
0.0
 10
78.9879158505
 20
204.9717953598
 30
0.0
 10
79.3694893985
 20
206.0036932632
 30
0.0
 10
79.4179631464
 20
206.8584306635
 30
0.0
 10
79.336231459
 20
207.4037083537
 30
0.0
  0
SPLINE
  5
4D0
100
AcDbEntity
  8
0
100
AcDbSpline
 62
7
  6
CONTINUOUS
 70
0
 71
3
 72
10
 73
6
 74
0
 42
0.0000001
 43
0.0000001
 44
0.0000000001
 40
0.0
 40
0.0
 40
0.0
 40
0.0
 40
0.4867889011
 40
0.7418713421
 40
1.0
 40
1.0
 40
1.0
 40
1.0
 10
-14.3691929974
 20
271.8474611557
 30
0.0
 10
-17.9624239276
 20
270.0074436631
 30
0.0
 10
-22.9764096136
 20
266.218913855
 30
0.0
 10
-28.3902118423
 20
259.9200593475
 30
0.0
 10
-30.697465794
 20
256.321428669
 30
0.0
 10
-31.7246436481
 20
254.4433022019
 30
0.0
  0
SPLINE
  5
4D1
100
AcDbEntity
  8
0
100
AcDbSpline
 62
7
  6
CONTINUOUS
 70
0
 71
3
 72
17
 73
13
 74
0
 42
0.0000001
 43
0.0000001
 44
0.0000000001
 40
0.0
 40
0.0
 40
0.0
 40
0.0
 40
0.1179824722
 40
0.260576598
 40
0.4170373008
 40
0.5742978923
 40
0.719183279
 40
0.8405142201
 40
0.8902234175
 40
0.9324220067
 40
0.9681667655
 40
1.0
 40
1.0
 40
1.0
 40
1.0
 10
-31.5542022013
 20
226.6292638013
 30
0.0
 10
-31.3740221596
 20
226.5251951554
 30
0.0
 10
-30.9407797932
 20
226.3579050238
 30
0.0
 10
-30.2181767066
 20
226.2116762266
 30
0.0
 10
-29.4129897828
 20
226.1570617729
 30
0.0
 10
-28.6031479898
 20
226.2000960148
 30
0.0
 10
-27.8669375866
 20
226.3363118596
 30
0.0
 10
-27.337771934
 20
226.5259725972
 30
0.0
 10
-27.0161123848
 20
226.723611838
 30
0.0
 10
-26.8477311699
 20
226.8756354485
 30
0.0
 10
-26.7401988962
 20
227.0401512143
 30
0.0
 10
-26.7141732724
 20
227.1601861493
 30
0.0
 10
-26.7141404539
 20
227.2163274835
 30
0.0
  0
SPLINE
  5
4D2
100
AcDbEntity
  8
0
100
AcDbSpline
 62
7
  6
CONTINUOUS
 70
0
 71
3
 72
17
 73
13
 74
0
 42
0.0000001
 43
0.0000001
 44
0.0000000001
 40
0.0
 40
0.0
 40
0.0
 40
0.0
 40
0.1179824722
 40
0.260576598
 40
0.4170373008
 40
0.5742978923
 40
0.719183279
 40
0.8405142201
 40
0.8902234175
 40
0.9324220067
 40
0.9681667655
 40
1.0
 40
1.0
 40
1.0
 40
1.0
 10
-5.0924718483
 20
211.345459789
 30
0.0
 10
-4.9122918065
 20
211.2413911431
 30
0.0
 10
-4.4790494402
 20
211.0741010115
 30
0.0
 10
-3.7564463536
 20
210.9278722142
 30
0.0
 10
-2.9512594298
 20
210.8732577605
 30
0.0
 10
-2.1414176367
 20
210.9162920025
 30
0.0
 10
-1.4052072336
 20
211.0525078472
 30
0.0
 10
-0.876041581
 20
211.2421685849
 30
0.0
 10
-0.5543820318
 20
211.4398078256
 30
0.0
 10
-0.3860008169
 20
211.5918314362
 30
0.0
 10
-0.2784685431
 20
211.7563472019
 30
0.0
 10
-0.2524429193
 20
211.876382137
 30
0.0
 10
-0.2524101009
 20
211.9325234712
 30
0.0
  0
SPLINE
  5
4D3
100
AcDbEntity
  8
0
100
AcDbSpline
 62
7
  6
CONTINUOUS
 70
0
 71
3
 72
11
 73
7
 74
0
 42
0.0000001
 43
0.0000001
 44
0.0000000001
 40
0.0
 40
0.0
 40
0.0
 40
0.0
 40
0.2032237194
 40
0.4289289409
 40
0.6925283262
 40
1.0
 40
1.0
 40
1.0
 40
1.0
 10
-5.5523681558
 20
211.932523468
 30
0.0
 10
-5.5523989541
 20
211.8798377991
 30
0.0
 10
-5.5297413297
 20
211.7678613951
 30
0.0
 10
-5.4349183047
 20
211.6123895755
 30
0.0
 10
-5.2852924909
 20
211.4677565597
 30
0.0
 10
-5.161497489
 20
211.3853277171
 30
0.0
 10
-5.0924718483
 20
211.345459789
 30
0.0
  0
SPLINE
  5
4D4
100
AcDbEntity
  8
0
100
AcDbSpline
 62
7
  6
CONTINUOUS
 70
0
 71
3
 72
11
 73
7
 74
0
 42
0.0000001
 43
0.0000001
 44
0.0000000001
 40
0.0
 40
0.0
 40
0.0
 40
0.0
 40
0.2032237194
 40
0.4289289409
 40
0.6925283262
 40
1.0
 40
1.0
 40
1.0
 40
1.0
 10
-32.0140985088
 20
227.2163274804
 30
0.0
 10
-32.0141293071
 20
227.1636418114
 30
0.0
 10
-31.9914716827
 20
227.0516654074
 30
0.0
 10
-31.8966486578
 20
226.8961935879
 30
0.0
 10
-31.7470228439
 20
226.7515605721
 30
0.0
 10
-31.623227842
 20
226.6691317295
 30
0.0
 10
-31.5542022013
 20
226.6292638013
 30
0.0
  0
SPLINE
  5
4D5
100
AcDbEntity
  8
0
100
AcDbSpline
 62
7
  6
CONTINUOUS
 70
0
 71
3
 72
11
 73
7
 74
0
 42
0.0000001
 43
0.0000001
 44
0.0000000001
 40
0.0
 40
0.0
 40
0.0
 40
0.0
 40
0.2032665715
 40
0.4289015617
 40
0.692283341
 40
1.0
 40
1.0
 40
1.0
 40
1.0
 10
-39.2814151664
 20
222.5872858693
 30
0.0
 10
-39.2813920692
 20
222.4878567135
 30
0.0
 10
-39.2388019614
 20
222.2765749695
 30
0.0
 10
-39.0598237716
 20
221.9833887419
 30
0.0
 10
-38.7777426047
 20
221.71030718
 30
0.0
 10
-38.5440409748
 20
221.5549019064
 30
0.0
 10
-38.4136984986
 20
221.4796185129
 30
0.0
  0
SPLINE
  5
4D6
100
AcDbEntity
  8
0
100
AcDbSpline
 62
7
  6
CONTINUOUS
 70
0
 71
3
 72
13
 73
9
 74
0
 42
0.0000001
 43
0.0000001
 44
0.0000000001
 40
0.0
 40
0.0
 40
0.0
 40
0.0
 40
0.083672979
 40
0.1736474593
 40
0.2747441703
 40
0.3898444162
 40
0.6656232473
 40
1.0
 40
1.0
 40
1.0
 40
1.0
 10
-39.2814151664
 20
229.7070593396
 30
0.0
 10
-39.2814338641
 20
229.787549858
 30
0.0
 10
-39.2544208319
 20
229.9555302458
 30
0.0
 10
-39.1375790503
 20
230.1958375034
 30
0.0
 10
-38.9496108043
 20
230.4252925888
 30
0.0
 10
-38.5873630442
 20
230.7327923576
 30
0.0
 10
-37.9659177116
 20
231.0642776793
 30
0.0
 10
-37.407235036
 20
231.2497136403
 30
0.0
 10
-37.0965446486
 20
231.3329959021
 30
0.0
  0
SPLINE
  5
4D7
100
AcDbEntity
  8
0
100
AcDbSpline
 62
7
  6
CONTINUOUS
 70
0
 71
3
 72
13
 73
9
 74
0
 42
0.0000001
 43
0.0000001
 44
0.0000000001
 40
0.0
 40
0.0
 40
0.0
 40
0.0
 40
0.1140354166
 40
0.2319219367
 40
0.3540191309
 40
0.4800422958
 40
0.7392299027
 40
1.0
 40
1.0
 40
1.0
 40
1.0
 10
10.1601204463
 20
274.3202797995
 30
0.0
 10
9.6124704236
 20
274.1734792084
 30
0.0
 10
8.5296011238
 20
273.7464299962
 30
0.0
 10
7.0547885633
 20
272.7647295941
 30
0.0
 10
5.7577915455
 20
271.472094316
 30
0.0
 10
4.3190274342
 20
269.3859319931
 30
0.0
 10
3.2137223835
 20
266.3037799613
 30
0.0
 10
3.1606560492
 20
263.665433025
 30
0.0
 10
3.3528487952
 20
262.3832079797
 30
0.0
  0
SPLINE
  5
4D8
100
AcDbEntity
  8
0
100
AcDbSpline
 62
7
  6
CONTINUOUS
 70
0
 71
3
 72
12
 73
8
 74
0
 42
0.0000001
 43
0.0000001
 44
0.0000000001
 40
0.0
 40
0.0
 40
0.0
 40
0.0
 40
0.1142372862
 40
0.2323070729
 40
0.4796608302
 40
0.7390117088
 40
1.0
 40
1.0
 40
1.0
 40
1.0
 10
12.6115915233
 20
271.8141050364
 30
0.0
 10
12.1913710154
 20
271.6972773623
 30
0.0
 10
11.3611801385
 20
271.3620816177
 30
0.0
 10
9.8333362603
 20
270.3331862583
 30
0.0
 10
8.2900435003
 20
268.4370850536
 30
0.0
 10
7.2869456216
 20
265.6322255053
 30
0.0
 10
7.238585049
 20
263.6041273461
 30
0.0
 10
7.3816318682
 20
262.6179945438
 30
0.0
  0
SPLINE
  5
4D9
100
AcDbEntity
  8
0
100
AcDbSpline
 62
7
  6
CONTINUOUS
 70
0
 71
3
 72
10
 73
6
 74
0
 42
0.0000001
 43
0.0000001
 44
0.0000000001
 40
0.0
 40
0.0
 40
0.0
 40
0.0
 40
0.515408323
 40
0.7619545271
 40
1.0
 40
1.0
 40
1.0
 40
1.0
 10
16.1308266494
 20
204.2465731246
 30
0.0
 10
16.2748640444
 20
203.2856192953
 30
0.0
 10
16.7307898869
 20
201.8797022512
 30
0.0
 10
17.8031745939
 20
200.3182765355
 30
0.0
 10
18.4684544471
 20
199.6797490065
 30
0.0
 10
18.8247758784
 20
199.4069110531
 30
0.0
  0
SPLINE
  5
4DA
100
AcDbEntity
  8
0
100
AcDbSpline
 62
7
  6
CONTINUOUS
 70
0
 71
3
 72
9
 73
5
 74
0
 42
0.0000001
 43
0.0000001
 44
0.0000000001
 40
0.0
 40
0.0
 40
0.0
 40
0.0
 40
0.489337343
 40
1.0
 40
1.0
 40
1.0
 40
1.0
 10
-5.442991785
 20
274.8440884761
 30
0.0
 10
-6.9635123812
 20
274.5967922061
 30
0.0
 10
-10.0310215269
 20
273.8208356822
 30
0.0
 10
-12.9382623219
 20
272.5802131569
 30
0.0
 10
-14.3691929974
 20
271.8474611557
 30
0.0
  0
SPLINE
  5
4DB
100
AcDbEntity
  8
0
100
AcDbSpline
 62
7
  6
CONTINUOUS
 70
0
 71
3
 72
11
 73
7
 74
0
 42
0.0000001
 43
0.0000001
 44
0.0000000001
 40
0.0
 40
0.0
 40
0.0
 40
0.0
 40
0.2032237194
 40
0.4289289409
 40
0.6925283262
 40
1.0
 40
1.0
 40
1.0
 40
1.0
 10
-0.2524101009
 20
211.9325234712
 30
0.0
 10
-0.2523793026
 20
211.9852091401
 30
0.0
 10
-0.275036927
 20
212.0971855441
 30
0.0
 10
-0.369859952
 20
212.2526573637
 30
0.0
 10
-0.5194857658
 20
212.3972903795
 30
0.0
 10
-0.6432807677
 20
212.4797192221
 30
0.0
 10
-0.7123064084
 20
212.5195871502
 30
0.0
  0
SPLINE
  5
4DC
100
AcDbEntity
  8
0
100
AcDbSpline
 62
7
  6
CONTINUOUS
 70
0
 71
3
 72
11
 73
7
 74
0
 42
0.0000001
 43
0.0000001
 44
0.0000000001
 40
0.0
 40
0.0
 40
0.0
 40
0.0
 40
0.2032237194
 40
0.4289289409
 40
0.6925283262
 40
1.0
 40
1.0
 40
1.0
 40
1.0
 10
-26.7141404539
 20
227.2163274835
 30
0.0
 10
-26.7141096556
 20
227.2690131525
 30
0.0
 10
-26.73676728
 20
227.3809895565
 30
0.0
 10
-26.831590305
 20
227.536461376
 30
0.0
 10
-26.9812161189
 20
227.6810943918
 30
0.0
 10
-27.1050111207
 20
227.7635232344
 30
0.0
 10
-27.1740367614
 20
227.8033911626
 30
0.0
  0
SPLINE
  5
4DD
100
AcDbEntity
  8
0
100
AcDbSpline
 62
7
  6
CONTINUOUS
 70
0
 71
3
 72
17
 73
13
 74
0
 42
0.0000001
 43
0.0000001
 44
0.0000000001
 40
0.0
 40
0.0
 40
0.0
 40
0.0
 40
0.1179824722
 40
0.260576598
 40
0.4170373008
 40
0.5742978923
 40
0.719183279
 40
0.8405142201
 40
0.8902234175
 40
0.9324220067
 40
0.9681667655
 40
1.0
 40
1.0
 40
1.0
 40
1.0
 10
-27.1740367614
 20
227.8033911626
 30
0.0
 10
-27.3542168032
 20
227.9074598084
 30
0.0
 10
-27.7874591695
 20
228.0747499401
 30
0.0
 10
-28.5100622562
 20
228.2209787373
 30
0.0
 10
-29.3152491799
 20
228.275593191
 30
0.0
 10
-30.125090973
 20
228.2325589491
 30
0.0
 10
-30.8613013761
 20
228.0963431043
 30
0.0
 10
-31.3904670287
 20
227.9066823667
 30
0.0
 10
-31.712126578
 20
227.7090431259
 30
0.0
 10
-31.8805077928
 20
227.5570195154
 30
0.0
 10
-31.9880400666
 20
227.3925037496
 30
0.0
 10
-32.0140656904
 20
227.2724688146
 30
0.0
 10
-32.0140985088
 20
227.2163274804
 30
0.0
  0
SPLINE
  5
4DE
100
AcDbEntity
  8
0
100
AcDbSpline
 62
7
  6
CONTINUOUS
 70
0
 71
3
 72
17
 73
13
 74
0
 42
0.0000001
 43
0.0000001
 44
0.0000000001
 40
0.0
 40
0.0
 40
0.0
 40
0.0
 40
0.1179824722
 40
0.260576598
 40
0.4170373008
 40
0.5742978923
 40
0.719183279
 40
0.8405142201
 40
0.8902234175
 40
0.9324220067
 40
0.9681667655
 40
1.0
 40
1.0
 40
1.0
 40
1.0
 10
-0.7123064084
 20
212.5195871502
 30
0.0
 10
-0.8924864502
 20
212.6236557961
 30
0.0
 10
-1.3257288165
 20
212.7909459277
 30
0.0
 10
-2.0483319032
 20
212.937174725
 30
0.0
 10
-2.8535188269
 20
212.9917891787
 30
0.0
 10
-3.66336062
 20
212.9487549367
 30
0.0
 10
-4.3995710231
 20
212.812539092
 30
0.0
 10
-4.9287366757
 20
212.6228783543
 30
0.0
 10
-5.2503962249
 20
212.4252391136
 30
0.0
 10
-5.4187774398
 20
212.273215503
 30
0.0
 10
-5.5263097136
 20
212.1086997373
 30
0.0
 10
-5.5523353374
 20
211.9886648022
 30
0.0
 10
-5.5523681558
 20
211.932523468
 30
0.0
  0
SPLINE
  5
4DF
100
AcDbEntity
  8
0
100
AcDbSpline
 62
7
  6
CONTINUOUS
 70
0
 71
3
 72
11
 73
7
 74
0
 42
0.0000001
 43
0.0000001
 44
0.0000000001
 40
0.0
 40
0.0
 40
0.0
 40
0.0
 40
0.307716659
 40
0.5710984383
 40
0.7967334285
 40
1.0
 40
1.0
 40
1.0
 40
1.0
 10
-38.4136984986
 20
228.5993919831
 30
0.0
 10
-38.5440409748
 20
228.6746753767
 30
0.0
 10
-38.7777426047
 20
228.8300806503
 30
0.0
 10
-39.0598237716
 20
229.1031622121
 30
0.0
 10
-39.2388019614
 20
229.3963484398
 30
0.0
 10
-39.2813920692
 20
229.6076301837
 30
0.0
 10
-39.2814151664
 20
229.7070593396
 30
0.0
  0
SPLINE
  5
4E0
100
AcDbEntity
  8
0
100
AcDbSpline
 62
7
  6
CONTINUOUS
 70
0
 71
3
 72
13
 73
9
 74
0
 42
0.0000001
 43
0.0000001
 44
0.0000000001
 40
0.0
 40
0.0
 40
0.0
 40
0.0
 40
0.2607701243
 40
0.5199577384
 40
0.6459808999
 40
0.7680780881
 40
0.8859645952
 40
1.0
 40
1.0
 40
1.0
 40
1.0
 10
5.5281737957
 20
262.078545886
 30
0.0
 10
5.3359810298
 20
263.3607710643
 30
0.0
 10
5.3890474128
 20
265.9991181862
 30
0.0
 10
6.4943526437
 20
269.0812703197
 30
0.0
 10
7.9331168308
 20
271.1674325776
 30
0.0
 10
9.2301138369
 20
272.4600677063
 30
0.0
 10
10.7049262869
 20
273.4417679921
 30
0.0
 10
11.7877954808
 20
273.8688171298
 30
0.0
 10
12.3354454468
 20
274.0156177058
 30
0.0
  0
ELLIPSE
  5
4E1
100
AcDbEntity
  8
0
100
AcDbEllipse
 62
7
  6
CONTINUOUS
 10
23.3372408411
 20
205.8512107759
 30
0.0
 11
3.5632876605
 21
7.0844674323
 31
0.0
 40
0.7512579716
 41
2.9498023987
 42
3.626540475
  0
ENDSEC
  0
SECTION
  2
OBJECTS
  0
DICTIONARY
  5
C
100
AcDbDictionary
280
0
281
1
  3
ACAD_GROUP
350
D
  3
ACAD_MLINESTYLE
350
17
  3
ACAD_LAYOUT
350
1A
  3
ACAD_PLOTSETTINGS
350
19
  3
ACAD_PLOTSTYLENAME
350
E
  0
DICTIONARY
  5
D
102
{ACAD_REACTORS
330
C
102
}
100
AcDbDictionary
280
0
281
1
  0
ACDBDICTIONARYWDFLT
  5
E
102
{ACAD_REACTORS
330
C
102
}
100
AcDbDictionary
281
1
  3
Normal
350
F
100
AcDbDictionaryWithDefault
340
F
  0
DICTIONARY
  5
17
102
{ACAD_REACTORS
330
C
102
}
100
AcDbDictionary
280
0
281
1
  3
Standard
350
18
  0
DICTIONARY
  5
19
102
{ACAD_REACTORS
330
C
102
}
100
AcDbDictionary
281
1
  0
DICTIONARY
  5
1A
102
{ACAD_REACTORS
330
C
102
}
100
AcDbDictionary
281
1
  3
Model
350
4E2
  3
Layout1
350
4E3
  0
ACDBPLACEHOLDER
  5
F
102
{ACAD_REACTORS
330
E
102
}
  0
MLINESTYLE
  5
18
102
{ACAD_REACTORS
330
17
102
}
100
AcDbMlineStyle
  2
STANDARD
 70
0
  3

 62
256
 51
90.0
 52
90.0
 71
2
 49
0.5
 62
256
  6
BYLAYER
 49
-0.5
 62
256
  6
BYLAYER
  0
LAYOUT
  5
4E2
102
{ACAD_REACTORS
330
1A
102
}
100
AcDbPlotSettings
  1

  2
none_device
  4
ANSI_C_(22.00_x_17.00_Inches)
  6

 40
0.0
 41
0.0
 42
0.0
 43
0.0
 44
558.8
 45
431.8
 46
0.0
 47
0.0
 48
0.0
 49
0.0
140
0.0
141
0.0
142
1.0
143
1.0
 70
1024
 72
1
 73
0
 74
0
  7

 75
0
147
1.0
148
0.0
149
0.0
100
AcDbLayout
  1
Model
 70
0
 71
0
 10
0.0
 20
0.0
 11
558.8
 21
431.8
 12
0.0
 22
0.0
 32
0.0
 14
0.0
 24
0.0
 34
0.0
 15
0.0
 25
0.0
 35
0.0
146
0.0
 13
0.0
 23
0.0
 33
0.0
 16
1.0
 26
0.0
 36
0.0
 17
0.0
 27
1.0
 37
0.0
 76
0
330
216
345
0
346
0
  0
LAYOUT
  5
4E3
102
{ACAD_REACTORS
330
1A
102
}
100
AcDbPlotSettings
  1

  2
none_device
  4
ANSI_C_(22.00_x_17.00_Inches)
  6

 40
0.0
 41
0.0
 42
0.0
 43
0.0
 44
558.8
 45
431.8
 46
0.0
 47
0.0
 48
0.0
 49
0.0
140
0.0
141
0.0
142
1.0
143
1.0
 70
0
 72
1
 73
0
 74
0
  7

 75
0
147
1.0
148
0.0
149
0.0
100
AcDbLayout
  1
Layout1
 70
0
 71
1
 10
0.0
 20
0.0
 11
558.8
 21
431.8
 12
0.0
 22
0.0
 32
0.0
 14
0.0
 24
0.0
 34
0.0
 15
0.0
 25
0.0
 35
0.0
146
0.0
 13
0.0
 23
0.0
 33
0.0
 16
1.0
 26
0.0
 36
0.0
 17
0.0
 27
1.0
 37
0.0
 76
0
330
217
345
0
346
0
  0
ENDSEC
  0
EOF
