999
DXF file: Y:\3D PRATIKA-KAEDRA_OLGA\TRAVAIL_PHASE_6\CAD3D\PKF32W735_3D-Simplified\PKF32W735_2D-isometric.dxf
999
Pro/ENGINEER 2018260 by Parametric Technology Corporation
  0
SECTION
  2
HEADER
  9
$ACADVER
  1
AC1027
  9
$DWGCODEPAGE
  3
ANSI_1252
  9
$EXTMAX
 10
558.8
 20
431.8
 30
0.0
  9
$EXTMIN
 10
0.0
 20
0.0
 30
0.0
  9
$LIMMIN
 10
0.0
 20
0.0
  9
$LIMMAX
 10
558.8
 20
431.8
  9
$VIEWCTR
 10
279.4
 20
215.9
  9
$VIEWSIZE
 40
431.8
  9
$CLAYER
  8
0
  9
$LTSCALE
 40
30.734
  9
$CELTYPE
  6
BYLAYER
  9
$DIMSCALE
 40
1.0
  9
$DIMASZ
 40
0.1875
  9
$DIMEXO
 40
0.0625
  9
$DIMDLI
 40
21.2344
  9
$DIMEXE
 40
0.125
  9
$DIMCEN
 40
5.0292
  9
$DIMLFAC
 40
1.0
  9
$DIMBLK
  1
_CLOSED
  9
$DIMALT
 70
0
  9
$DIMALTF
 40
0.0393700787
  9
$DIMTXT
 40
0.15625
  9
$DIMTOL
 70
0
  9
$DIMLIM
 70
0
  9
$DIMTFAC
 40
1.0
  9
$DIMGAP
 40
0.625
  9
$DIMDSEP
 70
46
  9
$AUNITS
 70
0
  9
$PDMODE
 70
3
  9
$PDSIZE
 40
0.3125
  9
$HANDSEED
  5
4D8
  9
$TILEMODE
 70
1
  9
$MEASUREMENT
 70
1
  9
$INSUNITS
 70
4
  0
ENDSEC
  0
SECTION
  2
CLASSES
  0
CLASS
  1
ACDBDICTIONARYWDFLT
  2
AcDbDictionaryWithDefault
  3
AutoCAD 2000
 90
0
 91
1
280
0
281
0
  0
CLASS
  1
ACDBPLACEHOLDER
  2
AcDbPlaceHolder
  3
AutoCAD 2000
 90
0
 91
1
280
0
281
0
  0
CLASS
  1
LAYOUT
  2
AcDbLayout
  3
AutoCAD 2000
 90
0
 91
0
280
0
281
0
  0
ENDSEC
  0
SECTION
  2
TABLES
  0
TABLE
  2
VPORT
  5
8
100
AcDbSymbolTable
 70
2
  0
VPORT
  5
1F4
100
AcDbSymbolTableRecord
100
AcDbViewportTableRecord
  2
*ACTIVE
 70
0
 10
0.0
 20
0.0
 11
1.0
 21
1.0
 12
279.4
 22
215.9
 13
0.0
 23
0.0
 14
1.0
 24
1.0
 15
0.0
 25
0.0
 16
0.0
 26
0.0
 36
1.0
 17
0.0
 27
0.0
 37
0.0
 40
431.8
 41
1.2941176471
 42
50.0
 43
0.0
 44
0.0
 50
0.0
 51
0.0
 71
0
 72
100
 73
1
 74
1
 75
0
 76
0
 77
0
 78
0
  0
ENDTAB
  0
TABLE
  2
LTYPE
  5
5
100
AcDbSymbolTable
 70
6
  0
LTYPE
  5
14
100
AcDbSymbolTableRecord
100
AcDbLinetypeTableRecord
  2
BYBLOCK
 70
0
  3

 72
65
 73
0
 40
0.0
  0
LTYPE
  5
15
100
AcDbSymbolTableRecord
100
AcDbLinetypeTableRecord
  2
BYLAYER
 70
0
  3

 72
65
 73
0
 40
0.0
  0
LTYPE
  5
16
100
AcDbSymbolTableRecord
100
AcDbLinetypeTableRecord
  2
CONTINUOUS
 70
64
  3
Solid line
 72
65
 73
0
 40
0.0
  0
LTYPE
  5
1F5
100
AcDbSymbolTableRecord
100
AcDbLinetypeTableRecord
  2
CENTER
 70
64
  3
____ _ ____ _ ____ _ ____ _ ____ _ ____ _ ____
 72
65
 73
4
 40
0.6
 49
0.375
 74
0
 49
-0.075
 74
0
 49
0.075
 74
0
 49
-0.075
 74
0
  0
LTYPE
  5
1F6
100
AcDbSymbolTableRecord
100
AcDbLinetypeTableRecord
  2
HIDDEN
 70
64
  3
- - - - - - - - - - - - - - - - - - - -
 72
65
 73
2
 40
0.2
 49
0.1
 74
0
 49
-0.1
 74
0
  0
LTYPE
  5
1F7
100
AcDbSymbolTableRecord
100
AcDbLinetypeTableRecord
  2
PHANTOM
 70
64
  3
_____ _ _ _____ _ _ _____ _ _ _____
 72
65
 73
6
 40
0.8
 49
0.45
 74
0
 49
-0.05
 74
0
 49
0.1
 74
0
 49
-0.05
 74
0
 49
0.1
 74
0
 49
-0.05
 74
0
  0
LTYPE
  5
1F8
100
AcDbSymbolTableRecord
100
AcDbLinetypeTableRecord
  2
DOT
 70
64
  3
. . . . . . . . . . . . . . . . . . . .
 72
65
 73
2
 40
0.2
 49
0.1
 74
0
 49
-0.1
 74
0
  0
LTYPE
  5
1F9
100
AcDbSymbolTableRecord
100
AcDbLinetypeTableRecord
  2
DASHED
 70
64
  3
- - - - - - - - - - - - - - - - - - - -
 72
65
 73
2
 40
0.2
 49
0.1
 74
0
 49
-0.1
 74
0
  0
ENDTAB
  0
TABLE
  2
LAYER
  5
2
100
AcDbSymbolTable
 70
36
  0
LAYER
  5
10
100
AcDbSymbolTableRecord
100
AcDbLayerTableRecord
  2
0
 70
0
 62
7
  6
CONTINUOUS
370
-3
390
F
  0
LAYER
  5
1FA
100
AcDbSymbolTableRecord
100
AcDbLayerTableRecord
  2
DEFAULT_1
 70
0
 62
7
  6
CENTER
370
-3
390
F
  0
LAYER
  5
1FB
100
AcDbSymbolTableRecord
100
AcDbLayerTableRecord
  2
DEFAULT_2
 70
0
 62
8
  6
HIDDEN
370
-3
390
F
  0
LAYER
  5
1FC
100
AcDbSymbolTableRecord
100
AcDbLayerTableRecord
  2
DEFAULT_3
 70
0
 62
7
  6
PHANTOM
370
-3
390
F
  0
LAYER
  5
1FD
100
AcDbSymbolTableRecord
100
AcDbLayerTableRecord
  2
01_ALL_DTM_PLN
 70
0
 62
7
  6
CONTINUOUS
370
-3
390
F
  0
LAYER
  5
1FE
100
AcDbSymbolTableRecord
100
AcDbLayerTableRecord
  2
01__ASM_ALL_DTM_PLN
 70
0
 62
7
  6
CONTINUOUS
370
-3
390
F
  0
LAYER
  5
1FF
100
AcDbSymbolTableRecord
100
AcDbLayerTableRecord
  2
01__ASM_DEF_DTM_PLN
 70
0
 62
7
  6
CONTINUOUS
370
-3
390
F
  0
LAYER
  5
200
100
AcDbSymbolTableRecord
100
AcDbLayerTableRecord
  2
01___PRT_ALL_DTM_PLN
 70
0
 62
7
  6
CONTINUOUS
370
-3
390
F
  0
LAYER
  5
201
100
AcDbSymbolTableRecord
100
AcDbLayerTableRecord
  2
01___PRT_DEF_DTM_PLN
 70
0
 62
7
  6
CONTINUOUS
370
-3
390
F
  0
LAYER
  5
202
100
AcDbSymbolTableRecord
100
AcDbLayerTableRecord
  2
02_ALL_AXES
 70
0
 62
7
  6
CONTINUOUS
370
-3
390
F
  0
LAYER
  5
203
100
AcDbSymbolTableRecord
100
AcDbLayerTableRecord
  2
02__ASM_ALL_AXES
 70
0
 62
7
  6
CONTINUOUS
370
-3
390
F
  0
LAYER
  5
204
100
AcDbSymbolTableRecord
100
AcDbLayerTableRecord
  2
02___PRT_ALL_AXES
 70
0
 62
7
  6
CONTINUOUS
370
-3
390
F
  0
LAYER
  5
205
100
AcDbSymbolTableRecord
100
AcDbLayerTableRecord
  2
03_ALL_CURVES
 70
0
 62
7
  6
CONTINUOUS
370
-3
390
F
  0
LAYER
  5
206
100
AcDbSymbolTableRecord
100
AcDbLayerTableRecord
  2
03__ASM_ALL_CURVES
 70
0
 62
7
  6
CONTINUOUS
370
-3
390
F
  0
LAYER
  5
207
100
AcDbSymbolTableRecord
100
AcDbLayerTableRecord
  2
03___PRT_ALL_CURVES
 70
0
 62
7
  6
CONTINUOUS
370
-3
390
F
  0
LAYER
  5
208
100
AcDbSymbolTableRecord
100
AcDbLayerTableRecord
  2
04_ALL_DTM_PNT
 70
0
 62
7
  6
CONTINUOUS
370
-3
390
F
  0
LAYER
  5
209
100
AcDbSymbolTableRecord
100
AcDbLayerTableRecord
  2
04__ASM_ALL_DTM_PNT
 70
0
 62
7
  6
CONTINUOUS
370
-3
390
F
  0
LAYER
  5
20A
100
AcDbSymbolTableRecord
100
AcDbLayerTableRecord
  2
04___PRT_ALL_DTM_PNT
 70
0
 62
7
  6
CONTINUOUS
370
-3
390
F
  0
LAYER
  5
20B
100
AcDbSymbolTableRecord
100
AcDbLayerTableRecord
  2
05_ALL_DTM_CSYS
 70
0
 62
7
  6
CONTINUOUS
370
-3
390
F
  0
LAYER
  5
20C
100
AcDbSymbolTableRecord
100
AcDbLayerTableRecord
  2
05__ASM_ALL_DTM_CSYS
 70
0
 62
7
  6
CONTINUOUS
370
-3
390
F
  0
LAYER
  5
20D
100
AcDbSymbolTableRecord
100
AcDbLayerTableRecord
  2
05__ASM_DEF_DTM_CSYS
 70
0
 62
7
  6
CONTINUOUS
370
-3
390
F
  0
LAYER
  5
20E
100
AcDbSymbolTableRecord
100
AcDbLayerTableRecord
  2
05___PRT_ALL_DTM_CSYS
 70
0
 62
7
  6
CONTINUOUS
370
-3
390
F
  0
LAYER
  5
20F
100
AcDbSymbolTableRecord
100
AcDbLayerTableRecord
  2
05___PRT_DEF_DTM_CSYS
 70
0
 62
7
  6
CONTINUOUS
370
-3
390
F
  0
LAYER
  5
210
100
AcDbSymbolTableRecord
100
AcDbLayerTableRecord
  2
06_ALL_SURFS
 70
0
 62
7
  6
CONTINUOUS
370
-3
390
F
  0
LAYER
  5
211
100
AcDbSymbolTableRecord
100
AcDbLayerTableRecord
  2
06__ASM_ALL_SURFS
 70
0
 62
7
  6
CONTINUOUS
370
-3
390
F
  0
LAYER
  5
212
100
AcDbSymbolTableRecord
100
AcDbLayerTableRecord
  2
06___PRT_ALL_SURFS
 70
0
 62
7
  6
CONTINUOUS
370
-3
390
F
  0
LAYER
  5
213
100
AcDbSymbolTableRecord
100
AcDbLayerTableRecord
  2
07__ASM_ALL_SKELETONS
 70
0
 62
7
  6
CONTINUOUS
370
-3
390
F
  0
ENDTAB
  0
TABLE
  2
STYLE
  5
3
100
AcDbSymbolTable
 70
1
  0
STYLE
  5
11
100
AcDbSymbolTableRecord
100
AcDbTextStyleTableRecord
  2
STANDARD
 70
0
 40
0.0
 41
0.8
 50
0.0
 71
0
 42
0.2
  3
txt
  4

  0
STYLE
  5
214
100
AcDbSymbolTableRecord
100
AcDbTextStyleTableRecord
  2
TEXTSTYLE_1
 70
0
 40
0.0
 41
0.8
 50
0.0
 71
0
 42
0.2
  3
gdt
  4

  0
ENDTAB
  0
TABLE
  2
VIEW
  5
6
100
AcDbSymbolTable
 70
0
  0
ENDTAB
  0
TABLE
  2
UCS
  5
7
100
AcDbSymbolTable
 70
0
  0
ENDTAB
  0
TABLE
  2
APPID
  5
9
100
AcDbSymbolTable
 70
1
  0
APPID
  5
215
100
AcDbSymbolTableRecord
100
AcDbRegAppTableRecord
  2
ACAD
 70
0
  0
ENDTAB
  0
TABLE
  2
BLOCK_RECORD
  5
1
100
AcDbSymbolTable
 70
0
  0
BLOCK_RECORD
  5
216
100
AcDbSymbolTableRecord
100
AcDbBlockTableRecord
  2
*Model_Space
  0
BLOCK_RECORD
  5
217
100
AcDbSymbolTableRecord
100
AcDbBlockTableRecord
  2
*Paper_Space
  0
BLOCK_RECORD
  5
218
100
AcDbSymbolTableRecord
100
AcDbBlockTableRecord
  2
_CLOSED
  0
ENDTAB
  0
TABLE
  2
DIMSTYLE
  5
A
100
AcDbSymbolTable
 70
1
100
AcDbDimStyleTable
 71
0
  0
DIMSTYLE
105
219
100
AcDbSymbolTableRecord
100
AcDbDimStyleTableRecord
  2
STANDARD
 70
0
  3

  4

 40
1.0
 41
0.1875
 42
0.0625
 43
0.38
 44
0.125
 45
0.0
 46
0.0
 47
0.01
 48
0.01
140
0.15625
141
0.09
142
0.0
143
25.4
144
1.0
145
0.0
146
1.0
147
0.625
 71
0.0
 72
0.0
 73
1
 74
1
 75
0
 76
0
 77
0
 78
8
 79
2
170
0
171
1
172
0
173
0
174
0
175
0
176
0
177
0
178
0
270
2
179
2
271
2
272
2
273
2
274
2
275
0
280
0
281
0
282
0
283
1
284
8
285
0
286
0
287
3
288
0
340
11
278
46
341
218
342
218
343
218
344
218
  0
ENDTAB
  0
ENDSEC
  0
SECTION
  2
BLOCKS
  0
BLOCK
  5
20
100
AcDbEntity
  8
0
100
AcDbBlockBegin
  2
*Model_Space
 70
0
 10
0.0
 20
0.0
 30
0.0
  3
*Model_Space
  1

  0
ENDBLK
  5
21
100
AcDbEntity
  8
0
100
AcDbBlockEnd
  0
BLOCK
  5
1C
100
AcDbEntity
  8
0
100
AcDbBlockBegin
  2
*Paper_Space
 70
0
 10
0.0
 20
0.0
 30
0.0
  3
*Paper_Space
  1

  0
ENDBLK
  5
1D
100
AcDbEntity
  8
0
100
AcDbBlockEnd
  0
BLOCK
  5
21A
100
AcDbEntity
  8
0
100
AcDbBlockBegin
  2
_CLOSED
 70
64
 10
0.0
 20
0.0
  3
_CLOSED
  1

  0
LINE
  5
21B
100
AcDbEntity
  8
0
  6
BYBLOCK
 62
0
100
AcDbLine
 10
0.0
 20
0.0
 11
-1.0
 21
0.1666666667
  0
LINE
  5
21C
100
AcDbEntity
  8
0
  6
BYBLOCK
 62
0
100
AcDbLine
 10
-1.0
 20
0.1666666667
 11
-1.0
 21
-0.1666666667
  0
LINE
  5
21D
100
AcDbEntity
  8
0
  6
BYBLOCK
 62
0
100
AcDbLine
 10
-1.0
 20
-0.1666666667
 11
0.0
 21
0.0
  0
LINE
  5
21E
100
AcDbEntity
  8
0
  6
BYBLOCK
 62
0
100
AcDbLine
 10
-1.0
 20
0.0
 11
0.0
 21
0.0
  0
ENDBLK
  5
21F
100
AcDbEntity
  8
0
  6
BYBLOCK
 62
0
100
AcDbBlockEnd
  0
ENDSEC
  0
SECTION
  2
ENTITIES
  0
LWPOLYLINE
  5
220
100
AcDbEntity
  8
0
100
AcDbPolyline
 62
7
  6
CONTINUOUS
 90
4
 70
0
 10
32.6497600756
 20
295.6461029244
 10
32.6174773399
 20
295.6343839942
 10
31.5928181028
 20
294.5801209817
 10
30.9820088498
 20
292.9679522902
  0
LINE
  5
221
100
AcDbEntity
  8
0
100
AcDbLine
 62
7
  6
CONTINUOUS
 10
12.3219876265
 20
188.617337426
 11
49.682084258
 21
198.6319161616
  0
LWPOLYLINE
  5
222
100
AcDbEntity
  8
0
100
AcDbPolyline
 62
7
  6
CONTINUOUS
 90
5
 70
0
 10
29.6257197017
 20
281.3204073993
 10
29.0873862443
 20
281.1362402148
 10
27.839456441
 20
280.1871033667
 10
27.1378237428
 20
278.61482332
 10
27.0220830331
 20
277.5068813138
  0
LINE
  5
223
100
AcDbEntity
  8
0
100
AcDbLine
 62
7
  6
CONTINUOUS
 10
28.2731080572
 20
197.3533430302
 11
44.2591794754
 21
201.6384971203
  0
LINE
  5
224
100
AcDbEntity
  8
0
100
AcDbLine
 62
7
  6
CONTINUOUS
 10
23.3251296349
 20
196.3599239934
 11
27.457361182
 21
197.4675913153
  0
LINE
  5
225
100
AcDbEntity
  8
0
100
AcDbLine
 62
7
  6
CONTINUOUS
 10
42.7085057229
 20
202.1064336114
 11
52.867626085
 21
204.8296415237
  0
LINE
  5
226
100
AcDbEntity
  8
0
100
AcDbLine
 62
7
  6
CONTINUOUS
 10
16.0739857581
 20
197.4374253104
 11
12.3219876265
 21
196.4316816402
  0
LINE
  5
227
100
AcDbEntity
  8
0
100
AcDbLine
 62
7
  6
CONTINUOUS
 10
-34.4754337611
 20
252.4738164623
 11
-8.9202829111
 21
264.502188301
  0
LINE
  5
228
100
AcDbEntity
  8
0
100
AcDbLine
 62
7
  6
CONTINUOUS
 10
14.2585732577
 20
262.4584432194
 11
13.9811760383
 21
262.3307102453
  0
LINE
  5
229
100
AcDbEntity
  8
0
100
AcDbLine
 62
7
  6
CONTINUOUS
 10
15.0800976124
 20
261.1336215462
 11
15.2016420194
 21
261.1895890452
  0
LINE
  5
22A
100
AcDbEntity
  8
0
100
AcDbLine
 62
7
  6
CONTINUOUS
 10
15.5475240334
 20
261.1087959222
 11
15.8249212528
 21
261.2365288963
  0
LINE
  5
22B
100
AcDbEntity
  8
0
100
AcDbLine
 62
7
  6
CONTINUOUS
 10
-19.0018111963
 20
244.0349114333
 11
-20.2516774081
 21
243.4933758518
  0
LINE
  5
22C
100
AcDbEntity
  8
0
100
AcDbLine
 62
7
  6
CONTINUOUS
 10
-20.0037435153
 20
243.5598358911
 11
-18.9868679954
 21
244.0004224681
  0
LINE
  5
22D
100
AcDbEntity
  8
0
100
AcDbLine
 62
7
  6
CONTINUOUS
 10
-10.9852234902
 20
247.3843608305
 11
-12.2394544068
 21
246.8719446293
  0
LINE
  5
22E
100
AcDbEntity
  8
0
100
AcDbLine
 62
7
  6
CONTINUOUS
 10
-11.9915205139
 20
246.9384046686
 11
-10.97302791
 21
247.354509952
  0
LINE
  5
22F
100
AcDbEntity
  8
0
100
AcDbLine
 62
7
  6
CONTINUOUS
 10
-7.975687461
 20
248.5628311581
 11
-6.9564518882
 21
248.9675086032
  0
LINE
  5
230
100
AcDbEntity
  8
0
100
AcDbLine
 62
7
  6
CONTINUOUS
 10
-6.9672847806
 20
248.9947393095
 11
-8.2236213538
 21
248.4963711188
  0
LINE
  5
231
100
AcDbEntity
  8
0
100
AcDbLine
 62
7
  6
CONTINUOUS
 10
14.2445133147
 20
262.6006074435
 11
14.3976943014
 21
262.6563805846
  0
LINE
  5
232
100
AcDbEntity
  8
0
100
AcDbLine
 62
7
  6
CONTINUOUS
 10
14.4172281462
 20
262.6634928504
 11
15.4623085268
 21
263.0440062338
  0
LINE
  5
233
100
AcDbEntity
  8
0
100
AcDbLine
 62
7
  6
CONTINUOUS
 10
16.1210398858
 20
206.7363461955
 11
22.3193872064
 21
208.3978471783
  0
LINE
  5
234
100
AcDbEntity
  8
0
100
AcDbLine
 62
7
  6
CONTINUOUS
 10
23.6941703423
 20
199.9391342602
 11
23.6755943129
 21
199.9385763142
  0
LINE
  5
235
100
AcDbEntity
  8
0
100
AcDbLine
 62
7
  6
CONTINUOUS
 10
33.8315252614
 20
273.0114664928
 11
33.4376752086
 21
272.7749653378
  0
LINE
  5
236
100
AcDbEntity
  8
0
100
AcDbLine
 62
7
  6
CONTINUOUS
 10
-3.5857788754
 20
217.5547361964
 11
-3.3378449826
 21
217.6211962357
  0
LINE
  5
237
100
AcDbEntity
  8
0
100
AcDbLine
 62
7
  6
CONTINUOUS
 10
-8.2487914928
 20
220.248005684
 11
-8.0008576
 21
220.3144657234
  0
LINE
  5
238
100
AcDbEntity
  8
0
100
AcDbLine
 62
7
  6
CONTINUOUS
 10
-12.9118041101
 20
222.9412751717
 11
-12.6638702173
 21
223.007735211
  0
LINE
  5
239
100
AcDbEntity
  8
0
100
AcDbLine
 62
7
  6
CONTINUOUS
 10
21.9298007779
 20
204.0089792288
 11
22.7243246958
 21
204.0002871891
  0
LINE
  5
23A
100
AcDbEntity
  8
0
100
AcDbLine
 62
7
  6
CONTINUOUS
 10
23.5971899653
 20
203.9156123604
 11
24.6454060593
 21
203.9022894495
  0
LINE
  5
23B
100
AcDbEntity
  8
0
100
AcDbLine
 62
7
  6
CONTINUOUS
 10
24.0387966012
 20
204.0700765678
 11
24.3899514628
 21
204.057204132
  0
LINE
  5
23C
100
AcDbEntity
  8
0
100
AcDbLine
 62
7
  6
CONTINUOUS
 10
22.9907199004
 20
204.1830569617
 11
23.9268665771
 21
204.1379540082
  0
LINE
  5
23D
100
AcDbEntity
  8
0
100
AcDbLine
 62
7
  6
CONTINUOUS
 10
22.6469885468
 20
203.0041035796
 11
21.860179927
 21
203.0442400834
  0
LINE
  5
23E
100
AcDbEntity
  8
0
100
AcDbLine
 62
7
  6
CONTINUOUS
 10
25.3547695556
 20
202.8659748318
 11
24.5680699103
 21
202.90610584
  0
LINE
  5
23F
100
AcDbEntity
  8
0
100
AcDbLine
 62
7
  6
CONTINUOUS
 10
24.6454060593
 20
203.9022894495
 11
25.4322145678
 21
203.8621529612
  0
LINE
  5
240
100
AcDbEntity
  8
0
100
AcDbLine
 62
7
  6
CONTINUOUS
 10
21.9376257451
 20
204.0404181001
 11
22.7243246958
 21
204.0002871891
  0
LINE
  5
241
100
AcDbEntity
  8
0
100
AcDbLine
 62
7
  6
CONTINUOUS
 10
23.9067064584
 20
204.2877170102
 11
24.2653655742
 21
204.2685431221
  0
LINE
  5
242
100
AcDbEntity
  8
0
100
AcDbLine
 62
7
  6
CONTINUOUS
 10
22.8835200828
 20
204.3398414695
 11
23.1580090165
 21
204.325031328
  0
LINE
  5
243
100
AcDbEntity
  8
0
100
AcDbLine
 62
7
  6
CONTINUOUS
 10
22.6532311397
 20
199.9611465455
 11
22.0571144709
 21
200.0062705574
  0
LINE
  5
244
100
AcDbEntity
  8
0
100
AcDbLine
 62
7
  6
CONTINUOUS
 10
74.3902762729
 20
192.9020584919
 11
70.9632778489
 21
193.3810573624
  0
LINE
  5
245
100
AcDbEntity
  8
0
100
AcDbLine
 62
7
  6
CONTINUOUS
 10
18.7447461459
 20
196.5664633039
 11
21.1919867715
 21
196.2237184485
  0
LINE
  5
246
100
AcDbEntity
  8
0
100
AcDbLine
 62
7
  6
CONTINUOUS
 10
28.2731080572
 20
197.3533430302
 11
27.457361182
 21
197.4675913153
  0
LINE
  5
247
100
AcDbEntity
  8
0
100
AcDbLine
 62
7
  6
CONTINUOUS
 10
13.5866481064
 20
202.332470748
 11
16.033888732
 21
201.9897258926
  0
LINE
  5
248
100
AcDbEntity
  8
0
100
AcDbLine
 62
7
  6
CONTINUOUS
 10
45.6353030788
 20
199.198682427
 11
73.3706968356
 21
195.3142407325
  0
LINE
  5
249
100
AcDbEntity
  8
0
100
AcDbLine
 62
7
  6
CONTINUOUS
 10
-42.0322570719
 20
227.7375735623
 11
-42.0322570719
 21
220.617800092
  0
LINE
  5
24A
100
AcDbEntity
  8
0
100
AcDbLine
 62
7
  6
CONTINUOUS
 10
16.2724881708
 20
263.2139550454
 11
15.5222169167
 21
262.5989661784
  0
LINE
  5
24B
100
AcDbEntity
  8
0
100
AcDbLine
 62
7
  6
CONTINUOUS
 10
13.5336091203
 20
260.3532840962
 11
14.2838803744
 21
260.9682729632
  0
LINE
  5
24C
100
AcDbEntity
  8
0
100
AcDbLine
 62
7
  6
CONTINUOUS
 10
33.4390641074
 20
272.7757990006
 11
31.6736819474
 21
271.4612403137
  0
LINE
  5
24D
100
AcDbEntity
  8
0
100
AcDbLine
 62
7
  6
CONTINUOUS
 10
-17.5748167275
 20
225.6345446594
 11
-17.3268828347
 21
225.7010046987
  0
LINE
  5
24E
100
AcDbEntity
  8
0
100
AcDbLine
 62
7
  6
CONTINUOUS
 10
-39.847334769
 20
229.3635101593
 11
-34.4754337577
 21
230.8034776778
  0
LINE
  5
24F
100
AcDbEntity
  8
0
100
AcDbLine
 62
7
  6
CONTINUOUS
 10
128.4099556139
 20
274.5999455041
 11
128.2501101775
 21
274.5570990761
  0
LINE
  5
250
100
AcDbEntity
  8
0
100
AcDbLine
 62
7
  6
CONTINUOUS
 10
27.180214475
 20
204.6446459122
 11
26.3644675998
 21
204.7588941973
  0
LINE
  5
251
100
AcDbEntity
  8
0
100
AcDbLine
 62
7
  6
CONTINUOUS
 10
16.1210398858
 20
206.7363461955
 11
15.3052930106
 21
206.8505944806
  0
LINE
  5
252
100
AcDbEntity
  8
0
100
AcDbLine
 62
7
  6
CONTINUOUS
 10
46.47474174
 20
203.1159938249
 11
69.244218404
 21
199.9270466877
  0
LINE
  5
253
100
AcDbEntity
  8
0
100
AcDbLine
 62
7
  6
CONTINUOUS
 10
47.0072252117
 20
203.2587289389
 11
64.1406950164
 21
200.8591248422
  0
LINE
  5
254
100
AcDbEntity
  8
0
100
AcDbLine
 62
7
  6
CONTINUOUS
 10
70.9488612957
 20
202.8924676329
 11
77.0954583436
 21
202.0316145994
  0
LINE
  5
255
100
AcDbEntity
  8
0
100
AcDbLine
 62
7
  6
CONTINUOUS
 10
58.593681159
 20
205.29708329
 11
70.8456342006
 21
203.5811531809
  0
LINE
  5
256
100
AcDbEntity
  8
0
100
AcDbLine
 62
7
  6
CONTINUOUS
 10
76.6307583666
 20
205.1318874316
 11
53.4617941452
 21
208.3767842385
  0
LINE
  5
257
100
AcDbEntity
  8
0
100
AcDbLine
 62
7
  6
CONTINUOUS
 10
65.3889941539
 20
209.7721349546
 11
49.5760603892
 21
211.9867932272
  0
LINE
  5
258
100
AcDbEntity
  8
0
100
AcDbLine
 62
7
  6
CONTINUOUS
 10
40.4175952609
 20
202.4273939243
 11
42.7085057229
 21
202.1064336114
  0
LINE
  5
259
100
AcDbEntity
  8
0
100
AcDbLine
 62
7
  6
CONTINUOUS
 10
23.6507668759
 20
207.0836749826
 11
23.0651895859
 21
207.2040514616
  0
LINE
  5
25A
100
AcDbEntity
  8
0
100
AcDbLine
 62
7
  6
CONTINUOUS
 10
23.7800839886
 20
202.656665675
 11
24.1343855897
 21
202.581361701
  0
LINE
  5
25B
100
AcDbEntity
  8
0
100
AcDbLine
 62
7
  6
CONTINUOUS
 10
22.8992451947
 20
203.0047643549
 11
23.8232462699
 21
202.8031984899
  0
LINE
  5
25C
100
AcDbEntity
  8
0
100
AcDbLine
 62
7
  6
CONTINUOUS
 10
23.6507646799
 20
207.0836631553
 11
23.7284214411
 21
207.0664306508
  0
LINE
  5
25D
100
AcDbEntity
  8
0
100
AcDbLine
 62
7
  6
CONTINUOUS
 10
24.2210750933
 20
206.9650318568
 11
24.2240186144
 21
206.9643587797
  0
LINE
  5
25E
100
AcDbEntity
  8
0
100
AcDbLine
 62
7
  6
CONTINUOUS
 10
23.944790677
 20
202.8591659889
 11
24.2906726909
 21
202.7783728659
  0
LINE
  5
25F
100
AcDbEntity
  8
0
100
AcDbLine
 62
7
  6
CONTINUOUS
 10
22.7870654382
 20
202.6968122919
 11
23.0270290319
 21
202.6378499069
  0
LINE
  5
260
100
AcDbEntity
  8
0
100
AcDbLine
 62
7
  6
CONTINUOUS
 10
23.5401526558
 20
203.1794113721
 11
24.5680699103
 21
202.90610584
  0
LINE
  5
261
100
AcDbEntity
  8
0
100
AcDbLine
 62
7
  6
CONTINUOUS
 10
21.8453179848
 20
203.2253837706
 11
22.6469885468
 21
203.0041035796
  0
LINE
  5
262
100
AcDbEntity
  8
0
100
AcDbLine
 62
7
  6
CONTINUOUS
 10
12.3219876265
 20
188.617337426
 11
-41.164488619
 21
219.5101327701
  0
LINE
  5
263
100
AcDbEntity
  8
0
100
AcDbLine
 62
7
  6
CONTINUOUS
 10
-41.164488619
 20
219.5101327701
 11
-41.164488619
 21
226.6299062404
  0
LINE
  5
264
100
AcDbEntity
  8
0
100
AcDbLine
 62
7
  6
CONTINUOUS
 10
-34.4754337685
 20
252.4738164591
 11
-34.4754337577
 21
230.8034776778
  0
LINE
  5
265
100
AcDbEntity
  8
0
100
AcDbLine
 62
7
  6
CONTINUOUS
 10
14.1592944858
 20
261.1796119534
 11
13.5336091203
 21
260.3532840962
  0
LINE
  5
266
100
AcDbEntity
  8
0
100
AcDbLine
 62
7
  6
CONTINUOUS
 10
15.4488925091
 20
262.6028860954
 11
15.2956479437
 21
262.400499624
  0
LINE
  5
267
100
AcDbEntity
  8
0
100
AcDbLine
 62
7
  6
CONTINUOUS
 10
15.6468028052
 20
262.3876271882
 11
16.2724881708
 21
263.2139550454
  0
LINE
  5
268
100
AcDbEntity
  8
0
100
AcDbLine
 62
7
  6
CONTINUOUS
 10
40.020475663
 20
262.8833715213
 11
39.9682203819
 21
262.8355377393
  0
LINE
  5
269
100
AcDbEntity
  8
0
100
AcDbLine
 62
7
  6
CONTINUOUS
 10
40.0268495725
 20
262.8807692276
 11
39.9682203819
 21
262.8355377393
  0
LINE
  5
26A
100
AcDbEntity
  8
0
100
AcDbLine
 62
7
  6
CONTINUOUS
 10
-20.2516774081
 20
243.4933758518
 11
-20.0037435153
 21
243.5598358911
  0
LINE
  5
26B
100
AcDbEntity
  8
0
100
AcDbLine
 62
7
  6
CONTINUOUS
 10
-12.2394544068
 20
246.8719446293
 11
-11.9915205139
 21
246.9384046686
  0
LINE
  5
26C
100
AcDbEntity
  8
0
100
AcDbLine
 62
7
  6
CONTINUOUS
 10
-7.975687461
 20
248.5628311581
 11
-8.2236213539
 21
248.4963711188
  0
LINE
  5
26D
100
AcDbEntity
  8
0
100
AcDbLine
 62
7
  6
CONTINUOUS
 10
8.8350826712
 20
255.3450320757
 11
15.0334299918
 21
257.0065330585
  0
LINE
  5
26E
100
AcDbEntity
  8
0
100
AcDbLine
 62
7
  6
CONTINUOUS
 10
8.019335796
 20
255.4592803608
 11
14.2176831167
 21
257.1207813437
  0
LINE
  5
26F
100
AcDbEntity
  8
0
100
AcDbLine
 62
7
  6
CONTINUOUS
 10
-14.9556179558
 20
245.4567881721
 11
-16.2488206494
 21
245.2043744404
  0
LINE
  5
270
100
AcDbEntity
  8
0
100
AcDbLine
 62
7
  6
CONTINUOUS
 10
-41.164488619
 20
226.6299062404
 11
10.1044579207
 21
197.017914871
  0
LINE
  5
271
100
AcDbEntity
  8
0
100
AcDbLine
 62
7
  6
CONTINUOUS
 10
9.5883859026
 20
200.4609192531
 11
-0.1655715389
 21
206.0946239237
  0
LINE
  5
272
100
AcDbEntity
  8
0
100
AcDbLine
 62
7
  6
CONTINUOUS
 10
-34.4754337577
 20
230.8034776778
 11
-0.9683502337
 21
211.4504085182
  0
LINE
  5
273
100
AcDbEntity
  8
0
100
AcDbLine
 62
7
  6
CONTINUOUS
 10
31.6736819474
 20
271.4612403137
 11
29.9955263805
 21
269.43056769
  0
LINE
  5
274
100
AcDbEntity
  8
0
100
AcDbLine
 62
7
  6
CONTINUOUS
 10
23.0017219153
 20
204.1280201631
 11
22.7243246958
 21
204.0002871891
  0
LINE
  5
275
100
AcDbEntity
  8
0
100
AcDbLine
 62
7
  6
CONTINUOUS
 10
23.8232462699
 20
202.8031984899
 11
23.944790677
 21
202.8591659889
  0
LINE
  5
276
100
AcDbEntity
  8
0
100
AcDbLine
 62
7
  6
CONTINUOUS
 10
24.2906726909
 20
202.7783728659
 11
24.5680699103
 21
202.90610584
  0
LINE
  5
277
100
AcDbEntity
  8
0
100
AcDbLine
 62
7
  6
CONTINUOUS
 10
22.9876619723
 20
204.2701843873
 11
23.1408429589
 21
204.3259575284
  0
LINE
  5
278
100
AcDbEntity
  8
0
100
AcDbLine
 62
7
  6
CONTINUOUS
 10
23.1603768037
 20
204.3330697941
 11
24.2054571843
 21
204.7135831776
  0
LINE
  5
279
100
AcDbEntity
  8
0
100
AcDbLine
 62
7
  6
CONTINUOUS
 10
24.6660736868
 20
272.2290476782
 11
17.3441722353
 21
270.2663718505
  0
LINE
  5
27A
100
AcDbEntity
  8
0
100
AcDbLine
 62
7
  6
CONTINUOUS
 10
16.5284253601
 20
270.3806201356
 11
12.396193813
 21
269.2729528137
  0
LINE
  5
27B
100
AcDbEntity
  8
0
100
AcDbLine
 62
7
  6
CONTINUOUS
 10
24.8646492551
 20
273.613931778
 11
9.9489531874
 21
269.6156976691
  0
LINE
  5
27C
100
AcDbEntity
  8
0
100
AcDbLine
 62
7
  6
CONTINUOUS
 10
24.9562559395
 20
273.8912960854
 11
9.9125234013
 21
269.8587410985
  0
LINE
  5
27D
100
AcDbEntity
  8
0
100
AcDbLine
 62
7
  6
CONTINUOUS
 10
25.964720404
 20
276.4368982138
 11
9.5846553266
 21
272.0461319631
  0
LINE
  5
27E
100
AcDbEntity
  8
0
100
AcDbLine
 62
7
  6
CONTINUOUS
 10
26.3673086075
 20
277.4325840757
 11
7.4093303259
 21
272.3507940568
  0
LINE
  5
27F
100
AcDbEntity
  8
0
100
AcDbLine
 62
7
  6
CONTINUOUS
 10
-9.5323382296
 20
268.5855508357
 11
26.9218297104
 21
278.3572904313
  0
LINE
  5
280
100
AcDbEntity
  8
0
100
AcDbLine
 62
7
  6
CONTINUOUS
 10
30.5410573599
 20
281.5658228586
 11
29.6066860965
 21
281.3153595186
  0
LINE
  5
281
100
AcDbEntity
  8
0
100
AcDbLine
 62
7
  6
CONTINUOUS
 10
123.0944837712
 20
267.0942221037
 11
123.2834516544
 21
267.1097067947
  0
LINE
  5
282
100
AcDbEntity
  8
0
100
AcDbLine
 62
7
  6
CONTINUOUS
 10
14.9510216847
 20
258.2695573165
 11
14.9324456554
 21
258.2689993705
  0
LINE
  5
283
100
AcDbEntity
  8
0
100
AcDbLine
 62
7
  6
CONTINUOUS
 10
-2.1285874325
 20
216.7130894815
 11
-3.5857788754
 21
217.5547361964
  0
LINE
  5
284
100
AcDbEntity
  8
0
100
AcDbLine
 62
7
  6
CONTINUOUS
 10
-6.7916000499
 20
219.4063589691
 11
-8.2487914928
 21
220.248005684
  0
LINE
  5
285
100
AcDbEntity
  8
0
100
AcDbLine
 62
7
  6
CONTINUOUS
 10
-11.4546126672
 20
222.0996284568
 11
-12.9118041101
 21
222.9412751717
  0
LINE
  5
286
100
AcDbEntity
  8
0
100
AcDbLine
 62
7
  6
CONTINUOUS
 10
-16.1176252846
 20
224.7928979445
 11
-17.5748167275
 21
225.6345446594
  0
LINE
  5
287
100
AcDbEntity
  8
0
100
AcDbLine
 62
7
  6
CONTINUOUS
 10
-2.1629922337
 20
216.942623107
 11
-3.3378449826
 21
217.6211962357
  0
LINE
  5
288
100
AcDbEntity
  8
0
100
AcDbLine
 62
7
  6
CONTINUOUS
 10
-6.8260048511
 20
219.6358925946
 11
-8.0008576
 21
220.3144657234
  0
LINE
  5
289
100
AcDbEntity
  8
0
100
AcDbLine
 62
7
  6
CONTINUOUS
 10
-11.4890174684
 20
222.3291620823
 11
-12.6638702173
 21
223.007735211
  0
LINE
  5
28A
100
AcDbEntity
  8
0
100
AcDbLine
 62
7
  6
CONTINUOUS
 10
-16.1520300858
 20
225.0224315699
 11
-17.3268828347
 21
225.7010046987
  0
LINE
  5
28B
100
AcDbEntity
  8
0
100
AcDbLine
 62
7
  6
CONTINUOUS
 10
22.6469885468
 20
203.0041035796
 11
22.9024431434
 21
202.8491888971
  0
LINE
  5
28C
100
AcDbEntity
  8
0
100
AcDbLine
 62
7
  6
CONTINUOUS
 10
24.0387966012
 20
204.0700765678
 11
23.9268665771
 21
204.1379540082
  0
LINE
  5
28D
100
AcDbEntity
  8
0
100
AcDbLine
 62
7
  6
CONTINUOUS
 10
24.6454060593
 20
203.9022894495
 11
24.3899514628
 21
204.057204132
  0
LINE
  5
28E
100
AcDbEntity
  8
0
100
AcDbLine
 62
7
  6
CONTINUOUS
 10
22.8826275817
 20
202.9172260694
 11
24.0061233098
 21
202.1459205624
  0
LINE
  5
28F
100
AcDbEntity
  8
0
100
AcDbLine
 62
7
  6
CONTINUOUS
 10
-20.2516774081
 20
243.4933758518
 11
-17.5748167275
 21
225.6345446594
  0
LINE
  5
290
100
AcDbEntity
  8
0
100
AcDbLine
 62
7
  6
CONTINUOUS
 10
-17.3268828347
 20
225.7010046987
 11
-20.0037435153
 21
243.5598358911
  0
LINE
  5
291
100
AcDbEntity
  8
0
100
AcDbLine
 62
7
  6
CONTINUOUS
 10
-16.1176252846
 20
224.7928979445
 11
-19.0018111963
 21
244.0349114333
  0
LINE
  5
292
100
AcDbEntity
  8
0
100
AcDbLine
 62
7
  6
CONTINUOUS
 10
14.5431226388
 20
263.0908955229
 11
14.4148603589
 21
262.6554543843
  0
LINE
  5
293
100
AcDbEntity
  8
0
100
AcDbLine
 62
7
  6
CONTINUOUS
 10
15.036935331
 20
260.9870887312
 11
15.0800976124
 21
261.1336215462
  0
LINE
  5
294
100
AcDbEntity
  8
0
100
AcDbLine
 62
7
  6
CONTINUOUS
 10
15.2629746523
 20
260.4763436187
 11
15.3912369322
 21
260.9117847573
  0
LINE
  5
295
100
AcDbEntity
  8
0
100
AcDbLine
 62
7
  6
CONTINUOUS
 10
31.1828386868
 20
292.8946693851
 11
31.1772393204
 21
292.8791846814
  0
LINE
  5
296
100
AcDbEntity
  8
0
100
AcDbLine
 62
7
  6
CONTINUOUS
 10
31.0764564317
 20
292.9353814462
 11
31.0705904615
 21
292.9199619284
  0
LINE
  5
297
100
AcDbEntity
  8
0
100
AcDbLine
 62
7
  6
CONTINUOUS
 10
74.5497772286
 20
256.1775741017
 11
74.5204759625
 21
256.1514199367
  0
LINE
  5
298
100
AcDbEntity
  8
0
100
AcDbLine
 62
7
  6
CONTINUOUS
 10
13.9215160414
 20
276.8388358022
 11
27.5302193159
 21
279.4941377129
  0
LINE
  5
299
100
AcDbEntity
  8
0
100
AcDbLine
 62
7
  6
CONTINUOUS
 10
31.2640093323
 20
281.7068416066
 11
30.5394444828
 21
281.5653905166
  0
LWPOLYLINE
  5
29A
100
AcDbEntity
  8
0
100
AcDbPolyline
 62
7
  6
CONTINUOUS
 90
4
 70
0
 10
13.9215160414
 20
276.8388358022
 10
6.3832197369
 20
275.4077794045
 10
-1.32024551
 20
274.0294850047
 10
-8.1938030565
 20
272.8743489209
  0
LINE
  5
29B
100
AcDbEntity
  8
0
100
AcDbLine
 62
7
  6
CONTINUOUS
 10
-17.119799631
 20
269.8779428837
 11
-1.2678750031
 21
270.8008855254
  0
LINE
  5
29C
100
AcDbEntity
  8
0
100
AcDbLine
 62
7
  6
CONTINUOUS
 10
13.1866521204
 20
262.3394022851
 11
13.9811760383
 21
262.3307102453
  0
LINE
  5
29D
100
AcDbEntity
  8
0
100
AcDbLine
 62
7
  6
CONTINUOUS
 10
14.8540413078
 20
262.2460354166
 11
15.9022574018
 21
262.2327125057
  0
LINE
  5
29E
100
AcDbEntity
  8
0
100
AcDbLine
 62
7
  6
CONTINUOUS
 10
15.2956479437
 20
262.400499624
 11
15.6468028052
 21
262.3876271882
  0
LINE
  5
29F
100
AcDbEntity
  8
0
100
AcDbLine
 62
7
  6
CONTINUOUS
 10
14.2475712429
 20
262.513480018
 11
15.1837179195
 21
262.4683770645
  0
LINE
  5
2A0
100
AcDbEntity
  8
0
100
AcDbLine
 62
7
  6
CONTINUOUS
 10
13.9038398893
 20
261.3345266359
 11
13.1170312695
 21
261.3746631396
  0
LINE
  5
2A1
100
AcDbEntity
  8
0
100
AcDbLine
 62
7
  6
CONTINUOUS
 10
16.6116208981
 20
261.1963978881
 11
15.8249212528
 21
261.2365288963
  0
LINE
  5
2A2
100
AcDbEntity
  8
0
100
AcDbLine
 62
7
  6
CONTINUOUS
 10
13.1944770876
 20
262.3708411564
 11
13.9811760383
 21
262.3307102453
  0
LINE
  5
2A3
100
AcDbEntity
  8
0
100
AcDbLine
 62
7
  6
CONTINUOUS
 10
15.9022574018
 20
262.2327125057
 11
16.6890659103
 21
262.1925760175
  0
LINE
  5
2A4
100
AcDbEntity
  8
0
100
AcDbLine
 62
7
  6
CONTINUOUS
 10
15.1635578009
 20
262.6181400664
 11
15.5222169167
 21
262.5989661784
  0
LINE
  5
2A5
100
AcDbEntity
  8
0
100
AcDbLine
 62
7
  6
CONTINUOUS
 10
14.1403714253
 20
262.6702645258
 11
14.4148603589
 21
262.6554543843
  0
LINE
  5
2A6
100
AcDbEntity
  8
0
100
AcDbLine
 62
7
  6
CONTINUOUS
 10
13.9100824821
 20
258.2915696018
 11
13.3139658134
 21
258.3366936137
  0
LINE
  5
2A7
100
AcDbEntity
  8
0
100
AcDbLine
 62
7
  6
CONTINUOUS
 10
8.8350826712
 20
255.3450320757
 11
8.019335796
 21
255.4592803608
  0
LINE
  5
2A8
100
AcDbEntity
  8
0
100
AcDbLine
 62
7
  6
CONTINUOUS
 10
15.0334299918
 20
257.0065330585
 11
14.2176831167
 21
257.1207813437
  0
LINE
  5
2A9
100
AcDbEntity
  8
0
100
AcDbLine
 62
7
  6
CONTINUOUS
 10
2.7773836753
 20
260.1090601433
 11
0.6020586748
 21
260.413722237
  0
LINE
  5
2AA
100
AcDbEntity
  8
0
100
AcDbLine
 62
7
  6
CONTINUOUS
 10
7.2907400745
 20
260.3201489488
 11
4.8434994489
 21
260.6628938042
  0
LINE
  5
2AB
100
AcDbEntity
  8
0
100
AcDbLine
 62
7
  6
CONTINUOUS
 10
-30.0815081355
 20
258.9640580823
 11
-30.8065152548
 21
259.3828087298
  0
LINE
  5
2AC
100
AcDbEntity
  8
0
100
AcDbLine
 62
7
  6
CONTINUOUS
 10
-29.5279535992
 20
262.1889701149
 11
-28.0855678607
 21
261.3558748999
  0
LINE
  5
2AD
100
AcDbEntity
  8
0
100
AcDbLine
 62
7
  6
CONTINUOUS
 10
24.1343855897
 20
202.581361701
 11
24.7836283814
 21
201.8949811607
  0
LINE
  5
2AE
100
AcDbEntity
  8
0
100
AcDbLine
 62
7
  6
CONTINUOUS
 10
23.1580090165
 20
204.325031328
 11
22.5087662248
 21
205.0114118683
  0
LINE
  5
2AF
100
AcDbEntity
  8
0
100
AcDbLine
 62
7
  6
CONTINUOUS
 10
-16.2488206494
 20
245.2043744404
 11
-12.9118041101
 21
222.9412751717
  0
LINE
  5
2B0
100
AcDbEntity
  8
0
100
AcDbLine
 62
7
  6
CONTINUOUS
 10
-12.6638702173
 20
223.007735211
 11
-16.0008867566
 21
245.2708344797
  0
LINE
  5
2B1
100
AcDbEntity
  8
0
100
AcDbLine
 62
7
  6
CONTINUOUS
 10
-11.4546126672
 20
222.0996284568
 11
-14.9556179558
 21
245.4567881721
  0
LINE
  5
2B2
100
AcDbEntity
  8
0
100
AcDbLine
 62
7
  6
CONTINUOUS
 10
-12.2394544068
 20
246.8719446293
 11
-8.2487914928
 21
220.248005684
  0
LINE
  5
2B3
100
AcDbEntity
  8
0
100
AcDbLine
 62
7
  6
CONTINUOUS
 10
-8.0008576
 20
220.3144657234
 11
-11.9915205139
 21
246.9384046686
  0
LINE
  5
2B4
100
AcDbEntity
  8
0
100
AcDbLine
 62
7
  6
CONTINUOUS
 10
-6.7916000499
 20
219.4063589691
 11
-10.9852234902
 21
247.3843608305
  0
LINE
  5
2B5
100
AcDbEntity
  8
0
100
AcDbLine
 62
7
  6
CONTINUOUS
 10
-8.2236213538
 20
248.4963711188
 11
-3.5857788754
 21
217.5547361964
  0
LINE
  5
2B6
100
AcDbEntity
  8
0
100
AcDbLine
 62
7
  6
CONTINUOUS
 10
-3.3378449826
 20
217.6211962357
 11
-7.975687461
 21
248.5628311581
  0
LINE
  5
2B7
100
AcDbEntity
  8
0
100
AcDbLine
 62
7
  6
CONTINUOUS
 10
-2.1285874325
 20
216.7130894815
 11
-6.9672847806
 21
248.9947393095
  0
LINE
  5
2B8
100
AcDbEntity
  8
0
100
AcDbLine
 62
7
  6
CONTINUOUS
 10
-9.5323382296
 20
268.5855508357
 11
-0.1655715389
 21
206.0946239237
  0
LINE
  5
2B9
100
AcDbEntity
  8
0
100
AcDbLine
 62
7
  6
CONTINUOUS
 10
12.3219876265
 20
196.4316816402
 11
12.3219876265
 21
188.617337426
  0
LINE
  5
2BA
100
AcDbEntity
  8
0
100
AcDbLine
 62
7
  6
CONTINUOUS
 10
14.6927028764
 20
265.0176708149
 11
14.5431226388
 21
263.0908955229
  0
LINE
  5
2BB
100
AcDbEntity
  8
0
100
AcDbLine
 62
7
  6
CONTINUOUS
 10
14.3437887643
 20
260.5232329077
 11
14.1942085267
 21
258.5964576157
  0
LINE
  5
2BC
100
AcDbEntity
  8
0
100
AcDbLine
 62
7
  6
CONTINUOUS
 10
14.9852727836
 20
265.3968537071
 11
14.820203837
 21
263.2705650157
  0
LINE
  5
2BD
100
AcDbEntity
  8
0
100
AcDbLine
 62
7
  6
CONTINUOUS
 10
14.5998843417
 20
260.4325820931
 11
14.4348153951
 21
258.3062934017
  0
LINE
  5
2BE
100
AcDbEntity
  8
0
100
AcDbLine
 62
7
  6
CONTINUOUS
 10
15.1133944147
 20
258.5495683267
 11
15.2629746523
 21
260.4763436187
  0
LINE
  5
2BF
100
AcDbEntity
  8
0
100
AcDbLine
 62
7
  6
CONTINUOUS
 10
15.4623085268
 20
263.0440062338
 11
15.6118887644
 21
264.9707815259
  0
LINE
  5
2C0
100
AcDbEntity
  8
0
100
AcDbLine
 62
7
  6
CONTINUOUS
 10
30.9818896813
 20
292.9673338123
 11
30.978560944
 21
292.9510280348
  0
LINE
  5
2C1
100
AcDbEntity
  8
0
100
AcDbLine
 62
7
  6
CONTINUOUS
 10
30.5592125752
 20
291.1702006193
 11
30.5591634524
 21
291.1699636049
  0
LINE
  5
2C2
100
AcDbEntity
  8
0
100
AcDbLine
 62
7
  6
CONTINUOUS
 10
40.0041769971
 20
262.9101574877
 11
39.9682200312
 21
262.8355371999
  0
LINE
  5
2C3
100
AcDbEntity
  8
0
100
AcDbLine
 62
7
  6
CONTINUOUS
 10
22.9024431434
 20
202.8491888971
 11
22.2767577778
 21
202.0228610399
  0
LINE
  5
2C4
100
AcDbEntity
  8
0
100
AcDbLine
 62
7
  6
CONTINUOUS
 10
24.1920411666
 20
204.2724630392
 11
24.0387966012
 21
204.0700765678
  0
LINE
  5
2C5
100
AcDbEntity
  8
0
100
AcDbLine
 62
7
  6
CONTINUOUS
 10
24.3899514628
 20
204.057204132
 11
25.0156368283
 21
204.8835319891
  0
LINE
  5
2C6
100
AcDbEntity
  8
0
100
AcDbLine
 62
7
  6
CONTINUOUS
 10
74.5486415002
 20
256.1778539251
 11
74.5204759625
 21
256.1514199367
  0
LINE
  5
2C7
100
AcDbEntity
  8
0
100
AcDbLine
 62
7
  6
CONTINUOUS
 10
25.0156368283
 20
204.8835319891
 11
24.2653655742
 21
204.2685431221
  0
LINE
  5
2C8
100
AcDbEntity
  8
0
100
AcDbLine
 62
7
  6
CONTINUOUS
 10
22.2767577778
 20
202.0228610399
 11
23.0270290319
 21
202.6378499069
  0
LWPOLYLINE
  5
2C9
100
AcDbEntity
  8
0
100
AcDbPolyline
 62
7
  6
CONTINUOUS
 90
6
 70
0
 10
29.0883143689
 20
289.0005788167
 10
29.0537184378
 20
288.9966463628
 10
28.8868988568
 20
288.9441313343
 10
28.7359001361
 20
288.8313281503
 10
28.6379267056
 20
288.6846864407
 10
28.5958937792
 20
288.5422480957
  0
LINE
  5
2CA
100
AcDbEntity
  8
0
100
AcDbLine
 62
7
  6
CONTINUOUS
 10
30.1591205577
 20
289.0883291192
 11
29.088849708
 21
289.0006227051
  0
LINE
  5
2CB
100
AcDbEntity
  8
0
100
AcDbLine
 62
7
  6
CONTINUOUS
 10
111.0731385722
 20
260.9757415311
 11
111.262782072
 21
260.9615933047
  0
LINE
  5
2CC
100
AcDbEntity
  8
0
100
AcDbLine
 62
7
  6
CONTINUOUS
 10
21.4550190465
 20
261.5014774039
 11
34.3275479694
 21
259.6986334096
  0
LINE
  5
2CD
100
AcDbEntity
  8
0
100
AcDbLine
 62
7
  6
CONTINUOUS
 10
17.6213189424
 20
263.0893172532
 11
18.4370658178
 21
262.9750689664
  0
LINE
  5
2CE
100
AcDbEntity
  8
0
100
AcDbLine
 62
7
  6
CONTINUOUS
 10
-9.5323382296
 20
268.5855508357
 11
1.5737130805
 21
267.0301083873
  0
LINE
  5
2CF
100
AcDbEntity
  8
0
100
AcDbLine
 62
7
  6
CONTINUOUS
 10
9.9489531874
 20
269.6156976691
 11
12.396193813
 21
269.2729528137
  0
LINE
  5
2D0
100
AcDbEntity
  8
0
100
AcDbLine
 62
7
  6
CONTINUOUS
 10
17.3441722353
 20
270.2663718505
 11
16.5284253601
 21
270.3806201356
  0
LINE
  5
2D1
100
AcDbEntity
  8
0
100
AcDbLine
 62
7
  6
CONTINUOUS
 10
7.4093303261
 20
272.3507940568
 11
9.5846553266
 21
272.0461319631
  0
LINE
  5
2D2
100
AcDbEntity
  8
0
100
AcDbLine
 62
7
  6
CONTINUOUS
 10
24.6660736868
 20
272.2290476782
 11
24.3941580617
 21
272.2671304399
  0
LINE
  5
2D3
100
AcDbEntity
  8
0
100
AcDbLine
 62
7
  6
CONTINUOUS
 10
14.9076182184
 20
265.4140980388
 11
14.3220409284
 21
265.5344745179
  0
LINE
  5
2D4
100
AcDbEntity
  8
0
100
AcDbLine
 62
7
  6
CONTINUOUS
 10
15.036935331
 20
260.9870887312
 11
15.3912369322
 21
260.9117847573
  0
LINE
  5
2D5
100
AcDbEntity
  8
0
100
AcDbLine
 62
7
  6
CONTINUOUS
 10
14.1560965372
 20
261.3351874112
 11
15.0800976124
 21
261.1336215462
  0
LINE
  5
2D6
100
AcDbEntity
  8
0
100
AcDbLine
 62
7
  6
CONTINUOUS
 10
14.9076160224
 20
265.4140862115
 11
14.9852727836
 21
265.3968537071
  0
LINE
  5
2D7
100
AcDbEntity
  8
0
100
AcDbLine
 62
7
  6
CONTINUOUS
 10
15.4779264357
 20
265.295454913
 11
15.4808699568
 21
265.2947818359
  0
LINE
  5
2D8
100
AcDbEntity
  8
0
100
AcDbLine
 62
7
  6
CONTINUOUS
 10
15.2016420194
 20
261.1895890452
 11
15.5475240334
 21
261.1087959222
  0
LINE
  5
2D9
100
AcDbEntity
  8
0
100
AcDbLine
 62
7
  6
CONTINUOUS
 10
14.0439167806
 20
261.0272353482
 11
14.2838803744
 21
260.9682729632
  0
LINE
  5
2DA
100
AcDbEntity
  8
0
100
AcDbLine
 62
7
  6
CONTINUOUS
 10
14.7970039983
 20
261.5098344283
 11
15.8249212528
 21
261.2365288963
  0
LINE
  5
2DB
100
AcDbEntity
  8
0
100
AcDbLine
 62
7
  6
CONTINUOUS
 10
13.1021693272
 20
261.5558068269
 11
13.9038398893
 21
261.3345266359
  0
LINE
  5
2DC
100
AcDbEntity
  8
0
100
AcDbLine
 62
7
  6
CONTINUOUS
 10
-17.3031030024
 20
269.768208834
 11
-19.6883822691
 21
271.1459018397
  0
LINE
  5
2DD
100
AcDbEntity
  8
0
100
AcDbLine
 62
7
  6
CONTINUOUS
 10
-17.1312589578
 20
271.8313527632
 11
-15.1864312085
 21
270.708056374
  0
LINE
  5
2DE
100
AcDbEntity
  8
0
100
AcDbLine
 62
7
  6
CONTINUOUS
 10
22.8937016015
 20
202.6874602234
 11
22.9090590411
 21
202.6668367708
  0
LINE
  5
2DF
100
AcDbEntity
  8
0
100
AcDbLine
 62
7
  6
CONTINUOUS
 10
22.8937016015
 20
202.6874602234
 11
22.9089563348
 21
202.6665963829
  0
LINE
  5
2E0
100
AcDbEntity
  8
0
100
AcDbLine
 62
7
  6
CONTINUOUS
 10
22.5087662248
 20
205.0114118683
 11
23.0017219153
 21
204.1280201631
  0
LINE
  5
2E1
100
AcDbEntity
  8
0
100
AcDbLine
 62
7
  6
CONTINUOUS
 10
23.944790677
 20
202.8591659889
 11
24.0951604856
 21
202.5896986834
  0
LINE
  5
2E2
100
AcDbEntity
  8
0
100
AcDbLine
 62
7
  6
CONTINUOUS
 10
24.7836283814
 20
201.8949811607
 11
24.2906726909
 21
202.7783728659
  0
LINE
  5
2E3
100
AcDbEntity
  8
0
100
AcDbLine
 62
7
  6
CONTINUOUS
 10
10.1044579207
 20
197.017914871
 11
0.6020586748
 21
260.413722237
  0
LINE
  5
2E4
100
AcDbEntity
  8
0
100
AcDbLine
 62
7
  6
CONTINUOUS
 10
2.7773836753
 20
260.1090601433
 11
12.3219876265
 21
196.4316816402
  0
LINE
  5
2E5
100
AcDbEntity
  8
0
100
AcDbLine
 62
7
  6
CONTINUOUS
 10
4.6368878715
 20
260.6075104381
 11
13.3800365291
 21
202.2770873819
  0
LINE
  5
2E6
100
AcDbEntity
  8
0
100
AcDbLine
 62
7
  6
CONTINUOUS
 10
4.8434994489
 20
260.6628938042
 11
13.5866481064
 21
202.332470748
  0
LINE
  5
2E7
100
AcDbEntity
  8
0
100
AcDbLine
 62
7
  6
CONTINUOUS
 10
7.2907400745
 20
260.3201489488
 11
8.019335796
 21
255.4592803608
  0
LINE
  5
2E8
100
AcDbEntity
  8
0
100
AcDbLine
 62
7
  6
CONTINUOUS
 10
15.3052930106
 20
206.8505944806
 11
16.033888732
 21
201.9897258926
  0
LINE
  5
2E9
100
AcDbEntity
  8
0
100
AcDbLine
 62
7
  6
CONTINUOUS
 10
27.0221945204
 20
277.5146743022
 11
27.0098799928
 21
276.0980197871
  0
LINE
  5
2EA
100
AcDbEntity
  8
0
100
AcDbLine
 62
7
  6
CONTINUOUS
 10
27.0219112931
 20
277.4970369709
 11
27.0228660283
 21
277.5512617444
  0
LINE
  5
2EB
100
AcDbEntity
  8
0
100
AcDbLine
 62
7
  6
CONTINUOUS
 10
23.435851534
 20
206.6872477586
 11
23.2862712963
 21
204.7604724666
  0
LINE
  5
2EC
100
AcDbEntity
  8
0
100
AcDbLine
 62
7
  6
CONTINUOUS
 10
23.0869374219
 20
202.1928098515
 11
22.9373571842
 21
200.2660345595
  0
LINE
  5
2ED
100
AcDbEntity
  8
0
100
AcDbLine
 62
7
  6
CONTINUOUS
 10
23.7284214411
 20
207.0664306508
 11
23.5633524946
 21
204.9401419594
  0
LINE
  5
2EE
100
AcDbEntity
  8
0
100
AcDbLine
 62
7
  6
CONTINUOUS
 10
23.3430329992
 20
202.1021590368
 11
23.1779640526
 21
199.9758703455
  0
LINE
  5
2EF
100
AcDbEntity
  8
0
100
AcDbLine
 62
7
  6
CONTINUOUS
 10
23.8565430722
 20
200.2191452704
 11
24.0061233098
 21
202.1459205624
  0
LINE
  5
2F0
100
AcDbEntity
  8
0
100
AcDbLine
 62
7
  6
CONTINUOUS
 10
24.2054571843
 20
204.7135831776
 11
24.3550374219
 21
206.6403584696
  0
LINE
  5
2F1
100
AcDbEntity
  8
0
100
AcDbLine
 62
7
  6
CONTINUOUS
 10
27.0221945204
 20
277.5146743022
 11
27.0263416369
 21
277.5476473158
  0
LINE
  5
2F2
100
AcDbEntity
  8
0
100
AcDbLine
 62
7
  6
CONTINUOUS
 10
30.9373640607
 20
292.7279476192
 11
30.9353457883
 21
292.7157523183
  0
LINE
  5
2F3
100
AcDbEntity
  8
0
100
AcDbLine
 62
7
  6
CONTINUOUS
 10
30.978560944
 20
292.9510280348
 11
30.9454143701
 21
292.7751710827
  0
LINE
  5
2F4
100
AcDbEntity
  8
0
100
AcDbLine
 62
7
  6
CONTINUOUS
 10
23.2862712963
 20
204.7604724666
 11
23.1580090165
 21
204.325031328
  0
LINE
  5
2F5
100
AcDbEntity
  8
0
100
AcDbLine
 62
7
  6
CONTINUOUS
 10
23.7800839886
 20
202.656665675
 11
23.8232462699
 21
202.8031984899
  0
LINE
  5
2F6
100
AcDbEntity
  8
0
100
AcDbLine
 62
7
  6
CONTINUOUS
 10
24.0061233098
 20
202.1459205624
 11
24.1343855897
 21
202.581361701
  0
LINE
  5
2F7
100
AcDbEntity
  8
0
100
AcDbLine
 62
7
  6
CONTINUOUS
 10
25.0490426854
 20
274.1722333516
 11
27.4687272385
 21
273.8333478233
  0
LINE
  5
2F8
100
AcDbEntity
  8
0
100
AcDbLine
 62
7
  6
CONTINUOUS
 10
94.0162154135
 20
257.1331405632
 11
94.1776631618
 21
257.0915133251
  0
LINE
  5
2F9
100
AcDbEntity
  8
0
100
AcDbLine
 62
7
  6
CONTINUOUS
 10
13.9038398893
 20
261.3345266359
 11
14.1592944858
 21
261.1796119534
  0
LINE
  5
2FA
100
AcDbEntity
  8
0
100
AcDbLine
 62
7
  6
CONTINUOUS
 10
15.2956479437
 20
262.400499624
 11
15.1837179195
 21
262.4683770645
  0
LINE
  5
2FB
100
AcDbEntity
  8
0
100
AcDbLine
 62
7
  6
CONTINUOUS
 10
15.9022574018
 20
262.2327125057
 11
15.6468028052
 21
262.3876271882
  0
LINE
  5
2FC
100
AcDbEntity
  8
0
100
AcDbLine
 62
7
  6
CONTINUOUS
 10
14.1394789242
 20
261.2476491257
 11
15.2629746523
 21
260.4763436187
  0
LINE
  5
2FD
100
AcDbEntity
  8
0
100
AcDbLine
 62
7
  6
CONTINUOUS
 10
8.8350826712
 20
255.3450320757
 11
16.1210398858
 21
206.7363461955
  0
LINE
  5
2FE
100
AcDbEntity
  8
0
100
AcDbLine
 62
7
  6
CONTINUOUS
 10
27.457361182
 20
197.4675913153
 11
26.5200110666
 21
203.7211769427
  0
LINE
  5
2FF
100
AcDbEntity
  8
0
100
AcDbLine
 62
7
  6
CONTINUOUS
 10
17.6213189424
 20
263.0893172532
 11
16.5284253601
 21
270.3806201356
  0
LINE
  5
300
100
AcDbEntity
  8
0
100
AcDbLine
 62
7
  6
CONTINUOUS
 10
17.3441722353
 20
270.2663718505
 11
18.4370658178
 21
262.9750689664
  0
LINE
  5
301
100
AcDbEntity
  8
0
100
AcDbLine
 62
7
  6
CONTINUOUS
 10
28.2731080572
 20
197.3533430302
 11
27.180214475
 21
204.6446459122
  0
LINE
  5
302
100
AcDbEntity
  8
0
100
AcDbLine
 62
7
  6
CONTINUOUS
 10
14.2838803744
 20
260.9682729632
 11
14.3437887643
 21
260.5232329077
  0
LINE
  5
303
100
AcDbEntity
  8
0
100
AcDbLine
 62
7
  6
CONTINUOUS
 10
23.0270290319
 20
202.6378499069
 11
23.0869374219
 21
202.1928098515
  0
LINE
  5
304
100
AcDbEntity
  8
0
100
AcDbLine
 62
7
  6
CONTINUOUS
 10
15.1837179195
 20
262.4683770645
 11
15.1635578009
 21
262.6181400664
  0
LINE
  5
305
100
AcDbEntity
  8
0
100
AcDbLine
 62
7
  6
CONTINUOUS
 10
15.5222169167
 20
262.5989661784
 11
15.4623085268
 21
263.0440062338
  0
LINE
  5
306
100
AcDbEntity
  8
0
100
AcDbLine
 62
7
  6
CONTINUOUS
 10
23.9268665771
 20
204.1379540082
 11
23.9067064584
 21
204.2877170102
  0
LINE
  5
307
100
AcDbEntity
  8
0
100
AcDbLine
 62
7
  6
CONTINUOUS
 10
24.2653655742
 20
204.2685431221
 11
24.2054571843
 21
204.7135831776
  0
LINE
  5
308
100
AcDbEntity
  8
0
100
AcDbLine
 62
7
  6
CONTINUOUS
 10
94.0162161797
 20
257.1331401771
 11
94.0638285597
 21
257.1891559229
  0
LINE
  5
309
100
AcDbEntity
  8
0
100
AcDbLine
 62
7
  6
CONTINUOUS
 10
94.0162161797
 20
257.1331401771
 11
94.064176052
 21
257.1889819923
  0
LINE
  5
30A
100
AcDbEntity
  8
0
100
AcDbLine
 62
7
  6
CONTINUOUS
 10
52.1349934712
 20
278.5218017793
 11
52.0561889523
 21
278.5426963879
  0
LINE
  5
30B
100
AcDbEntity
  8
0
100
AcDbLine
 62
7
  6
CONTINUOUS
 10
52.1331208512
 20
278.5207815918
 11
52.0561889523
 21
278.5426963879
  0
LINE
  5
30C
100
AcDbEntity
  8
0
100
AcDbLine
 62
7
  6
CONTINUOUS
 10
15.3912369322
 20
260.9117847573
 11
16.0404797238
 21
260.225404217
  0
LINE
  5
30D
100
AcDbEntity
  8
0
100
AcDbLine
 62
7
  6
CONTINUOUS
 10
14.4148603589
 20
262.6554543843
 11
13.7656175672
 21
263.3418349246
  0
LINE
  5
30E
100
AcDbEntity
  8
0
100
AcDbLine
 62
7
  6
CONTINUOUS
 10
14.150552944
 20
261.0178832797
 11
14.1659103836
 21
260.997259827
  0
LINE
  5
30F
100
AcDbEntity
  8
0
100
AcDbLine
 62
7
  6
CONTINUOUS
 10
14.150552944
 20
261.0178832797
 11
14.1658076773
 21
260.9970194392
  0
LINE
  5
310
100
AcDbEntity
  8
0
100
AcDbLine
 62
7
  6
CONTINUOUS
 10
13.7656175672
 20
263.3418349246
 11
14.2585732577
 21
262.4584432194
  0
LINE
  5
311
100
AcDbEntity
  8
0
100
AcDbLine
 62
7
  6
CONTINUOUS
 10
15.2016420194
 20
261.1895890452
 11
15.3520118281
 21
260.9201217397
  0
LINE
  5
312
100
AcDbEntity
  8
0
100
AcDbLine
 62
7
  6
CONTINUOUS
 10
16.0404797238
 20
260.225404217
 11
15.5475240334
 21
261.1087959222
  0
LINE
  5
313
100
AcDbEntity
  8
0
100
AcDbLine
 62
7
  6
CONTINUOUS
 10
42.9967655164
 20
292.8299937408
 11
42.9967655164
 21
292.087957188
  0
LINE
  5
314
100
AcDbEntity
  8
0
100
AcDbLine
 62
7
  6
CONTINUOUS
 10
74.6291491074
 20
256.0886514945
 11
74.5204762247
 21
256.1514203641
  0
LINE
  5
315
100
AcDbEntity
  8
0
100
AcDbLine
 62
7
  6
CONTINUOUS
 10
111.1137475835
 20
261.0467821933
 11
111.0731402587
 21
260.9757413337
  0
LINE
  5
316
100
AcDbEntity
  8
0
100
AcDbLine
 62
7
  6
CONTINUOUS
 10
111.1148169156
 20
261.0471559411
 11
111.0731402587
 21
260.9757413337
  0
LINE
  5
317
100
AcDbEntity
  8
0
100
AcDbLine
 62
7
  6
CONTINUOUS
 10
55.5539705678
 20
258.1800389349
 11
55.5933241238
 21
258.1056844251
  0
LINE
  5
318
100
AcDbEntity
  8
0
100
AcDbLine
 62
7
  6
CONTINUOUS
 10
69.1328319332
 20
200.6701679841
 11
69.244218404
 21
199.9270466877
  0
LINE
  5
319
100
AcDbEntity
  8
0
100
AcDbLine
 62
7
  6
CONTINUOUS
 10
70.8456342006
 20
203.5811531809
 11
71.3103341776
 21
200.4808803487
  0
LINE
  5
31A
100
AcDbEntity
  8
0
100
AcDbLine
 62
7
  6
CONTINUOUS
 10
74.0333888471
 20
195.2830536394
 11
74.3902762729
 21
192.9020584919
  0
LINE
  5
31B
100
AcDbEntity
  8
0
100
AcDbLine
 62
7
  6
CONTINUOUS
 10
70.9632778489
 20
193.3810573624
 11
70.6538557772
 21
195.6947440986
  0
LINE
  5
31C
100
AcDbEntity
  8
0
100
AcDbLine
 62
7
  6
CONTINUOUS
 10
77.0954583436
 20
202.0316145994
 11
76.6307583666
 21
205.1318874315
  0
LINE
  5
31D
100
AcDbEntity
  8
0
100
AcDbLine
 62
7
  6
CONTINUOUS
 10
79.1615741172
 20
202.5854482603
 11
79.0501876464
 21
203.3285695567
  0
LINE
  5
31E
100
AcDbEntity
  8
0
100
AcDbLine
 62
7
  6
CONTINUOUS
 10
123.0944861113
 20
267.0942222215
 11
123.112084553
 21
267.1574238349
  0
LINE
  5
31F
100
AcDbEntity
  8
0
100
AcDbLine
 62
7
  6
CONTINUOUS
 10
123.0944861113
 20
267.0942222215
 11
123.113344036
 21
267.1577402412
  0
LINE
  5
320
100
AcDbEntity
  8
0
100
AcDbLine
 62
7
  6
CONTINUOUS
 10
113.1467655164
 20
292.8428934315
 11
113.1467490524
 21
292.8562798608
  0
LINE
  5
321
100
AcDbEntity
  8
0
100
AcDbLine
 62
7
  6
CONTINUOUS
 10
112.9967655164
 20
292.8562798608
 11
112.9967655164
 21
291.969140167
  0
LWPOLYLINE
  5
322
100
AcDbEntity
  8
0
100
AcDbPolyline
 62
7
  6
CONTINUOUS
 90
3
 70
0
 10
128.9612386066
 20
275.584118426
 10
128.6735326162
 20
281.7872092925
 10
127.6000437564
 20
287.1512874595
  0
LINE
  5
323
100
AcDbEntity
  8
0
100
AcDbLine
 62
7
  6
CONTINUOUS
 10
128.9572598914
 20
277.8190585942
 11
128.9836510535
 21
275.7514258477
  0
LINE
  5
324
100
AcDbEntity
  8
0
100
AcDbLine
 62
7
  6
CONTINUOUS
 10
128.2500812933
 20
274.5998275148
 11
128.2501128271
 21
274.5570995684
  0
LINE
  5
325
100
AcDbEntity
  8
0
100
AcDbLine
 62
7
  6
CONTINUOUS
 10
124.8014163679
 20
293.3938406778
 11
124.801518844
 21
293.3937129579
  0
LINE
  5
326
100
AcDbEntity
  8
0
100
AcDbLine
 62
7
  6
CONTINUOUS
 10
125.7861879368
 20
291.7642119904
 11
124.2815593492
 21
294.1258544455
  0
LINE
  5
327
100
AcDbEntity
  8
0
100
AcDbLine
 62
7
  6
CONTINUOUS
 10
126.0478860808
 20
291.3311351506
 11
124.801518844
 21
293.3937129579
  0
LINE
  5
328
100
AcDbEntity
  8
0
100
AcDbLine
 62
7
  6
CONTINUOUS
 10
127.6000437564
 20
287.1512874595
 11
126.3751715213
 21
290.3050419638
  0
LINE
  5
329
100
AcDbEntity
  8
0
100
AcDbLine
 62
7
  6
CONTINUOUS
 10
125.4343184531
 20
291.1702006403
 11
125.5289296571
 21
290.7063796081
  0
LWPOLYLINE
  5
32A
100
AcDbEntity
  8
0
100
AcDbPolyline
 62
7
  6
CONTINUOUS
 90
3
 70
0
 10
127.0580638857
 20
287.9674590431
 10
126.9579600744
 20
288.4779048853
 10
126.0478860808
 20
291.3311351506
  0
LINE
  5
32B
100
AcDbEntity
  8
0
100
AcDbLine
 62
7
  6
CONTINUOUS
 10
127.0587129513
 20
287.9637261376
 11
127.0579934359
 21
287.9676996315
  0
ARC
  5
32C
100
AcDbEntity
  8
0
100
AcDbCircle
 62
7
  6
CONTINUOUS
 10
-99.7063241457
 20
37.1928011192
 40
248.7446307127
100
AcDbArc
 50
70.0037423052
 51
70.6117782928
  0
ARC
  5
32D
100
AcDbEntity
  8
0
100
AcDbCircle
 62
7
  6
CONTINUOUS
 10
45.097240268
 20
203.8792281305
 40
22.2354995459
100
AcDbArc
 50
182.7090677884
 51
183.0723846014
  0
ARC
  5
32E
100
AcDbEntity
  8
0
100
AcDbCircle
 62
7
  6
CONTINUOUS
 10
25.2325438846
 20
183.5262172849
 40
19.7259277576
100
AcDbArc
 50
94.9217573473
 51
95.6639242283
  0
ARC
  5
32F
100
AcDbEntity
  8
0
100
AcDbCircle
 62
7
  6
CONTINUOUS
 10
38.8427569329
 20
203.5846461299
 40
15.9740783285
100
AcDbArc
 50
182.3945974566
 51
182.6012802124
  0
ARC
  5
330
100
AcDbEntity
  8
0
100
AcDbCircle
 62
7
  6
CONTINUOUS
 10
38.4145186129
 20
201.1652632062
 40
15.7362130544
100
AcDbArc
 50
168.3848767343
 51
168.6202656821
  0
ARC
  5
331
100
AcDbEntity
  8
0
100
AcDbCircle
 62
7
  6
CONTINUOUS
 10
29.803437755
 20
201.6487578379
 40
7.0360946969
100
AcDbArc
 50
168.8883511129
 51
169.6139203622
  0
ARC
  5
332
100
AcDbEntity
  8
0
100
AcDbCircle
 62
7
  6
CONTINUOUS
 10
29.8033464099
 20
204.4657980748
 40
6.8184909671
100
AcDbArc
 50
181.6439673753
 51
182.3765550834
  0
ARC
  5
333
100
AcDbEntity
  8
0
100
AcDbCircle
 62
7
  6
CONTINUOUS
 10
49.8214664466
 20
204.3548902695
 40
6.1901395856
100
AcDbArc
 50
198.077345183
 51
206.0289885272
  0
ARC
  5
334
100
AcDbEntity
  8
0
100
AcDbCircle
 62
7
  6
CONTINUOUS
 10
18.6426230661
 20
201.9298072762
 40
5.5491818772
100
AcDbArc
 50
271.881969036
 51
278.0530853393
  0
ARC
  5
335
100
AcDbEntity
  8
0
100
AcDbCircle
 62
7
  6
CONTINUOUS
 10
18.6471497061
 20
201.8411979242
 40
5.4604719018
100
AcDbArc
 50
270.9221220744
 51
271.865031415
  0
ARC
  5
336
100
AcDbEntity
  8
0
100
AcDbCircle
 62
7
  6
CONTINUOUS
 10
18.6473064658
 20
201.8283308876
 40
5.447604009
100
AcDbArc
 50
267.9045756192
 51
270.9226514742
  0
ARC
  5
337
100
AcDbEntity
  8
0
100
AcDbCircle
 62
7
  6
CONTINUOUS
 10
22.4270217769
 20
205.0920146739
 40
3.5465942015
100
AcDbArc
 50
68.9411631513
 51
74.5276191782
  0
ARC
  5
338
100
AcDbEntity
  8
0
100
AcDbCircle
 62
7
  6
CONTINUOUS
 10
22.2868753841
 20
202.6458922333
 40
2.6538240641
100
AcDbArc
 50
243.5630417396
 51
244.19727667
  0
ARC
  5
339
100
AcDbEntity
  8
0
100
AcDbCircle
 62
7
  6
CONTINUOUS
 10
22.272586761
 20
202.6154806269
 40
2.6202251152
100
AcDbArc
 50
244.1891125413
 51
251.5153458013
  0
ARC
  5
33A
100
AcDbEntity
  8
0
100
AcDbCircle
 62
7
  6
CONTINUOUS
 10
22.2553125376
 20
202.567099473
 40
2.5688634207
100
AcDbArc
 50
251.5386254479
 51
254.3754420311
  0
ARC
  5
33B
100
AcDbEntity
  8
0
100
AcDbCircle
 62
7
  6
CONTINUOUS
 10
22.8852951394
 20
203.5597125867
 40
2.5651584616
100
AcDbArc
 50
344.3089076868
 51
355.5693788406
  0
ARC
  5
33C
100
AcDbEntity
  8
0
100
AcDbCircle
 62
7
  6
CONTINUOUS
 10
24.4070994662
 20
203.3466804424
 40
2.5651584611
100
AcDbArc
 50
164.3089076855
 51
175.5693788419
  0
ARC
  5
33D
100
AcDbEntity
  8
0
100
AcDbCircle
 62
7
  6
CONTINUOUS
 10
22.8442630634
 20
202.5106482754
 40
2.5566492729
100
AcDbArc
 50
265.71488475
 51
277.4998032296
  0
ARC
  5
33E
100
AcDbEntity
  8
0
100
AcDbCircle
 62
7
  6
CONTINUOUS
 10
22.2511576113
 20
202.5522875304
 40
2.5534797635
100
AcDbArc
 50
254.3757124306
 51
259.9753764066
  0
ARC
  5
33F
100
AcDbEntity
  8
0
100
AcDbCircle
 62
7
  6
CONTINUOUS
 10
22.2490864781
 20
202.5424568423
 40
2.5434386563
100
AcDbArc
 50
259.9827713485
 51
265.6713557145
  0
ARC
  5
340
100
AcDbEntity
  8
0
100
AcDbCircle
 62
7
  6
CONTINUOUS
 10
24.3780439605
 20
203.3479168009
 40
2.5360944755
100
AcDbArc
 50
175.5465172137
 51
186.8772030517
  0
ARC
  5
341
100
AcDbEntity
  8
0
100
AcDbCircle
 62
7
  6
CONTINUOUS
 10
22.9143506457
 20
203.5584762282
 40
2.5360944754
100
AcDbArc
 50
355.5465172137
 51
6.8772030518
  0
ARC
  5
342
100
AcDbEntity
  8
0
100
AcDbCircle
 62
7
  6
CONTINUOUS
 10
23.1420761444
 20
204.6026911624
 40
2.5325954507
100
AcDbArc
 50
78.4128996418
 51
97.5518137882
  0
ARC
  5
343
100
AcDbEntity
  8
0
100
AcDbCircle
 62
7
  6
CONTINUOUS
 10
22.8434307744
 20
202.4722668414
 40
2.5183137674
100
AcDbArc
 50
256.5757058821
 51
265.6685194954
  0
ARC
  5
344
100
AcDbEntity
  8
0
100
AcDbCircle
 62
7
  6
CONTINUOUS
 10
22.411217555
 20
203.4446965814
 40
0.8978851581
100
AcDbArc
 50
300.8865027496
 51
302.5038363097
  0
ARC
  5
345
100
AcDbEntity
  8
0
100
AcDbCircle
 62
7
  6
CONTINUOUS
 10
-298.2692530202
 20
256.3216132087
 40
388.2165109443
100
AcDbArc
 50
1.7167969317
 51
2.2153179594
  0
ARC
  5
346
100
AcDbEntity
  8
0
100
AcDbCircle
 62
7
  6
CONTINUOUS
 10
-31.318946533
 20
259.5912060721
 40
138.5602692584
100
AcDbArc
 50
4.7749437637
 51
6.1631160623
  0
ARC
  5
347
100
AcDbEntity
  8
0
100
AcDbCircle
 62
7
  6
CONTINUOUS
 10
30.3143031147
 20
265.3818581063
 40
89.7601680486
100
AcDbArc
 50
7.1889345615
 51
9.3042671447
  0
ARC
  5
348
100
AcDbEntity
  8
0
100
AcDbCircle
 62
7
  6
CONTINUOUS
 10
30.3099390106
 20
227.4666277011
 40
24.4889816287
100
AcDbArc
 50
253.4892472288
 51
254.0910857903
  0
ARC
  5
349
100
AcDbEntity
  8
0
100
AcDbCircle
 62
7
  6
CONTINUOUS
 10
36.3540916103
 20
262.2096511867
 40
22.2354995458
100
AcDbArc
 50
182.7090677883
 51
183.0723846014
  0
ARC
  5
34A
100
AcDbEntity
  8
0
100
AcDbCircle
 62
7
  6
CONTINUOUS
 10
-10.6273960872
 20
251.8830201177
 40
21.5277420926
100
AcDbArc
 50
151.3975896211
 51
159.6118704669
  0
ARC
  5
34B
100
AcDbEntity
  8
0
100
AcDbCircle
 62
7
  6
CONTINUOUS
 10
16.489395227
 20
241.8566403412
 40
19.7259277576
100
AcDbArc
 50
94.9217573473
 51
95.6639242283
  0
ARC
  5
34C
100
AcDbEntity
  8
0
100
AcDbCircle
 62
7
  6
CONTINUOUS
 10
30.0996082737
 20
261.9150691861
 40
15.9740783268
100
AcDbArc
 50
182.3945974566
 51
182.6012802124
  0
ARC
  5
34D
100
AcDbEntity
  8
0
100
AcDbCircle
 62
7
  6
CONTINUOUS
 10
29.6713699597
 20
259.4956862616
 40
15.7362130588
100
AcDbArc
 50
168.3848767344
 51
168.620265682
  0
ARC
  5
34E
100
AcDbEntity
  8
0
100
AcDbCircle
 62
7
  6
CONTINUOUS
 10
13.3037889097
 20
261.9065834495
 40
8.7637186339
100
AcDbArc
 50
188.2536049118
 51
188.5245448595
  0
ARC
  5
34F
100
AcDbEntity
  8
0
100
AcDbCircle
 62
7
  6
CONTINUOUS
 10
21.0602890975
 20
259.9791808942
 40
7.0360946969
100
AcDbArc
 50
168.8883511129
 51
169.6139203622
  0
ARC
  5
350
100
AcDbEntity
  8
0
100
AcDbCircle
 62
7
  6
CONTINUOUS
 10
21.0601977522
 20
262.796221131
 40
6.8184909669
100
AcDbArc
 50
181.6439673753
 51
182.3765550834
  0
ARC
  5
351
100
AcDbEntity
  8
0
100
AcDbCircle
 62
7
  6
CONTINUOUS
 10
11.4102669888
 20
264.271382597
 40
5.784618473
100
AcDbArc
 50
105.005887644
 51
105.5369401461
  0
ARC
  5
352
100
AcDbEntity
  8
0
100
AcDbCircle
 62
7
  6
CONTINUOUS
 10
13.5437267261
 20
260.9763152886
 40
2.653824063
100
AcDbArc
 50
243.5630417394
 51
244.19727667
  0
ARC
  5
353
100
AcDbEntity
  8
0
100
AcDbCircle
 62
7
  6
CONTINUOUS
 10
13.5294381035
 20
260.9459036832
 40
2.6202251152
100
AcDbArc
 50
244.1891125413
 51
251.5153458013
  0
ARC
  5
354
100
AcDbEntity
  8
0
100
AcDbCircle
 62
7
  6
CONTINUOUS
 10
13.51216388
 20
260.8975225292
 40
2.5688634207
100
AcDbArc
 50
251.5386254479
 51
254.3754420311
  0
ARC
  5
355
100
AcDbEntity
  8
0
100
AcDbCircle
 62
7
  6
CONTINUOUS
 10
14.1421464818
 20
261.890135643
 40
2.5651584616
100
AcDbArc
 50
344.3089076868
 51
355.5693788406
  0
ARC
  5
356
100
AcDbEntity
  8
0
100
AcDbCircle
 62
7
  6
CONTINUOUS
 10
15.6639508087
 20
261.6771034987
 40
2.565158461
100
AcDbArc
 50
164.3089076855
 51
175.5693788419
  0
ARC
  5
357
100
AcDbEntity
  8
0
100
AcDbCircle
 62
7
  6
CONTINUOUS
 10
14.1011144058
 20
260.8410713317
 40
2.5566492729
100
AcDbArc
 50
265.71488475
 51
277.4998032296
  0
ARC
  5
358
100
AcDbEntity
  8
0
100
AcDbCircle
 62
7
  6
CONTINUOUS
 10
13.5080089538
 20
260.8827105867
 40
2.5534797635
100
AcDbArc
 50
254.3757124306
 51
259.9753764066
  0
ARC
  5
359
100
AcDbEntity
  8
0
100
AcDbCircle
 62
7
  6
CONTINUOUS
 10
13.5059378206
 20
260.8728798986
 40
2.5434386563
100
AcDbArc
 50
259.9827713485
 51
265.6713557145
  0
ARC
  5
35A
100
AcDbEntity
  8
0
100
AcDbCircle
 62
7
  6
CONTINUOUS
 10
15.634895303
 20
261.6783398571
 40
2.5360944755
100
AcDbArc
 50
175.5465172137
 51
186.8772030517
  0
ARC
  5
35B
100
AcDbEntity
  8
0
100
AcDbCircle
 62
7
  6
CONTINUOUS
 10
14.1712019882
 20
261.8888992845
 40
2.5360944754
100
AcDbArc
 50
355.5465172137
 51
6.8772030518
  0
ARC
  5
35C
100
AcDbEntity
  8
0
100
AcDbCircle
 62
7
  6
CONTINUOUS
 10
14.3989274869
 20
262.9331142187
 40
2.5325954507
100
AcDbArc
 50
78.4128996418
 51
97.5518137882
  0
ARC
  5
35D
100
AcDbEntity
  8
0
100
AcDbCircle
 62
7
  6
CONTINUOUS
 10
14.1002821169
 20
260.8026898977
 40
2.5183137674
100
AcDbArc
 50
256.5757058822
 51
265.6685194954
  0
ARC
  5
35E
100
AcDbEntity
  8
0
100
AcDbCircle
 62
7
  6
CONTINUOUS
 10
13.6680688975
 20
261.7751196377
 40
0.897885158
100
AcDbArc
 50
300.8865027495
 51
302.5038363097
  0
ARC
  5
35F
100
AcDbEntity
  8
0
100
AcDbCircle
 62
7
  6
CONTINUOUS
 10
-26.6072249538
 20
290.8641137281
 40
54.2861755599
100
AcDbArc
 50
339.9662811978
 51
342.0926074405
  0
ARC
  5
360
100
AcDbEntity
  8
0
100
AcDbCircle
 62
7
  6
CONTINUOUS
 10
21.566790353
 20
285.7970507573
 40
24.4889816287
100
AcDbArc
 50
253.4892472288
 51
254.0910857903
  0
ARC
  5
361
100
AcDbEntity
  8
0
100
AcDbCircle
 62
7
  6
CONTINUOUS
 10
53.546535048
 20
252.6222876648
 40
84.623529473
100
AcDbArc
 50
175.4177928363
 51
176.4112667724
  0
ARC
  5
362
100
AcDbEntity
  8
0
100
AcDbCircle
 62
7
  6
CONTINUOUS
 10
71.4421946291
 20
238.7514266262
 40
70.6371044593
100
AcDbArc
 50
104.8327268694
 51
105.0265388338
  0
ARC
  5
363
100
AcDbEntity
  8
0
100
AcDbCircle
 62
7
  6
CONTINUOUS
 10
71.0452872598
 20
240.1255845854
 40
69.2070741308
100
AcDbArc
 50
105.0041796301
 51
105.5985307727
  0
ARC
  5
364
100
AcDbEntity
  8
0
100
AcDbCircle
 62
7
  6
CONTINUOUS
 10
74.0399170042
 20
244.1394623607
 40
63.1564250761
100
AcDbArc
 50
102.0319093477
 51
104.5244139337
  0
ARC
  5
365
100
AcDbEntity
  8
0
100
AcDbCircle
 62
7
  6
CONTINUOUS
 10
73.5521347372
 20
247.9554482457
 40
59.0031889595
100
AcDbArc
 50
102.3408615561
 51
104.9897098912
  0
ARC
  5
366
100
AcDbEntity
  8
0
100
AcDbCircle
 62
7
  6
CONTINUOUS
 10
72.7118341807
 20
249.4275113626
 40
57.7043185777
100
AcDbArc
 50
104.5646913948
 51
105.0047780701
  0
ARC
  5
367
100
AcDbEntity
  8
0
100
AcDbCircle
 62
7
  6
CONTINUOUS
 10
64.7896370247
 20
239.9277178629
 40
33.3684616445
100
AcDbArc
 50
30.5469404321
 51
30.9358728075
  0
ARC
  5
368
100
AcDbEntity
  8
0
100
AcDbCircle
 62
7
  6
CONTINUOUS
 10
39.9623884585
 20
234.0428961883
 40
27.2408582255
100
AcDbArc
 50
295.998762133
 51
303.0284619624
  0
ARC
  5
369
100
AcDbEntity
  8
0
100
AcDbCircle
 62
7
  6
CONTINUOUS
 10
67.5703819926
 20
225.4312493011
 40
24.8103284501
100
AcDbArc
 50
262.0541988237
 51
273.6106360495
  0
ARC
  5
36A
100
AcDbEntity
  8
0
100
AcDbCircle
 62
7
  6
CONTINUOUS
 10
67.6888967677
 20
226.2978197827
 40
22.9349500265
100
AcDbArc
 50
262.0634467347
 51
277.9112327745
  0
ARC
  5
36B
100
AcDbEntity
  8
0
100
AcDbCircle
 62
7
  6
CONTINUOUS
 10
40.0151599781
 20
260.9442512062
 40
13.0484265574
100
AcDbArc
 50
117.2155771379
 51
118.9635387092
  0
ARC
  5
36C
100
AcDbEntity
  8
0
100
AcDbCircle
 62
7
  6
CONTINUOUS
 10
39.4547301599
 20
262.7511762487
 40
11.6911007921
100
AcDbArc
 50
118.7437359775
 51
120.9658489151
  0
ARC
  5
36D
100
AcDbEntity
  8
0
100
AcDbCircle
 62
7
  6
CONTINUOUS
 10
39.2108146765
 20
262.859568828
 40
11.0571320293
100
AcDbArc
 50
144.6959305193
 51
145.8165790775
  0
ARC
  5
36E
100
AcDbEntity
  8
0
100
AcDbCircle
 62
7
  6
CONTINUOUS
 10
71.563741463
 20
251.5527749458
 40
5.5715221543
100
AcDbArc
 50
45.7386728894
 51
53.0527512248
  0
ARC
  5
36F
100
AcDbEntity
  8
0
100
AcDbCircle
 62
7
  6
CONTINUOUS
 10
57.5627522444
 20
245.8169388846
 40
3.7139485591
100
AcDbArc
 50
199.8714785844
 51
205.5463410881
  0
ARC
  5
370
100
AcDbEntity
  8
0
100
AcDbCircle
 62
7
  6
CONTINUOUS
 10
72.2618164281
 20
249.753710166
 40
3.6922737735
100
AcDbArc
 50
201.2002883556
 51
205.6315560997
  0
ARC
  5
371
100
AcDbEntity
  8
0
100
AcDbCircle
 62
7
  6
CONTINUOUS
 10
55.4627215918
 20
228.1221128242
 40
3.6922737735
100
AcDbArc
 50
201.2002883556
 51
205.6315560997
  0
ARC
  5
372
100
AcDbEntity
  8
0
100
AcDbCircle
 62
7
  6
CONTINUOUS
 10
79.2784351746
 20
234.506045424
 40
3.6922737735
100
AcDbArc
 50
201.2002883556
 51
205.6315560998
  0
ARC
  5
373
100
AcDbEntity
  8
0
100
AcDbCircle
 62
7
  6
CONTINUOUS
 10
104.0524024778
 20
277.1549539551
 40
76.3107981522
100
AcDbArc
 50
171.4195004527
 51
177.7217809753
  0
ARC
  5
374
100
AcDbEntity
  8
0
100
AcDbCircle
 62
7
  6
CONTINUOUS
 10
103.9788301663
 20
275.9524827626
 40
74.9801252601
100
AcDbArc
 50
168.2901427977
 51
170.0138992073
  0
ARC
  5
375
100
AcDbEntity
  8
0
100
AcDbCircle
 62
7
  6
CONTINUOUS
 10
53.408060584
 20
274.6595337948
 40
74.8426301494
100
AcDbArc
 50
0.2302928899
 51
10.239447965
  0
ARC
  5
376
100
AcDbEntity
  8
0
100
AcDbCircle
 62
7
  6
CONTINUOUS
 10
103.0012817137
 20
270.8963858452
 40
72.5472384873
100
AcDbArc
 50
168.8628909898
 51
171.4302648504
  0
ARC
  5
377
100
AcDbEntity
  8
0
100
AcDbCircle
 62
7
  6
CONTINUOUS
 10
54.6550980508
 20
272.8360115589
 40
71.8323955932
100
AcDbArc
 50
8.605743696
 51
11.195800971
  0
ARC
  5
378
100
AcDbEntity
  8
0
100
AcDbCircle
 62
7
  6
CONTINUOUS
 10
73.88927696
 20
277.1528875953
 40
54.5804169285
100
AcDbArc
 50
357.3190723368
 51
357.7020229549
  0
ARC
  5
379
100
AcDbEntity
  8
0
100
AcDbCircle
 62
7
  6
CONTINUOUS
 10
78.7183228571
 20
276.665541916
 40
50.2540407799
100
AcDbArc
 50
358.1453273934
 51
358.772407327
  0
ARC
  5
37A
100
AcDbEntity
  8
0
100
AcDbCircle
 62
7
  6
CONTINUOUS
 10
79.4775426217
 20
276.6485577215
 40
49.4946314075
100
AcDbArc
 50
358.7732348511
 51
359.0738625752
  0
ARC
  5
37B
100
AcDbEntity
  8
0
100
AcDbCircle
 62
7
  6
CONTINUOUS
 10
78.8208428148
 20
274.7554792333
 40
49.4296676783
100
AcDbArc
 50
359.819627133
 51
0.2374765836
  0
ARC
  5
37C
100
AcDbEntity
  8
0
100
AcDbCircle
 62
7
  6
CONTINUOUS
 10
81.2927635847
 20
276.6253888661
 40
47.6792734908
100
AcDbArc
 50
359.0664428595
 51
1.4402281185
  0
ARC
  5
37D
100
AcDbEntity
  8
0
100
AcDbCircle
 62
7
  6
CONTINUOUS
 10
101.0035625354
 20
306.3776500548
 40
27.1450680971
100
AcDbArc
 50
301.7293662867
 51
302.2705817424
  0
ARC
  5
37E
100
AcDbEntity
  8
0
100
AcDbCircle
 62
7
  6
CONTINUOUS
 10
94.9614085031
 20
279.4121039608
 40
25.438930368
100
AcDbArc
 50
59.9913449841
 51
60.5197880654
  0
ARC
  5
37F
100
AcDbEntity
  8
0
100
AcDbCircle
 62
7
  6
CONTINUOUS
 10
60.7671747667
 20
307.0901430345
 40
24.9047838106
100
AcDbArc
 50
239.2504899745
 51
240.5252896794
  0
ARC
  5
380
100
AcDbEntity
  8
0
100
AcDbCircle
 62
7
  6
CONTINUOUS
 10
96.2072199041
 20
305.4493477119
 40
22.9931481038
100
AcDbArc
 50
300.7994114866
 51
302.9432565648
  0
ARC
  5
381
100
AcDbEntity
  8
0
100
AcDbCircle
 62
7
  6
CONTINUOUS
 10
103.9230689213
 20
283.1083173185
 40
21.9730817378
100
AcDbArc
 50
51.5944124525
 51
54.1739423283
  0
ARC
  5
382
100
AcDbEntity
  8
0
100
AcDbCircle
 62
7
  6
CONTINUOUS
 10
43.3950658317
 20
269.0463983235
 40
18.9846716952
100
AcDbArc
 50
148.2269707001
 51
152.5085993596
  0
ARC
  5
383
100
AcDbEntity
  8
0
100
AcDbCircle
 62
7
  6
CONTINUOUS
 10
49.4905468745
 20
286.2804833639
 40
17.8835424641
100
AcDbArc
 50
130.1363203848
 51
132.570030037
  0
ARC
  5
384
100
AcDbEntity
  8
0
100
AcDbCircle
 62
7
  6
CONTINUOUS
 10
48.8427348889
 20
286.9897016768
 40
16.9229992363
100
AcDbArc
 50
132.57916419
 51
133.205742609
  0
ARC
  5
385
100
AcDbEntity
  8
0
100
AcDbCircle
 62
7
  6
CONTINUOUS
 10
42.1665873505
 20
288.7074142766
 40
11.8687280144
100
AcDbArc
 50
159.2109488773
 51
160.0654404951
  0
ARC
  5
386
100
AcDbEntity
  8
0
100
AcDbCircle
 62
7
  6
CONTINUOUS
 10
41.74562547
 20
288.8491378141
 40
11.4246735278
100
AcDbArc
 50
160.0138166235
 51
168.2796286353
  0
ARC
  5
387
100
AcDbEntity
  8
0
100
AcDbCircle
 62
7
  6
CONTINUOUS
 10
42.9481357674
 20
291.8179488579
 40
9.2698596439
100
AcDbArc
 50
150.7388558243
 51
153.7662449076
  0
ARC
  5
388
100
AcDbEntity
  8
0
100
AcDbCircle
 62
7
  6
CONTINUOUS
 10
37.2686574873
 20
291.6738553293
 40
6.4184411667
100
AcDbArc
 50
170.1199389335
 51
170.5475686039
  0
ARC
  5
389
100
AcDbEntity
  8
0
100
AcDbCircle
 62
7
  6
CONTINUOUS
 10
37.2065630027
 20
291.6838087365
 40
6.3555544924
100
AcDbArc
 50
170.6555849194
 51
172.9498074269
  0
ARC
  5
38A
100
AcDbEntity
  8
0
100
AcDbCircle
 62
7
  6
CONTINUOUS
 10
48.4923095302
 20
291.9578517701
 40
5.6469312901
100
AcDbArc
 50
169.3807251881
 51
171.2868436148
  0
ARC
  5
38B
100
AcDbEntity
  8
0
100
AcDbCircle
 62
7
  6
CONTINUOUS
 10
48.4846896725
 20
292.8211353435
 40
5.6392198048
100
AcDbArc
 50
168.8970894223
 51
172.3317209019
  0
ARC
  5
38C
100
AcDbEntity
  8
0
100
AcDbCircle
 62
7
  6
CONTINUOUS
 10
48.3990277666
 20
291.9718639255
 40
5.5526034159
100
AcDbArc
 50
171.2839481203
 51
174.8308455833
  0
ARC
  5
38D
100
AcDbEntity
  8
0
100
AcDbCircle
 62
7
  6
CONTINUOUS
 10
48.3351063392
 20
292.840868906
 40
5.4883409783
100
AcDbArc
 50
172.3275143947
 51
179.9788648758
  0
ARC
  5
38E
100
AcDbEntity
  8
0
100
AcDbCircle
 62
7
  6
CONTINUOUS
 10
48.4519622565
 20
293.5704590505
 40
5.4551825927
100
AcDbArc
 50
180.0117760948
 51
187.1737994636
  0
ARC
  5
38F
100
AcDbEntity
  8
0
100
AcDbCircle
 62
7
  6
CONTINUOUS
 10
77.9925027832
 20
390.8975644315
 40
119.9773362694
100
AcDbArc
 50
265.8768156773
 51
274.6439118025
  0
ARC
  5
390
100
AcDbEntity
  8
0
100
AcDbCircle
 62
7
  6
CONTINUOUS
 10
70.9784290743
 20
379.6006099756
 40
108.6452783552
100
AcDbArc
 50
269.0146778662
 51
270.063312784
  0
ARC
  5
391
100
AcDbEntity
  8
0
100
AcDbCircle
 62
7
  6
CONTINUOUS
 10
74.5500737974
 20
364.0332100675
 40
93.9279336394
100
AcDbArc
 50
278.0961594399
 51
279.2554526475
  0
ARC
  5
392
100
AcDbEntity
  8
0
100
AcDbCircle
 62
7
  6
CONTINUOUS
 10
67.1376271766
 20
356.6473584606
 40
84.3370308148
100
AcDbArc
 50
259.5165705914
 51
260.7561754722
  0
ARC
  5
393
100
AcDbEntity
  8
0
100
AcDbCircle
 62
7
  6
CONTINUOUS
 10
84.5282672433
 20
349.8399357574
 40
78.3368691238
100
AcDbArc
 50
283.7864514157
 51
284.8042403144
  0
ARC
  5
394
100
AcDbEntity
  8
0
100
AcDbCircle
 62
7
  6
CONTINUOUS
 10
84.5669579461
 20
346.5098303663
 40
70.6736873295
100
AcDbArc
 50
284.8117061927
 51
285.0055184054
  0
ARC
  5
395
100
AcDbEntity
  8
0
100
AcDbCircle
 62
7
  6
CONTINUOUS
 10
83.3838166572
 20
337.1547724274
 40
57.3071938925
100
AcDbArc
 50
284.8098579285
 51
285.005502131
  0
ARC
  5
396
100
AcDbEntity
  8
0
100
AcDbCircle
 62
7
  6
CONTINUOUS
 10
87.0126186571
 20
324.5967925094
 40
53.7628367249
100
AcDbArc
 50
289.4982926841
 51
291.1838900867
  0
ARC
  5
397
100
AcDbEntity
  8
0
100
AcDbCircle
 62
7
  6
CONTINUOUS
 10
84.44830079
 20
333.2621782686
 40
53.2717261069
100
AcDbArc
 50
284.9836142736
 51
288.2253329187
  0
ARC
  5
398
100
AcDbEntity
  8
0
100
AcDbCircle
 62
7
  6
CONTINUOUS
 10
55.3374171914
 20
317.2708794986
 40
41.9498171104
100
AcDbArc
 50
246.2890327951
 51
248.2570772931
  0
ARC
  5
399
100
AcDbEntity
  8
0
100
AcDbCircle
 62
7
  6
CONTINUOUS
 10
62.9691630878
 20
310.4135950054
 40
28.6969020646
100
AcDbArc
 50
242.8961521345
 51
243.2064107248
  0
ARC
  5
39A
100
AcDbEntity
  8
0
100
AcDbCircle
 62
7
  6
CONTINUOUS
 10
62.0431750351
 20
309.3602530133
 40
27.5089231996
100
AcDbArc
 50
240.5380616619
 51
243.4278831385
  0
ARC
  5
39B
100
AcDbEntity
  8
0
100
AcDbCircle
 62
7
  6
CONTINUOUS
 10
507.9096989387
 20
255.584006365
 40
437.0815904813
100
AcDbArc
 50
177.9845935766
 51
178.4274421112
  0
ARC
  5
39C
100
AcDbEntity
  8
0
100
AcDbCircle
 62
7
  6
CONTINUOUS
 10
197.3289880751
 20
258.3382807401
 40
144.5264836567
100
AcDbArc
 50
174.0158946969
 51
175.3473326917
  0
ARC
  5
39D
100
AcDbEntity
  8
0
100
AcDbCircle
 62
7
  6
CONTINUOUS
 10
130.2479511631
 20
263.6941062908
 40
91.6231064248
100
AcDbArc
 50
170.8236627329
 51
172.8975776116
  0
ARC
  5
39E
100
AcDbEntity
  8
0
100
AcDbCircle
 62
7
  6
CONTINUOUS
 10
121.8417184848
 20
221.923556338
 40
54.9538100872
100
AcDbArc
 50
108.0684408308
 51
109.8328249594
  0
ARC
  5
39F
100
AcDbEntity
  8
0
100
AcDbCircle
 62
7
  6
CONTINUOUS
 10
118.4659843307
 20
223.2722762301
 40
52.7027644903
100
AcDbArc
 50
105.3163011318
 51
106.8761820673
  0
ARC
  5
3A0
100
AcDbEntity
  8
0
100
AcDbCircle
 62
7
  6
CONTINUOUS
 10
105.7615015448
 20
294.449527913
 40
19.6039027706
100
AcDbArc
 50
308.7501581742
 51
312.0570119887
  0
ARC
  5
3A1
100
AcDbEntity
  8
0
100
AcDbCircle
 62
7
  6
CONTINUOUS
 10
108.795076013
 20
285.4185554273
 40
18.0825631931
100
AcDbArc
 50
8.0910553935
 51
9.8481024831
  0
ARC
  5
3A2
100
AcDbEntity
  8
0
100
AcDbCircle
 62
7
  6
CONTINUOUS
 10
113.1560228497
 20
288.4264989601
 40
12.5963269299
100
AcDbArc
 50
23.1272872268
 51
27.0005585227
  0
ARC
  5
3A3
100
AcDbEntity
  8
0
100
AcDbCircle
 62
7
  6
CONTINUOUS
 10
116.1148513555
 20
287.3304902613
 40
10.5011360255
100
AcDbArc
 50
22.077561409
 51
22.7180415466
  0
ARC
  5
3A4
100
AcDbEntity
  8
0
100
AcDbCircle
 62
7
  6
CONTINUOUS
 10
117.939977146
 20
289.6149601662
 40
7.654003096
100
AcDbArc
 50
8.1878727732
 51
11.7216406291
  0
ARC
  5
3A5
100
AcDbEntity
  8
0
100
AcDbCircle
 62
7
  6
CONTINUOUS
 10
117.8666660421
 20
287.3468893147
 40
7.2756902469
100
AcDbArc
 50
349.1231441018
 51
355.5563055029
  0
ARC
  5
3A6
100
AcDbEntity
  8
0
100
AcDbCircle
 62
7
  6
CONTINUOUS
 10
122.205605463
 20
275.7517188918
 40
6.7779899531
100
AcDbArc
 50
353.9648097753
 51
358.5770938478
  0
ARC
  5
3A7
100
AcDbEntity
  8
0
100
AcDbCircle
 62
7
  6
CONTINUOUS
 10
122.233331085
 20
275.750479311
 40
6.7502421219
100
AcDbArc
 50
358.5817683386
 51
0.0080342448
  0
ARC
  5
3A8
100
AcDbEntity
  8
0
100
AcDbCircle
 62
7
  6
CONTINUOUS
 10
107.3095671858
 20
291.9195381355
 40
5.8423089179
100
AcDbArc
 50
9.6751663338
 51
16.0402892959
  0
ARC
  5
3A9
100
AcDbEntity
  8
0
100
AcDbCircle
 62
7
  6
CONTINUOUS
 10
107.5218088645
 20
291.9606878016
 40
5.6261725074
100
AcDbArc
 50
8.8385647093
 51
9.6253209241
  0
ARC
  5
3AA
100
AcDbEntity
  8
0
100
AcDbCircle
 62
7
  6
CONTINUOUS
 10
107.5361722623
 20
292.8251672023
 40
5.6116262366
100
AcDbArc
 50
7.7497232723
 51
9.9497804399
  0
ARC
  5
3AB
100
AcDbEntity
  8
0
100
AcDbCircle
 62
7
  6
CONTINUOUS
 10
107.6107683935
 20
291.9737264171
 40
5.5362660161
100
AcDbArc
 50
4.289843832
 51
8.8466881143
  0
ARC
  5
3AC
100
AcDbEntity
  8
0
100
AcDbCircle
 62
7
  6
CONTINUOUS
 10
107.6334754127
 20
292.8381640238
 40
5.5134592338
100
AcDbArc
 50
3.9081539071
 51
7.7522468512
  0
ARC
  5
3AD
100
AcDbEntity
  8
0
100
AcDbCircle
 62
7
  6
CONTINUOUS
 10
107.5338816949
 20
293.5711623401
 40
5.4628698638
100
AcDbArc
 50
352.8584549557
 51
359.9808642232
  0
ARC
  5
3AE
100
AcDbEntity
  8
0
100
AcDbCircle
 62
7
  6
CONTINUOUS
 10
107.6967599707
 20
292.8430321913
 40
5.4499900645
100
AcDbArc
 50
0.1392729101
 51
3.9024396248
  0
SPLINE
  5
3AF
100
AcDbEntity
  8
0
100
AcDbSpline
 62
7
  6
CONTINUOUS
 70
0
 71
3
 72
23
 73
19
 74
0
 42
0.0000001
 43
0.0000001
 44
0.0000000001
 40
0.0
 40
0.0
 40
0.0
 40
0.0
 40
0.0583868746
 40
0.1179407339
 40
0.1789676551
 40
0.2415802983
 40
0.3056948444
 40
0.3710439078
 40
0.4372147883
 40
0.5036998445
 40
0.5699559399
 40
0.6354659497
 40
0.6997980444
 40
0.7626593745
 40
0.8239347131
 40
0.8837075617
 40
0.9422508984
 40
1.0
 40
1.0
 40
1.0
 40
1.0
 10
23.6941703903
 20
199.9391226272
 30
0.0
 10
23.875873694
 20
199.9633163291
 30
0.0
 10
24.2388028031
 20
200.0505995569
 30
0.0
 10
24.7515606042
 20
200.2882841519
 30
0.0
 10
25.2219952765
 20
200.624687721
 30
0.0
 10
25.6361388873
 20
201.0481357161
 30
0.0
 10
25.9825036086
 20
201.5449627375
 30
0.0
 10
26.2515157188
 20
202.099827993
 30
0.0
 10
26.4357271259
 20
202.6959921659
 30
0.0
 10
26.5299521745
 20
203.3156533314
 30
0.0
 10
26.5314196907
 20
203.9403888197
 30
0.0
 10
26.4398251402
 20
204.5516381018
 30
0.0
 10
26.257338659
 20
205.131164291
 30
0.0
 10
25.9885556253
 20
205.6614536832
 30
0.0
 10
25.6404898759
 20
206.1260043214
 30
0.0
 10
25.2225498795
 20
206.5096183666
 30
0.0
 10
24.7473040595
 20
206.7987921538
 30
0.0
 10
24.4003020803
 20
206.921994174
 30
0.0
 10
24.2240203561
 20
206.964374793
 30
0.0
  0
LINE
  5
3B0
100
AcDbEntity
  8
0
100
AcDbLine
 62
7
  6
CONTINUOUS
 10
24.2210750933
 20
206.9650318568
 11
23.7284214411
 21
207.0664306508
  0
LINE
  5
3B1
100
AcDbEntity
  8
0
100
AcDbLine
 62
7
  6
CONTINUOUS
 10
22.8092355532
 20
207.1133199398
 11
23.3018892053
 21
207.0119211458
  0
LINE
  5
3B2
100
AcDbEntity
  8
0
100
AcDbLine
 62
7
  6
CONTINUOUS
 10
22.756408425
 20
199.9854656033
 11
22.2587781647
 21
200.0227596345
  0
LINE
  5
3B3
100
AcDbEntity
  8
0
100
AcDbLine
 62
7
  6
CONTINUOUS
 10
23.1779640526
 20
199.9758703455
 11
23.6755943129
 21
199.9385763142
  0
SPLINE
  5
3B4
100
AcDbEntity
  8
0
100
AcDbSpline
 62
7
  6
CONTINUOUS
 70
0
 71
3
 72
14
 73
10
 74
0
 42
0.0000001
 43
0.0000001
 44
0.0000000001
 40
0.0
 40
0.0
 40
0.0
 40
0.0
 40
0.3044147114
 40
0.4489463308
 40
0.5838574547
 40
0.7064989343
 40
0.8158223307
 40
0.9125775521
 40
1.0
 40
1.0
 40
1.0
 40
1.0
 10
23.435851534
 20
206.6872477586
 30
0.0
 10
23.4388058155
 20
206.7253024958
 30
0.0
 10
23.43758554
 20
206.7821404087
 30
0.0
 10
23.4238902211
 20
206.8541762782
 30
0.0
 10
23.4084481153
 20
206.9023377132
 30
0.0
 10
23.3879316931
 20
206.9437360179
 30
0.0
 10
23.363079083
 20
206.9769811477
 30
0.0
 10
23.3344868889
 20
207.0008068939
 30
0.0
 10
23.312625658
 20
207.0097112751
 30
0.0
 10
23.3018892053
 20
207.0119211458
 30
0.0
  0
SPLINE
  5
3B5
100
AcDbEntity
  8
0
100
AcDbSpline
 62
7
  6
CONTINUOUS
 70
0
 71
3
 72
18
 73
14
 74
0
 42
0.0000001
 43
0.0000001
 44
0.0000000001
 40
0.0
 40
0.0
 40
0.0
 40
0.0
 40
0.0579174412
 40
0.1159417572
 40
0.1742686152
 40
0.233092481
 40
0.2925775888
 40
0.3528598178
 40
0.4759870865
 40
0.6029503531
 40
0.7333401637
 40
0.8661557482
 40
1.0
 40
1.0
 40
1.0
 40
1.0
 10
23.0651895778
 20
207.2040514633
 30
0.0
 10
22.9570096007
 20
207.2262899022
 30
0.0
 10
22.7373933148
 20
207.2571975372
 30
0.0
 10
22.4042819933
 20
207.2617914145
 30
0.0
 10
22.0714386966
 20
207.2246678539
 30
0.0
 10
21.742978006
 20
207.1464646
 30
0.0
 10
21.4227133808
 20
207.0282973074
 30
0.0
 10
21.0088617484
 20
206.8183793709
 30
0.0
 10
20.5296223888
 20
206.4624449101
 30
0.0
 10
20.0461534781
 20
205.9151519173
 30
0.0
 10
19.6680922473
 20
205.269127702
 30
0.0
 10
19.4104344228
 20
204.5530032066
 30
0.0
 10
19.3256079081
 20
204.0484023187
 30
0.0
 10
19.3058535302
 20
203.7939419175
 30
0.0
  0
SPLINE
  5
3B6
100
AcDbEntity
  8
0
100
AcDbSpline
 62
7
  6
CONTINUOUS
 70
0
 71
3
 72
14
 73
10
 74
0
 42
0.0000001
 43
0.0000001
 44
0.0000000001
 40
0.0
 40
0.0
 40
0.0
 40
0.0
 40
0.0880727346
 40
0.1829514764
 40
0.2894802393
 40
0.4097537614
 40
0.5434202002
 40
0.6884654828
 40
1.0
 40
1.0
 40
1.0
 40
1.0
 10
22.756408425
 20
199.9854656033
 30
0.0
 10
22.7670336989
 20
199.9846693846
 30
0.0
 10
22.7895791003
 20
199.9871669528
 30
0.0
 10
22.8215887893
 20
200.0026018689
 30
0.0
 10
22.8511796742
 20
200.0284304528
 30
0.0
 10
22.8776085243
 20
200.0634144312
 30
0.0
 10
22.900166026
 20
200.1062914706
 30
0.0
 10
22.9247319911
 20
200.1734928211
 30
0.0
 10
22.9344400315
 20
200.2284580858
 30
0.0
 10
22.9373571842
 20
200.2660345595
 30
0.0
  0
SPLINE
  5
3B7
100
AcDbEntity
  8
0
100
AcDbSpline
 62
7
  6
CONTINUOUS
 70
0
 71
3
 72
19
 73
15
 74
0
 42
0.0000001
 43
0.0000001
 44
0.0000000001
 40
0.0
 40
0.0
 40
0.0
 40
0.0
 40
0.1342650524
 40
0.2667674223
 40
0.3320932077
 40
0.3966295666
 40
0.4603133558
 40
0.5231120364
 40
0.6459353797
 40
0.765647162
 40
0.824689575
 40
0.883317671
 40
0.941700902
 40
1.0
 40
1.0
 40
1.0
 40
1.0
 10
19.3058535302
 20
203.7939419175
 30
0.0
 10
19.2878640824
 20
203.5622159609
 30
0.0
 10
19.2895431848
 20
203.098042648
 30
0.0
 10
19.3871640053
 20
202.5285761589
 30
0.0
 10
19.5215106612
 20
202.0941927448
 30
0.0
 10
19.6486793925
 20
201.783724307
 30
0.0
 10
19.8016884399
 20
201.4900216862
 30
0.0
 10
20.0365526092
 20
201.1273324638
 30
0.0
 10
20.387529213
 20
200.7271023483
 30
0.0
 10
20.8092966439
 20
200.412075745
 30
0.0
 10
21.1753753985
 20
200.2237854909
 30
0.0
 10
21.4609684574
 20
200.1154556271
 30
0.0
 10
21.7557570195
 20
200.0407549201
 30
0.0
 10
21.9564821137
 20
200.0138880858
 30
0.0
 10
22.0571144626
 20
200.0062705581
 30
0.0
  0
SPLINE
  5
3B8
100
AcDbEntity
  8
0
100
AcDbSpline
 62
7
  6
CONTINUOUS
 70
0
 71
3
 72
18
 73
14
 74
0
 42
0.0000001
 43
0.0000001
 44
0.0000000001
 40
0.0
 40
0.0
 40
0.0
 40
0.0
 40
0.0567838174
 40
0.1137046948
 40
0.1710292492
 40
0.2290006126
 40
0.2878254411
 40
0.3476642984
 40
0.4705829882
 40
0.5981695327
 40
0.7298280117
 40
0.8643196715
 40
1.0
 40
1.0
 40
1.0
 40
1.0
 10
23.0651890082
 20
207.204048333
 30
0.0
 10
22.9598717545
 20
207.2256992565
 30
0.0
 10
22.7459795466
 20
207.2556911894
 30
0.0
 10
22.421337304
 20
207.2596555
 30
0.0
 10
22.096494146
 20
207.2225926893
 30
0.0
 10
21.7752352361
 20
207.1449605082
 30
0.0
 10
21.4611575068
 20
207.0276717437
 30
0.0
 10
21.0533173282
 20
206.818604611
 30
0.0
 10
20.5791738632
 20
206.4629474047
 30
0.0
 10
20.0992977401
 20
205.9151102215
 30
0.0
 10
19.7225293436
 20
205.2666117069
 30
0.0
 10
19.4650142489
 20
204.5465074428
 30
0.0
 10
19.3799977573
 20
204.0388437344
 30
0.0
 10
19.3601130716
 20
203.7827048103
 30
0.0
  0
SPLINE
  5
3B9
100
AcDbEntity
  8
0
100
AcDbSpline
 62
7
  6
CONTINUOUS
 70
0
 71
3
 72
15
 73
11
 74
0
 42
0.0000001
 43
0.0000001
 44
0.0000000001
 40
0.0
 40
0.0
 40
0.0
 40
0.0
 40
0.1141392883
 40
0.2304606379
 40
0.3500170504
 40
0.4733816949
 40
0.600633881
 40
0.7313861462
 40
0.8648559676
 40
1.0
 40
1.0
 40
1.0
 40
1.0
 10
24.3550374219
 20
206.6403584696
 30
0.0
 10
24.5118019382
 20
206.5998288038
 30
0.0
 10
24.8205231834
 20
206.4839346275
 30
0.0
 10
25.2424987889
 20
206.216227394
 30
0.0
 10
25.6137633915
 20
205.8625778781
 30
0.0
 10
25.9228262993
 20
205.434597888
 30
0.0
 10
26.1606575925
 20
204.9458540112
 30
0.0
 10
26.3203016728
 20
204.4114939602
 30
0.0
 10
26.3971914277
 20
203.8480888977
 30
0.0
 10
26.3917821695
 20
203.4654144663
 30
0.0
 10
26.3750087784
 20
203.2744331001
 30
0.0
  0
SPLINE
  5
3BA
100
AcDbEntity
  8
0
100
AcDbSpline
 62
7
  6
CONTINUOUS
 70
0
 71
3
 72
13
 73
9
 74
0
 42
0.0000001
 43
0.0000001
 44
0.0000000001
 40
0.0
 40
0.0
 40
0.0
 40
0.0
 40
0.2655770187
 40
0.5236463557
 40
0.6481262938
 40
0.7688196905
 40
0.8858938766
 40
1.0
 40
1.0
 40
1.0
 40
1.0
 10
26.3750087784
 20
203.2744331001
 30
0.0
 10
26.3421110517
 20
202.8998604971
 30
0.0
 10
26.1700718087
 20
202.166524197
 30
0.0
 10
25.7022537906
 20
201.3591415284
 30
0.0
 10
25.2045586805
 20
200.8451079237
 30
0.0
 10
24.7877454397
 20
200.5414724014
 30
0.0
 10
24.3358240313
 20
200.3252123686
 30
0.0
 10
24.0163102089
 20
200.2431201903
 30
0.0
 10
23.8565430722
 20
200.2191452704
 30
0.0
  0
SPLINE
  5
3BB
100
AcDbEntity
  8
0
100
AcDbSpline
 62
7
  6
CONTINUOUS
 70
0
 71
3
 72
14
 73
10
 74
0
 42
0.0000001
 43
0.0000001
 44
0.0000000001
 40
0.0
 40
0.0
 40
0.0
 40
0.0
 40
0.3051062556
 40
0.4485164405
 40
0.5822134738
 40
0.7040825884
 40
0.8134025263
 40
0.9110600163
 40
1.0
 40
1.0
 40
1.0
 40
1.0
 10
23.8565430722
 20
200.2191452704
 30
0.0
 10
23.8538311067
 20
200.1842118582
 30
0.0
 10
23.8451269967
 20
200.1329776239
 30
0.0
 10
23.8234714987
 20
200.0696083914
 30
0.0
 10
23.8035887057
 20
200.0281812003
 30
0.0
 10
23.7801419176
 20
199.9932414292
 30
0.0
 10
23.7537569634
 20
199.9658864769
 30
0.0
 10
23.7251475537
 20
199.9469405887
 30
0.0
 10
23.7042947342
 20
199.9404779685
 30
0.0
 10
23.6941703689
 20
199.9391285112
 30
0.0
  0
SPLINE
  5
3BC
100
AcDbEntity
  8
0
100
AcDbSpline
 62
7
  6
CONTINUOUS
 70
0
 71
3
 72
13
 73
9
 74
0
 42
0.0000001
 43
0.0000001
 44
0.0000000001
 40
0.0
 40
0.0
 40
0.0
 40
0.0
 40
0.0877654774
 40
0.1850668252
 40
0.2948912048
 40
0.4178661689
 40
0.6964624901
 40
1.0
 40
1.0
 40
1.0
 40
1.0
 10
24.2240202781
 20
206.9643742501
 30
0.0
 10
24.2346285476
 20
206.9618200923
 30
0.0
 10
24.2561107246
 20
206.9523162507
 30
0.0
 10
24.2841141349
 20
206.9280587759
 30
0.0
 10
24.3084205334
 20
206.8946420375
 30
0.0
 10
24.3361815026
 20
206.8371598313
 30
0.0
 10
24.3564368026
 20
206.7508526891
 30
0.0
 10
24.3579582657
 20
206.6779824881
 30
0.0
 10
24.3550374219
 20
206.6403584696
 30
0.0
  0
SPLINE
  5
3BD
100
AcDbEntity
  8
0
100
AcDbSpline
 62
7
  6
CONTINUOUS
 70
0
 71
3
 72
13
 73
9
 74
0
 42
0.0000001
 43
0.0000001
 44
0.0000000001
 40
0.0
 40
0.0
 40
0.0
 40
0.0
 40
0.2655410157
 40
0.5225013099
 40
0.6466562123
 40
0.7674497402
 40
0.8850631672
 40
1.0
 40
1.0
 40
1.0
 40
1.0
 10
19.3601130716
 20
203.7827048103
 30
0.0
 10
19.3316928371
 20
203.4166176422
 30
0.0
 10
19.3669457293
 20
202.6857848233
 30
0.0
 10
19.646433901
 20
201.8235228626
 30
0.0
 10
20.0001770743
 20
201.2237069872
 30
0.0
 10
20.3192291323
 20
200.8341833014
 30
0.0
 10
20.6874349201
 20
200.5097643431
 30
0.0
 10
20.9630451264
 20
200.3403515325
 30
0.0
 10
21.1053587838
 20
200.2695924445
 30
0.0
  0
SPLINE
  5
3BE
100
AcDbEntity
  8
0
100
AcDbSpline
 62
7
  6
CONTINUOUS
 70
0
 71
3
 72
9
 73
5
 74
0
 42
0.0000001
 43
0.0000001
 44
0.0000000001
 40
0.0
 40
0.0
 40
0.0
 40
0.0
 40
0.2477978952
 40
1.0
 40
1.0
 40
1.0
 40
1.0
 10
23.0749727572
 20
202.0318294414
 30
0.0
 10
23.0976916327
 20
202.0348810511
 30
0.0
 10
23.1889757141
 20
202.0500449905
 30
0.0
 10
23.2783192308
 20
202.0765856294
 30
0.0
 10
23.3430329992
 20
202.1021590368
 30
0.0
  0
SPLINE
  5
3BF
100
AcDbEntity
  8
0
100
AcDbSpline
 62
7
  6
CONTINUOUS
 70
0
 71
3
 72
15
 73
11
 74
0
 42
0.0000001
 43
0.0000001
 44
0.0000000001
 40
0.0
 40
0.0
 40
0.0
 40
0.0
 40
0.114208298
 40
0.230507713
 40
0.3499855207
 40
0.4732582426
 40
0.6004418844
 40
0.7311787738
 40
0.8647102154
 40
1.0
 40
1.0
 40
1.0
 40
1.0
 10
22.756408425
 20
199.9854656033
 30
0.0
 10
22.5844499528
 20
200.0268045687
 30
0.0
 10
22.2452781414
 20
200.1476559879
 30
0.0
 10
21.7800744464
 20
200.4325270465
 30
0.0
 10
21.3693655394
 20
200.8124050774
 30
0.0
 10
21.0259270489
 20
201.2747328395
 30
0.0
 10
20.759825806
 20
201.8047720185
 30
0.0
 10
20.5788814285
 20
202.3860346614
 30
0.0
 10
20.4882999066
 20
203.0004239839
 30
0.0
 10
20.4899213229
 20
203.4185216825
 30
0.0
 10
20.5061367935
 20
203.6273966559
 30
0.0
  0
SPLINE
  5
3C0
100
AcDbEntity
  8
0
100
AcDbSpline
 62
7
  6
CONTINUOUS
 70
0
 71
3
 72
13
 73
9
 74
0
 42
0.0000001
 43
0.0000001
 44
0.0000000001
 40
0.0
 40
0.0
 40
0.0
 40
0.0
 40
0.2657417671
 40
0.5239694325
 40
0.6484505566
 40
0.769069655
 40
0.8860199219
 40
1.0
 40
1.0
 40
1.0
 40
1.0
 10
20.5061367935
 20
203.6273966559
 30
0.0
 10
20.5385158974
 20
204.0444788742
 30
0.0
 10
20.7240163585
 20
204.8622172729
 30
0.0
 10
21.2428400814
 20
205.7620258375
 30
0.0
 10
21.7978533294
 20
206.3323459419
 30
0.0
 10
22.2631966325
 20
206.6670147625
 30
0.0
 10
22.7677425476
 20
206.9022158161
 30
0.0
 10
23.1240249346
 20
206.9882673167
 30
0.0
 10
23.3018892053
 20
207.0119211458
 30
0.0
  0
SPLINE
  5
3C1
100
AcDbEntity
  8
0
100
AcDbSpline
 62
7
  6
CONTINUOUS
 70
0
 71
3
 72
15
 73
11
 74
0
 42
0.0000001
 43
0.0000001
 44
0.0000000001
 40
0.0
 40
0.0
 40
0.0
 40
0.0
 40
0.1141392883
 40
0.2304606379
 40
0.3500170504
 40
0.4733816949
 40
0.600633881
 40
0.7313861462
 40
0.8648559676
 40
1.0
 40
1.0
 40
1.0
 40
1.0
 10
22.9373571842
 20
200.2660345595
 30
0.0
 10
22.780592668
 20
200.3065642253
 30
0.0
 10
22.4718714228
 20
200.4224584016
 30
0.0
 10
22.0498958172
 20
200.6901656351
 30
0.0
 10
21.6786312147
 20
201.043815151
 30
0.0
 10
21.3695683068
 20
201.471795141
 30
0.0
 10
21.1317370136
 20
201.9605390179
 30
0.0
 10
20.9720929334
 20
202.4948990689
 30
0.0
 10
20.8952031785
 20
203.0583041313
 30
0.0
 10
20.9006124366
 20
203.4409785628
 30
0.0
 10
20.9173858278
 20
203.631959929
 30
0.0
  0
SPLINE
  5
3C2
100
AcDbEntity
  8
0
100
AcDbSpline
 62
7
  6
CONTINUOUS
 70
0
 71
3
 72
13
 73
9
 74
0
 42
0.0000001
 43
0.0000001
 44
0.0000000001
 40
0.0
 40
0.0
 40
0.0
 40
0.0
 40
0.2655770187
 40
0.5236463557
 40
0.6481262938
 40
0.7688196905
 40
0.8858938766
 40
1.0
 40
1.0
 40
1.0
 40
1.0
 10
20.9173858278
 20
203.631959929
 30
0.0
 10
20.9502835544
 20
204.006532532
 30
0.0
 10
21.1223227975
 20
204.739868832
 30
0.0
 10
21.5901408155
 20
205.5472515007
 30
0.0
 10
22.0878359256
 20
206.0612851054
 30
0.0
 10
22.5046491664
 20
206.3649206277
 30
0.0
 10
22.9565705749
 20
206.5811806604
 30
0.0
 10
23.2760843973
 20
206.6632728388
 30
0.0
 10
23.435851534
 20
206.6872477586
 30
0.0
  0
SPLINE
  5
3C3
100
AcDbEntity
  8
0
100
AcDbSpline
 62
7
  6
CONTINUOUS
 70
0
 71
3
 72
9
 73
5
 74
0
 42
0.0000001
 43
0.0000001
 44
0.0000000001
 40
0.0
 40
0.0
 40
0.0
 40
0.0
 40
0.2511810962
 40
1.0
 40
1.0
 40
1.0
 40
1.0
 10
23.0481073961
 20
202.4805448268
 30
0.0
 10
23.072431406
 20
202.4485787835
 30
0.0
 10
23.1697463536
 20
202.321678274
 30
0.0
 10
23.268564135
 20
202.1959366585
 30
0.0
 10
23.3430329992
 20
202.1021590368
 30
0.0
  0
SPLINE
  5
3C4
100
AcDbEntity
  8
0
100
AcDbSpline
 62
7
  6
CONTINUOUS
 70
0
 71
3
 72
9
 73
5
 74
0
 42
0.0000001
 43
0.0000001
 44
0.0000000001
 40
0.0
 40
0.0
 40
0.0
 40
0.0
 40
0.5019445265
 40
1.0
 40
1.0
 40
1.0
 40
1.0
 10
23.3895912307
 20
203.5679762846
 30
0.0
 10
23.3840671812
 20
203.4968198116
 30
0.0
 10
23.3610407846
 20
203.3557397013
 30
0.0
 10
23.314535245
 20
203.2205353595
 30
0.0
 10
23.2857289055
 20
203.1558412583
 30
0.0
  0
SPLINE
  5
3C5
100
AcDbEntity
  8
0
100
AcDbSpline
 62
7
  6
CONTINUOUS
 70
0
 71
3
 72
9
 73
5
 74
0
 42
0.0000001
 43
0.0000001
 44
0.0000000001
 40
0.0
 40
0.0
 40
0.0
 40
0.0
 40
0.4959208638
 40
1.0
 40
1.0
 40
1.0
 40
1.0
 10
23.3502859558
 20
203.9874145421
 30
0.0
 10
23.3689314098
 20
203.9200452594
 30
0.0
 10
23.3941774523
 20
203.7805270346
 30
0.0
 10
23.395090609
 20
203.6388149616
 30
0.0
 10
23.3895912307
 20
203.5679762846
 30
0.0
  0
SPLINE
  5
3C6
100
AcDbEntity
  8
0
100
AcDbSpline
 62
7
  6
CONTINUOUS
 70
0
 71
3
 72
9
 73
5
 74
0
 42
0.0000001
 43
0.0000001
 44
0.0000000001
 40
0.0
 40
0.0
 40
0.0
 40
0.0
 40
0.2491533009
 40
1.0
 40
1.0
 40
1.0
 40
1.0
 10
23.5633524946
 20
204.9401419594
 30
0.0
 10
23.5385228425
 20
204.9199058482
 30
0.0
 10
23.4390063663
 20
204.8385157763
 30
0.0
 10
23.3401158314
 20
204.7563552107
 30
0.0
 10
23.2664486251
 20
204.6939763722
 30
0.0
  0
SPLINE
  5
3C7
100
AcDbEntity
  8
0
100
AcDbSpline
 62
7
  6
CONTINUOUS
 70
0
 71
3
 72
9
 73
5
 74
0
 42
0.0000001
 43
0.0000001
 44
0.0000000001
 40
0.0
 40
0.0
 40
0.0
 40
0.0
 40
0.2532709335
 40
1.0
 40
1.0
 40
1.0
 40
1.0
 10
23.3502859558
 20
203.9874145421
 30
0.0
 10
23.3197413152
 20
204.0035807179
 30
0.0
 10
23.1992763616
 20
204.0676635164
 30
0.0
 10
23.0794440755
 20
204.1329579989
 30
0.0
 10
22.9907199004
 20
204.1830569617
 30
0.0
  0
SPLINE
  5
3C8
100
AcDbEntity
  8
0
100
AcDbSpline
 62
7
  6
CONTINUOUS
 70
0
 71
3
 72
9
 73
5
 74
0
 42
0.0000001
 43
0.0000001
 44
0.0000000001
 40
0.0
 40
0.0
 40
0.0
 40
0.0
 40
0.2518219697
 40
1.0
 40
1.0
 40
1.0
 40
1.0
 10
23.5633524946
 20
204.9401419594
 30
0.0
 10
23.5430850672
 20
204.9508892024
 30
0.0
 10
23.4613188495
 20
204.9910971447
 30
0.0
 10
23.3745322029
 20
205.0211375458
 30
0.0
 10
23.3082836449
 20
205.03715729
 30
0.0
  0
LINE
  5
3C9
100
AcDbEntity
  8
0
100
AcDbLine
 62
7
  6
CONTINUOUS
 10
25.4322145678
 20
203.8621529612
 11
23.5971899653
 21
203.9156123604
  0
SPLINE
  5
3CA
100
AcDbEntity
  8
0
100
AcDbSpline
 62
7
  6
CONTINUOUS
 70
0
 71
3
 72
9
 73
5
 74
0
 42
0.0000001
 43
0.0000001
 44
0.0000000001
 40
0.0
 40
0.0
 40
0.0
 40
0.0
 40
0.2502822993
 40
1.0
 40
1.0
 40
1.0
 40
1.0
 10
23.5401837649
 20
203.1794041588
 30
0.0
 10
23.6915812832
 20
203.1533209546
 30
0.0
 10
24.2964672305
 20
203.0489835473
 30
0.0
 10
24.9013115991
 20
202.9444053319
 30
0.0
 10
25.3547695556
 20
202.8659748318
 30
0.0
  0
SPLINE
  5
3CB
100
AcDbEntity
  8
0
100
AcDbSpline
 62
7
  6
CONTINUOUS
 70
0
 71
3
 72
9
 73
5
 74
0
 42
0.0000001
 43
0.0000001
 44
0.0000000001
 40
0.0
 40
0.0
 40
0.0
 40
0.0
 40
0.2465631896
 40
1.0
 40
1.0
 40
1.0
 40
1.0
 10
22.8992461718
 20
203.0047641418
 30
0.0
 10
22.9307582038
 20
203.0178102028
 30
0.0
 10
23.0589048935
 20
203.0698978719
 30
0.0
 10
23.1881173995
 20
203.1193226085
 30
0.0
 10
23.2857289055
 20
203.1558412583
 30
0.0
  0
SPLINE
  5
3CC
100
AcDbEntity
  8
0
100
AcDbSpline
 62
7
  6
CONTINUOUS
 70
0
 71
3
 72
23
 73
19
 74
0
 42
0.0000001
 43
0.0000001
 44
0.0000000001
 40
0.0
 40
0.0
 40
0.0
 40
0.0
 40
0.0583868746
 40
0.1179407339
 40
0.1789676551
 40
0.2415802983
 40
0.3056948444
 40
0.3710439078
 40
0.4372147883
 40
0.5036998445
 40
0.5699559399
 40
0.6354659497
 40
0.6997980444
 40
0.7626593745
 40
0.8239347131
 40
0.8837075617
 40
0.9422508984
 40
1.0
 40
1.0
 40
1.0
 40
1.0
 10
14.9510217328
 20
258.2695456835
 30
0.0
 10
15.1327250365
 20
258.2937393854
 30
0.0
 10
15.4956541456
 20
258.3810226131
 30
0.0
 10
16.0084119467
 20
258.6187072082
 30
0.0
 10
16.478846619
 20
258.9551107773
 30
0.0
 10
16.8929902298
 20
259.3785587724
 30
0.0
 10
17.2393549511
 20
259.8753857938
 30
0.0
 10
17.5083670612
 20
260.4302510493
 30
0.0
 10
17.6925784683
 20
261.0264152221
 30
0.0
 10
17.786803517
 20
261.6460763876
 30
0.0
 10
17.7882710331
 20
262.270811876
 30
0.0
 10
17.6966764827
 20
262.882061158
 30
0.0
 10
17.5141900015
 20
263.4615873473
 30
0.0
 10
17.2454069677
 20
263.9918767394
 30
0.0
 10
16.8973412183
 20
264.4564273777
 30
0.0
 10
16.479401222
 20
264.8400414229
 30
0.0
 10
16.004155402
 20
265.12921521
 30
0.0
 10
15.6571534228
 20
265.2524172302
 30
0.0
 10
15.4808716986
 20
265.2947978492
 30
0.0
  0
LINE
  5
3CD
100
AcDbEntity
  8
0
100
AcDbLine
 62
7
  6
CONTINUOUS
 10
15.4779264357
 20
265.295454913
 11
14.9852727836
 21
265.3968537071
  0
LINE
  5
3CE
100
AcDbEntity
  8
0
100
AcDbLine
 62
7
  6
CONTINUOUS
 10
14.0660868956
 20
265.4437429961
 11
14.5587405478
 21
265.3423442021
  0
LINE
  5
3CF
100
AcDbEntity
  8
0
100
AcDbLine
 62
7
  6
CONTINUOUS
 10
14.0132597674
 20
258.3158886595
 11
13.5156295071
 21
258.3531826908
  0
LINE
  5
3D0
100
AcDbEntity
  8
0
100
AcDbLine
 62
7
  6
CONTINUOUS
 10
14.4348153951
 20
258.3062934017
 11
14.9324456554
 21
258.2689993705
  0
SPLINE
  5
3D1
100
AcDbEntity
  8
0
100
AcDbSpline
 62
7
  6
CONTINUOUS
 70
0
 71
3
 72
14
 73
10
 74
0
 42
0.0000001
 43
0.0000001
 44
0.0000000001
 40
0.0
 40
0.0
 40
0.0
 40
0.0
 40
0.3044147114
 40
0.4489463308
 40
0.5838574547
 40
0.7064989343
 40
0.8158223307
 40
0.9125775521
 40
1.0
 40
1.0
 40
1.0
 40
1.0
 10
14.6927028764
 20
265.0176708149
 30
0.0
 10
14.6956571579
 20
265.0557255521
 30
0.0
 10
14.6944368824
 20
265.112563465
 30
0.0
 10
14.6807415636
 20
265.1845993344
 30
0.0
 10
14.6652994578
 20
265.2327607694
 30
0.0
 10
14.6447830356
 20
265.2741590742
 30
0.0
 10
14.6199304255
 20
265.3074042039
 30
0.0
 10
14.5913382314
 20
265.3312299501
 30
0.0
 10
14.5694770005
 20
265.3401343313
 30
0.0
 10
14.5587405478
 20
265.3423442021
 30
0.0
  0
SPLINE
  5
3D2
100
AcDbEntity
  8
0
100
AcDbSpline
 62
7
  6
CONTINUOUS
 70
0
 71
3
 72
18
 73
14
 74
0
 42
0.0000001
 43
0.0000001
 44
0.0000000001
 40
0.0
 40
0.0
 40
0.0
 40
0.0
 40
0.0579174412
 40
0.1159417572
 40
0.1742686152
 40
0.233092481
 40
0.2925775888
 40
0.3528598178
 40
0.4759870865
 40
0.6029503531
 40
0.7333401637
 40
0.8661557482
 40
1.0
 40
1.0
 40
1.0
 40
1.0
 10
14.3220409203
 20
265.5344745195
 30
0.0
 10
14.2138609432
 20
265.5567129585
 30
0.0
 10
13.9942446572
 20
265.5876205935
 30
0.0
 10
13.6611333357
 20
265.5922144708
 30
0.0
 10
13.328290039
 20
265.5550909102
 30
0.0
 10
12.9998293485
 20
265.4768876563
 30
0.0
 10
12.6795647232
 20
265.3587203636
 30
0.0
 10
12.2657130909
 20
265.1488024272
 30
0.0
 10
11.7864737313
 20
264.7928679664
 30
0.0
 10
11.3030048206
 20
264.2455749736
 30
0.0
 10
10.9249435898
 20
263.5995507583
 30
0.0
 10
10.6672857653
 20
262.8834262629
 30
0.0
 10
10.5824592506
 20
262.378825375
 30
0.0
 10
10.5627048727
 20
262.1243649737
 30
0.0
  0
SPLINE
  5
3D3
100
AcDbEntity
  8
0
100
AcDbSpline
 62
7
  6
CONTINUOUS
 70
0
 71
3
 72
14
 73
10
 74
0
 42
0.0000001
 43
0.0000001
 44
0.0000000001
 40
0.0
 40
0.0
 40
0.0
 40
0.0
 40
0.0880727346
 40
0.1829514764
 40
0.2894802393
 40
0.4097537614
 40
0.5434202002
 40
0.6884654828
 40
1.0
 40
1.0
 40
1.0
 40
1.0
 10
14.0132597674
 20
258.3158886595
 30
0.0
 10
14.0238850414
 20
258.3150924408
 30
0.0
 10
14.0464304427
 20
258.3175900091
 30
0.0
 10
14.0784401318
 20
258.3330249251
 30
0.0
 10
14.1080310167
 20
258.358853509
 30
0.0
 10
14.1344598668
 20
258.3938374875
 30
0.0
 10
14.1570173685
 20
258.4367145269
 30
0.0
 10
14.1815833336
 20
258.5039158774
 30
0.0
 10
14.1912913739
 20
258.5588811421
 30
0.0
 10
14.1942085267
 20
258.5964576157
 30
0.0
  0
SPLINE
  5
3D4
100
AcDbEntity
  8
0
100
AcDbSpline
 62
7
  6
CONTINUOUS
 70
0
 71
3
 72
19
 73
15
 74
0
 42
0.0000001
 43
0.0000001
 44
0.0000000001
 40
0.0
 40
0.0
 40
0.0
 40
0.0
 40
0.1342650524
 40
0.2667674223
 40
0.3320932077
 40
0.3966295666
 40
0.4603133558
 40
0.5231120364
 40
0.6459353797
 40
0.765647162
 40
0.824689575
 40
0.883317671
 40
0.941700902
 40
1.0
 40
1.0
 40
1.0
 40
1.0
 10
10.5627048727
 20
262.1243649737
 30
0.0
 10
10.5447154248
 20
261.8926390171
 30
0.0
 10
10.5463945272
 20
261.4284657042
 30
0.0
 10
10.6440153478
 20
260.8589992151
 30
0.0
 10
10.7783620037
 20
260.4246158011
 30
0.0
 10
10.9055307349
 20
260.1141473633
 30
0.0
 10
11.0585397824
 20
259.8204447425
 30
0.0
 10
11.2934039517
 20
259.45775552
 30
0.0
 10
11.6443805554
 20
259.0575254046
 30
0.0
 10
12.0661479864
 20
258.7424988012
 30
0.0
 10
12.432226741
 20
258.5542085472
 30
0.0
 10
12.7178197999
 20
258.4458786833
 30
0.0
 10
13.012608362
 20
258.3711779763
 30
0.0
 10
13.2133334562
 20
258.344311142
 30
0.0
 10
13.313965805
 20
258.3366936143
 30
0.0
  0
SPLINE
  5
3D5
100
AcDbEntity
  8
0
100
AcDbSpline
 62
7
  6
CONTINUOUS
 70
0
 71
3
 72
18
 73
14
 74
0
 42
0.0000001
 43
0.0000001
 44
0.0000000001
 40
0.0
 40
0.0
 40
0.0
 40
0.0
 40
0.0567838174
 40
0.1137046948
 40
0.1710292492
 40
0.2290006126
 40
0.2878254411
 40
0.3476642984
 40
0.4705829882
 40
0.5981695327
 40
0.7298280117
 40
0.8643196715
 40
1.0
 40
1.0
 40
1.0
 40
1.0
 10
14.3220403507
 20
265.5344713893
 30
0.0
 10
14.216723097
 20
265.5561223127
 30
0.0
 10
14.0028308891
 20
265.5861142456
 30
0.0
 10
13.6781886465
 20
265.5900785562
 30
0.0
 10
13.3533454884
 20
265.5530157456
 30
0.0
 10
13.0320865786
 20
265.4753835644
 30
0.0
 10
12.7180088493
 20
265.3580947999
 30
0.0
 10
12.3101686706
 20
265.1490276673
 30
0.0
 10
11.8360252057
 20
264.793370461
 30
0.0
 10
11.3561490826
 20
264.2455332778
 30
0.0
 10
10.979380686
 20
263.5970347631
 30
0.0
 10
10.7218655913
 20
262.8769304991
 30
0.0
 10
10.6368490998
 20
262.3692667906
 30
0.0
 10
10.616964414
 20
262.1131278665
 30
0.0
  0
SPLINE
  5
3D6
100
AcDbEntity
  8
0
100
AcDbSpline
 62
7
  6
CONTINUOUS
 70
0
 71
3
 72
15
 73
11
 74
0
 42
0.0000001
 43
0.0000001
 44
0.0000000001
 40
0.0
 40
0.0
 40
0.0
 40
0.0
 40
0.1141392883
 40
0.2304606379
 40
0.3500170504
 40
0.4733816949
 40
0.600633881
 40
0.7313861462
 40
0.8648559676
 40
1.0
 40
1.0
 40
1.0
 40
1.0
 10
15.6118887644
 20
264.9707815259
 30
0.0
 10
15.7686532806
 20
264.93025186
 30
0.0
 10
16.0773745258
 20
264.8143576837
 30
0.0
 10
16.4993501314
 20
264.5466504503
 30
0.0
 10
16.8706147339
 20
264.1930009343
 30
0.0
 10
17.1796776418
 20
263.7650209443
 30
0.0
 10
17.417508935
 20
263.2762770675
 30
0.0
 10
17.5771530152
 20
262.7419170165
 30
0.0
 10
17.6540427702
 20
262.178511954
 30
0.0
 10
17.648633512
 20
261.7958375226
 30
0.0
 10
17.6318601208
 20
261.6048561564
 30
0.0
  0
SPLINE
  5
3D7
100
AcDbEntity
  8
0
100
AcDbSpline
 62
7
  6
CONTINUOUS
 70
0
 71
3
 72
13
 73
9
 74
0
 42
0.0000001
 43
0.0000001
 44
0.0000000001
 40
0.0
 40
0.0
 40
0.0
 40
0.0
 40
0.2655770187
 40
0.5236463557
 40
0.6481262938
 40
0.7688196905
 40
0.8858938766
 40
1.0
 40
1.0
 40
1.0
 40
1.0
 10
17.6318601208
 20
261.6048561564
 30
0.0
 10
17.5989623942
 20
261.2302835534
 30
0.0
 10
17.4269231511
 20
260.4969472533
 30
0.0
 10
16.9591051331
 20
259.6895645847
 30
0.0
 10
16.461410023
 20
259.1755309799
 30
0.0
 10
16.0445967822
 20
258.8718954577
 30
0.0
 10
15.5926753737
 20
258.6556354249
 30
0.0
 10
15.2731615514
 20
258.5735432465
 30
0.0
 10
15.1133944147
 20
258.5495683267
 30
0.0
  0
SPLINE
  5
3D8
100
AcDbEntity
  8
0
100
AcDbSpline
 62
7
  6
CONTINUOUS
 70
0
 71
3
 72
14
 73
10
 74
0
 42
0.0000001
 43
0.0000001
 44
0.0000000001
 40
0.0
 40
0.0
 40
0.0
 40
0.0
 40
0.3051062556
 40
0.4485164405
 40
0.5822134738
 40
0.7040825884
 40
0.8134025263
 40
0.9110600163
 40
1.0
 40
1.0
 40
1.0
 40
1.0
 10
15.1133944147
 20
258.5495683267
 30
0.0
 10
15.1106824492
 20
258.5146349145
 30
0.0
 10
15.1019783392
 20
258.4634006802
 30
0.0
 10
15.0803228412
 20
258.4000314476
 30
0.0
 10
15.0604400481
 20
258.3586042566
 30
0.0
 10
15.0369932601
 20
258.3236644854
 30
0.0
 10
15.0106083058
 20
258.2963095331
 30
0.0
 10
14.9819988962
 20
258.2773636449
 30
0.0
 10
14.9611460767
 20
258.2709010248
 30
0.0
 10
14.9510217114
 20
258.2695515675
 30
0.0
  0
SPLINE
  5
3D9
100
AcDbEntity
  8
0
100
AcDbSpline
 62
7
  6
CONTINUOUS
 70
0
 71
3
 72
13
 73
9
 74
0
 42
0.0000001
 43
0.0000001
 44
0.0000000001
 40
0.0
 40
0.0
 40
0.0
 40
0.0
 40
0.0877654774
 40
0.1850668252
 40
0.2948912048
 40
0.4178661689
 40
0.6964624901
 40
1.0
 40
1.0
 40
1.0
 40
1.0
 10
15.4808716206
 20
265.2947973064
 30
0.0
 10
15.4914798901
 20
265.2922431485
 30
0.0
 10
15.5129620671
 20
265.282739307
 30
0.0
 10
15.5409654774
 20
265.2584818321
 30
0.0
 10
15.5652718759
 20
265.2250650937
 30
0.0
 10
15.593032845
 20
265.1675828876
 30
0.0
 10
15.6132881451
 20
265.0812757454
 30
0.0
 10
15.6148096082
 20
265.0084055444
 30
0.0
 10
15.6118887644
 20
264.9707815259
 30
0.0
  0
SPLINE
  5
3DA
100
AcDbEntity
  8
0
100
AcDbSpline
 62
7
  6
CONTINUOUS
 70
0
 71
3
 72
13
 73
9
 74
0
 42
0.0000001
 43
0.0000001
 44
0.0000000001
 40
0.0
 40
0.0
 40
0.0
 40
0.0
 40
0.2655410157
 40
0.5225013099
 40
0.6466562123
 40
0.7674497402
 40
0.8850631672
 40
1.0
 40
1.0
 40
1.0
 40
1.0
 10
10.616964414
 20
262.1131278665
 30
0.0
 10
10.5885441796
 20
261.7470406985
 30
0.0
 10
10.6237970717
 20
261.0162078796
 30
0.0
 10
10.9032852435
 20
260.1539459188
 30
0.0
 10
11.2570284167
 20
259.5541300434
 30
0.0
 10
11.5760804747
 20
259.1646063576
 30
0.0
 10
11.9442862626
 20
258.8401873994
 30
0.0
 10
12.2198964689
 20
258.6707745887
 30
0.0
 10
12.3622101263
 20
258.6000155007
 30
0.0
  0
SPLINE
  5
3DB
100
AcDbEntity
  8
0
100
AcDbSpline
 62
7
  6
CONTINUOUS
 70
0
 71
3
 72
9
 73
5
 74
0
 42
0.0000001
 43
0.0000001
 44
0.0000000001
 40
0.0
 40
0.0
 40
0.0
 40
0.0
 40
0.2477978952
 40
1.0
 40
1.0
 40
1.0
 40
1.0
 10
14.3318240997
 20
260.3622524977
 30
0.0
 10
14.3545429752
 20
260.3653041074
 30
0.0
 10
14.4458270565
 20
260.3804680467
 30
0.0
 10
14.5351705732
 20
260.4070086856
 30
0.0
 10
14.5998843417
 20
260.4325820931
 30
0.0
  0
SPLINE
  5
3DC
100
AcDbEntity
  8
0
100
AcDbSpline
 62
7
  6
CONTINUOUS
 70
0
 71
3
 72
15
 73
11
 74
0
 42
0.0000001
 43
0.0000001
 44
0.0000000001
 40
0.0
 40
0.0
 40
0.0
 40
0.0
 40
0.114208298
 40
0.230507713
 40
0.3499855207
 40
0.4732582426
 40
0.6004418844
 40
0.7311787738
 40
0.8647102154
 40
1.0
 40
1.0
 40
1.0
 40
1.0
 10
14.0132597674
 20
258.3158886595
 30
0.0
 10
13.8413012952
 20
258.357227625
 30
0.0
 10
13.5021294839
 20
258.4780790441
 30
0.0
 10
13.0369257888
 20
258.7629501028
 30
0.0
 10
12.6262168819
 20
259.1428281337
 30
0.0
 10
12.2827783914
 20
259.6051558958
 30
0.0
 10
12.0166771485
 20
260.1351950748
 30
0.0
 10
11.835732771
 20
260.7164577177
 30
0.0
 10
11.745151249
 20
261.3308470402
 30
0.0
 10
11.7467726653
 20
261.7489447388
 30
0.0
 10
11.762988136
 20
261.9578197121
 30
0.0
  0
SPLINE
  5
3DD
100
AcDbEntity
  8
0
100
AcDbSpline
 62
7
  6
CONTINUOUS
 70
0
 71
3
 72
13
 73
9
 74
0
 42
0.0000001
 43
0.0000001
 44
0.0000000001
 40
0.0
 40
0.0
 40
0.0
 40
0.0
 40
0.2657417671
 40
0.5239694325
 40
0.6484505566
 40
0.769069655
 40
0.8860199219
 40
1.0
 40
1.0
 40
1.0
 40
1.0
 10
11.762988136
 20
261.9578197121
 30
0.0
 10
11.7953672398
 20
262.3749019305
 30
0.0
 10
11.9808677009
 20
263.1926403292
 30
0.0
 10
12.4996914238
 20
264.0924488938
 30
0.0
 10
13.0547046719
 20
264.6627689981
 30
0.0
 10
13.520047975
 20
264.9974378188
 30
0.0
 10
14.0245938901
 20
265.2326388724
 30
0.0
 10
14.3808762771
 20
265.318690373
 30
0.0
 10
14.5587405478
 20
265.3423442021
 30
0.0
  0
SPLINE
  5
3DE
100
AcDbEntity
  8
0
100
AcDbSpline
 62
7
  6
CONTINUOUS
 70
0
 71
3
 72
15
 73
11
 74
0
 42
0.0000001
 43
0.0000001
 44
0.0000000001
 40
0.0
 40
0.0
 40
0.0
 40
0.0
 40
0.1141392883
 40
0.2304606379
 40
0.3500170504
 40
0.4733816949
 40
0.600633881
 40
0.7313861462
 40
0.8648559676
 40
1.0
 40
1.0
 40
1.0
 40
1.0
 10
14.1942085267
 20
258.5964576157
 30
0.0
 10
14.0374440104
 20
258.6369872816
 30
0.0
 10
13.7287227652
 20
258.7528814579
 30
0.0
 10
13.3067471597
 20
259.0205886913
 30
0.0
 10
12.9354825572
 20
259.3742382072
 30
0.0
 10
12.6264196493
 20
259.8022181973
 30
0.0
 10
12.3885883561
 20
260.2909620741
 30
0.0
 10
12.2289442758
 20
260.8253221251
 30
0.0
 10
12.1520545209
 20
261.3887271876
 30
0.0
 10
12.1574637791
 20
261.771401619
 30
0.0
 10
12.1742371702
 20
261.9623829852
 30
0.0
  0
SPLINE
  5
3DF
100
AcDbEntity
  8
0
100
AcDbSpline
 62
7
  6
CONTINUOUS
 70
0
 71
3
 72
13
 73
9
 74
0
 42
0.0000001
 43
0.0000001
 44
0.0000000001
 40
0.0
 40
0.0
 40
0.0
 40
0.0
 40
0.2655770187
 40
0.5236463557
 40
0.6481262938
 40
0.7688196905
 40
0.8858938766
 40
1.0
 40
1.0
 40
1.0
 40
1.0
 10
12.1742371702
 20
261.9623829852
 30
0.0
 10
12.2071348969
 20
262.3369555882
 30
0.0
 10
12.37917414
 20
263.0702918883
 30
0.0
 10
12.846992158
 20
263.8776745569
 30
0.0
 10
13.3446872681
 20
264.3917081617
 30
0.0
 10
13.7615005089
 20
264.6953436839
 30
0.0
 10
14.2134219174
 20
264.9116037167
 30
0.0
 10
14.5329357397
 20
264.9936958951
 30
0.0
 10
14.6927028764
 20
265.0176708149
 30
0.0
  0
SPLINE
  5
3E0
100
AcDbEntity
  8
0
100
AcDbSpline
 62
7
  6
CONTINUOUS
 70
0
 71
3
 72
9
 73
5
 74
0
 42
0.0000001
 43
0.0000001
 44
0.0000000001
 40
0.0
 40
0.0
 40
0.0
 40
0.0
 40
0.2511810962
 40
1.0
 40
1.0
 40
1.0
 40
1.0
 10
14.3049587385
 20
260.8109678831
 30
0.0
 10
14.3292827485
 20
260.7790018398
 30
0.0
 10
14.426597696
 20
260.6521013302
 30
0.0
 10
14.5254154774
 20
260.5263597148
 30
0.0
 10
14.5998843417
 20
260.4325820931
 30
0.0
  0
SPLINE
  5
3E1
100
AcDbEntity
  8
0
100
AcDbSpline
 62
7
  6
CONTINUOUS
 70
0
 71
3
 72
9
 73
5
 74
0
 42
0.0000001
 43
0.0000001
 44
0.0000000001
 40
0.0
 40
0.0
 40
0.0
 40
0.0
 40
0.5019445265
 40
1.0
 40
1.0
 40
1.0
 40
1.0
 10
14.6464425732
 20
261.8983993409
 30
0.0
 10
14.6409185237
 20
261.8272428679
 30
0.0
 10
14.6178921271
 20
261.6861627576
 30
0.0
 10
14.5713865875
 20
261.5509584158
 30
0.0
 10
14.542580248
 20
261.4862643145
 30
0.0
  0
SPLINE
  5
3E2
100
AcDbEntity
  8
0
100
AcDbSpline
 62
7
  6
CONTINUOUS
 70
0
 71
3
 72
9
 73
5
 74
0
 42
0.0000001
 43
0.0000001
 44
0.0000000001
 40
0.0
 40
0.0
 40
0.0
 40
0.0
 40
0.4959208638
 40
1.0
 40
1.0
 40
1.0
 40
1.0
 10
14.6071372982
 20
262.3178375983
 30
0.0
 10
14.6257827523
 20
262.2504683157
 30
0.0
 10
14.6510287948
 20
262.1109500909
 30
0.0
 10
14.6519419514
 20
261.9692380179
 30
0.0
 10
14.6464425732
 20
261.8983993409
 30
0.0
  0
SPLINE
  5
3E3
100
AcDbEntity
  8
0
100
AcDbSpline
 62
7
  6
CONTINUOUS
 70
0
 71
3
 72
9
 73
5
 74
0
 42
0.0000001
 43
0.0000001
 44
0.0000000001
 40
0.0
 40
0.0
 40
0.0
 40
0.0
 40
0.2491533009
 40
1.0
 40
1.0
 40
1.0
 40
1.0
 10
14.820203837
 20
263.2705650157
 30
0.0
 10
14.795374185
 20
263.2503289045
 30
0.0
 10
14.6958577087
 20
263.1689388326
 30
0.0
 10
14.5969671739
 20
263.0867782669
 30
0.0
 10
14.5232999676
 20
263.0243994285
 30
0.0
  0
SPLINE
  5
3E4
100
AcDbEntity
  8
0
100
AcDbSpline
 62
7
  6
CONTINUOUS
 70
0
 71
3
 72
9
 73
5
 74
0
 42
0.0000001
 43
0.0000001
 44
0.0000000001
 40
0.0
 40
0.0
 40
0.0
 40
0.0
 40
0.2532709335
 40
1.0
 40
1.0
 40
1.0
 40
1.0
 10
14.6071372982
 20
262.3178375983
 30
0.0
 10
14.5765926577
 20
262.3340037741
 30
0.0
 10
14.4561277041
 20
262.3980865727
 30
0.0
 10
14.336295418
 20
262.4633810552
 30
0.0
 10
14.2475712429
 20
262.513480018
 30
0.0
  0
SPLINE
  5
3E5
100
AcDbEntity
  8
0
100
AcDbSpline
 62
7
  6
CONTINUOUS
 70
0
 71
3
 72
9
 73
5
 74
0
 42
0.0000001
 43
0.0000001
 44
0.0000000001
 40
0.0
 40
0.0
 40
0.0
 40
0.0
 40
0.2518219697
 40
1.0
 40
1.0
 40
1.0
 40
1.0
 10
14.820203837
 20
263.2705650157
 30
0.0
 10
14.7999364097
 20
263.2813122586
 30
0.0
 10
14.7181701919
 20
263.3215202009
 30
0.0
 10
14.6313835454
 20
263.351560602
 30
0.0
 10
14.5651349874
 20
263.3675803463
 30
0.0
  0
LINE
  5
3E6
100
AcDbEntity
  8
0
100
AcDbLine
 62
7
  6
CONTINUOUS
 10
16.6890659103
 20
262.1925760175
 11
14.8540413078
 21
262.2460354166
  0
SPLINE
  5
3E7
100
AcDbEntity
  8
0
100
AcDbSpline
 62
7
  6
CONTINUOUS
 70
0
 71
3
 72
9
 73
5
 74
0
 42
0.0000001
 43
0.0000001
 44
0.0000000001
 40
0.0
 40
0.0
 40
0.0
 40
0.0
 40
0.2502822993
 40
1.0
 40
1.0
 40
1.0
 40
1.0
 10
14.7970351074
 20
261.5098272151
 30
0.0
 10
14.9484326257
 20
261.4837440109
 30
0.0
 10
15.5533185729
 20
261.3794066035
 30
0.0
 10
16.1581629416
 20
261.2748283881
 30
0.0
 10
16.6116208981
 20
261.1963978881
 30
0.0
  0
SPLINE
  5
3E8
100
AcDbEntity
  8
0
100
AcDbSpline
 62
7
  6
CONTINUOUS
 70
0
 71
3
 72
9
 73
5
 74
0
 42
0.0000001
 43
0.0000001
 44
0.0000000001
 40
0.0
 40
0.0
 40
0.0
 40
0.0
 40
0.2465631896
 40
1.0
 40
1.0
 40
1.0
 40
1.0
 10
14.1560975143
 20
261.335187198
 30
0.0
 10
14.1876095462
 20
261.348233259
 30
0.0
 10
14.315756236
 20
261.4003209282
 30
0.0
 10
14.444968742
 20
261.4497456648
 30
0.0
 10
14.542580248
 20
261.4862643145
 30
0.0
  0
SPLINE
  5
3E9
100
AcDbEntity
  8
0
100
AcDbSpline
 62
7
  6
CONTINUOUS
 70
0
 71
3
 72
17
 73
13
 74
0
 42
0.0000001
 43
0.0000001
 44
0.0000000001
 40
0.0
 40
0.0
 40
0.0
 40
0.0
 40
0.1230898135
 40
0.2507369842
 40
0.3812862037
 40
0.5121302181
 40
0.6405646998
 40
0.7646752291
 40
0.8250232959
 40
0.8842405236
 40
0.9424925217
 40
1.0
 40
1.0
 40
1.0
 40
1.0
 10
-33.8573344997
 20
253.4919284902
 30
0.0
 10
-34.0644783071
 20
254.6181660951
 30
0.0
 10
-34.1773864525
 20
256.9768389021
 30
0.0
 10
-33.5173104229
 20
260.489742703
 30
0.0
 10
-32.1015117613
 20
263.8496393786
 30
0.0
 10
-30.0233428854
 20
266.8536882183
 30
0.0
 10
-27.4058549993
 20
269.3164729329
 30
0.0
 10
-24.8620654245
 20
270.7956231574
 30
0.0
 10
-22.7136387066
 20
271.5373913819
 30
0.0
 10
-21.0851702633
 20
271.8595553038
 30
0.0
 10
-19.4534999426
 20
271.9397529236
 30
0.0
 10
-18.3772484184
 20
271.8253366805
 30
0.0
 10
-17.851598752
 20
271.725732386
 30
0.0
  0
SPLINE
  5
3EA
100
AcDbEntity
  8
0
100
AcDbSpline
 62
7
  6
CONTINUOUS
 70
0
 71
3
 72
9
 73
5
 74
0
 42
0.0000001
 43
0.0000001
 44
0.0000000001
 40
0.0
 40
0.0
 40
0.0
 40
0.0
 40
0.2452798743
 40
1.0
 40
1.0
 40
1.0
 40
1.0
 10
-17.1312589578
 20
271.8313527632
 30
0.0
 10
-17.3450736915
 20
271.7964379883
 30
0.0
 10
-18.2130361857
 20
271.6316202086
 30
0.0
 10
-19.0637625529
 20
271.3787703405
 30
0.0
 10
-19.6883822691
 20
271.1459018397
 30
0.0
  0
SPLINE
  5
3EB
100
AcDbEntity
  8
0
100
AcDbSpline
 62
7
  6
CONTINUOUS
 70
0
 71
3
 72
11
 73
7
 74
0
 42
0.0000001
 43
0.0000001
 44
0.0000000001
 40
0.0
 40
0.0
 40
0.0
 40
0.0
 40
0.2546272404
 40
0.5066601154
 40
0.7552231618
 40
1.0
 40
1.0
 40
1.0
 40
1.0
 10
-19.6883822691
 20
271.1459018397
 30
0.0
 10
-20.5810791603
 20
270.4521761761
 30
0.0
 10
-22.3362058763
 20
269.0441040388
 30
0.0
 10
-24.8668336396
 20
266.8425161691
 30
0.0
 10
-27.2649025979
 20
264.5601627658
 30
0.0
 10
-28.786800173
 20
262.9838754839
 30
0.0
 10
-29.5279535992
 20
262.1889701149
 30
0.0
  0
SPLINE
  5
3EC
100
AcDbEntity
  8
0
100
AcDbSpline
 62
7
  6
CONTINUOUS
 70
0
 71
3
 72
17
 73
13
 74
0
 42
0.0000001
 43
0.0000001
 44
0.0000000001
 40
0.0
 40
0.0
 40
0.0
 40
0.0
 40
0.0534046964
 40
0.1084878047
 40
0.224290902
 40
0.3480279667
 40
0.478149582
 40
0.6118187404
 40
0.6789799843
 40
0.7457070259
 40
0.8760053273
 40
1.0
 40
1.0
 40
1.0
 40
1.0
 10
-17.9929523448
 20
271.6895037619
 30
0.0
 10
-18.4603988176
 20
271.7524367263
 30
0.0
 10
-19.4216137185
 20
271.8049149792
 30
0.0
 10
-21.3996911361
 20
271.6200497982
 30
0.0
 10
-23.9138224035
 20
270.8329766051
 30
0.0
 10
-26.7319770048
 20
269.1335142522
 30
0.0
 10
-29.2450271477
 20
266.7760541934
 30
0.0
 10
-30.9593491518
 20
264.3846401019
 30
0.0
 10
-32.0503838149
 20
262.2850560013
 30
0.0
 10
-32.9232204787
 20
260.1177724488
 30
0.0
 10
-33.594964744
 20
257.3434024586
 30
0.0
 10
-33.6552827654
 20
255.0760711735
 30
0.0
 10
-33.5504994149
 20
253.9859897451
 30
0.0
  0
SPLINE
  5
3ED
100
AcDbEntity
  8
0
100
AcDbSpline
 62
7
  6
CONTINUOUS
 70
0
 71
3
 72
12
 73
8
 74
0
 42
0.0000001
 43
0.0000001
 44
0.0000000001
 40
0.0
 40
0.0
 40
0.0
 40
0.0
 40
0.0996128975
 40
0.2023468396
 40
0.4271205988
 40
0.6907026073
 40
1.0
 40
1.0
 40
1.0
 40
1.0
 10
42.9967797789
 20
293.5693378379
 30
0.0
 10
42.9968007674
 20
293.9234617598
 30
0.0
 10
43.0683826687
 20
294.6446665993
 30
0.0
 10
43.5053296276
 20
296.1071833834
 30
0.0
 10
44.6405600227
 20
297.9195241565
 30
0.0
 10
46.7239304734
 20
299.8713435387
 30
0.0
 10
48.4455050759
 20
300.9777038991
 30
0.0
 10
49.405998624
 20
301.5129307132
 30
0.0
  0
SPLINE
  5
3EE
100
AcDbEntity
  8
0
100
AcDbSpline
 62
7
  6
CONTINUOUS
 70
0
 71
3
 72
9
 73
5
 74
0
 42
0.0000001
 43
0.0000001
 44
0.0000000001
 40
0.0
 40
0.0
 40
0.0
 40
0.0
 40
0.4676692168
 40
1.0
 40
1.0
 40
1.0
 40
1.0
 10
49.405998624
 20
301.5129307132
 30
0.0
 10
50.7057304461
 20
302.2371951538
 30
0.0
 10
53.6168119151
 20
303.550496908
 30
0.0
 10
56.6553459994
 20
304.512388584
 30
0.0
 10
58.2912216365
 20
304.9508940175
 30
0.0
  0
SPLINE
  5
3EF
100
AcDbEntity
  8
0
100
AcDbSpline
 62
7
  6
CONTINUOUS
 70
0
 71
3
 72
19
 73
15
 74
0
 42
0.0000001
 43
0.0000001
 44
0.0000000001
 40
0.0
 40
0.0
 40
0.0
 40
0.0
 40
0.1489793394
 40
0.306450815
 40
0.4635415581
 40
0.6114114147
 40
0.6794049944
 40
0.7422871716
 40
0.7994183252
 40
0.8503978542
 40
0.8951604727
 40
0.9341259331
 40
0.9684096983
 40
1.0
 40
1.0
 40
1.0
 40
1.0
 10
60.9415524791
 20
305.5952740825
 30
0.0
 10
63.7196351857
 20
306.2052934858
 30
0.0
 10
69.5194448636
 20
307.0853254854
 30
0.0
 10
78.3739917144
 20
307.4905234912
 30
0.0
 10
87.2041174418
 20
307.0108775227
 30
0.0
 10
94.2515660666
 20
305.8741995559
 30
0.0
 10
99.4006125453
 20
304.5142564458
 30
0.0
 10
102.797050533
 20
303.3412790298
 30
0.0
 10
105.781907662
 20
302.0067681728
 30
0.0
 10
108.308278257
 20
300.5311847052
 30
0.0
 10
110.3379043254
 20
298.9348543633
 30
0.0
 10
111.8392169822
 20
297.232879205
 30
0.0
 10
112.7777714794
 20
295.4377401253
 30
0.0
 10
112.9967869996
 20
294.1724504709
 30
0.0
 10
112.996751254
 20
293.5693378382
 30
0.0
  0
SPLINE
  5
3F0
100
AcDbEntity
  8
0
100
AcDbSpline
 62
7
  6
CONTINUOUS
 70
0
 71
3
 72
19
 73
15
 74
0
 42
0.0000001
 43
0.0000001
 44
0.0000000001
 40
0.0
 40
0.0
 40
0.0
 40
0.0
 40
0.1392623917
 40
0.2894822208
 40
0.4425426512
 40
0.5900444972
 40
0.6592465972
 40
0.724214548
 40
0.7842088722
 40
0.8386595275
 40
0.8872272293
 40
0.9298960904
 40
0.9671164127
 40
1.0
 40
1.0
 40
1.0
 40
1.0
 10
97.7023093964
 20
282.1877816587
 30
0.0
 10
95.0876321817
 20
281.4869030959
 30
0.0
 10
89.5466402431
 20
280.4154666739
 30
0.0
 10
80.9606134102
 20
279.7008924509
 30
0.0
 10
72.1855000327
 20
279.841487962
 30
0.0
 10
65.0313282994
 20
280.6789120357
 30
0.0
 10
59.667639336
 20
281.7933662992
 30
0.0
 10
56.0272551868
 20
282.8009965951
 30
0.0
 10
52.7415433947
 20
283.9811349389
 30
0.0
 10
49.8618663415
 20
285.315317073
 30
0.0
 10
47.4320180514
 20
286.7832749787
 30
0.0
 10
45.4876007773
 20
288.3669581502
 30
0.0
 10
44.0586089998
 20
290.0486317018
 30
0.0
 10
43.4448412388
 20
291.288289844
 30
0.0
 10
43.2552735071
 20
291.8987242924
 30
0.0
  0
SPLINE
  5
3F1
100
AcDbEntity
  8
0
100
AcDbSpline
 62
7
  6
CONTINUOUS
 70
0
 71
3
 72
9
 73
5
 74
0
 42
0.0000001
 43
0.0000001
 44
0.0000000001
 40
0.0
 40
0.0
 40
0.0
 40
0.0
 40
0.2533381997
 40
1.0
 40
1.0
 40
1.0
 40
1.0
 10
43.2552735071
 20
291.8987242924
 30
0.0
 10
43.2298668396
 20
291.9805372937
 30
0.0
 10
43.1363914809
 20
292.3055424986
 30
0.0
 10
43.0709779928
 20
292.6387041002
 30
0.0
 10
43.0394833204
 20
292.889218354
 30
0.0
  0
SPLINE
  5
3F2
100
AcDbEntity
  8
0
100
AcDbSpline
 62
7
  6
CONTINUOUS
 70
0
 71
3
 72
9
 73
5
 74
0
 42
0.0000001
 43
0.0000001
 44
0.0000000001
 40
0.0
 40
0.0
 40
0.0
 40
0.0
 40
0.247003001
 40
1.0
 40
1.0
 40
1.0
 40
1.0
 10
112.9543709085
 20
292.8920129946
 30
0.0
 10
112.9430875685
 20
292.8018444915
 30
0.0
 10
112.8884360985
 20
292.4379539492
 30
0.0
 10
112.7979351336
 20
292.0796009127
 30
0.0
 10
112.712021553
 20
291.8162342102
 30
0.0
  0
SPLINE
  5
3F3
100
AcDbEntity
  8
0
100
AcDbSpline
 62
7
  6
CONTINUOUS
 70
0
 71
3
 72
14
 73
10
 74
0
 42
0.0000001
 43
0.0000001
 44
0.0000000001
 40
0.0
 40
0.0
 40
0.0
 40
0.0
 40
0.0855180905
 40
0.1799841277
 40
0.2856657836
 40
0.4037704892
 40
0.5346928282
 40
0.678211881
 40
1.0
 40
1.0
 40
1.0
 40
1.0
 10
112.712021553
 20
291.8162342102
 30
0.0
 10
112.5490114791
 20
291.3165294442
 30
0.0
 10
112.0688792133
 20
290.3070705893
 30
0.0
 10
110.9970519641
 20
288.9047267702
 30
0.0
 10
109.5641255995
 20
287.5625702685
 30
0.0
 10
107.7866302112
 20
286.2917075074
 30
0.0
 10
105.6829043
 20
285.102638931
 30
0.0
 10
102.34387579
 20
283.5844857753
 30
0.0
 10
99.6126760103
 20
282.6998659035
 30
0.0
 10
97.7023093964
 20
282.1877816587
 30
0.0
  0
SPLINE
  5
3F4
100
AcDbEntity
  8
0
100
AcDbSpline
 62
7
  6
CONTINUOUS
 70
0
 71
3
 72
9
 73
5
 74
0
 42
0.0000001
 43
0.0000001
 44
0.0000000001
 40
0.0
 40
0.0
 40
0.0
 40
0.0
 40
0.5030212102
 40
1.0
 40
1.0
 40
1.0
 40
1.0
 10
72.8549941759
 20
210.2488543619
 30
0.0
 10
71.6372189974
 20
209.9224230486
 30
0.0
 10
69.1469136185
 20
209.5059975755
 30
0.0
 10
66.6225758885
 20
209.5993583973
 30
0.0
 10
65.3889997306
 20
209.7721739985
 30
0.0
  0
SPLINE
  5
3F5
100
AcDbEntity
  8
0
100
AcDbSpline
 62
7
  6
CONTINUOUS
 70
0
 71
3
 72
13
 73
9
 74
0
 42
0.0000001
 43
0.0000001
 44
0.0000000001
 40
0.0
 40
0.0
 40
0.0
 40
0.0
 40
0.2680785006
 40
0.5231817433
 40
0.6459686968
 40
0.7658126978
 40
0.8834850319
 40
1.0
 40
1.0
 40
1.0
 40
1.0
 10
54.0992598903
 20
244.1604881783
 30
0.0
 10
54.2015648557
 20
243.4779546715
 30
0.0
 10
54.5758808538
 20
242.1641756517
 30
0.0
 10
55.4819825199
 20
240.7367832763
 30
0.0
 10
56.4133319732
 20
239.8489533587
 30
0.0
 10
57.1871192951
 20
239.3287193025
 30
0.0
 10
58.0256675044
 20
238.9597212179
 30
0.0
 10
58.6164266891
 20
238.8205293359
 30
0.0
 10
58.9134878307
 20
238.7789028996
 30
0.0
  0
SPLINE
  5
3F6
100
AcDbEntity
  8
0
100
AcDbSpline
 62
7
  6
CONTINUOUS
 70
0
 71
3
 72
13
 73
9
 74
0
 42
0.0000001
 43
0.0000001
 44
0.0000000001
 40
0.0
 40
0.0
 40
0.0
 40
0.0
 40
0.2680785325
 40
0.5231817686
 40
0.6459687088
 40
0.7658126912
 40
0.8834850163
 40
1.0
 40
1.0
 40
1.0
 40
1.0
 10
68.8394921996
 20
248.1116882648
 30
0.0
 10
68.9414202955
 20
247.4316690648
 30
0.0
 10
69.3143573682
 20
246.1227298089
 30
0.0
 10
70.2171211329
 20
244.7005958314
 30
0.0
 10
71.1450395143
 20
243.8160366703
 30
0.0
 10
71.9159761907
 20
243.2977191577
 30
0.0
 10
72.7514352535
 20
242.9300804847
 30
0.0
 10
73.3400181396
 20
242.7914012976
 30
0.0
 10
73.6359849777
 20
242.7499282159
 30
0.0
  0
SPLINE
  5
3F7
100
AcDbEntity
  8
0
100
AcDbSpline
 62
7
  6
CONTINUOUS
 70
0
 71
3
 72
13
 73
9
 74
0
 42
0.0000001
 43
0.0000001
 44
0.0000000001
 40
0.0
 40
0.0
 40
0.0
 40
0.0
 40
0.2680785325
 40
0.5231817686
 40
0.6459687088
 40
0.7658126912
 40
0.8834850163
 40
1.0
 40
1.0
 40
1.0
 40
1.0
 10
52.0403973633
 20
226.480090923
 30
0.0
 10
52.1423254592
 20
225.800071723
 30
0.0
 10
52.5152625319
 20
224.4911324671
 30
0.0
 10
53.4180262966
 20
223.0689984896
 30
0.0
 10
54.345944678
 20
222.1844393284
 30
0.0
 10
55.1168813544
 20
221.6661218159
 30
0.0
 10
55.9523404172
 20
221.2984831429
 30
0.0
 10
56.5409233033
 20
221.1598039558
 30
0.0
 10
56.8368901414
 20
221.1183308741
 30
0.0
  0
SPLINE
  5
3F8
100
AcDbEntity
  8
0
100
AcDbSpline
 62
7
  6
CONTINUOUS
 70
0
 71
3
 72
13
 73
9
 74
0
 42
0.0000001
 43
0.0000001
 44
0.0000000001
 40
0.0
 40
0.0
 40
0.0
 40
0.0
 40
0.2680785325
 40
0.5231817686
 40
0.6459687088
 40
0.7658126912
 40
0.8834850163
 40
1.0
 40
1.0
 40
1.0
 40
1.0
 10
75.8561109462
 20
232.8640235228
 30
0.0
 10
75.9580390421
 20
232.1840043228
 30
0.0
 10
76.3309761148
 20
230.8750650669
 30
0.0
 10
77.2337398794
 20
229.4529310894
 30
0.0
 10
78.1616582608
 20
228.5683719282
 30
0.0
 10
78.9325949372
 20
228.0500544157
 30
0.0
 10
79.7680540001
 20
227.6824157427
 30
0.0
 10
80.3566368862
 20
227.5437365556
 30
0.0
 10
80.6526037243
 20
227.5022634739
 30
0.0
  0
SPLINE
  5
3F9
100
AcDbEntity
  8
0
100
AcDbSpline
 62
7
  6
CONTINUOUS
 70
0
 71
3
 72
13
 73
9
 74
0
 42
0.0000001
 43
0.0000001
 44
0.0000000001
 40
0.0
 40
0.0
 40
0.0
 40
0.0
 40
0.1126084257
 40
0.227816271
 40
0.3475015298
 40
0.4724025418
 40
0.7336674034
 40
1.0
 40
1.0
 40
1.0
 40
1.0
 10
70.794799489
 20
225.7973386275
 30
0.0
 10
70.4880914398
 20
225.840290884
 30
0.0
 10
69.8514533442
 20
225.8371175079
 30
0.0
 10
68.9239575579
 20
225.5634012151
 30
0.0
 10
68.0708726067
 20
225.0410488908
 30
0.0
 10
67.083615416
 20
224.0449125724
 30
0.0
 10
66.2803372576
 20
222.3792283996
 30
0.0
 10
66.1982952549
 20
220.8865713563
 30
0.0
 10
66.3068738352
 20
220.1621830648
 30
0.0
  0
SPLINE
  5
3FA
100
AcDbEntity
  8
0
100
AcDbSpline
 62
7
  6
CONTINUOUS
 70
0
 71
3
 72
11
 73
7
 74
0
 42
0.0000001
 43
0.0000001
 44
0.0000000001
 40
0.0
 40
0.0
 40
0.0
 40
0.0
 40
0.2372795999
 40
0.4807045577
 40
0.7345139154
 40
1.0
 40
1.0
 40
1.0
 40
1.0
 10
79.1351036499
 20
238.4426586848
 30
0.0
 10
78.878924606
 20
238.4785106847
 30
0.0
 10
78.345398105
 20
238.4708863162
 30
0.0
 10
77.5735677645
 20
238.2203025747
 30
0.0
 10
76.8747428346
 20
237.7525039158
 30
0.0
 10
76.4933376463
 20
237.3255325168
 30
0.0
 10
76.3260651002
 20
237.0893397322
 30
0.0
  0
SPLINE
  5
3FB
100
AcDbEntity
  8
0
100
AcDbSpline
 62
7
  6
CONTINUOUS
 70
0
 71
3
 72
15
 73
11
 74
0
 42
0.0000001
 43
0.0000001
 44
0.0000000001
 40
0.0
 40
0.0
 40
0.0
 40
0.0
 40
0.1122972859
 40
0.2271859086
 40
0.3465394177
 40
0.4710945749
 40
0.6004025474
 40
0.7330571781
 40
0.8670062056
 40
1.0
 40
1.0
 40
1.0
 40
1.0
 10
82.5872428024
 20
241.3158265571
 30
0.0
 10
82.1272381337
 20
241.3802858437
 30
0.0
 10
81.1723935318
 20
241.375493912
 30
0.0
 10
79.7812780684
 20
240.9649158972
 30
0.0
 10
78.5019777101
 20
240.1816981194
 30
0.0
 10
77.4058215661
 20
239.0754248152
 30
0.0
 10
76.550011285
 20
237.7106814928
 30
0.0
 10
75.97961158
 20
236.1635111815
 30
0.0
 10
75.7243674191
 20
234.5200320529
 30
0.0
 10
75.7745663932
 20
233.4080527343
 30
0.0
 10
75.8561109462
 20
232.8640235228
 30
0.0
  0
SPLINE
  5
3FC
100
AcDbEntity
  8
0
100
AcDbSpline
 62
7
  6
CONTINUOUS
 70
0
 71
3
 72
11
 73
7
 74
0
 42
0.0000001
 43
0.0000001
 44
0.0000000001
 40
0.0
 40
0.0
 40
0.0
 40
0.0
 40
0.2372795999
 40
0.4807045577
 40
0.7345139154
 40
1.0
 40
1.0
 40
1.0
 40
1.0
 10
55.319390067
 20
232.058726085
 30
0.0
 10
55.0632110231
 20
232.0945780849
 30
0.0
 10
54.5296845222
 20
232.0869537164
 30
0.0
 10
53.7578541817
 20
231.8363699749
 30
0.0
 10
53.0590292517
 20
231.368571316
 30
0.0
 10
52.6776240634
 20
230.941599917
 30
0.0
 10
52.5103515173
 20
230.7054071324
 30
0.0
  0
SPLINE
  5
3FD
100
AcDbEntity
  8
0
100
AcDbSpline
 62
7
  6
CONTINUOUS
 70
0
 71
3
 72
15
 73
11
 74
0
 42
0.0000001
 43
0.0000001
 44
0.0000000001
 40
0.0
 40
0.0
 40
0.0
 40
0.0
 40
0.1122972859
 40
0.2271859086
 40
0.3465394177
 40
0.4710945749
 40
0.6004025474
 40
0.7330571781
 40
0.8670062056
 40
1.0
 40
1.0
 40
1.0
 40
1.0
 10
58.7715292196
 20
234.9318939573
 30
0.0
 10
58.3115245509
 20
234.9963532439
 30
0.0
 10
57.356679949
 20
234.9915613122
 30
0.0
 10
55.9655644856
 20
234.5809832974
 30
0.0
 10
54.6862641273
 20
233.7977655196
 30
0.0
 10
53.5901079833
 20
232.6914922154
 30
0.0
 10
52.7342977022
 20
231.326748893
 30
0.0
 10
52.1638979971
 20
229.7795785817
 30
0.0
 10
51.9086538362
 20
228.1360994531
 30
0.0
 10
51.9588528104
 20
227.0241201345
 30
0.0
 10
52.0403973633
 20
226.480090923
 30
0.0
  0
SPLINE
  5
3FE
100
AcDbEntity
  8
0
100
AcDbSpline
 62
7
  6
CONTINUOUS
 70
0
 71
3
 72
11
 73
7
 74
0
 42
0.0000001
 43
0.0000001
 44
0.0000000001
 40
0.0
 40
0.0
 40
0.0
 40
0.0
 40
0.2372795999
 40
0.4807045577
 40
0.7345139154
 40
1.0
 40
1.0
 40
1.0
 40
1.0
 10
72.1184849033
 20
253.6903234268
 30
0.0
 10
71.8623058594
 20
253.7261754267
 30
0.0
 10
71.3287793585
 20
253.7185510582
 30
0.0
 10
70.556949018
 20
253.4679673167
 30
0.0
 10
69.858124088
 20
253.0001686579
 30
0.0
 10
69.4767188997
 20
252.5731972588
 30
0.0
 10
69.3094463536
 20
252.3370044743
 30
0.0
  0
SPLINE
  5
3FF
100
AcDbEntity
  8
0
100
AcDbSpline
 62
7
  6
CONTINUOUS
 70
0
 71
3
 72
12
 73
8
 74
0
 42
0.0000001
 43
0.0000001
 44
0.0000000001
 40
0.0
 40
0.0
 40
0.0
 40
0.0
 40
0.115297376
 40
0.2343869383
 40
0.4827265137
 40
0.7410367357
 40
1.0
 40
1.0
 40
1.0
 40
1.0
 10
72.9183689979
 20
256.2089728189
 30
0.0
 10
72.5743111089
 20
256.065977793
 30
0.0
 10
71.9028916651
 20
255.7029921205
 30
0.0
 10
70.6880828096
 20
254.7128121763
 30
0.0
 10
69.4884305042
 20
253.0332405536
 30
0.0
 10
68.7296624667
 20
250.6418069078
 30
0.0
 10
68.7154417991
 20
248.9392977024
 30
0.0
 10
68.8394921996
 20
248.1116882648
 30
0.0
  0
SPLINE
  5
400
100
AcDbEntity
  8
0
100
AcDbSpline
 62
7
  6
CONTINUOUS
 70
0
 71
3
 72
11
 73
7
 74
0
 42
0.0000001
 43
0.0000001
 44
0.0000000001
 40
0.0
 40
0.0
 40
0.0
 40
0.0
 40
0.2368872576
 40
0.4801589831
 40
0.7341393561
 40
1.0
 40
1.0
 40
1.0
 40
1.0
 10
57.3995644428
 20
249.7448360982
 30
0.0
 10
57.1378049368
 20
249.7814690782
 30
0.0
 10
56.5919757668
 20
249.7718067517
 30
0.0
 10
55.8045410327
 20
249.5076931151
 30
0.0
 10
55.0957310653
 20
249.0181093014
 30
0.0
 10
54.7129740506
 20
248.5733693096
 30
0.0
 10
54.546424924
 20
248.32789945
 30
0.0
  0
SPLINE
  5
401
100
AcDbEntity
  8
0
100
AcDbSpline
 62
7
  6
CONTINUOUS
 70
0
 71
3
 72
15
 73
11
 74
0
 42
0.0000001
 43
0.0000001
 44
0.0000000001
 40
0.0
 40
0.0
 40
0.0
 40
0.0
 40
0.1122972734
 40
0.2271858769
 40
0.3465393707
 40
0.4710945316
 40
0.6004025251
 40
0.7330571645
 40
0.8670062052
 40
1.0
 40
1.0
 40
1.0
 40
1.0
 10
60.8552802818
 20
252.6435419584
 30
0.0
 10
60.3935747879
 20
252.7082395968
 30
0.0
 10
59.4351997563
 20
252.7034299622
 30
0.0
 10
58.0389407795
 20
252.2913339634
 30
0.0
 10
56.7549102201
 20
251.5052203914
 30
0.0
 10
55.6547009027
 20
250.3948566611
 30
0.0
 10
54.7957260822
 20
249.0250670956
 30
0.0
 10
54.2232171897
 20
247.4721759308
 30
0.0
 10
53.9670292424
 20
245.8226199008
 30
0.0
 10
54.017413824
 20
244.7065289534
 30
0.0
 10
54.0992598903
 20
244.1604881783
 30
0.0
  0
SPLINE
  5
402
100
AcDbEntity
  8
0
100
AcDbSpline
 62
7
  6
CONTINUOUS
 70
0
 71
3
 72
11
 73
7
 74
0
 42
0.0000001
 43
0.0000001
 44
0.0000000001
 40
0.0
 40
0.0
 40
0.0
 40
0.0
 40
0.2633193447
 40
0.5163024734
 40
0.7606159038
 40
1.0
 40
1.0
 40
1.0
 40
1.0
 10
54.2118912189
 20
244.2153321017
 30
0.0
 10
54.3206038459
 20
243.9881193198
 30
0.0
 10
54.5812713575
 20
243.5631214458
 30
0.0
 10
55.0980368382
 20
243.0412749607
 30
0.0
 10
55.7086072266
 20
242.674538241
 30
0.0
 10
56.1602843729
 20
242.5471665272
 30
0.0
 10
56.3870599183
 20
242.5154295174
 30
0.0
  0
SPLINE
  5
403
100
AcDbEntity
  8
0
100
AcDbSpline
 62
7
  6
CONTINUOUS
 70
0
 71
3
 72
11
 73
7
 74
0
 42
0.0000001
 43
0.0000001
 44
0.0000000001
 40
0.0
 40
0.0
 40
0.0
 40
0.0
 40
0.2632921143
 40
0.5162657747
 40
0.7605905842
 40
1.0
 40
1.0
 40
1.0
 40
1.0
 10
68.9328830152
 20
248.1564976095
 30
0.0
 10
69.0417036617
 20
247.9298288568
 30
0.0
 10
69.3024297683
 20
247.5058914101
 30
0.0
 10
69.8188008164
 20
246.9854279708
 30
0.0
 10
70.4285877543
 20
246.619672949
 30
0.0
 10
70.8795571374
 20
246.4926045512
 30
0.0
 10
71.1059803788
 20
246.4609168459
 30
0.0
  0
SPLINE
  5
404
100
AcDbEntity
  8
0
100
AcDbSpline
 62
7
  6
CONTINUOUS
 70
0
 71
3
 72
11
 73
7
 74
0
 42
0.0000001
 43
0.0000001
 44
0.0000000001
 40
0.0
 40
0.0
 40
0.0
 40
0.0
 40
0.2632921143
 40
0.5162657747
 40
0.7605905842
 40
1.0
 40
1.0
 40
1.0
 40
1.0
 10
52.1337881789
 20
226.5249002677
 30
0.0
 10
52.2426088254
 20
226.298231515
 30
0.0
 10
52.503334932
 20
225.8742940683
 30
0.0
 10
53.0197059801
 20
225.353830629
 30
0.0
 10
53.629492918
 20
224.9880756072
 30
0.0
 10
54.0804623011
 20
224.8610072093
 30
0.0
 10
54.3068855425
 20
224.8293195041
 30
0.0
  0
SPLINE
  5
405
100
AcDbEntity
  8
0
100
AcDbSpline
 62
7
  6
CONTINUOUS
 70
0
 71
3
 72
11
 73
7
 74
0
 42
0.0000001
 43
0.0000001
 44
0.0000000001
 40
0.0
 40
0.0
 40
0.0
 40
0.0
 40
0.2632921143
 40
0.5162657747
 40
0.7605905842
 40
1.0
 40
1.0
 40
1.0
 40
1.0
 10
75.9495017617
 20
232.9088328675
 30
0.0
 10
76.0583224082
 20
232.6821641148
 30
0.0
 10
76.3190485149
 20
232.2582266681
 30
0.0
 10
76.8354195629
 20
231.7377632288
 30
0.0
 10
77.4452065008
 20
231.372008207
 30
0.0
 10
77.896175884
 20
231.2449398091
 30
0.0
 10
78.1225991253
 20
231.2132521039
 30
0.0
  0
SPLINE
  5
406
100
AcDbEntity
  8
0
100
AcDbSpline
 62
7
  6
CONTINUOUS
 70
0
 71
3
 72
11
 73
7
 74
0
 42
0.0000001
 43
0.0000001
 44
0.0000000001
 40
0.0
 40
0.0
 40
0.0
 40
0.0
 40
0.2685754896
 40
0.5241420781
 40
0.7663548172
 40
1.0
 40
1.0
 40
1.0
 40
1.0
 10
66.3068738352
 20
220.1621830648
 30
0.0
 10
66.3748343129
 20
219.7087807981
 30
0.0
 10
66.6238817224
 20
218.8357181395
 30
0.0
 10
67.3349564097
 20
217.7143365716
 30
0.0
 10
68.3198524174
 20
216.9094024987
 30
0.0
 10
69.1099131979
 20
216.642603622
 30
0.0
 10
69.504898859
 20
216.5872887208
 30
0.0
  0
SPLINE
  5
407
100
AcDbEntity
  8
0
100
AcDbSpline
 62
7
  6
CONTINUOUS
 70
0
 71
3
 72
18
 73
14
 74
0
 42
0.0000001
 43
0.0000001
 44
0.0000000001
 40
0.0
 40
0.0
 40
0.0
 40
0.0
 40
0.0591930255
 40
0.119891538
 40
0.2453213691
 40
0.3751482038
 40
0.5067809305
 40
0.6371852386
 40
0.7636273126
 40
0.8249087248
 40
0.8846811147
 40
0.9429917228
 40
1.0
 40
1.0
 40
1.0
 40
1.0
 10
83.7492515323
 20
256.0833689617
 30
0.0
 10
84.5213325436
 20
255.3058860443
 30
0.0
 10
85.968496302
 20
253.6107839689
 30
0.0
 10
88.4074246103
 20
249.7660871833
 30
0.0
 10
90.5042242348
 20
244.2294654027
 30
0.0
 10
91.3425321478
 20
237.051163302
 30
0.0
 10
90.4899535197
 20
229.7810912009
 30
0.0
 10
88.0107947807
 20
222.9620396088
 30
0.0
 10
84.6899125833
 20
218.014920667
 30
0.0
 10
81.4248141929
 20
214.7838344669
 30
0.0
 10
78.7556436609
 20
212.7896051711
 30
0.0
 10
75.8947498149
 20
211.2424113436
 30
0.0
 10
73.8742818047
 20
210.5220799992
 30
0.0
 10
72.8549941759
 20
210.2488543619
 30
0.0
  0
SPLINE
  5
408
100
AcDbEntity
  8
0
100
AcDbSpline
 62
7
  6
CONTINUOUS
 70
0
 71
3
 72
13
 73
9
 74
0
 42
0.0000001
 43
0.0000001
 44
0.0000000001
 40
0.0
 40
0.0
 40
0.0
 40
0.0
 40
0.1126063254
 40
0.227810847
 40
0.3474930041
 40
0.4723908076
 40
0.7336554411
 40
1.0
 40
1.0
 40
1.0
 40
1.0
 10
78.1225991253
 20
231.2132521039
 30
0.0
 10
78.363347247
 20
231.179559646
 30
0.0
 10
78.8630575798
 20
231.1820177932
 30
0.0
 10
79.5910778471
 20
231.3968727177
 30
0.0
 10
80.260689532
 20
231.806869939
 30
0.0
 10
81.0356396404
 20
232.5887582349
 30
0.0
 10
81.6662123007
 20
233.8962340138
 30
0.0
 10
81.7306126574
 20
235.0679207071
 30
0.0
 10
81.645380417
 20
235.6365525393
 30
0.0
  0
SPLINE
  5
409
100
AcDbEntity
  8
0
100
AcDbSpline
 62
7
  6
CONTINUOUS
 70
0
 71
3
 72
13
 73
9
 74
0
 42
0.0000001
 43
0.0000001
 44
0.0000000001
 40
0.0
 40
0.0
 40
0.0
 40
0.0
 40
0.2680785325
 40
0.5231817686
 40
0.6459687088
 40
0.7658126912
 40
0.8834850163
 40
1.0
 40
1.0
 40
1.0
 40
1.0
 10
87.3837355805
 20
235.9540665082
 30
0.0
 10
87.2818074846
 20
236.6340857082
 30
0.0
 10
86.9088704119
 20
237.9430249641
 30
0.0
 10
86.0061066472
 20
239.3651589416
 30
0.0
 10
85.0781882659
 20
240.2497181028
 30
0.0
 10
84.3072515894
 20
240.7680356153
 30
0.0
 10
83.4717925266
 20
241.1356742883
 30
0.0
 10
82.8832096405
 20
241.2743534754
 30
0.0
 10
82.5872428024
 20
241.3158265571
 30
0.0
  0
SPLINE
  5
40A
100
AcDbEntity
  8
0
100
AcDbSpline
 62
7
  6
CONTINUOUS
 70
0
 71
3
 72
11
 73
7
 74
0
 42
0.0000001
 43
0.0000001
 44
0.0000000001
 40
0.0
 40
0.0
 40
0.0
 40
0.0
 40
0.2350659292
 40
0.4796612196
 40
0.7350320473
 40
1.0
 40
1.0
 40
1.0
 40
1.0
 10
81.0419775917
 20
241.2974286863
 30
0.0
 10
81.4789546167
 20
241.0884154071
 30
0.0
 10
82.3127199189
 20
240.5304731996
 30
0.0
 10
83.3163432177
 20
239.3754341393
 30
0.0
 10
84.042390148
 20
237.9608388941
 30
0.0
 10
84.3117264295
 20
236.9129546101
 30
0.0
 10
84.3926637047
 20
236.3729768871
 30
0.0
  0
SPLINE
  5
40B
100
AcDbEntity
  8
0
100
AcDbSpline
 62
7
  6
CONTINUOUS
 70
0
 71
3
 72
15
 73
11
 74
0
 42
0.0000001
 43
0.0000001
 44
0.0000000001
 40
0.0
 40
0.0
 40
0.0
 40
0.0
 40
0.1122972859
 40
0.2271859086
 40
0.3465394177
 40
0.4710945749
 40
0.6004025474
 40
0.7330571781
 40
0.8670062056
 40
1.0
 40
1.0
 40
1.0
 40
1.0
 10
80.6526037243
 20
227.5022634739
 30
0.0
 10
81.1126083929
 20
227.4378041873
 30
0.0
 10
82.0674529948
 20
227.442596119
 30
0.0
 10
83.4585684582
 20
227.8531741338
 30
0.0
 10
84.7378688166
 20
228.6363919116
 30
0.0
 10
85.8340249605
 20
229.7426652158
 30
0.0
 10
86.6898352416
 20
231.1074085382
 30
0.0
 10
87.2602349467
 20
232.6545788495
 30
0.0
 10
87.5154791076
 20
234.2980579781
 30
0.0
 10
87.4652801334
 20
235.4100372967
 30
0.0
 10
87.3837355805
 20
235.9540665082
 30
0.0
  0
SPLINE
  5
40C
100
AcDbEntity
  8
0
100
AcDbSpline
 62
7
  6
CONTINUOUS
 70
0
 71
3
 72
20
 73
16
 74
0
 42
0.0000001
 43
0.0000001
 44
0.0000000001
 40
0.0
 40
0.0
 40
0.0
 40
0.0
 40
0.1300136621
 40
0.1922176457
 40
0.2522858213
 40
0.3105652045
 40
0.3677202127
 40
0.4246263334
 40
0.4822090828
 40
0.5412627146
 40
0.6023108178
 40
0.730258284
 40
0.7971233474
 40
0.8649526216
 40
1.0
 40
1.0
 40
1.0
 40
1.0
 10
65.7416437166
 20
219.5667850892
 30
0.0
 10
65.8646916012
 20
218.7458639943
 30
0.0
 10
66.2530089919
 20
217.5449258396
 30
0.0
 10
67.1667230625
 20
216.2085454723
 30
0.0
 10
68.001982635
 20
215.4011553468
 30
0.0
 10
68.9652299519
 20
214.8105487552
 30
0.0
 10
70.0193094855
 20
214.4612943933
 30
0.0
 10
71.1215770357
 20
214.3689556943
 30
0.0
 10
72.2267003806
 20
214.5367899371
 30
0.0
 10
73.2905448237
 20
214.9567713292
 30
0.0
 10
74.61733015
 20
215.8388718644
 30
0.0
 10
75.6797936206
 20
217.1373537356
 30
0.0
 10
76.3809633512
 20
218.6667962474
 30
0.0
 10
76.8336241389
 20
220.3344946212
 30
0.0
 10
76.8611915372
 20
221.6604756113
 30
0.0
 10
76.7333796319
 20
222.5131801654
 30
0.0
  0
SPLINE
  5
40D
100
AcDbEntity
  8
0
100
AcDbSpline
 62
7
  6
CONTINUOUS
 70
0
 71
3
 72
20
 73
16
 74
0
 42
0.0000001
 43
0.0000001
 44
0.0000000001
 40
0.0
 40
0.0
 40
0.0
 40
0.0
 40
0.1300136621
 40
0.1922176457
 40
0.2522858213
 40
0.3105652045
 40
0.3677202127
 40
0.4246263334
 40
0.4822090828
 40
0.5412627146
 40
0.6023108178
 40
0.730258284
 40
0.7971233474
 40
0.8649526216
 40
1.0
 40
1.0
 40
1.0
 40
1.0
 10
76.7333796319
 20
222.5131801654
 30
0.0
 10
76.6103317501
 20
223.3341012608
 30
0.0
 10
76.2220143559
 20
224.5350394149
 30
0.0
 10
75.3083002861
 20
225.8714197824
 30
0.0
 10
74.4730407135
 20
226.6788099078
 30
0.0
 10
73.5097933967
 20
227.2694164994
 30
0.0
 10
72.455713863
 20
227.6186708613
 30
0.0
 10
71.3534463128
 20
227.7110095603
 30
0.0
 10
70.2483229679
 20
227.5431753175
 30
0.0
 10
69.1844785248
 20
227.1231939254
 30
0.0
 10
67.8576931985
 20
226.2410933902
 30
0.0
 10
66.7952297281
 20
224.942611519
 30
0.0
 10
66.0940599972
 20
223.4131690073
 30
0.0
 10
65.6413992103
 20
221.7454706335
 30
0.0
 10
65.6138318084
 20
220.4194896429
 30
0.0
 10
65.7416437166
 20
219.5667850892
 30
0.0
  0
SPLINE
  5
40E
100
AcDbEntity
  8
0
100
AcDbSpline
 62
7
  6
CONTINUOUS
 70
0
 71
3
 72
13
 73
9
 74
0
 42
0.0000001
 43
0.0000001
 44
0.0000000001
 40
0.0
 40
0.0
 40
0.0
 40
0.0
 40
0.1126063254
 40
0.227810847
 40
0.3474930041
 40
0.4723908076
 40
0.7336554411
 40
1.0
 40
1.0
 40
1.0
 40
1.0
 10
54.3068855425
 20
224.8293195041
 30
0.0
 10
54.5476336641
 20
224.7956270462
 30
0.0
 10
55.0473439969
 20
224.7980851934
 30
0.0
 10
55.7753642642
 20
225.0129401179
 30
0.0
 10
56.4449759491
 20
225.4229373392
 30
0.0
 10
57.2199260576
 20
226.2048256351
 30
0.0
 10
57.8504987179
 20
227.512301414
 30
0.0
 10
57.9148990746
 20
228.6839881073
 30
0.0
 10
57.8296668342
 20
229.2526199395
 30
0.0
  0
SPLINE
  5
40F
100
AcDbEntity
  8
0
100
AcDbSpline
 62
7
  6
CONTINUOUS
 70
0
 71
3
 72
11
 73
7
 74
0
 42
0.0000001
 43
0.0000001
 44
0.0000000001
 40
0.0
 40
0.0
 40
0.0
 40
0.0
 40
0.2350659292
 40
0.4796612196
 40
0.7350320473
 40
1.0
 40
1.0
 40
1.0
 40
1.0
 10
57.2262640089
 20
234.9134960865
 30
0.0
 10
57.6632410338
 20
234.7044828073
 30
0.0
 10
58.4970063361
 20
234.1465405998
 30
0.0
 10
59.5006296349
 20
232.9915015395
 30
0.0
 10
60.2266765652
 20
231.5769062943
 30
0.0
 10
60.4960128467
 20
230.5290220103
 30
0.0
 10
60.5769501219
 20
229.9890442873
 30
0.0
  0
SPLINE
  5
410
100
AcDbEntity
  8
0
100
AcDbSpline
 62
7
  6
CONTINUOUS
 70
0
 71
3
 72
15
 73
11
 74
0
 42
0.0000001
 43
0.0000001
 44
0.0000000001
 40
0.0
 40
0.0
 40
0.0
 40
0.0
 40
0.1122972859
 40
0.2271859086
 40
0.3465394177
 40
0.4710945749
 40
0.6004025474
 40
0.7330571781
 40
0.8670062056
 40
1.0
 40
1.0
 40
1.0
 40
1.0
 10
56.8368901414
 20
221.1183308741
 30
0.0
 10
57.2968948101
 20
221.0538715875
 30
0.0
 10
58.251739412
 20
221.0586635192
 30
0.0
 10
59.6428548754
 20
221.469241534
 30
0.0
 10
60.9221552337
 20
222.2524593118
 30
0.0
 10
62.0183113777
 20
223.358732616
 30
0.0
 10
62.8741216588
 20
224.7234759384
 30
0.0
 10
63.4445213638
 20
226.2706462497
 30
0.0
 10
63.6997655247
 20
227.9141253783
 30
0.0
 10
63.6495665506
 20
229.0261046969
 30
0.0
 10
63.5680219977
 20
229.5701339084
 30
0.0
  0
SPLINE
  5
411
100
AcDbEntity
  8
0
100
AcDbSpline
 62
7
  6
CONTINUOUS
 70
0
 71
3
 72
13
 73
9
 74
0
 42
0.0000001
 43
0.0000001
 44
0.0000000001
 40
0.0
 40
0.0
 40
0.0
 40
0.0
 40
0.2620513733
 40
0.5218522124
 40
0.6477212411
 40
0.7693344563
 40
0.8865536011
 40
1.0
 40
1.0
 40
1.0
 40
1.0
 10
62.6784363465
 20
247.6808670585
 30
0.0
 10
62.8192790304
 20
246.7412269289
 30
0.0
 10
62.7655381333
 20
244.8069525957
 30
0.0
 10
61.9043701301
 20
242.5676853401
 30
0.0
 10
60.7980276039
 20
241.0861177348
 30
0.0
 10
59.8096485994
 20
240.1936449444
 30
0.0
 10
58.6957952253
 20
239.5491731462
 30
0.0
 10
57.8876056529
 20
239.3011906047
 30
0.0
 10
57.482680173
 20
239.2288870623
 30
0.0
  0
SPLINE
  5
412
100
AcDbEntity
  8
0
100
AcDbSpline
 62
7
  6
CONTINUOUS
 70
0
 71
3
 72
13
 73
9
 74
0
 42
0.0000001
 43
0.0000001
 44
0.0000000001
 40
0.0
 40
0.0
 40
0.0
 40
0.0
 40
0.1126063254
 40
0.227810847
 40
0.3474930041
 40
0.4723908076
 40
0.7336554411
 40
1.0
 40
1.0
 40
1.0
 40
1.0
 10
71.1059803788
 20
246.4609168459
 30
0.0
 10
71.3467285004
 20
246.4272243881
 30
0.0
 10
71.8464388332
 20
246.4296825352
 30
0.0
 10
72.5744591006
 20
246.6445374597
 30
0.0
 10
73.2440707855
 20
247.054534681
 30
0.0
 10
74.0190208939
 20
247.8364229769
 30
0.0
 10
74.6495935542
 20
249.1438987559
 30
0.0
 10
74.7139939109
 20
250.3155854491
 30
0.0
 10
74.6287616705
 20
250.8842172814
 30
0.0
  0
SPLINE
  5
413
100
AcDbEntity
  8
0
100
AcDbSpline
 62
7
  6
CONTINUOUS
 70
0
 71
3
 72
11
 73
7
 74
0
 42
0.0000001
 43
0.0000001
 44
0.0000000001
 40
0.0
 40
0.0
 40
0.0
 40
0.0
 40
0.2685862265
 40
0.5241490415
 40
0.7663583838
 40
1.0
 40
1.0
 40
1.0
 40
1.0
 10
59.9098412099
 20
246.9387299528
 30
0.0
 10
59.8564939257
 20
247.2946394521
 30
0.0
 10
59.6610159221
 20
247.9799618815
 30
0.0
 10
59.1027969227
 20
248.8601510428
 30
0.0
 10
58.3297412538
 20
249.4919664279
 30
0.0
 10
57.7096052262
 20
249.7014462019
 30
0.0
 10
57.3995644428
 20
249.7448360982
 30
0.0
  0
SPLINE
  5
414
100
AcDbEntity
  8
0
100
AcDbSpline
 62
7
  6
CONTINUOUS
 70
0
 71
3
 72
13
 73
9
 74
0
 42
0.0000001
 43
0.0000001
 44
0.0000000001
 40
0.0
 40
0.0
 40
0.0
 40
0.0
 40
0.2620356053
 40
0.5218292011
 40
0.6477003988
 40
0.7693198145
 40
0.8865470814
 40
1.0
 40
1.0
 40
1.0
 40
1.0
 10
77.3760449582
 20
251.6206416291
 30
0.0
 10
77.5162907523
 20
250.6849836844
 30
0.0
 10
77.462961074
 20
248.7589166672
 30
0.0
 10
76.6060735971
 20
246.528893083
 30
0.0
 10
75.5050543332
 20
245.0530056491
 30
0.0
 10
74.5213203032
 20
244.1636234117
 30
0.0
 10
73.4125757308
 20
243.5209393073
 30
0.0
 10
72.6079673818
 20
243.2731947179
 30
0.0
 10
72.204787814
 20
243.2007576724
 30
0.0
  0
SPLINE
  5
415
100
AcDbEntity
  8
0
100
AcDbSpline
 62
7
  6
CONTINUOUS
 70
0
 71
3
 72
11
 73
7
 74
0
 42
0.0000001
 43
0.0000001
 44
0.0000000001
 40
0.0
 40
0.0
 40
0.0
 40
0.0
 40
0.2637716843
 40
0.5188713026
 40
0.7640638086
 40
1.0
 40
1.0
 40
1.0
 40
1.0
 10
80.367116834
 20
251.2017312503
 30
0.0
 10
80.2920776629
 20
251.7023594294
 30
0.0
 10
80.0494848313
 20
252.6760825457
 30
0.0
 10
79.408056624
 20
254.0066963861
 30
0.0
 10
78.5235454895
 20
255.1238137378
 30
0.0
 10
77.7851579107
 20
255.6970512722
 30
0.0
 10
77.394306823
 20
255.9256627139
 30
0.0
  0
SPLINE
  5
416
100
AcDbEntity
  8
0
100
AcDbSpline
 62
7
  6
CONTINUOUS
 70
0
 71
3
 72
11
 73
7
 74
0
 42
0.0000001
 43
0.0000001
 44
0.0000000001
 40
0.0
 40
0.0
 40
0.0
 40
0.0
 40
0.2685862265
 40
0.5241490415
 40
0.7663583838
 40
1.0
 40
1.0
 40
1.0
 40
1.0
 10
74.6287616705
 20
250.8842172814
 30
0.0
 10
74.5754143862
 20
251.2401267806
 30
0.0
 10
74.3799363826
 20
251.9254492101
 30
0.0
 10
73.8217173832
 20
252.8056383714
 30
0.0
 10
73.0486617143
 20
253.4374537564
 30
0.0
 10
72.4285256867
 20
253.6469335305
 30
0.0
 10
72.1184849033
 20
253.6903234268
 30
0.0
  0
SPLINE
  5
417
100
AcDbEntity
  8
0
100
AcDbSpline
 62
7
  6
CONTINUOUS
 70
0
 71
3
 72
13
 73
9
 74
0
 42
0.0000001
 43
0.0000001
 44
0.0000000001
 40
0.0
 40
0.0
 40
0.0
 40
0.0
 40
0.2620356053
 40
0.5218292011
 40
0.6477003988
 40
0.7693198145
 40
0.8865470814
 40
1.0
 40
1.0
 40
1.0
 40
1.0
 10
60.5769501219
 20
229.9890442873
 30
0.0
 10
60.717195916
 20
229.0533863426
 30
0.0
 10
60.6638662377
 20
227.1273193253
 30
0.0
 10
59.8069787608
 20
224.8972957412
 30
0.0
 10
58.7059594969
 20
223.4214083073
 30
0.0
 10
57.7222254669
 20
222.5320260699
 30
0.0
 10
56.6134808944
 20
221.8893419655
 30
0.0
 10
55.8088725455
 20
221.6415973761
 30
0.0
 10
55.4056929777
 20
221.5691603306
 30
0.0
  0
SPLINE
  5
418
100
AcDbEntity
  8
0
100
AcDbSpline
 62
7
  6
CONTINUOUS
 70
0
 71
3
 72
11
 73
7
 74
0
 42
0.0000001
 43
0.0000001
 44
0.0000000001
 40
0.0
 40
0.0
 40
0.0
 40
0.0
 40
0.2685862265
 40
0.5241490415
 40
0.7663583838
 40
1.0
 40
1.0
 40
1.0
 40
1.0
 10
57.8296668342
 20
229.2526199395
 30
0.0
 10
57.7763195499
 20
229.6085294388
 30
0.0
 10
57.5808415463
 20
230.2938518682
 30
0.0
 10
57.0226225469
 20
231.1740410296
 30
0.0
 10
56.249566878
 20
231.8058564146
 30
0.0
 10
55.6294308504
 20
232.0153361887
 30
0.0
 10
55.319390067
 20
232.058726085
 30
0.0
  0
SPLINE
  5
419
100
AcDbEntity
  8
0
100
AcDbSpline
 62
7
  6
CONTINUOUS
 70
0
 71
3
 72
13
 73
9
 74
0
 42
0.0000001
 43
0.0000001
 44
0.0000000001
 40
0.0
 40
0.0
 40
0.0
 40
0.0
 40
0.2620356053
 40
0.5218292011
 40
0.6477003988
 40
0.7693198145
 40
0.8865470814
 40
1.0
 40
1.0
 40
1.0
 40
1.0
 10
84.3926637047
 20
236.3729768871
 30
0.0
 10
84.5329094989
 20
235.4373189424
 30
0.0
 10
84.4795798205
 20
233.5112519251
 30
0.0
 10
83.6226923437
 20
231.281228341
 30
0.0
 10
82.5216730797
 20
229.8053409071
 30
0.0
 10
81.5379390497
 20
228.9159586697
 30
0.0
 10
80.4291944773
 20
228.2732745653
 30
0.0
 10
79.6245861283
 20
228.0255299759
 30
0.0
 10
79.2214065605
 20
227.9530929304
 30
0.0
  0
SPLINE
  5
41A
100
AcDbEntity
  8
0
100
AcDbSpline
 62
7
  6
CONTINUOUS
 70
0
 71
3
 72
9
 73
5
 74
0
 42
0.0000001
 43
0.0000001
 44
0.0000000001
 40
0.0
 40
0.0
 40
0.0
 40
0.0
 40
0.4859628735
 40
1.0
 40
1.0
 40
1.0
 40
1.0
 10
75.452285374
 20
255.5428984236
 30
0.0
 10
75.9662395461
 20
255.0429294579
 30
0.0
 10
76.8341852442
 20
253.8085501412
 30
0.0
 10
77.2636179064
 20
252.3707052223
 30
0.0
 10
77.3760449582
 20
251.6206416291
 30
0.0
  0
SPLINE
  5
41B
100
AcDbEntity
  8
0
100
AcDbSpline
 62
7
  6
CONTINUOUS
 70
0
 71
3
 72
15
 73
11
 74
0
 42
0.0000001
 43
0.0000001
 44
0.0000000001
 40
0.0
 40
0.0
 40
0.0
 40
0.0
 40
0.1122972859
 40
0.2271859086
 40
0.3465394177
 40
0.4710945749
 40
0.6004025474
 40
0.7330571781
 40
0.8670062056
 40
1.0
 40
1.0
 40
1.0
 40
1.0
 10
73.6359849777
 20
242.7499282159
 30
0.0
 10
74.0959896464
 20
242.6854689294
 30
0.0
 10
75.0508342483
 20
242.690260861
 30
0.0
 10
76.4419497117
 20
243.1008388758
 30
0.0
 10
77.72125007
 20
243.8840566537
 30
0.0
 10
78.817406214
 20
244.9903299579
 30
0.0
 10
79.6732164951
 20
246.3550732803
 30
0.0
 10
80.2436162001
 20
247.9022435916
 30
0.0
 10
80.4988603611
 20
249.5457227201
 30
0.0
 10
80.4486613869
 20
250.6577020388
 30
0.0
 10
80.367116834
 20
251.2017312503
 30
0.0
  0
SPLINE
  5
41C
100
AcDbEntity
  8
0
100
AcDbSpline
 62
7
  6
CONTINUOUS
 70
0
 71
3
 72
11
 73
7
 74
0
 42
0.0000001
 43
0.0000001
 44
0.0000000001
 40
0.0
 40
0.0
 40
0.0
 40
0.0
 40
0.2685862265
 40
0.5241490415
 40
0.7663583838
 40
1.0
 40
1.0
 40
1.0
 40
1.0
 10
81.645380417
 20
235.6365525393
 30
0.0
 10
81.5920331327
 20
235.9924620386
 30
0.0
 10
81.3965551292
 20
236.677784468
 30
0.0
 10
80.8383361298
 20
237.5579736294
 30
0.0
 10
80.0652804608
 20
238.1897890144
 30
0.0
 10
79.4451444332
 20
238.3992687885
 30
0.0
 10
79.1351036499
 20
238.4426586848
 30
0.0
  0
SPLINE
  5
41D
100
AcDbEntity
  8
0
100
AcDbSpline
 62
7
  6
CONTINUOUS
 70
0
 71
3
 72
13
 73
9
 74
0
 42
0.0000001
 43
0.0000001
 44
0.0000000001
 40
0.0
 40
0.0
 40
0.0
 40
0.0
 40
0.1126084257
 40
0.227816271
 40
0.3475015298
 40
0.4724025418
 40
0.7336674034
 40
1.0
 40
1.0
 40
1.0
 40
1.0
 10
69.504898859
 20
216.5872887208
 30
0.0
 10
69.8116069077
 20
216.5443364643
 30
0.0
 10
70.4482450023
 20
216.5475098403
 30
0.0
 10
71.3757407873
 20
216.8212261321
 30
0.0
 10
72.2288257376
 20
217.3435784547
 30
0.0
 10
73.2160829278
 20
218.3397147702
 30
0.0
 10
74.0193610873
 20
220.0053989391
 30
0.0
 10
74.1014030934
 20
221.49805598
 30
0.0
 10
73.9928245147
 20
222.2224442707
 30
0.0
  0
SPLINE
  5
41E
100
AcDbEntity
  8
0
100
AcDbSpline
 62
7
  6
CONTINUOUS
 70
0
 71
3
 72
11
 73
7
 74
0
 42
0.0000001
 43
0.0000001
 44
0.0000000001
 40
0.0
 40
0.0
 40
0.0
 40
0.0
 40
0.2685754896
 40
0.5241420781
 40
0.7663548172
 40
1.0
 40
1.0
 40
1.0
 40
1.0
 10
73.9928245147
 20
222.2224442707
 30
0.0
 10
73.9248640377
 20
222.6758465386
 30
0.0
 10
73.6758166298
 20
223.5489092002
 30
0.0
 10
72.9647419425
 20
224.6702907722
 30
0.0
 10
71.9798459334
 20
225.4752248484
 30
0.0
 10
71.189785151
 20
225.7420237262
 30
0.0
 10
70.794799489
 20
225.7973386275
 30
0.0
  0
SPLINE
  5
41F
100
AcDbEntity
  8
0
100
AcDbSpline
 62
7
  6
CONTINUOUS
 70
0
 71
3
 72
21
 73
17
 74
0
 42
0.0000001
 43
0.0000001
 44
0.0000000001
 40
0.0
 40
0.0
 40
0.0
 40
0.0
 40
0.0558833086
 40
0.1123121003
 40
0.1697699668
 40
0.2286201403
 40
0.2890786499
 40
0.3512018667
 40
0.4796243515
 40
0.5456637199
 40
0.6122978177
 40
0.7452469436
 40
0.8109284015
 40
0.8754586817
 40
0.9385413807
 40
1.0
 40
1.0
 40
1.0
 40
1.0
 10
65.3889997306
 20
209.7721739985
 30
0.0
 10
64.2841773548
 20
209.9269520735
 30
0.0
 10
62.0871075635
 20
210.442892177
 30
0.0
 10
58.9660620615
 20
211.8077823736
 30
0.0
 10
56.082903531
 20
213.7310552265
 30
0.0
 10
53.5060108933
 20
216.1648511811
 30
0.0
 10
51.2932216756
 20
219.0514246981
 30
0.0
 10
48.8699586028
 20
223.4545287882
 30
0.0
 10
47.4009539331
 20
228.4418293704
 30
0.0
 10
46.9272103516
 20
233.643342308
 30
0.0
 10
47.1250367478
 20
238.9541807764
 30
0.0
 10
48.3344209178
 20
244.1806870314
 30
0.0
 10
50.4908557586
 20
248.9841178352
 30
0.0
 10
52.5322273635
 20
252.2737484321
 30
0.0
 10
54.9557446707
 20
255.1829462949
 30
0.0
 10
56.8171118621
 20
256.8480596446
 30
0.0
 10
57.7926874642
 20
257.5920803002
 30
0.0
  0
SPLINE
  5
420
100
AcDbEntity
  8
0
100
AcDbSpline
 62
7
  6
CONTINUOUS
 70
0
 71
3
 72
13
 73
9
 74
0
 42
0.0000001
 43
0.0000001
 44
0.0000000001
 40
0.0
 40
0.0
 40
0.0
 40
0.0
 40
0.1126063254
 40
0.227810847
 40
0.3474930041
 40
0.4723908076
 40
0.7336554411
 40
1.0
 40
1.0
 40
1.0
 40
1.0
 10
56.3870599183
 20
242.5154295174
 30
0.0
 10
56.6278080399
 20
242.4817370595
 30
0.0
 10
57.1275183727
 20
242.4841952067
 30
0.0
 10
57.85553864
 20
242.6990501311
 30
0.0
 10
58.5251503249
 20
243.1090473525
 30
0.0
 10
59.3001004333
 20
243.8909356483
 30
0.0
 10
59.9306730937
 20
245.1984114273
 30
0.0
 10
59.9950734504
 20
246.3700981205
 30
0.0
 10
59.9098412099
 20
246.9387299528
 30
0.0
  0
SPLINE
  5
421
100
AcDbEntity
  8
0
100
AcDbSpline
 62
7
  6
CONTINUOUS
 70
0
 71
3
 72
13
 73
9
 74
0
 42
0.0000001
 43
0.0000001
 44
0.0000000001
 40
0.0
 40
0.0
 40
0.0
 40
0.0
 40
0.2680785006
 40
0.5231817433
 40
0.6459686968
 40
0.7658126978
 40
0.8834850319
 40
1.0
 40
1.0
 40
1.0
 40
1.0
 10
65.6695082223
 20
247.2619566796
 30
0.0
 10
65.5672032568
 20
247.9444901865
 30
0.0
 10
65.1928872588
 20
249.2582692062
 30
0.0
 10
64.2867855927
 20
250.6856615816
 30
0.0
 10
63.3554361394
 20
251.5734914992
 30
0.0
 10
62.5816488174
 20
252.0937255554
 30
0.0
 10
61.7431006081
 20
252.46272364
 30
0.0
 10
61.1523414235
 20
252.6019155221
 30
0.0
 10
60.8552802818
 20
252.6435419584
 30
0.0
  0
SPLINE
  5
422
100
AcDbEntity
  8
0
100
AcDbSpline
 62
7
  6
CONTINUOUS
 70
0
 71
3
 72
13
 73
9
 74
0
 42
0.0000001
 43
0.0000001
 44
0.0000000001
 40
0.0
 40
0.0
 40
0.0
 40
0.0
 40
0.2680785325
 40
0.5231817686
 40
0.6459687088
 40
0.7658126912
 40
0.8834850163
 40
1.0
 40
1.0
 40
1.0
 40
1.0
 10
63.5680219977
 20
229.5701339084
 30
0.0
 10
63.4660939018
 20
230.2501531084
 30
0.0
 10
63.0931568291
 20
231.5590923643
 30
0.0
 10
62.1903930644
 20
232.9812263418
 30
0.0
 10
61.262474683
 20
233.865785503
 30
0.0
 10
60.4915380066
 20
234.3841030155
 30
0.0
 10
59.6560789438
 20
234.7517416885
 30
0.0
 10
59.0674960577
 20
234.8904208756
 30
0.0
 10
58.7715292196
 20
234.9318939573
 30
0.0
  0
SPLINE
  5
423
100
AcDbEntity
  8
0
100
AcDbSpline
 62
7
  6
CONTINUOUS
 70
0
 71
3
 72
11
 73
7
 74
0
 42
0.0000001
 43
0.0000001
 44
0.0000000001
 40
0.0
 40
0.0
 40
0.0
 40
0.0
 40
0.235054114
 40
0.479640057
 40
0.7350143963
 40
1.0
 40
1.0
 40
1.0
 40
1.0
 10
59.3094977461
 20
252.6263270325
 30
0.0
 10
59.7487906291
 20
252.4168926336
 30
0.0
 10
60.5871103835
 20
251.8572131156
 30
0.0
 10
61.596305889
 20
250.6973998103
 30
0.0
 10
62.3263623451
 20
249.2763250451
 30
0.0
 10
62.5971100581
 20
248.2234401058
 30
0.0
 10
62.6784363465
 20
247.6808670585
 30
0.0
  0
SPLINE
  5
424
100
AcDbEntity
  8
0
100
AcDbSpline
 62
7
  6
CONTINUOUS
 70
0
 71
3
 72
15
 73
11
 74
0
 42
0.0000001
 43
0.0000001
 44
0.0000000001
 40
0.0
 40
0.0
 40
0.0
 40
0.0
 40
0.1122972734
 40
0.2271858769
 40
0.3465393707
 40
0.4710945316
 40
0.6004025251
 40
0.7330571645
 40
0.8670062052
 40
1.0
 40
1.0
 40
1.0
 40
1.0
 10
58.9134878307
 20
238.7789028996
 30
0.0
 10
59.3751933246
 20
238.7142052611
 30
0.0
 10
60.3335683562
 20
238.7190148957
 30
0.0
 10
61.7298273331
 20
239.1311108946
 30
0.0
 10
63.0138578925
 20
239.9172244665
 30
0.0
 10
64.1140672099
 20
241.0275881968
 30
0.0
 10
64.9730420303
 20
242.3973777623
 30
0.0
 10
65.5455509228
 20
243.9502689271
 30
0.0
 10
65.8017388701
 20
245.5998249571
 30
0.0
 10
65.7513542885
 20
246.7159159045
 30
0.0
 10
65.6695082223
 20
247.2619566796
 30
0.0
  0
SPLINE
  5
425
100
AcDbEntity
  8
0
100
AcDbSpline
 62
7
  6
CONTINUOUS
 70
0
 71
3
 72
11
 73
7
 74
0
 42
0.0000001
 43
0.0000001
 44
0.0000000001
 40
0.0
 40
0.0
 40
0.0
 40
0.0
 40
0.2119796961
 40
0.4491144258
 40
0.7120048301
 40
1.0
 40
1.0
 40
1.0
 40
1.0
 10
30.0638727522
 20
269.0719568377
 30
0.0
 10
30.6310194337
 20
268.4627243895
 30
0.0
 10
31.9455433927
 20
267.2756190174
 30
0.0
 10
34.2503697726
 20
265.6833733011
 30
0.0
 10
36.9702713488
 20
264.1983246426
 30
0.0
 10
38.9533875502
 20
263.3280566344
 30
0.0
 10
40.0041769971
 20
262.9101574877
 30
0.0
  0
SPLINE
  5
426
100
AcDbEntity
  8
0
100
AcDbSpline
 62
7
  6
CONTINUOUS
 70
0
 71
3
 72
11
 73
7
 74
0
 42
0.0000001
 43
0.0000001
 44
0.0000000001
 40
0.0
 40
0.0
 40
0.0
 40
0.0
 40
0.1871507314
 40
0.4032024428
 40
0.6745125127
 40
1.0
 40
1.0
 40
1.0
 40
1.0
 10
39.9682200312
 20
262.8355371999
 30
0.0
 10
39.9500373812
 20
262.7978010649
 30
0.0
 10
39.9480232
 20
262.6970891376
 30
0.0
 10
40.044071213
 20
262.5734409689
 30
0.0
 10
40.1901727637
 20
262.4644321782
 30
0.0
 10
40.3105650376
 20
262.4046630532
 30
0.0
 10
40.377548025
 20
262.3760181225
 30
0.0
  0
SPLINE
  5
427
100
AcDbEntity
  8
0
100
AcDbSpline
 62
7
  6
CONTINUOUS
 70
0
 71
3
 72
9
 73
5
 74
0
 42
0.0000001
 43
0.0000001
 44
0.0000000001
 40
0.0
 40
0.0
 40
0.0
 40
0.0
 40
0.4704068652
 40
1.0
 40
1.0
 40
1.0
 40
1.0
 10
40.377548025
 20
262.3760181225
 30
0.0
 10
42.6515927089
 20
261.4035462268
 30
0.0
 10
47.6550901006
 20
259.7292582623
 30
0.0
 10
52.8068795114
 20
258.6345442461
 30
0.0
 10
55.5539705678
 20
258.1800389349
 30
0.0
  0
SPLINE
  5
428
100
AcDbEntity
  8
0
100
AcDbSpline
 62
7
  6
CONTINUOUS
 70
0
 71
3
 72
10
 73
6
 74
0
 42
0.0000001
 43
0.0000001
 44
0.0000000001
 40
0.0
 40
0.0
 40
0.0
 40
0.0
 40
0.1787792073
 40
0.4139990075
 40
1.0
 40
1.0
 40
1.0
 40
1.0
 10
55.5933241238
 20
258.1056844251
 30
0.0
 10
55.6189406768
 20
258.0572873076
 30
0.0
 10
55.7201638133
 20
257.971308944
 30
0.0
 10
55.9941615118
 20
257.83690285
 30
0.0
 10
56.2418377582
 20
257.7750040786
 30
0.0
 10
56.418408142
 20
257.7427795943
 30
0.0
  0
SPLINE
  5
429
100
AcDbEntity
  8
0
100
AcDbSpline
 62
7
  6
CONTINUOUS
 70
0
 71
3
 72
9
 73
5
 74
0
 42
0.0000001
 43
0.0000001
 44
0.0000000001
 40
0.0
 40
0.0
 40
0.0
 40
0.0
 40
0.4899336559
 40
1.0
 40
1.0
 40
1.0
 40
1.0
 10
56.418408142
 20
257.7427795943
 30
0.0
 10
59.3407036386
 20
257.2094625585
 30
0.0
 10
65.3625610903
 20
256.4224564953
 30
0.0
 10
71.4278527842
 20
256.1579163317
 30
0.0
 10
74.5204762247
 20
256.1514203641
 30
0.0
  0
SPLINE
  5
42A
100
AcDbEntity
  8
0
100
AcDbSpline
 62
7
  6
CONTINUOUS
 70
0
 71
3
 72
10
 73
6
 74
0
 42
0.0000001
 43
0.0000001
 44
0.0000000001
 40
0.0
 40
0.0
 40
0.0
 40
0.0
 40
0.2084445332
 40
0.4551477969
 40
1.0
 40
1.0
 40
1.0
 40
1.0
 10
74.6291491074
 20
256.0886514945
 30
0.0
 10
74.6979266138
 20
256.0489269411
 30
0.0
 10
74.862249192
 20
255.9879269538
 30
0.0
 10
75.2341709864
 20
255.9049175317
 30
0.0
 10
75.5367958394
 20
255.8810085989
 30
0.0
 10
75.7443775611
 20
255.8776098189
 30
0.0
  0
SPLINE
  5
42B
100
AcDbEntity
  8
0
100
AcDbSpline
 62
7
  6
CONTINUOUS
 70
0
 71
3
 72
9
 73
5
 74
0
 42
0.0000001
 43
0.0000001
 44
0.0000000001
 40
0.0
 40
0.0
 40
0.0
 40
0.0
 40
0.5078922506
 40
1.0
 40
1.0
 40
1.0
 40
1.0
 10
75.7443775611
 20
255.8776098189
 30
0.0
 10
78.8475565503
 20
255.826808101
 30
0.0
 10
84.9642144511
 20
255.9819599228
 30
0.0
 10
91.0470882282
 20
256.6565127048
 30
0.0
 10
94.0162154135
 20
257.1331405632
 30
0.0
  0
SPLINE
  5
42C
100
AcDbEntity
  8
0
100
AcDbSpline
 62
7
  6
CONTINUOUS
 70
0
 71
3
 72
9
 73
5
 74
0
 42
0.0000001
 43
0.0000001
 44
0.0000000001
 40
0.0
 40
0.0
 40
0.0
 40
0.0
 40
0.4930539254
 40
1.0
 40
1.0
 40
1.0
 40
1.0
 10
94.1776631618
 20
257.0915133251
 30
0.0
 10
94.3751359072
 20
257.0405987541
 30
0.0
 10
94.7923042797
 20
257.0081486059
 30
0.0
 10
95.2057202952
 20
257.0345531866
 30
0.0
 10
95.4132526283
 20
257.0644639867
 30
0.0
  0
SPLINE
  5
42D
100
AcDbEntity
  8
0
100
AcDbSpline
 62
7
  6
CONTINUOUS
 70
0
 71
3
 72
9
 73
5
 74
0
 42
0.0000001
 43
0.0000001
 44
0.0000000001
 40
0.0
 40
0.0
 40
0.0
 40
0.0
 40
0.5270962477
 40
1.0
 40
1.0
 40
1.0
 40
1.0
 10
95.4132526283
 20
257.0644639867
 30
0.0
 10
98.2245928535
 20
257.4696586257
 30
0.0
 10
103.5275906824
 20
258.4756794516
 30
0.0
 10
108.6983831441
 20
260.0512539773
 30
0.0
 10
111.0731385722
 20
260.9757415311
 30
0.0
  0
SPLINE
  5
42E
100
AcDbEntity
  8
0
100
AcDbSpline
 62
7
  6
CONTINUOUS
 70
0
 71
3
 72
9
 73
5
 74
0
 42
0.0000001
 43
0.0000001
 44
0.0000000001
 40
0.0
 40
0.0
 40
0.0
 40
0.0
 40
0.5309894358
 40
1.0
 40
1.0
 40
1.0
 40
1.0
 10
111.262782072
 20
260.9615933047
 30
0.0
 10
111.4718718314
 20
260.94599525
 30
0.0
 10
111.8695381144
 20
260.9695281398
 30
0.0
 10
112.2564890302
 20
261.0596102501
 30
0.0
 10
112.4306254136
 20
261.1226543097
 30
0.0
  0
SPLINE
  5
42F
100
AcDbEntity
  8
0
100
AcDbSpline
 62
7
  6
CONTINUOUS
 70
0
 71
3
 72
11
 73
7
 74
0
 42
0.0000001
 43
0.0000001
 44
0.0000000001
 40
0.0
 40
0.0
 40
0.0
 40
0.0
 40
0.2860536398
 40
0.5485774807
 40
0.7865483664
 40
1.0
 40
1.0
 40
1.0
 40
1.0
 10
112.4306254136
 20
261.1226543097
 30
0.0
 10
113.5330428419
 20
261.5217765423
 30
0.0
 10
115.6230514449
 20
262.3571130306
 30
0.0
 10
118.5153594136
 20
263.7903426304
 30
0.0
 10
121.004828827
 20
265.3375690861
 30
0.0
 10
122.4556840409
 20
266.4964485032
 30
0.0
 10
123.0944837712
 20
267.0942221037
 30
0.0
  0
SPLINE
  5
430
100
AcDbEntity
  8
0
100
AcDbSpline
 62
7
  6
CONTINUOUS
 70
0
 71
3
 72
9
 73
5
 74
0
 42
0.0000001
 43
0.0000001
 44
0.0000000001
 40
0.0
 40
0.0
 40
0.0
 40
0.0
 40
0.5730814857
 40
1.0
 40
1.0
 40
1.0
 40
1.0
 10
123.2834516544
 20
267.1097067947
 30
0.0
 10
123.4715429806
 20
267.1251205155
 30
0.0
 10
123.7967933355
 20
267.1936419181
 30
0.0
 10
124.0985472458
 20
267.3434093558
 30
0.0
 10
124.2057551731
 20
267.4343580984
 30
0.0
  0
SPLINE
  5
431
100
AcDbEntity
  8
0
100
AcDbSpline
 62
7
  6
CONTINUOUS
 70
0
 71
3
 72
11
 73
7
 74
0
 42
0.0000001
 43
0.0000001
 44
0.0000000001
 40
0.0
 40
0.0
 40
0.0
 40
0.0
 40
0.2885885798
 40
0.5463262606
 40
0.7800079004
 40
1.0
 40
1.0
 40
1.0
 40
1.0
 10
124.2057551731
 20
267.4343580984
 30
0.0
 10
124.8242798762
 20
267.9590853703
 30
0.0
 10
125.9337377005
 20
269.0305923134
 30
0.0
 10
127.2334639157
 20
270.8128878755
 30
0.0
 10
128.0438951594
 20
272.6606213109
 30
0.0
 10
128.2417223282
 20
273.938838258
 30
0.0
 10
128.2501101775
 20
274.5570990761
 30
0.0
  0
SPLINE
  5
432
100
AcDbEntity
  8
0
100
AcDbSpline
 62
7
  6
CONTINUOUS
 70
0
 71
3
 72
9
 73
5
 74
0
 42
0.0000001
 43
0.0000001
 44
0.0000000001
 40
0.0
 40
0.0
 40
0.0
 40
0.0
 40
0.3457046541
 40
1.0
 40
1.0
 40
1.0
 40
1.0
 10
128.4099556139
 20
274.5999455041
 30
0.0
 10
128.4892869053
 20
274.6212106918
 30
0.0
 10
128.7073483052
 20
274.6964475612
 30
0.0
 10
128.9296942317
 20
274.8845001128
 30
0.0
 10
128.9460284606
 20
275.0390860152
 30
0.0
  0
SPLINE
  5
433
100
AcDbEntity
  8
0
100
AcDbSpline
 62
7
  6
CONTINUOUS
 70
0
 71
3
 72
13
 73
9
 74
0
 42
0.0000001
 43
0.0000001
 44
0.0000000001
 40
0.0
 40
0.0
 40
0.0
 40
0.0
 40
0.3226573572
 40
0.4670854678
 40
0.5990873456
 40
0.718187516
 40
0.824316375
 40
1.0
 40
1.0
 40
1.0
 40
1.0
 10
97.9996322222
 20
281.8610581391
 30
0.0
 10
99.8242887223
 20
282.350167318
 30
0.0
 10
102.4367668055
 20
283.188551879
 30
0.0
 10
105.6482118463
 20
284.6061946645
 30
0.0
 10
107.6870289324
 20
285.7094356167
 30
0.0
 10
109.4272108107
 20
286.879953962
 30
0.0
 10
111.2086008221
 20
288.406761319
 30
0.0
 10
112.2475992069
 20
289.7487588794
 30
0.0
 10
112.6671916105
 20
290.6878656676
 30
0.0
  0
SPLINE
  5
434
100
AcDbEntity
  8
0
100
AcDbSpline
 62
7
  6
CONTINUOUS
 70
0
 71
3
 72
9
 73
5
 74
0
 42
0.0000001
 43
0.0000001
 44
0.0000000001
 40
0.0
 40
0.0
 40
0.0
 40
0.0
 40
0.257623024
 40
1.0
 40
1.0
 40
1.0
 40
1.0
 10
112.6671916105
 20
290.6878656676
 30
0.0
 10
112.7083190009
 20
290.7799145491
 30
0.0
 10
112.8593003519
 20
291.1409865669
 30
0.0
 10
112.9740515452
 20
291.5174814502
 30
0.0
 10
113.0349781893
 20
291.8015450238
 30
0.0
  0
SPLINE
  5
435
100
AcDbEntity
  8
0
100
AcDbSpline
 62
7
  6
CONTINUOUS
 70
0
 71
3
 72
9
 73
5
 74
0
 42
0.0000001
 43
0.0000001
 44
0.0000000001
 40
0.0
 40
0.0
 40
0.0
 40
0.0
 40
0.2531054509
 40
1.0
 40
1.0
 40
1.0
 40
1.0
 10
113.0349781893
 20
291.8015450238
 30
0.0
 10
113.0537458173
 20
291.8890469628
 30
0.0
 10
113.1189446535
 20
292.2366100796
 30
0.0
 10
113.1475536876
 20
292.5911122422
 30
0.0
 10
113.1471385209
 20
292.8551957846
 30
0.0
  0
SPLINE
  5
436
100
AcDbEntity
  8
0
100
AcDbSpline
 62
7
  6
CONTINUOUS
 70
0
 71
3
 72
9
 73
5
 74
0
 42
0.0000001
 43
0.0000001
 44
0.0000000001
 40
0.0
 40
0.0
 40
0.0
 40
0.0
 40
0.4891799103
 40
1.0
 40
1.0
 40
1.0
 40
1.0
 10
42.8465838633
 20
292.8310280804
 30
0.0
 10
42.8470655589
 20
292.5079976104
 30
0.0
 10
42.9148795687
 20
291.8461042828
 30
0.0
 10
43.1109553541
 20
291.2110693023
 30
0.0
 10
43.237230837
 20
290.8982755481
 30
0.0
  0
SPLINE
  5
437
100
AcDbEntity
  8
0
100
AcDbSpline
 62
7
  6
CONTINUOUS
 70
0
 71
3
 72
10
 73
6
 74
0
 42
0.0000001
 43
0.0000001
 44
0.0000000001
 40
0.0
 40
0.0
 40
0.0
 40
0.0
 40
0.4249355457
 40
0.6930923602
 40
1.0
 40
1.0
 40
1.0
 40
1.0
 10
43.237230837
 20
290.8982755481
 30
0.0
 10
43.7211164682
 20
289.6996548841
 30
0.0
 10
45.1225154734
 20
288.0046153446
 30
0.0
 10
47.540327934
 20
286.1691996085
 30
0.0
 10
49.063666505
 20
285.2934730112
 30
0.0
 10
49.8947198886
 20
284.8681233297
 30
0.0
  0
SPLINE
  5
438
100
AcDbEntity
  8
0
100
AcDbSpline
 62
7
  6
CONTINUOUS
 70
0
 71
3
 72
15
 73
11
 74
0
 42
0.0000001
 43
0.0000001
 44
0.0000000001
 40
0.0
 40
0.0
 40
0.0
 40
0.0
 40
0.1007966446
 40
0.2155717869
 40
0.3413224869
 40
0.4744451455
 40
0.6109687854
 40
0.7467639953
 40
0.8777253114
 40
1.0
 40
1.0
 40
1.0
 40
1.0
 10
50.0332404964
 20
284.7976996509
 30
0.0
 10
51.4995914867
 20
284.0571848048
 30
0.0
 10
54.7670259446
 20
282.7316411212
 30
0.0
 10
60.1336103167
 20
281.2371509829
 30
0.0
 10
66.1337052885
 20
280.1522030873
 30
0.0
 10
72.5528088152
 20
279.5195123235
 30
0.0
 10
79.1645421188
 20
279.3630252557
 30
0.0
 10
85.7350911073
 20
279.6888620285
 30
0.0
 10
92.0313003846
 20
280.4843567124
 30
0.0
 10
96.0748227086
 20
281.3451023959
 30
0.0
 10
97.9996322222
 20
281.8610581391
 30
0.0
  0
SPLINE
  5
439
100
AcDbEntity
  8
0
100
AcDbSpline
 62
7
  6
CONTINUOUS
 70
0
 71
3
 72
10
 73
6
 74
0
 42
0.0000001
 43
0.0000001
 44
0.0000000001
 40
0.0
 40
0.0
 40
0.0
 40
0.0
 40
0.2463937661
 40
0.4790833741
 40
1.0
 40
1.0
 40
1.0
 40
1.0
 10
29.9955264432
 20
269.4305677503
 30
0.0
 10
29.9785756699
 20
269.4032324049
 30
0.0
 10
29.9545843071
 20
269.3433115417
 30
0.0
 10
29.9594848574
 20
269.2096938143
 30
0.0
 10
30.0175392377
 20
269.1217295029
 30
0.0
 10
30.0638727522
 20
269.0719568377
 30
0.0
  0
SPLINE
  5
43A
100
AcDbEntity
  8
0
100
AcDbSpline
 62
7
  6
CONTINUOUS
 70
0
 71
3
 72
11
 73
7
 74
0
 42
0.0000001
 43
0.0000001
 44
0.0000000001
 40
0.0
 40
0.0
 40
0.0
 40
0.0
 40
0.225264966
 40
0.4613427798
 40
0.7174436447
 40
1.0
 40
1.0
 40
1.0
 40
1.0
 10
27.0099574094
 20
276.0980197784
 30
0.0
 10
27.0100701645
 20
275.5457646645
 30
0.0
 10
27.152074265
 20
274.4104272012
 30
0.0
 10
27.7783633603
 20
272.7521330385
 30
0.0
 10
28.8019848046
 20
271.1394270441
 30
0.0
 10
29.6905197107
 20
270.15465127
 30
0.0
 10
30.1869410142
 20
269.6715235193
 30
0.0
  0
SPLINE
  5
43B
100
AcDbEntity
  8
0
100
AcDbSpline
 62
7
  6
CONTINUOUS
 70
0
 71
3
 72
14
 73
10
 74
0
 42
0.0000001
 43
0.0000001
 44
0.0000000001
 40
0.0
 40
0.0
 40
0.0
 40
0.0
 40
0.2980081728
 40
0.4337905886
 40
0.5606438479
 40
0.6791669217
 40
0.7906308001
 40
0.897017718
 40
1.0
 40
1.0
 40
1.0
 40
1.0
 10
52.376853096
 20
307.024686526
 30
0.0
 10
49.8440382522
 20
306.3457516205
 30
0.0
 10
46.1997474519
 20
305.163262968
 30
0.0
 10
41.7026789078
 20
303.1245725781
 30
0.0
 10
38.7745442347
 20
301.4788284625
 30
0.0
 10
36.2048317422
 20
299.6629315451
 30
0.0
 10
34.0174822928
 20
297.6538931731
 30
0.0
 10
32.255403848
 20
295.4316369593
 30
0.0
 10
31.399241181
 20
293.7821036156
 30
0.0
 10
31.0764564317
 20
292.9353814462
 30
0.0
  0
SPLINE
  5
43C
100
AcDbEntity
  8
0
100
AcDbSpline
 62
7
  6
CONTINUOUS
 70
0
 71
3
 72
9
 73
5
 74
0
 42
0.0000001
 43
0.0000001
 44
0.0000000001
 40
0.0
 40
0.0
 40
0.0
 40
0.0
 40
0.2514602788
 40
1.0
 40
1.0
 40
1.0
 40
1.0
 10
125.4343899121
 20
291.1698560415
 30
0.0
 10
125.3950453399
 20
291.3597094861
 30
0.0
 10
125.219206524
 20
292.1106129124
 30
0.0
 10
124.966553946
 20
292.8431714462
 30
0.0
 10
124.7400401929
 20
293.3740230193
 30
0.0
  0
SPLINE
  5
43D
100
AcDbEntity
  8
0
100
AcDbSpline
 62
7
  6
CONTINUOUS
 70
0
 71
3
 72
19
 73
15
 74
0
 42
0.0000001
 43
0.0000001
 44
0.0000000001
 40
0.0
 40
0.0
 40
0.0
 40
0.0
 40
0.0423219131
 40
0.0868539586
 40
0.134576564
 40
0.1862782517
 40
0.2422567435
 40
0.302455838
 40
0.3665517933
 40
0.4340156556
 40
0.5761804888
 40
0.7225398891
 40
0.8660287432
 40
1.0
 40
1.0
 40
1.0
 40
1.0
 10
124.3793765791
 20
294.1452211241
 30
0.0
 10
123.8877184095
 20
295.1108934384
 30
0.0
 10
122.6267649019
 20
296.9694336378
 30
0.0
 10
120.1576362393
 20
299.3955760024
 30
0.0
 10
117.1502154056
 20
301.5469509925
 30
0.0
 10
113.6527675492
 20
303.4599681153
 30
0.0
 10
109.6927618894
 20
305.1463757305
 30
0.0
 10
105.309443954
 20
306.6062106281
 30
0.0
 10
100.551354905
 20
307.8318504067
 30
0.0
 10
93.6664158389
 20
309.161176763
 30
0.0
 10
84.5853598265
 20
310.133931663
 30
0.0
 10
73.5076094032
 20
310.2351464598
 30
0.0
 10
62.6812723586
 20
309.283085282
 30
0.0
 10
55.690139694
 20
307.9128311643
 30
0.0
 10
52.376853096
 20
307.024686526
 30
0.0
  0
SPLINE
  5
43E
100
AcDbEntity
  8
0
100
AcDbSpline
 62
7
  6
CONTINUOUS
 70
0
 71
3
 72
8
 73
4
 74
0
 42
0.0000001
 43
0.0000001
 44
0.0000000001
 40
0.0
 40
0.0
 40
0.0
 40
0.0
 40
1.0
 40
1.0
 40
1.0
 40
1.0
 10
69.1314160844
 20
271.247846059
 30
0.0
 10
69.2096646271
 20
271.2425438729
 30
0.0
 10
69.2878440828
 20
271.2362664028
 30
0.0
 10
69.3660662287
 20
271.2305880677
 30
0.0
  0
SPLINE
  5
43F
100
AcDbEntity
  8
0
100
AcDbSpline
 62
7
  6
CONTINUOUS
 70
0
 71
3
 72
17
 73
13
 74
0
 42
0.0000001
 43
0.0000001
 44
0.0000000001
 40
0.0
 40
0.0
 40
0.0
 40
0.0
 40
0.0302416134
 40
0.061756666
 40
0.1246710557
 40
0.1874938388
 40
0.2502451864
 40
0.375582036
 40
0.5007476373
 40
0.6257640577
 40
0.7506421006
 40
1.0
 40
1.0
 40
1.0
 40
1.0
 10
71.0984938467
 20
270.9553855802
 30
0.0
 10
71.0991112935
 20
270.97323395
 30
0.0
 10
71.0605105771
 20
270.9991716223
 30
0.0
 10
70.9964963019
 20
271.0249802942
 30
0.0
 10
70.9046163144
 20
271.0505669899
 30
0.0
 10
70.7964308285
 20
271.0734455352
 30
0.0
 10
70.650293554
 20
271.0994843212
 30
0.0
 10
70.4672884809
 20
271.1259431207
 30
0.0
 10
70.2470807074
 20
271.1525422266
 30
0.0
 10
70.0267911702
 20
271.1755492923
 30
0.0
 10
69.7332080333
 20
271.202729629
 30
0.0
 10
69.5128775403
 20
271.2200952786
 30
0.0
 10
69.3660068491
 20
271.2307570612
 30
0.0
  0
SPLINE
  5
440
100
AcDbEntity
  8
0
100
AcDbSpline
 62
7
  6
CONTINUOUS
 70
0
 71
3
 72
10
 73
6
 74
0
 42
0.0000001
 43
0.0000001
 44
0.0000000001
 40
0.0
 40
0.0
 40
0.0
 40
0.0
 40
0.2477657319
 40
0.6246967394
 40
1.0
 40
1.0
 40
1.0
 40
1.0
 10
70.9927468263
 20
267.5787592363
 30
0.0
 10
72.3229717754
 20
268.0708024467
 30
0.0
 10
75.7189982635
 20
269.1997360762
 30
0.0
 10
81.2904276992
 20
270.5556853615
 30
0.0
 10
85.5667633675
 20
271.1354630365
 30
0.0
 10
87.707988075
 20
271.3107397753
 30
0.0
  0
SPLINE
  5
441
100
AcDbEntity
  8
0
100
AcDbSpline
 62
7
  6
CONTINUOUS
 70
0
 71
3
 72
9
 73
5
 74
0
 42
0.0000001
 43
0.0000001
 44
0.0000000001
 40
0.0
 40
0.0
 40
0.0
 40
0.0
 40
0.4801748276
 40
1.0
 40
1.0
 40
1.0
 40
1.0
 10
55.5539693106
 20
258.1800386288
 30
0.0
 10
57.7588355699
 20
260.0659242385
 30
0.0
 10
62.6954616069
 20
263.5994173473
 30
0.0
 10
68.1003843088
 20
266.3540685659
 30
0.0
 10
70.9927468263
 20
267.5787592363
 30
0.0
  0
SPLINE
  5
442
100
AcDbEntity
  8
0
100
AcDbSpline
 62
7
  6
CONTINUOUS
 70
0
 71
3
 72
12
 73
8
 74
0
 42
0.0000001
 43
0.0000001
 44
0.0000000001
 40
0.0
 40
0.0
 40
0.0
 40
0.0
 40
0.2288901908
 40
0.4782379417
 40
0.739837892
 40
0.8711553458
 40
1.0
 40
1.0
 40
1.0
 40
1.0
 10
55.5933245165
 20
258.1056849526
 30
0.0
 10
57.6758730938
 20
259.7938120629
 30
0.0
 10
62.314882825
 20
262.9751772138
 30
0.0
 10
70.09261422
 20
266.8492604395
 30
0.0
 10
77.2377748541
 20
269.2832020712
 30
0.0
 10
83.1973970513
 20
270.6510539559
 30
0.0
 10
86.2098476536
 20
271.1295306191
 30
0.0
 10
87.707988075
 20
271.3107397753
 30
0.0
  0
SPLINE
  5
443
100
AcDbEntity
  8
0
100
AcDbSpline
 62
7
  6
CONTINUOUS
 70
0
 71
3
 72
10
 73
6
 74
0
 42
0.0000001
 43
0.0000001
 44
0.0000000001
 40
0.0
 40
0.0
 40
0.0
 40
0.0
 40
0.4013116533
 40
0.6951724988
 40
1.0
 40
1.0
 40
1.0
 40
1.0
 10
87.7079895166
 20
271.3104226912
 30
0.0
 10
87.7138489239
 20
271.2736832867
 30
0.0
 10
87.7369692223
 20
271.2128453514
 30
0.0
 10
87.7533444679
 20
271.1214777003
 30
0.0
 10
87.7697006269
 20
271.0683308605
 30
0.0
 10
87.7784022509
 20
271.0414448076
 30
0.0
  0
SPLINE
  5
444
100
AcDbEntity
  8
0
100
AcDbSpline
 62
7
  6
CONTINUOUS
 70
0
 71
3
 72
9
 73
5
 74
0
 42
0.0000001
 43
0.0000001
 44
0.0000000001
 40
0.0
 40
0.0
 40
0.0
 40
0.0
 40
0.5035738484
 40
1.0
 40
1.0
 40
1.0
 40
1.0
 10
89.7730837505
 20
267.9523015456
 30
0.0
 10
87.033737106
 20
266.2327643702
 30
0.0
 10
81.7699943761
 20
262.5319697416
 30
0.0
 10
76.8739474411
 20
258.3593504777
 30
0.0
 10
74.5486415002
 20
256.1778539251
 30
0.0
  0
SPLINE
  5
445
100
AcDbEntity
  8
0
100
AcDbSpline
 62
7
  6
CONTINUOUS
 70
0
 71
3
 72
15
 73
11
 74
0
 42
0.0000001
 43
0.0000001
 44
0.0000000001
 40
0.0
 40
0.0
 40
0.0
 40
0.0
 40
0.1123542392
 40
0.2302301822
 40
0.3531460493
 40
0.4801880788
 40
0.6101192284
 40
0.7413219425
 40
0.8719519165
 40
1.0
 40
1.0
 40
1.0
 40
1.0
 10
56.4184191307
 20
257.7427777887
 30
0.0
 10
57.434086351
 20
258.5380130122
 30
0.0
 10
59.5489342596
 20
260.1267142973
 30
0.0
 10
62.9640219932
 20
262.3191097867
 30
0.0
 10
66.6673586513
 20
264.3548088328
 30
0.0
 10
70.6155486302
 20
266.2150894901
 30
0.0
 10
74.7647694471
 20
267.8501815128
 30
0.0
 10
79.050555675
 20
269.2265942421
 30
0.0
 10
83.3973467223
 20
270.3061109614
 30
0.0
 10
86.3217227675
 20
270.8429740134
 30
0.0
 10
87.7784001403
 20
271.0414459661
 30
0.0
  0
SPLINE
  5
446
100
AcDbEntity
  8
0
100
AcDbSpline
 62
7
  6
CONTINUOUS
 70
0
 71
3
 72
8
 73
4
 74
0
 42
0.0000001
 43
0.0000001
 44
0.0000000001
 40
0.0
 40
0.0
 40
0.0
 40
0.0
 40
1.0
 40
1.0
 40
1.0
 40
1.0
 10
87.7062162672
 20
271.3138969126
 30
0.0
 10
87.7824529697
 20
271.3205250911
 30
0.0
 10
87.8587470007
 20
271.3264771642
 30
0.0
 10
87.9350029327
 20
271.3328803199
 30
0.0
  0
SPLINE
  5
447
100
AcDbEntity
  8
0
100
AcDbSpline
 62
7
  6
CONTINUOUS
 70
0
 71
3
 72
17
 73
13
 74
0
 42
0.0000001
 43
0.0000001
 44
0.0000000001
 40
0.0
 40
0.0
 40
0.0
 40
0.0
 40
0.0292797344
 40
0.0600217799
 40
0.1219311571
 40
0.1841207195
 40
0.2464647821
 40
0.3714558573
 40
0.4967498498
 40
0.6222806755
 40
0.7480132226
 40
1.0
 40
1.0
 40
1.0
 40
1.0
 10
89.6571285214
 20
271.3281023683
 30
0.0
 10
89.6564605837
 20
271.3450794529
 30
0.0
 10
89.6165517739
 20
271.3662464925
 30
0.0
 10
89.5521531687
 20
271.3813178108
 30
0.0
 10
89.4605036411
 20
271.3928483034
 30
0.0
 10
89.3532083013
 20
271.3987265931
 30
0.0
 10
89.2081874685
 20
271.402020721
 30
0.0
 10
89.0268707502
 20
271.3999404303
 30
0.0
 10
88.8088834391
 20
271.3922406114
 30
0.0
 10
88.5906731546
 20
271.3809211006
 30
0.0
 10
88.2992367176
 20
271.3623163915
 30
0.0
 10
88.0807057889
 20
271.3453234056
 30
0.0
 10
87.9349976216
 20
271.333088392
 30
0.0
  0
SPLINE
  5
448
100
AcDbEntity
  8
0
100
AcDbSpline
 62
7
  6
CONTINUOUS
 70
0
 71
3
 72
9
 73
5
 74
0
 42
0.0000001
 43
0.0000001
 44
0.0000000001
 40
0.0
 40
0.0
 40
0.0
 40
0.0
 40
0.5144802366
 40
1.0
 40
1.0
 40
1.0
 40
1.0
 10
87.9349976216
 20
271.333088392
 30
0.0
 10
90.5777747197
 20
271.55511597
 30
0.0
 10
95.7014698779
 20
272.1644936505
 30
0.0
 10
100.7655718546
 20
273.1633692164
 30
0.0
 10
103.1962415648
 20
273.759900276
 30
0.0
  0
SPLINE
  5
449
100
AcDbEntity
  8
0
100
AcDbSpline
 62
7
  6
CONTINUOUS
 70
0
 71
3
 72
9
 73
5
 74
0
 42
0.0000001
 43
0.0000001
 44
0.0000000001
 40
0.0
 40
0.0
 40
0.0
 40
0.0
 40
0.5150591749
 40
1.0
 40
1.0
 40
1.0
 40
1.0
 10
89.7730837505
 20
267.9523015456
 30
0.0
 10
91.9713835372
 20
269.1550549163
 30
0.0
 10
96.3413368901
 20
271.3097984089
 30
0.0
 10
100.9083919793
 20
273.020645862
 30
0.0
 10
103.1661388637
 20
273.7053617357
 30
0.0
  0
SPLINE
  5
44A
100
AcDbEntity
  8
0
100
AcDbSpline
 62
7
  6
CONTINUOUS
 70
0
 71
3
 72
11
 73
7
 74
0
 42
0.0000001
 43
0.0000001
 44
0.0000000001
 40
0.0
 40
0.0
 40
0.0
 40
0.0
 40
0.2524477035
 40
0.5115682547
 40
0.7657547222
 40
1.0
 40
1.0
 40
1.0
 40
1.0
 10
74.6291495553
 20
256.0886520878
 30
0.0
 10
76.7598779307
 20
257.9584640225
 30
0.0
 10
81.2367417107
 20
261.5697875785
 30
0.0
 10
88.3510625302
 20
266.4168595353
 30
0.0
 10
95.6810345061
 20
270.5309190937
 30
0.0
 10
100.7226133106
 20
272.7258365992
 30
0.0
 10
103.1971602309
 20
273.6178663791
 30
0.0
  0
SPLINE
  5
44B
100
AcDbEntity
  8
0
100
AcDbSpline
 62
7
  6
CONTINUOUS
 70
0
 71
3
 72
9
 73
5
 74
0
 42
0.0000001
 43
0.0000001
 44
0.0000000001
 40
0.0
 40
0.0
 40
0.0
 40
0.0
 40
0.4447580514
 40
1.0
 40
1.0
 40
1.0
 40
1.0
 10
104.7976253124
 20
274.1670787816
 30
0.0
 10
104.8368000194
 20
274.1458175303
 30
0.0
 10
104.9011645281
 20
274.061497858
 30
0.0
 10
104.9394684472
 20
273.9698136489
 30
0.0
 10
104.9575123734
 20
273.9171756563
 30
0.0
  0
SPLINE
  5
44C
100
AcDbEntity
  8
0
100
AcDbSpline
 62
7
  6
CONTINUOUS
 70
0
 71
3
 72
15
 73
11
 74
0
 42
0.0000001
 43
0.0000001
 44
0.0000000001
 40
0.0
 40
0.0
 40
0.0
 40
0.0
 40
0.1254343582
 40
0.2534327458
 40
0.382991003
 40
0.5127572394
 40
0.6411682123
 40
0.766433916
 40
0.8866289788
 40
1.0
 40
1.0
 40
1.0
 40
1.0
 10
75.7443893095
 20
255.8776097928
 30
0.0
 10
76.7827594895
 20
256.7708571536
 30
0.0
 10
78.8912184203
 20
258.5639513471
 30
0.0
 10
82.1822952279
 20
261.146598884
 30
0.0
 10
85.6138253227
 20
263.6206900189
 30
0.0
 10
89.1354142897
 20
265.9730682127
 30
0.0
 10
92.7115476979
 20
268.1532436891
 30
0.0
 10
96.2868433064
 20
270.1274539623
 30
0.0
 10
99.8088237214
 20
271.8479711299
 30
0.0
 10
102.1535680598
 20
272.8554664719
 30
0.0
 10
103.3064376637
 20
273.306563313
 30
0.0
  0
SPLINE
  5
44D
100
AcDbEntity
  8
0
100
AcDbSpline
 62
7
  6
CONTINUOUS
 70
0
 71
3
 72
9
 73
5
 74
0
 42
0.0000001
 43
0.0000001
 44
0.0000000001
 40
0.0
 40
0.0
 40
0.0
 40
0.0
 40
0.2541768796
 40
1.0
 40
1.0
 40
1.0
 40
1.0
 10
103.3064376637
 20
273.306563313
 30
0.0
 10
103.4453365232
 20
273.3609119024
 30
0.0
 10
103.9927185227
 20
273.5723739126
 30
0.0
 10
104.5439741677
 20
273.7738862796
 30
0.0
 10
104.9575079112
 20
273.9171763281
 30
0.0
  0
LINE
  5
44E
100
AcDbEntity
  8
0
100
AcDbLine
 62
7
  6
CONTINUOUS
 10
104.7935813526
 20
274.1700456044
 11
104.9938085691
 21
274.2242719268
  0
SPLINE
  5
44F
100
AcDbEntity
  8
0
100
AcDbSpline
 62
7
  6
CONTINUOUS
 70
0
 71
3
 72
9
 73
5
 74
0
 42
0.0000001
 43
0.0000001
 44
0.0000000001
 40
0.0
 40
0.0
 40
0.0
 40
0.0
 40
0.5360234051
 40
1.0
 40
1.0
 40
1.0
 40
1.0
 10
104.9924628073
 20
274.2241669519
 30
0.0
 10
107.3807334219
 20
274.8713839392
 30
0.0
 10
111.781922825
 20
276.2949395757
 30
0.0
 10
115.9734054942
 20
278.2826400901
 30
0.0
 10
117.8094937124
 20
279.3854594188
 30
0.0
  0
SPLINE
  5
450
100
AcDbEntity
  8
0
100
AcDbSpline
 62
7
  6
CONTINUOUS
 70
0
 71
3
 72
16
 73
12
 74
0
 42
0.0000001
 43
0.0000001
 44
0.0000000001
 40
0.0
 40
0.0
 40
0.0
 40
0.0
 40
0.0577000193
 40
0.118386273
 40
0.179742388
 40
0.2415343146
 40
0.3660406029
 40
0.4914903782
 40
0.6176966373
 40
0.7445572358
 40
1.0
 40
1.0
 40
1.0
 40
1.0
 10
106.4405038671
 20
274.4669461155
 30
0.0
 10
106.4374184853
 20
274.4953799868
 30
0.0
 10
106.3523975784
 20
274.5059994521
 30
0.0
 10
106.2742395693
 20
274.5028069841
 30
0.0
 10
106.1805374488
 20
274.4935642389
 30
0.0
 10
106.0600370887
 20
274.4758834627
 30
0.0
 10
105.9075479583
 20
274.4477801943
 30
0.0
 10
105.7253665837
 20
274.4087755473
 30
0.0
 10
105.542601605
 20
274.3661312278
 30
0.0
 10
105.2979397012
 20
274.3055583162
 30
0.0
 10
105.1146819298
 20
274.2572518366
 30
0.0
 10
104.9924628073
 20
274.2241669519
 30
0.0
  0
SPLINE
  5
451
100
AcDbEntity
  8
0
100
AcDbSpline
 62
7
  6
CONTINUOUS
 70
0
 71
3
 72
10
 73
6
 74
0
 42
0.0000001
 43
0.0000001
 44
0.0000000001
 40
0.0
 40
0.0
 40
0.0
 40
0.0
 40
0.5444120895
 40
0.7851770119
 40
1.0
 40
1.0
 40
1.0
 40
1.0
 10
106.7605056366
 20
271.1252605513
 30
0.0
 10
108.6625184879
 20
272.7581058239
 30
0.0
 10
111.4677971501
 20
275.0443325766
 30
0.0
 10
115.2024614986
 20
277.7399592143
 30
0.0
 10
116.9686596294
 20
278.874408548
 30
0.0
 10
117.816715655
 20
279.3835582988
 30
0.0
  0
SPLINE
  5
452
100
AcDbEntity
  8
0
100
AcDbSpline
 62
7
  6
CONTINUOUS
 70
0
 71
3
 72
9
 73
5
 74
0
 42
0.0000001
 43
0.0000001
 44
0.0000000001
 40
0.0
 40
0.0
 40
0.0
 40
0.0
 40
0.5132306607
 40
1.0
 40
1.0
 40
1.0
 40
1.0
 10
94.0638285597
 20
257.1891559229
 30
0.0
 10
96.1532751417
 20
259.6467404214
 30
0.0
 10
100.3040470167
 20
264.3680307549
 30
0.0
 10
104.6148046164
 20
268.9443995354
 30
0.0
 10
106.7605056366
 20
271.1252605513
 30
0.0
  0
SPLINE
  5
453
100
AcDbEntity
  8
0
100
AcDbSpline
 62
7
  6
CONTINUOUS
 70
0
 71
3
 72
12
 73
8
 74
0
 42
0.0000001
 43
0.0000001
 44
0.0000000001
 40
0.0
 40
0.0
 40
0.0
 40
0.0
 40
0.2840656533
 40
0.5579522182
 40
0.8034242399
 40
0.9090782792
 40
1.0
 40
1.0
 40
1.0
 40
1.0
 10
94.1776635967
 20
257.0915139875
 30
0.0
 10
96.2642199401
 20
259.3573077264
 30
0.0
 10
100.4340568951
 20
263.7426571232
 30
0.0
 10
106.6465106852
 20
269.8519249876
 30
0.0
 10
111.6619673171
 20
274.4146308904
 30
0.0
 10
115.3467747046
 20
277.4808973598
 30
0.0
 10
117.0254009086
 20
278.7955211381
 30
0.0
 10
117.816715655
 20
279.3835582988
 30
0.0
  0
SPLINE
  5
454
100
AcDbEntity
  8
0
100
AcDbSpline
 62
7
  6
CONTINUOUS
 70
0
 71
3
 72
9
 73
5
 74
0
 42
0.0000001
 43
0.0000001
 44
0.0000000001
 40
0.0
 40
0.0
 40
0.0
 40
0.0
 40
0.2314852139
 40
1.0
 40
1.0
 40
1.0
 40
1.0
 10
117.8167209182
 20
279.3832376686
 30
0.0
 10
117.8402503712
 20
279.3767278923
 30
0.0
 10
117.9367947218
 20
279.3317731187
 30
0.0
 10
118.0074970899
 20
279.2380115213
 30
0.0
 10
118.032086857
 20
279.1607809951
 30
0.0
  0
SPLINE
  5
455
100
AcDbEntity
  8
0
100
AcDbSpline
 62
7
  6
CONTINUOUS
 70
0
 71
3
 72
10
 73
6
 74
0
 42
0.0000001
 43
0.0000001
 44
0.0000000001
 40
0.0
 40
0.0
 40
0.0
 40
0.0
 40
0.2268426031
 40
0.4723397287
 40
1.0
 40
1.0
 40
1.0
 40
1.0
 10
119.3689075994
 20
276.6146037195
 30
0.0
 10
118.8148112081
 20
275.4024492735
 30
0.0
 10
117.6100872705
 20
272.9016543514
 30
0.0
 10
114.9075844067
 20
267.684123593
 30
0.0
 10
112.6770645657
 20
263.7249846372
 30
0.0
 10
111.1148169156
 20
261.0471559411
 30
0.0
  0
SPLINE
  5
456
100
AcDbEntity
  8
0
100
AcDbSpline
 62
7
  6
CONTINUOUS
 70
0
 71
3
 72
15
 73
11
 74
0
 42
0.0000001
 43
0.0000001
 44
0.0000000001
 40
0.0
 40
0.0
 40
0.0
 40
0.0
 40
0.1428646707
 40
0.2848811037
 40
0.4242160946
 40
0.5587476262
 40
0.6860813502
 40
0.8036604794
 40
0.9090387933
 40
1.0
 40
1.0
 40
1.0
 40
1.0
 10
95.4132633479
 20
257.0644657192
 30
0.0
 10
96.4387189466
 20
258.1687687065
 30
0.0
 10
98.4719793447
 20
260.3815674573
 30
0.0
 10
101.5539895384
 20
263.6261496056
 30
0.0
 10
104.623704698
 20
266.7602910986
 30
0.0
 10
107.622301367
 20
269.7469109051
 30
0.0
 10
110.5055737219
 20
272.5233126475
 30
0.0
 10
113.2148865989
 20
275.0364654548
 30
0.0
 10
115.6982187734
 20
277.2269101572
 30
0.0
 10
117.2789518238
 20
278.5662779658
 30
0.0
 10
118.032080723
 20
279.1607808469
 30
0.0
  0
LINE
  5
457
100
AcDbEntity
  8
0
100
AcDbLine
 62
7
  6
CONTINUOUS
 10
117.8095292859
 20
279.3852443729
 11
117.9380075792
 21
279.4628447657
  0
SPLINE
  5
458
100
AcDbEntity
  8
0
100
AcDbSpline
 62
7
  6
CONTINUOUS
 70
0
 71
3
 72
10
 73
6
 74
0
 42
0.0000001
 43
0.0000001
 44
0.0000000001
 40
0.0
 40
0.0
 40
0.0
 40
0.0
 40
0.2895542826
 40
0.5515756713
 40
1.0
 40
1.0
 40
1.0
 40
1.0
 10
117.9381504086
 20
279.4631821325
 30
0.0
 10
118.7353120839
 20
279.9471925848
 30
0.0
 10
120.2155526783
 20
280.9391078502
 30
0.0
 10
122.6727739022
 20
283.0196961134
 30
0.0
 10
124.1319737911
 20
284.858451397
 30
0.0
 10
124.7588806559
 20
286.1595814313
 30
0.0
  0
SPLINE
  5
459
100
AcDbEntity
  8
0
100
AcDbSpline
 62
7
  6
CONTINUOUS
 70
0
 71
3
 72
13
 73
9
 74
0
 42
0.0000001
 43
0.0000001
 44
0.0000000001
 40
0.0
 40
0.0
 40
0.0
 40
0.0
 40
0.1085044966
 40
0.228313095
 40
0.3519837442
 40
0.4781956372
 40
0.7361801641
 40
1.0
 40
1.0
 40
1.0
 40
1.0
 10
118.8935770613
 20
279.8940442473
 30
0.0
 10
118.887321753
 20
279.9321463886
 30
0.0
 10
118.7560795
 20
279.9057747848
 30
0.0
 10
118.6620264745
 20
279.8629359304
 30
0.0
 10
118.5370523232
 20
279.8048285761
 30
0.0
 10
118.379192472
 20
279.7211733629
 30
0.0
 10
118.1775573653
 20
279.607005265
 30
0.0
 10
118.0184049327
 20
279.5118968095
 30
0.0
 10
117.9381504086
 20
279.4631821325
 30
0.0
  0
SPLINE
  5
45A
100
AcDbEntity
  8
0
100
AcDbSpline
 62
7
  6
CONTINUOUS
 70
0
 71
3
 72
10
 73
6
 74
0
 42
0.0000001
 43
0.0000001
 44
0.0000000001
 40
0.0
 40
0.0
 40
0.0
 40
0.0
 40
0.5748321236
 40
0.8083801482
 40
1.0
 40
1.0
 40
1.0
 40
1.0
 10
119.3689075994
 20
276.6146037195
 30
0.0
 10
120.463350318
 20
278.4083758492
 30
0.0
 10
121.9776847419
 20
280.9469870323
 30
0.0
 10
123.7420374819
 20
284.1485981694
 30
0.0
 10
124.4588973316
 20
285.5281819958
 30
0.0
 10
124.7629492743
 20
286.1592143503
 30
0.0
  0
SPLINE
  5
45B
100
AcDbEntity
  8
0
100
AcDbSpline
 62
7
  6
CONTINUOUS
 70
0
 71
3
 72
14
 73
10
 74
0
 42
0.0000001
 43
0.0000001
 44
0.0000000001
 40
0.0
 40
0.0
 40
0.0
 40
0.0
 40
0.0746829563
 40
0.1683160878
 40
0.2790683173
 40
0.4045047245
 40
0.5419296317
 40
0.6886107307
 40
1.0
 40
1.0
 40
1.0
 40
1.0
 10
124.7629492743
 20
286.1592143503
 30
0.0
 10
124.5996531457
 20
285.4644340366
 30
0.0
 10
124.1062633428
 20
283.9286396208
 30
0.0
 10
123.0708477136
 20
281.4696451106
 30
0.0
 10
121.7037092989
 20
278.6284391914
 30
0.0
 10
120.0382970371
 20
275.4695485892
 30
0.0
 10
118.1167035849
 20
272.0594822205
 30
0.0
 10
115.2154734171
 20
267.163218247
 30
0.0
 10
112.8742258323
 20
263.4633337125
 30
0.0
 10
111.262782429
 20
260.9615940277
 30
0.0
  0
SPLINE
  5
45C
100
AcDbEntity
  8
0
100
AcDbSpline
 62
7
  6
CONTINUOUS
 70
0
 71
3
 72
9
 73
5
 74
0
 42
0.0000001
 43
0.0000001
 44
0.0000000001
 40
0.0
 40
0.0
 40
0.0
 40
0.0
 40
0.5206956559
 40
1.0
 40
1.0
 40
1.0
 40
1.0
 10
124.7629749881
 20
286.1586007659
 30
0.0
 10
124.819444181
 20
286.1570928585
 30
0.0
 10
124.9289251889
 20
286.1191447774
 30
0.0
 10
124.9990069869
 20
286.0244132293
 30
0.0
 10
125.0116488208
 20
285.9739745053
 30
0.0
  0
SPLINE
  5
45D
100
AcDbEntity
  8
0
100
AcDbSpline
 62
7
  6
CONTINUOUS
 70
0
 71
3
 72
15
 73
11
 74
0
 42
0.0000001
 43
0.0000001
 44
0.0000000001
 40
0.0
 40
0.0
 40
0.0
 40
0.0
 40
0.1576508344
 40
0.3107073656
 40
0.456878611
 40
0.5938451333
 40
0.7189925759
 40
0.8297415049
 40
0.9239193624
 40
1.0
 40
1.0
 40
1.0
 40
1.0
 10
112.4306334724
 20
261.1226575118
 30
0.0
 10
113.2263652255
 20
262.3578224516
 30
0.0
 10
114.7531041917
 20
264.8188290254
 30
0.0
 10
116.9415134361
 20
268.4716275595
 30
0.0
 10
118.9596085368
 20
272.0011412995
 30
0.0
 10
120.7541709506
 20
275.3572399199
 30
0.0
 10
122.2924384835
 20
278.4741263523
 30
0.0
 10
123.5351075928
 20
281.2896495027
 30
0.0
 10
124.4540611576
 20
283.743950724
 30
0.0
 10
124.874555842
 20
285.2782859219
 30
0.0
 10
125.0116419476
 20
285.9739733507
 30
0.0
  0
LINE
  5
45E
100
AcDbEntity
  8
0
100
AcDbLine
 62
7
  6
CONTINUOUS
 10
124.7589170667
 20
286.1593993169
 11
124.8038290444
 21
286.2539435022
  0
SPLINE
  5
45F
100
AcDbEntity
  8
0
100
AcDbSpline
 62
7
  6
CONTINUOUS
 70
0
 71
3
 72
9
 73
5
 74
0
 42
0.0000001
 43
0.0000001
 44
0.0000000001
 40
0.0
 40
0.0
 40
0.0
 40
0.0
 40
0.5865831995
 40
1.0
 40
1.0
 40
1.0
 40
1.0
 10
124.80321752
 20
286.2529023835
 30
0.0
 10
124.85484954
 20
286.362975616
 30
0.0
 10
124.8958389456
 20
286.4569102389
 30
0.0
 10
125.1038466363
 20
286.8672282974
 30
0.0
 10
125.1204933652
 20
286.7831718694
 30
0.0
  0
SPLINE
  5
460
100
AcDbEntity
  8
0
100
AcDbSpline
 62
7
  6
CONTINUOUS
 70
0
 71
3
 72
9
 73
5
 74
0
 42
0.0000001
 43
0.0000001
 44
0.0000000001
 40
0.0
 40
0.0
 40
0.0
 40
0.0
 40
0.509797626
 40
1.0
 40
1.0
 40
1.0
 40
1.0
 10
124.80321752
 20
286.2529023835
 30
0.0
 10
125.1317829981
 20
286.9543872039
 30
0.0
 10
125.6089420598
 20
288.4210111712
 30
0.0
 10
125.6219314543
 20
289.9677704317
 30
0.0
 10
125.5159583775
 20
290.7050389583
 30
0.0
  0
SPLINE
  5
461
100
AcDbEntity
  8
0
100
AcDbSpline
 62
7
  6
CONTINUOUS
 70
0
 71
3
 72
9
 73
5
 74
0
 42
0.0000001
 43
0.0000001
 44
0.0000000001
 40
0.0
 40
0.0
 40
0.0
 40
0.0
 40
0.5391501995
 40
1.0
 40
1.0
 40
1.0
 40
1.0
 10
125.6787852855
 20
283.5846213394
 30
0.0
 10
125.8127328134
 20
284.8612894842
 30
0.0
 10
125.948377408
 20
287.2433632288
 30
0.0
 10
125.7443958672
 20
289.6305598952
 30
0.0
 10
125.5284382307
 20
290.7063463399
 30
0.0
  0
SPLINE
  5
462
100
AcDbEntity
  8
0
100
AcDbSpline
 62
7
  6
CONTINUOUS
 70
0
 71
3
 72
9
 73
5
 74
0
 42
0.0000001
 43
0.0000001
 44
0.0000000001
 40
0.0
 40
0.0
 40
0.0
 40
0.0
 40
0.2407997058
 40
1.0
 40
1.0
 40
1.0
 40
1.0
 10
124.6918063351
 20
293.3424688515
 30
0.0
 10
124.8007903277
 20
293.1982035721
 30
0.0
 10
125.2327228048
 20
292.5835725153
 30
0.0
 10
125.5811167087
 20
291.9118065644
 30
0.0
 10
125.8012727874
 20
291.3859924087
 30
0.0
  0
SPLINE
  5
463
100
AcDbEntity
  8
0
100
AcDbSpline
 62
7
  6
CONTINUOUS
 70
0
 71
3
 72
9
 73
5
 74
0
 42
0.0000001
 43
0.0000001
 44
0.0000000001
 40
0.0
 40
0.0
 40
0.0
 40
0.0
 40
0.2375066439
 40
1.0
 40
1.0
 40
1.0
 40
1.0
 10
125.8460010277
 20
291.2774617436
 30
0.0
 10
125.9315003971
 20
291.066673851
 30
0.0
 10
126.2628195593
 20
290.167550306
 30
0.0
 10
126.4861380964
 20
289.2308170251
 30
0.0
 10
126.611186352
 20
288.511337997
 30
0.0
  0
SPLINE
  5
464
100
AcDbEntity
  8
0
100
AcDbSpline
 62
7
  6
CONTINUOUS
 70
0
 71
3
 72
11
 73
7
 74
0
 42
0.0000001
 43
0.0000001
 44
0.0000000001
 40
0.0
 40
0.0
 40
0.0
 40
0.0
 40
0.2095827256
 40
0.4501026419
 40
0.7157555607
 40
1.0
 40
1.0
 40
1.0
 40
1.0
 10
126.6976389012
 20
287.963616069
 30
0.0
 10
126.9073778976
 20
286.4903897608
 30
0.0
 10
126.9927342078
 20
283.2743123011
 30
0.0
 10
126.3862682449
 20
278.2185348734
 30
0.0
 10
125.1331463315
 20
272.7392166202
 30
0.0
 10
123.9491128639
 20
269.0149654091
 30
0.0
 10
123.2834518775
 20
267.1097075631
 30
0.0
  0
SPLINE
  5
465
100
AcDbEntity
  8
0
100
AcDbSpline
 62
7
  6
CONTINUOUS
 70
0
 71
3
 72
10
 73
6
 74
0
 42
0.0000001
 43
0.0000001
 44
0.0000000001
 40
0.0
 40
0.0
 40
0.0
 40
0.0
 40
0.5313343685
 40
0.7751920948
 40
1.0
 40
1.0
 40
1.0
 40
1.0
 10
123.113344036
 20
267.1577402412
 30
0.0
 10
123.9533275073
 20
269.9910746148
 30
0.0
 10
124.9726720009
 20
274.1976506738
 30
0.0
 10
125.6498491882
 20
279.7231689426
 30
0.0
 10
125.7225834864
 20
282.3350310345
 30
0.0
 10
125.6787852855
 20
283.5846213394
 30
0.0
  0
SPLINE
  5
466
100
AcDbEntity
  8
0
100
AcDbSpline
 62
7
  6
CONTINUOUS
 70
0
 71
3
 72
9
 73
5
 74
0
 42
0.0000001
 43
0.0000001
 44
0.0000000001
 40
0.0
 40
0.0
 40
0.0
 40
0.0
 40
0.5204200186
 40
1.0
 40
1.0
 40
1.0
 40
1.0
 10
124.5960264572
 20
293.466069436
 30
0.0
 10
124.6347399759
 20
293.4710616684
 30
0.0
 10
124.7124770736
 20
293.4657483461
 30
0.0
 10
124.778996726
 20
293.4219193731
 30
0.0
 10
124.8014204043
 20
293.3937931917
 30
0.0
  0
SPLINE
  5
467
100
AcDbEntity
  8
0
100
AcDbSpline
 62
7
  6
CONTINUOUS
 70
0
 71
3
 72
9
 73
5
 74
0
 42
0.0000001
 43
0.0000001
 44
0.0000000001
 40
0.0
 40
0.0
 40
0.0
 40
0.0
 40
0.2364221528
 40
1.0
 40
1.0
 40
1.0
 40
1.0
 10
29.6255620339
 20
281.3203534399
 30
0.0
 10
29.6941784085
 20
281.3383541049
 30
0.0
 10
29.9865819836
 20
281.4061685931
 30
0.0
 10
30.2859477953
 20
281.4419411449
 30
0.0
 10
30.5146636418
 20
281.4553868899
 30
0.0
  0
SPLINE
  5
468
100
AcDbEntity
  8
0
100
AcDbSpline
 62
7
  6
CONTINUOUS
 70
0
 71
3
 72
11
 73
7
 74
0
 42
0.0000001
 43
0.0000001
 44
0.0000000001
 40
0.0
 40
0.0
 40
0.0
 40
0.0
 40
0.1836633639
 40
0.4103792517
 40
0.6827860868
 40
1.0
 40
1.0
 40
1.0
 40
1.0
 10
30.5146636418
 20
281.4553868899
 30
0.0
 10
31.0370941028
 20
281.4860995267
 30
0.0
 10
32.2129100559
 20
281.3981148227
 30
0.0
 10
34.1095561269
 20
280.9469840818
 30
0.0
 10
36.304693135
 20
280.1674241964
 30
0.0
 10
37.8426506841
 20
279.4880451479
 30
0.0
 10
38.6588543601
 20
279.0997182914
 30
0.0
  0
SPLINE
  5
469
100
AcDbEntity
  8
0
100
AcDbSpline
 62
7
  6
CONTINUOUS
 70
0
 71
3
 72
11
 73
7
 74
0
 42
0.0000001
 43
0.0000001
 44
0.0000000001
 40
0.0
 40
0.0
 40
0.0
 40
0.0
 40
0.2835432394
 40
0.5485509515
 40
0.7891176072
 40
1.0
 40
1.0
 40
1.0
 40
1.0
 10
124.2057593443
 20
267.4343622579
 30
0.0
 10
124.8441953292
 20
269.3049417101
 30
0.0
 10
125.9318243403
 20
272.9755679436
 30
0.0
 10
127.0574603788
 20
278.3690166634
 30
0.0
 10
127.5138326941
 20
283.3541421659
 30
0.0
 10
127.3202945068
 20
286.5175991757
 30
0.0
 10
127.0586100474
 20
287.9641434445
 30
0.0
  0
SPLINE
  5
46A
100
AcDbEntity
  8
0
100
AcDbSpline
 62
7
  6
CONTINUOUS
 70
0
 71
3
 72
18
 73
14
 74
0
 42
0.0000001
 43
0.0000001
 44
0.0000000001
 40
0.0
 40
0.0
 40
0.0
 40
0.0
 40
0.0029263191
 40
0.0132725068
 40
0.0315340393
 40
0.0578033617
 40
0.0921375441
 40
0.1345863529
 40
0.2439719067
 40
0.3856846908
 40
0.5590014698
 40
0.7636024093
 40
1.0
 40
1.0
 40
1.0
 40
1.0
 10
28.5959850982
 20
288.5422596904
 30
0.0
 10
28.5965594122
 20
288.5460098596
 30
0.0
 10
28.6225921037
 20
288.5318758244
 30
0.0
 10
28.6405460113
 20
288.5092833867
 30
0.0
 10
28.6982715452
 20
288.4558480453
 30
0.0
 10
28.7649281698
 20
288.3827974864
 30
0.0
 10
28.8564293191
 20
288.2836217088
 30
0.0
 10
29.0167173162
 20
288.1040259716
 30
0.0
 10
29.2675844977
 20
287.8172618723
 30
0.0
 10
29.6274271942
 20
287.4012427368
 30
0.0
 10
30.0689439349
 20
286.8923137396
 30
0.0
 10
30.5912160324
 20
286.2910518985
 30
0.0
 10
30.9623877529
 20
285.8561439334
 30
0.0
 10
31.159917017
 20
285.6218067459
 30
0.0
  0
SPLINE
  5
46B
100
AcDbEntity
  8
0
100
AcDbSpline
 62
7
  6
CONTINUOUS
 70
0
 71
3
 72
9
 73
5
 74
0
 42
0.0000001
 43
0.0000001
 44
0.0000000001
 40
0.0
 40
0.0
 40
0.0
 40
0.0
 40
0.2608860642
 40
1.0
 40
1.0
 40
1.0
 40
1.0
 10
128.4258009412
 20
274.9644031587
 30
0.0
 10
128.4687910881
 20
276.0359281257
 30
0.0
 10
128.512354055
 20
280.1440417268
 30
0.0
 10
128.0160503259
 20
284.2816346213
 30
0.0
 10
127.2072050467
 20
287.2101573936
 30
0.0
  0
SPLINE
  5
46C
100
AcDbEntity
  8
0
100
AcDbSpline
 62
7
  6
CONTINUOUS
 70
0
 71
3
 72
12
 73
8
 74
0
 42
0.0000001
 43
0.0000001
 44
0.0000000001
 40
0.0
 40
0.0
 40
0.0
 40
0.0
 40
0.0490137719
 40
0.1181406946
 40
0.3220546361
 40
0.6161897862
 40
1.0
 40
1.0
 40
1.0
 40
1.0
 10
30.134641031
 20
288.9547168898
 30
0.0
 10
30.1249764626
 20
288.9001056099
 30
0.0
 10
30.1303202456
 20
288.7643925559
 30
0.0
 10
30.2057413816
 20
288.4078300179
 30
0.0
 10
30.4331681115
 20
287.8045502869
 30
0.0
 10
30.8461373716
 20
286.8969457293
 30
0.0
 10
31.1943647526
 20
286.2128010405
 30
0.0
 10
31.3975294418
 20
285.8289656773
 30
0.0
  0
SPLINE
  5
46D
100
AcDbEntity
  8
0
100
AcDbSpline
 62
7
  6
CONTINUOUS
 70
0
 71
3
 72
9
 73
5
 74
0
 42
0.0000001
 43
0.0000001
 44
0.0000000001
 40
0.0
 40
0.0
 40
0.0
 40
0.0
 40
0.2565580741
 40
1.0
 40
1.0
 40
1.0
 40
1.0
 10
31.4627066505
 20
293.9004183792
 30
0.0
 10
31.480484923
 20
293.9468491205
 30
0.0
 10
31.552402143
 20
294.1268012011
 30
0.0
 10
31.6351311212
 20
294.3024998223
 30
0.0
 10
31.703221998
 20
294.4294641739
 30
0.0
  0
SPLINE
  5
46E
100
AcDbEntity
  8
0
100
AcDbSpline
 62
7
  6
CONTINUOUS
 70
0
 71
3
 72
9
 73
5
 74
0
 42
0.0000001
 43
0.0000001
 44
0.0000000001
 40
0.0
 40
0.0
 40
0.0
 40
0.0
 40
0.2586701407
 40
1.0
 40
1.0
 40
1.0
 40
1.0
 10
31.703221998
 20
294.4294641739
 30
0.0
 10
31.7393309074
 20
294.4967939615
 30
0.0
 10
31.8860274135
 20
294.7531621774
 30
0.0
 10
32.0631742291
 20
294.9925108571
 30
0.0
 10
32.2107398623
 20
295.1542763663
 30
0.0
  0
SPLINE
  5
46F
100
AcDbEntity
  8
0
100
AcDbSpline
 62
7
  6
CONTINUOUS
 70
0
 71
3
 72
9
 73
5
 74
0
 42
0.0000001
 43
0.0000001
 44
0.0000000001
 40
0.0
 40
0.0
 40
0.0
 40
0.0
 40
0.501404326
 40
1.0
 40
1.0
 40
1.0
 40
1.0
 10
31.2305548875
 20
293.1358153819
 30
0.0
 10
31.1770245022
 20
293.1448038219
 30
0.0
 10
31.0575786947
 20
293.1239908823
 30
0.0
 10
30.9928910564
 20
293.0208196435
 30
0.0
 10
30.9820089008
 20
292.967952285
 30
0.0
  0
SPLINE
  5
470
100
AcDbEntity
  8
0
100
AcDbSpline
 62
7
  6
CONTINUOUS
 70
0
 71
3
 72
19
 73
15
 74
0
 42
0.0000001
 43
0.0000001
 44
0.0000000001
 40
0.0
 40
0.0
 40
0.0
 40
0.0
 40
0.2367601913
 40
0.4426961435
 40
0.6164602721
 40
0.7575215125
 40
0.8659915082
 40
0.9080522416
 40
0.9420414335
 40
0.9680065527
 40
0.9860202148
 40
0.9920945848
 40
0.9962797931
 40
1.0
 40
1.0
 40
1.0
 40
1.0
 10
31.3975294418
 20
285.8289656773
 30
0.0
 10
31.20541545
 20
286.0729229231
 30
0.0
 10
30.847326575
 20
286.5299665193
 30
0.0
 10
30.3534528705
 20
287.1701233293
 30
0.0
 10
29.9426488722
 20
287.7157927044
 30
0.0
 10
29.6156331495
 20
288.1644665944
 30
0.0
 10
29.3955192938
 20
288.4772090449
 30
0.0
 10
29.2600987646
 20
288.6778397095
 30
0.0
 10
29.1869866436
 20
288.7897942588
 30
0.0
 10
29.1339919205
 20
288.8775700084
 30
0.0
 10
29.1015675087
 20
288.9340572016
 30
0.0
 10
29.0875681711
 20
288.969448784
 30
0.0
 10
29.0807392912
 20
288.9847036145
 30
0.0
 10
29.0833084621
 20
289.0001429934
 30
0.0
 10
29.0881718801
 20
289.0005351047
 30
0.0
  0
SPLINE
  5
471
100
AcDbEntity
  8
0
100
AcDbSpline
 62
7
  6
CONTINUOUS
 70
0
 71
3
 72
11
 73
7
 74
0
 42
0.0000001
 43
0.0000001
 44
0.0000000001
 40
0.0
 40
0.0
 40
0.0
 40
0.0
 40
0.1957793532
 40
0.4265560536
 40
0.6954219695
 40
1.0
 40
1.0
 40
1.0
 40
1.0
 10
33.8325626155
 20
273.0016918374
 30
0.0
 10
34.8871393108
 20
273.5803027034
 30
0.0
 10
37.3777173787
 20
274.4958773332
 30
0.0
 10
41.6346536431
 20
275.0700109003
 30
0.0
 10
46.5907207439
 20
274.9146880456
 30
0.0
 10
50.0786944464
 20
274.3614091902
 30
0.0
 10
51.9106782454
 20
273.979604315
 30
0.0
  0
SPLINE
  5
472
100
AcDbEntity
  8
0
100
AcDbSpline
 62
7
  6
CONTINUOUS
 70
0
 71
3
 72
10
 73
6
 74
0
 42
0.0000001
 43
0.0000001
 44
0.0000000001
 40
0.0
 40
0.0
 40
0.0
 40
0.0
 40
0.2452470812
 40
0.4895375887
 40
1.0
 40
1.0
 40
1.0
 40
1.0
 10
30.5592664398
 20
291.1699684773
 30
0.0
 10
30.4678852779
 20
290.7294416944
 30
0.0
 10
30.3625473805
 20
289.8315156606
 30
0.0
 10
30.4854473151
 20
287.9929469317
 30
0.0
 10
30.9634973043
 20
286.6570156789
 30
0.0
 10
31.4015860836
 20
285.8293680314
 30
0.0
  0
SPLINE
  5
473
100
AcDbEntity
  8
0
100
AcDbSpline
 62
7
  6
CONTINUOUS
 70
0
 71
3
 72
9
 73
5
 74
0
 42
0.0000001
 43
0.0000001
 44
0.0000000001
 40
0.0
 40
0.0
 40
0.0
 40
0.0
 40
0.501558601
 40
1.0
 40
1.0
 40
1.0
 40
1.0
 10
31.3975045787
 20
285.8283501892
 30
0.0
 10
31.3410789639
 20
285.8288962532
 30
0.0
 10
31.2241896672
 20
285.7884538384
 30
0.0
 10
31.1651000218
 20
285.6776442015
 30
0.0
 10
31.159910454
 20
285.6218072924
 30
0.0
  0
SPLINE
  5
474
100
AcDbEntity
  8
0
100
AcDbSpline
 62
7
  6
CONTINUOUS
 70
0
 71
3
 72
9
 73
5
 74
0
 42
0.0000001
 43
0.0000001
 44
0.0000000001
 40
0.0
 40
0.0
 40
0.0
 40
0.0
 40
0.2594237491
 40
1.0
 40
1.0
 40
1.0
 40
1.0
 10
57.7722093156
 20
305.164357345
 30
0.0
 10
57.3667903502
 20
305.0556825685
 30
0.0
 10
55.8087718202
 20
304.6194907704
 30
0.0
 10
54.2699544814
 20
304.1129346465
 30
0.0
 10
53.1487369659
 20
303.6903575006
 30
0.0
  0
SPLINE
  5
475
100
AcDbEntity
  8
0
100
AcDbSpline
 62
7
  6
CONTINUOUS
 70
0
 71
3
 72
9
 73
5
 74
0
 42
0.0000001
 43
0.0000001
 44
0.0000000001
 40
0.0
 40
0.0
 40
0.0
 40
0.0
 40
0.2624707676
 40
1.0
 40
1.0
 40
1.0
 40
1.0
 10
53.1487369659
 20
303.6903575006
 30
0.0
 10
52.7932742877
 20
303.5563867037
 30
0.0
 10
51.4461096124
 20
303.0275702069
 30
0.0
 10
50.1278014126
 20
302.4228049003
 30
0.0
 10
49.1840770197
 20
301.9240421034
 30
0.0
  0
SPLINE
  5
476
100
AcDbEntity
  8
0
100
AcDbSpline
 62
7
  6
CONTINUOUS
 70
0
 71
3
 72
13
 73
9
 74
0
 42
0.0000001
 43
0.0000001
 44
0.0000000001
 40
0.0
 40
0.0
 40
0.0
 40
0.0
 40
0.3152815802
 40
0.4532314679
 40
0.5788568173
 40
0.7991140346
 40
0.900226356
 40
1.0
 40
1.0
 40
1.0
 40
1.0
 10
49.1840770197
 20
301.9240421034
 30
0.0
 10
48.0336747371
 20
301.316049066
 30
0.0
 10
46.4299671132
 20
300.3277540408
 30
0.0
 10
44.6212513378
 20
298.7578122824
 30
0.0
 10
43.28789015
 20
297.269076079
 30
0.0
 10
42.365133538
 20
295.6150271614
 30
0.0
 10
42.0432196401
 20
293.8939252731
 30
0.0
 10
42.0762606676
 20
293.0573187854
 30
0.0
 10
42.137374769
 20
292.6501079209
 30
0.0
  0
SPLINE
  5
477
100
AcDbEntity
  8
0
100
AcDbSpline
 62
7
  6
CONTINUOUS
 70
0
 71
3
 72
9
 73
5
 74
0
 42
0.0000001
 43
0.0000001
 44
0.0000000001
 40
0.0
 40
0.0
 40
0.0
 40
0.0
 40
0.2419046362
 40
1.0
 40
1.0
 40
1.0
 40
1.0
 10
42.137374769
 20
292.6501079209
 30
0.0
 10
42.1643935859
 20
292.4700781811
 30
0.0
 10
42.3114465061
 20
291.7312363671
 30
0.0
 10
42.5990521128
 20
291.0233787627
 30
0.0
 10
42.8718770081
 20
290.5223355397
 30
0.0
  0
SPLINE
  5
478
100
AcDbEntity
  8
0
100
AcDbSpline
 62
7
  6
CONTINUOUS
 70
0
 71
3
 72
10
 73
6
 74
0
 42
0.0000001
 43
0.0000001
 44
0.0000000001
 40
0.0
 40
0.0
 40
0.0
 40
0.0
 40
0.4503157768
 40
0.7120464742
 40
1.0
 40
1.0
 40
1.0
 40
1.0
 10
42.8718770081
 20
290.5223355397
 30
0.0
 10
43.3843693877
 20
289.5811427159
 30
0.0
 10
44.5039600715
 20
288.2596253339
 30
0.0
 10
46.3470207823
 20
286.7549083387
 30
0.0
 10
47.4448169658
 20
286.0371481249
 30
0.0
 10
48.0337140288
 20
285.6867032576
 30
0.0
  0
SPLINE
  5
479
100
AcDbEntity
  8
0
100
AcDbSpline
 62
7
  6
CONTINUOUS
 70
0
 71
3
 72
15
 73
11
 74
0
 42
0.0000001
 43
0.0000001
 44
0.0000000001
 40
0.0
 40
0.0
 40
0.0
 40
0.0
 40
0.1016149444
 40
0.2165971937
 40
0.3421977565
 40
0.4749842968
 40
0.6111261855
 40
0.7466170913
 40
0.8774789902
 40
1.0
 40
1.0
 40
1.0
 40
1.0
 10
49.7377764344
 20
284.7570414164
 30
0.0
 10
51.2281324787
 20
284.0098240514
 30
0.0
 10
54.5346865123
 20
282.6736823298
 30
0.0
 10
59.9518516381
 20
281.1680320205
 30
0.0
 10
65.9874934585
 20
280.0759842356
 30
0.0
 10
72.4351141375
 20
279.4370029059
 30
0.0
 10
79.0742526113
 20
279.273810998
 30
0.0
 10
85.6763832667
 20
279.592465114
 30
0.0
 10
92.0136930967
 20
280.3812179287
 30
0.0
 10
96.0888253608
 20
281.2375229443
 30
0.0
 10
98.0322287941
 20
281.7513565246
 30
0.0
  0
SPLINE
  5
47A
100
AcDbEntity
  8
0
100
AcDbSpline
 62
7
  6
CONTINUOUS
 70
0
 71
3
 72
13
 73
9
 74
0
 42
0.0000001
 43
0.0000001
 44
0.0000000001
 40
0.0
 40
0.0
 40
0.0
 40
0.0
 40
0.1204613374
 40
0.2420690153
 40
0.4898983798
 40
0.6154258569
 40
0.7426027284
 40
1.0
 40
1.0
 40
1.0
 40
1.0
 10
102.6342115975
 20
278.1845464207
 30
0.0
 10
102.3547802574
 20
278.110655544
 30
0.0
 10
101.7920215888
 20
277.9669077138
 30
0.0
 10
100.6518222876
 20
277.6809427902
 30
0.0
 10
99.4919522906
 20
277.4250411799
 30
0.0
 10
98.3178966574
 20
277.1720314369
 30
0.0
 10
97.1160489452
 20
276.9402101784
 30
0.0
 10
96.2082192101
 20
276.7747638205
 30
0.0
 10
95.599606707
 20
276.6697788599
 30
0.0
  0
SPLINE
  5
47B
100
AcDbEntity
  8
0
100
AcDbSpline
 62
7
  6
CONTINUOUS
 70
0
 71
3
 72
14
 73
10
 74
0
 42
0.0000001
 43
0.0000001
 44
0.0000000001
 40
0.0
 40
0.0
 40
0.0
 40
0.0
 40
0.0305347726
 40
0.0613733308
 40
0.1239303941
 40
0.251750975
 40
0.5119141833
 40
0.766000821
 40
1.0
 40
1.0
 40
1.0
 40
1.0
 10
95.599606707
 20
276.6697788599
 30
0.0
 10
95.1601206858
 20
276.593968024
 30
0.0
 10
94.2748903655
 20
276.452653984
 30
0.0
 10
92.4849019154
 20
276.1835973862
 30
0.0
 10
89.2789256408
 20
275.7784090516
 30
0.0
 10
82.7200276784
 20
275.2157634376
 30
0.0
 10
73.3245022039
 20
275.1381698738
 30
0.0
 10
62.4255345772
 20
276.1456264044
 30
0.0
 10
55.4206046108
 20
277.5864309135
 30
0.0
 10
52.1331208512
 20
278.5207815918
 30
0.0
  0
SPLINE
  5
47C
100
AcDbEntity
  8
0
100
AcDbSpline
 62
7
  6
CONTINUOUS
 70
0
 71
3
 72
14
 73
10
 74
0
 42
0.0000001
 43
0.0000001
 44
0.0000000001
 40
0.0
 40
0.0
 40
0.0
 40
0.0
 40
0.3260504191
 40
0.4701281148
 40
0.600628617
 40
0.7175544199
 40
0.8216716875
 40
0.914783144
 40
1.0
 40
1.0
 40
1.0
 40
1.0
 10
52.0561889523
 20
278.5426963879
 30
0.0
 10
49.6399283113
 20
279.232552961
 30
0.0
 10
46.1994905594
 20
280.4191327509
 30
0.0
 10
42.0381004962
 20
282.4580491025
 30
0.0
 10
39.46442217
 20
284.0439842198
 30
0.0
 10
37.3363225448
 20
285.73322858
 30
0.0
 10
35.6774223752
 20
287.5125664582
 30
0.0
 10
34.5105900529
 20
289.3681448676
 30
0.0
 10
34.0667639154
 20
290.6876241608
 30
0.0
 10
33.9459304777
 20
291.3331632426
 30
0.0
  0
SPLINE
  5
47D
100
AcDbEntity
  8
0
100
AcDbSpline
 62
7
  6
CONTINUOUS
 70
0
 71
3
 72
9
 73
5
 74
0
 42
0.0000001
 43
0.0000001
 44
0.0000000001
 40
0.0
 40
0.0
 40
0.0
 40
0.0
 40
0.4898329105
 40
1.0
 40
1.0
 40
1.0
 40
1.0
 10
33.9459304777
 20
291.3331632426
 30
0.0
 10
33.8048399747
 20
292.0869234227
 30
0.0
 10
33.7736751616
 20
293.6869742462
 30
0.0
 10
34.2802598716
 20
295.1990195519
 30
0.0
 10
34.6330892209
 20
295.9155455618
 30
0.0
  0
SPLINE
  5
47E
100
AcDbEntity
  8
0
100
AcDbSpline
 62
7
  6
CONTINUOUS
 70
0
 71
3
 72
9
 73
5
 74
0
 42
0.0000001
 43
0.0000001
 44
0.0000000001
 40
0.0
 40
0.0
 40
0.0
 40
0.0
 40
0.2332684953
 40
1.0
 40
1.0
 40
1.0
 40
1.0
 10
34.8611013846
 20
296.3489722202
 30
0.0
 10
35.006560244
 20
296.6087680991
 30
0.0
 10
35.682100895
 20
297.6934339911
 30
0.0
 10
36.5435781958
 20
298.6548492801
 30
0.0
 10
37.256908357
 20
299.3248760462
 30
0.0
  0
SPLINE
  5
47F
100
AcDbEntity
  8
0
100
AcDbSpline
 62
7
  6
CONTINUOUS
 70
0
 71
3
 72
11
 73
7
 74
0
 42
0.0000001
 43
0.0000001
 44
0.0000000001
 40
0.0
 40
0.0
 40
0.0
 40
0.0
 40
0.2095960053
 40
0.4469231269
 40
0.7111142956
 40
1.0
 40
1.0
 40
1.0
 40
1.0
 10
37.9626653259
 20
299.9526828236
 30
0.0
 10
38.8228134467
 20
300.6787138471
 30
0.0
 10
40.7932676744
 20
302.0669565375
 30
0.0
 10
44.1722854909
 20
303.8610293201
 30
0.0
 10
48.1063157314
 20
305.4706333679
 30
0.0
 10
50.9415806632
 20
306.3665184976
 30
0.0
 10
52.4358425981
 20
306.7837249669
 30
0.0
  0
SPLINE
  5
480
100
AcDbEntity
  8
0
100
AcDbSpline
 62
7
  6
CONTINUOUS
 70
0
 71
3
 72
9
 73
5
 74
0
 42
0.0000001
 43
0.0000001
 44
0.0000000001
 40
0.0
 40
0.0
 40
0.0
 40
0.0
 40
0.2452264736
 40
1.0
 40
1.0
 40
1.0
 40
1.0
 10
31.1599106107
 20
285.6218081909
 30
0.0
 10
31.2116355687
 20
285.561552617
 30
0.0
 10
31.4249814939
 20
285.3179209887
 30
0.0
 10
31.6477206183
 20
285.0825496414
 30
0.0
 10
31.8202639399
 20
284.9094340443
 30
0.0
  0
SPLINE
  5
481
100
AcDbEntity
  8
0
100
AcDbSpline
 62
7
  6
CONTINUOUS
 70
0
 71
3
 72
15
 73
11
 74
0
 42
0.0000001
 43
0.0000001
 44
0.0000000001
 40
0.0
 40
0.0
 40
0.0
 40
0.0
 40
0.097681004
 40
0.2092052226
 40
0.3322274154
 40
0.4636586529
 40
0.5999524194
 40
0.7373139335
 40
0.8718972142
 40
1.0
 40
1.0
 40
1.0
 40
1.0
 10
107.4804896731
 20
301.5573469021
 30
0.0
 10
106.1309211694
 20
302.3203202386
 30
0.0
 10
103.0965359024
 20
303.7014260096
 30
0.0
 10
98.0628414892
 20
305.2990549444
 30
0.0
 10
92.375941415
 20
306.5196591497
 30
0.0
 10
86.2202409154
 20
307.3212834631
 30
0.0
 10
79.7952935131
 20
307.6769659482
 30
0.0
 10
73.311301806
 20
307.5744995461
 30
0.0
 10
66.9812099501
 20
307.0174148753
 30
0.0
 10
62.8629375442
 20
306.3327012602
 30
0.0
 10
60.8745552622
 20
305.9084455043
 30
0.0
  0
SPLINE
  5
482
100
AcDbEntity
  8
0
100
AcDbSpline
 62
7
  6
CONTINUOUS
 70
0
 71
3
 72
17
 73
13
 74
0
 42
0.0000001
 43
0.0000001
 44
0.0000000001
 40
0.0
 40
0.0
 40
0.0
 40
0.0
 40
0.1268439076
 40
0.2627953817
 40
0.4030454167
 40
0.5425030806
 40
0.6761291167
 40
0.7992693891
 40
0.8556792841
 40
0.9081026279
 40
0.9562593662
 40
1.0
 40
1.0
 40
1.0
 40
1.0
 10
53.3592401528
 20
307.0347136282
 30
0.0
 10
56.0257844294
 20
307.73983603
 30
0.0
 10
61.6360734116
 20
308.884970344
 30
0.0
 10
70.3565414246
 20
309.8520688112
 30
0.0
 10
79.4016030807
 20
310.1034941734
 30
0.0
 10
88.387139668
 20
309.6279909992
 30
0.0
 10
96.932126083
 20
308.4465009606
 30
0.0
 10
103.5733083364
 20
306.8753527852
 30
0.0
 10
108.3601096365
 20
305.2748390221
 30
0.0
 10
111.5197557466
 20
303.9741364755
 30
0.0
 10
114.3213180031
 20
302.5523388735
 30
0.0
 10
116.0134455054
 20
301.4809385786
 30
0.0
 10
116.7844955085
 20
300.9240414743
 30
0.0
  0
SPLINE
  5
483
100
AcDbEntity
  8
0
100
AcDbSpline
 62
7
  6
CONTINUOUS
 70
0
 71
3
 72
12
 73
8
 74
0
 42
0.0000001
 43
0.0000001
 44
0.0000000001
 40
0.0
 40
0.0
 40
0.0
 40
0.0
 40
0.2946944377
 40
0.5507928035
 40
0.7796850164
 40
0.8897140191
 40
1.0
 40
1.0
 40
1.0
 40
1.0
 10
117.5732791327
 20
300.327146612
 30
0.0
 10
118.3847195895
 20
299.6829537885
 30
0.0
 10
119.8170213947
 20
298.3610308116
 30
0.0
 10
121.4077798735
 20
296.0965010178
 30
0.0
 10
122.0904190784
 20
294.0784326722
 30
0.0
 10
122.1990183695
 20
292.4960415286
 30
0.0
 10
122.119630792
 20
291.7211583556
 30
0.0
 10
122.0487528926
 20
291.3399582591
 30
0.0
  0
SPLINE
  5
484
100
AcDbEntity
  8
0
100
AcDbSpline
 62
7
  6
CONTINUOUS
 70
0
 71
3
 72
11
 73
7
 74
0
 42
0.0000001
 43
0.0000001
 44
0.0000000001
 40
0.0
 40
0.0
 40
0.0
 40
0.0
 40
0.2086313169
 40
0.4397374122
 40
0.7020485838
 40
1.0
 40
1.0
 40
1.0
 40
1.0
 10
122.0487528926
 20
291.3399582591
 30
0.0
 10
121.9147342524
 20
290.6191705519
 30
0.0
 10
121.3908874248
 20
289.1395347406
 30
0.0
 10
119.9900409899
 20
287.0848060003
 30
0.0
 10
117.9892728951
 20
285.1334587616
 30
0.0
 10
116.3820725902
 20
283.9845816843
 30
0.0
 10
115.4968106892
 20
283.4255155146
 30
0.0
  0
SPLINE
  5
485
100
AcDbEntity
  8
0
100
AcDbSpline
 62
7
  6
CONTINUOUS
 70
0
 71
3
 72
15
 73
11
 74
0
 42
0.0000001
 43
0.0000001
 44
0.0000000001
 40
0.0
 40
0.0
 40
0.0
 40
0.0
 40
0.4619043349
 40
0.5252099533
 40
0.5898202792
 40
0.7220093775
 40
0.7900274231
 40
0.8588283903
 40
0.928999738
 40
1.0
 40
1.0
 40
1.0
 40
1.0
 10
115.2793616538
 20
283.2896384139
 30
0.0
 10
113.51961251
 20
282.2014255632
 30
0.0
 10
111.3840347496
 20
281.177333136
 30
0.0
 10
108.9298147027
 20
280.2003297928
 30
0.0
 10
107.8375973869
 20
279.7944479551
 30
0.0
 10
106.7204344362
 20
279.3948086858
 30
0.0
 10
105.5712875949
 20
279.0320425252
 30
0.0
 10
104.686813662
 20
278.7536918543
 30
0.0
 10
103.7816286817
 20
278.4979333735
 30
0.0
 10
103.1724203869
 20
278.3283969191
 30
0.0
 10
102.8652290803
 20
278.2460526052
 30
0.0
  0
SPLINE
  5
486
100
AcDbEntity
  8
0
100
AcDbSpline
 62
7
  6
CONTINUOUS
 70
0
 71
3
 72
9
 73
5
 74
0
 42
0.0000001
 43
0.0000001
 44
0.0000000001
 40
0.0
 40
0.0
 40
0.0
 40
0.0
 40
0.5286521644
 40
1.0
 40
1.0
 40
1.0
 40
1.0
 10
101.1092947639
 20
282.6628889237
 30
0.0
 10
102.3679434363
 20
283.079109489
 30
0.0
 10
104.7181521362
 20
283.9644448589
 30
0.0
 10
106.9653164944
 20
285.0936440964
 30
0.0
 10
107.9804944669
 20
285.6990346563
 30
0.0
  0
SPLINE
  5
487
100
AcDbEntity
  8
0
100
AcDbSpline
 62
7
  6
CONTINUOUS
 70
0
 71
3
 72
9
 73
5
 74
0
 42
0.0000001
 43
0.0000001
 44
0.0000000001
 40
0.0
 40
0.0
 40
0.0
 40
0.0
 40
0.5444230394
 40
1.0
 40
1.0
 40
1.0
 40
1.0
 10
108.7110819836
 20
286.1532783499
 30
0.0
 10
109.6656316302
 20
286.7725507859
 30
0.0
 10
111.3388858695
 20
288.0460869818
 30
0.0
 10
112.6754951959
 20
289.6987548382
 30
0.0
 10
113.1290562866
 20
290.5359316014
 30
0.0
  0
SPLINE
  5
488
100
AcDbEntity
  8
0
100
AcDbSpline
 62
7
  6
CONTINUOUS
 70
0
 71
3
 72
15
 73
11
 74
0
 42
0.0000001
 43
0.0000001
 44
0.0000000001
 40
0.0
 40
0.0
 40
0.0
 40
0.0
 40
0.1116412575
 40
0.2172775102
 40
0.3224541645
 40
0.4328048838
 40
0.553048821
 40
0.6865069716
 40
0.8352172745
 40
1.0
 40
1.0
 40
1.0
 40
1.0
 10
113.1290562866
 20
290.5359316014
 30
0.0
 10
113.3707673918
 20
290.9820786031
 30
0.0
 10
113.7565953716
 20
291.9018417196
 30
0.0
 10
113.9807962401
 20
293.3660123329
 30
0.0
 10
113.8177425835
 20
294.8332176578
 30
0.0
 10
113.2747110013
 20
296.2742183805
 30
0.0
 10
112.3694503105
 20
297.6715756579
 30
0.0
 10
111.1183887355
 20
299.0159063884
 30
0.0
 10
109.5362452787
 20
300.2982613885
 30
0.0
 10
108.3327442916
 20
301.0663560933
 30
0.0
 10
107.6842014761
 20
301.4409422697
 30
0.0
  0
LINE
  5
489
100
AcDbEntity
  8
0
100
AcDbLine
 62
7
  6
CONTINUOUS
 10
31.40154902
 20
285.829181725
 11
31.4511657952
 21
285.7366121629
  0
SPLINE
  5
48A
100
AcDbEntity
  8
0
100
AcDbSpline
 62
7
  6
CONTINUOUS
 70
0
 71
3
 72
10
 73
6
 74
0
 42
0.0000001
 43
0.0000001
 44
0.0000000001
 40
0.0
 40
0.0
 40
0.0
 40
0.0
 40
0.448516866
 40
0.7107098712
 40
1.0
 40
1.0
 40
1.0
 40
1.0
 10
31.4512715692
 20
285.736667638
 30
0.0
 10
32.1571831721
 20
284.4360122703
 30
0.0
 10
33.7220038863
 20
282.6158683848
 30
0.0
 10
36.2996975773
 20
280.5581256573
 30
0.0
 10
37.8393691072
 20
279.5789748784
 30
0.0
 10
38.6659782505
 20
279.101692902
 30
0.0
  0
SPLINE
  5
48B
100
AcDbEntity
  8
0
100
AcDbSpline
 62
7
  6
CONTINUOUS
 70
0
 71
3
 72
14
 73
10
 74
0
 42
0.0000001
 43
0.0000001
 44
0.0000000001
 40
0.0
 40
0.0
 40
0.0
 40
0.0
 40
0.0976370077
 40
0.1729073414
 40
0.3073235445
 40
0.4322996023
 40
0.5519692951
 40
0.7809352314
 40
1.0
 40
1.0
 40
1.0
 40
1.0
 10
31.8202631812
 20
284.9094231313
 30
0.0
 10
31.8259851897
 20
284.9385176597
 30
0.0
 10
31.8116017595
 20
284.9921210985
 30
0.0
 10
31.7825284373
 20
285.0797136874
 30
0.0
 10
31.7419121583
 20
285.1735010755
 30
0.0
 10
31.692665895
 20
285.2773979303
 30
0.0
 10
31.6280149392
 20
285.4059436065
 30
0.0
 10
31.5476234703
 20
285.5584469806
 30
0.0
 10
31.4829997607
 20
285.6781919116
 30
0.0
 10
31.4512715692
 20
285.736667638
 30
0.0
  0
SPLINE
  5
48C
100
AcDbEntity
  8
0
100
AcDbSpline
 62
7
  6
CONTINUOUS
 70
0
 71
3
 72
11
 73
7
 74
0
 42
0.0000001
 43
0.0000001
 44
0.0000000001
 40
0.0
 40
0.0
 40
0.0
 40
0.0
 40
0.1736054818
 40
0.3960990387
 40
0.6717924158
 40
1.0
 40
1.0
 40
1.0
 40
1.0
 10
31.2640093323
 20
281.7068416066
 30
0.0
 10
31.721354745
 20
281.7467552733
 30
0.0
 10
32.7787790072
 20
281.6536123493
 30
0.0
 10
34.4899188294
 20
281.1598657124
 30
0.0
 10
36.5031699622
 20
280.2978445973
 30
0.0
 10
37.9073406752
 20
279.5338881105
 30
0.0
 10
38.6588543601
 20
279.0997182914
 30
0.0
  0
SPLINE
  5
48D
100
AcDbEntity
  8
0
100
AcDbSpline
 62
7
  6
CONTINUOUS
 70
0
 71
3
 72
9
 73
5
 74
0
 42
0.0000001
 43
0.0000001
 44
0.0000000001
 40
0.0
 40
0.0
 40
0.0
 40
0.0
 40
0.2307264236
 40
1.0
 40
1.0
 40
1.0
 40
1.0
 10
33.8315267549
 20
273.0114654123
 30
0.0
 10
34.2185630392
 20
273.2438737985
 30
0.0
 10
35.9484748563
 20
274.1639961015
 30
0.0
 10
37.8505655093
 20
274.734280647
 30
0.0
 10
39.3278882704
 20
275.0226793195
 30
0.0
  0
SPLINE
  5
48E
100
AcDbEntity
  8
0
100
AcDbSpline
 62
7
  6
CONTINUOUS
 70
0
 71
3
 72
9
 73
5
 74
0
 42
0.0000001
 43
0.0000001
 44
0.0000000001
 40
0.0
 40
0.0
 40
0.0
 40
0.0
 40
0.4846126727
 40
1.0
 40
1.0
 40
1.0
 40
1.0
 10
38.6588496508
 20
279.0994036148
 30
0.0
 10
38.6068920072
 20
279.0924615711
 30
0.0
 10
38.5042372189
 20
279.0301421552
 30
0.0
 10
38.467618167
 20
278.9179708386
 30
0.0
 10
38.4684291049
 20
278.8622285646
 30
0.0
  0
SPLINE
  5
48F
100
AcDbEntity
  8
0
100
AcDbSpline
 62
7
  6
CONTINUOUS
 70
0
 71
3
 72
9
 73
5
 74
0
 42
0.0000001
 43
0.0000001
 44
0.0000000001
 40
0.0
 40
0.0
 40
0.0
 40
0.0
 40
0.5083075775
 40
1.0
 40
1.0
 40
1.0
 40
1.0
 10
104.7976388979
 20
274.1674133371
 30
0.0
 10
104.7549175424
 20
274.1559602953
 30
0.0
 10
104.6691927279
 20
274.1400988518
 30
0.0
 10
104.5859504318
 20
274.1144499979
 30
0.0
 10
104.5446827453
 20
274.1031600223
 30
0.0
  0
LINE
  5
490
100
AcDbEntity
  8
0
100
AcDbLine
 62
7
  6
CONTINUOUS
 10
38.6659416801
 20
279.1014688609
 11
38.7994469465
 21
279.0247789153
  0
SPLINE
  5
491
100
AcDbEntity
  8
0
100
AcDbSpline
 62
7
  6
CONTINUOUS
 70
0
 71
3
 72
16
 73
12
 74
0
 42
0.0000001
 43
0.0000001
 44
0.0000000001
 40
0.0
 40
0.0
 40
0.0
 40
0.0
 40
0.2364444186
 40
0.4776967802
 40
0.6006569551
 40
0.7258567104
 40
0.7897036056
 40
0.8549084146
 40
0.922696223
 40
0.9589660455
 40
1.0
 40
1.0
 40
1.0
 40
1.0
 10
38.7985515022
 20
279.0255215036
 30
0.0
 10
38.8838054219
 20
278.9767739288
 30
0.0
 10
39.0553451943
 20
278.8770550526
 30
0.0
 10
39.2684426917
 20
278.7472550019
 30
0.0
 10
39.4389962263
 20
278.6366054623
 30
0.0
 10
39.5456395185
 20
278.5629704557
 30
0.0
 10
39.6302311288
 20
278.4996043981
 30
0.0
 10
39.6935019135
 20
278.4481456695
 30
0.0
 10
39.745577196
 20
278.3996418442
 30
0.0
 10
39.7830418407
 20
278.3542352909
 30
0.0
 10
39.8001323355
 20
278.3223842365
 30
0.0
 10
39.7974204329
 20
278.3055580067
 30
0.0
  0
SPLINE
  5
492
100
AcDbEntity
  8
0
100
AcDbSpline
 62
7
  6
CONTINUOUS
 70
0
 71
3
 72
9
 73
5
 74
0
 42
0.0000001
 43
0.0000001
 44
0.0000000001
 40
0.0
 40
0.0
 40
0.0
 40
0.0
 40
0.4651656548
 40
1.0
 40
1.0
 40
1.0
 40
1.0
 10
38.7985515022
 20
279.0255215036
 30
0.0
 10
40.6945709047
 20
277.9423285226
 30
0.0
 10
44.9900997554
 20
275.9968061859
 30
0.0
 10
49.4842134024
 20
274.6091667238
 30
0.0
 10
51.9154080755
 20
273.9824850462
 30
0.0
  0
SPLINE
  5
493
100
AcDbEntity
  8
0
100
AcDbSpline
 62
7
  6
CONTINUOUS
 70
0
 71
3
 72
10
 73
6
 74
0
 42
0.0000001
 43
0.0000001
 44
0.0000000001
 40
0.0
 40
0.0
 40
0.0
 40
0.0
 40
0.215387882
 40
0.4543153917
 40
1.0
 40
1.0
 40
1.0
 40
1.0
 10
39.3278882704
 20
275.0226793195
 30
0.0
 10
40.2286704815
 20
275.1634791672
 30
0.0
 10
42.1515833575
 20
275.3223122217
 30
0.0
 10
46.3885232933
 20
275.1795324984
 30
0.0
 10
49.6740404338
 20
274.5565025625
 30
0.0
 10
51.9106782454
 20
273.979604315
 30
0.0
  0
SPLINE
  5
494
100
AcDbEntity
  8
0
100
AcDbSpline
 62
7
  6
CONTINUOUS
 70
0
 71
3
 72
15
 73
11
 74
0
 42
0.0000001
 43
0.0000001
 44
0.0000000001
 40
0.0
 40
0.0
 40
0.0
 40
0.0
 40
0.0942272519
 40
0.1763816598
 40
0.2586873341
 40
0.354191798
 40
0.4724931123
 40
0.6187584218
 40
0.7947931363
 40
1.0
 40
1.0
 40
1.0
 40
1.0
 10
27.0228660283
 20
277.5512617444
 30
0.0
 10
27.0328681787
 20
277.9835675381
 30
0.0
 10
27.1315653541
 20
278.7992691855
 30
0.0
 10
27.6871222959
 20
279.8857591714
 30
0.0
 10
28.6676322432
 20
280.6293582304
 30
0.0
 10
30.0049638033
 20
280.9817738706
 30
0.0
 10
31.668958477
 20
280.9733995451
 30
0.0
 10
33.665157532
 20
280.6100568072
 30
0.0
 10
35.9815540905
 20
279.8954784944
 30
0.0
 10
37.6091850014
 20
279.247625474
 30
0.0
 10
38.4684343592
 20
278.8622289415
 30
0.0
  0
SPLINE
  5
495
100
AcDbEntity
  8
0
100
AcDbSpline
 62
7
  6
CONTINUOUS
 70
0
 71
3
 72
9
 73
5
 74
0
 42
0.0000001
 43
0.0000001
 44
0.0000000001
 40
0.0
 40
0.0
 40
0.0
 40
0.0
 40
0.480982317
 40
1.0
 40
1.0
 40
1.0
 40
1.0
 10
30.1871274276
 20
269.249657806
 30
0.0
 10
30.6246183504
 20
269.8674255124
 30
0.0
 10
31.6719160709
 20
271.0631969522
 30
0.0
 10
32.9817896853
 20
271.9650212828
 30
0.0
 10
33.6964210456
 20
272.360685585
 30
0.0
  0
SPLINE
  5
496
100
AcDbEntity
  8
0
100
AcDbSpline
 62
7
  6
CONTINUOUS
 70
0
 71
3
 72
13
 73
9
 74
0
 42
0.0000001
 43
0.0000001
 44
0.0000000001
 40
0.0
 40
0.0
 40
0.0
 40
0.0
 40
0.1989835984
 40
0.3109286146
 40
0.4317214139
 40
0.699631048
 40
0.846169567
 40
1.0
 40
1.0
 40
1.0
 40
1.0
 10
34.0475962576
 20
272.5481134453
 30
0.0
 10
35.1134506964
 20
273.0964427041
 30
0.0
 10
36.8970960231
 20
273.7323586421
 30
0.0
 10
39.4488670131
 20
274.2407099831
 30
0.0
 10
42.4509876983
 20
274.5673043836
 30
0.0
 10
45.687272829
 20
274.5184331498
 30
0.0
 10
49.0936207712
 20
274.175044691
 30
0.0
 10
50.8823103558
 20
273.8923260705
 30
0.0
 10
51.7924022027
 20
273.7180017509
 30
0.0
  0
SPLINE
  5
497
100
AcDbEntity
  8
0
100
AcDbSpline
 62
7
  6
CONTINUOUS
 70
0
 71
3
 72
9
 73
5
 74
0
 42
0.0000001
 43
0.0000001
 44
0.0000000001
 40
0.0
 40
0.0
 40
0.0
 40
0.0
 40
0.554128784
 40
1.0
 40
1.0
 40
1.0
 40
1.0
 10
51.7923990405
 20
273.7180007561
 30
0.0
 10
51.7851450416
 20
273.7727830531
 30
0.0
 10
51.803457104
 20
273.8742210558
 30
0.0
 10
51.8691017598
 20
273.9635128639
 30
0.0
 10
51.9106754332
 20
273.9792837575
 30
0.0
  0
SPLINE
  5
498
100
AcDbEntity
  8
0
100
AcDbSpline
 62
7
  6
CONTINUOUS
 70
0
 71
3
 72
8
 73
4
 74
0
 42
0.0000001
 43
0.0000001
 44
0.0000000001
 40
0.0
 40
0.0
 40
0.0
 40
0.0
 40
1.0
 40
1.0
 40
1.0
 40
1.0
 10
51.9153845116
 20
273.9822627208
 30
0.0
 10
51.9810856078
 20
273.965715011
 30
0.0
 10
52.0466172424
 20
273.9485012092
 30
0.0
 10
52.1122684294
 20
273.9317565861
 30
0.0
  0
SPLINE
  5
499
100
AcDbEntity
  8
0
100
AcDbSpline
 62
7
  6
CONTINUOUS
 70
0
 71
3
 72
9
 73
5
 74
0
 42
0.0000001
 43
0.0000001
 44
0.0000000001
 40
0.0
 40
0.0
 40
0.0
 40
0.0
 40
0.4839641655
 40
1.0
 40
1.0
 40
1.0
 40
1.0
 10
52.1132975228
 20
273.9316936678
 30
0.0
 10
54.8089611818
 20
273.2443117222
 30
0.0
 10
60.4549161589
 20
272.1150406399
 30
0.0
 10
66.1733630326
 20
271.4686647574
 30
0.0
 10
69.131421677
 20
271.2480030215
 30
0.0
  0
SPLINE
  5
49A
100
AcDbEntity
  8
0
100
AcDbSpline
 62
7
  6
CONTINUOUS
 70
0
 71
3
 72
17
 73
13
 74
0
 42
0.0000001
 43
0.0000001
 44
0.0000000001
 40
0.0
 40
0.0
 40
0.0
 40
0.0
 40
0.0334410658
 40
0.0663762207
 40
0.1307863594
 40
0.1943816933
 40
0.2575244936
 40
0.382931306
 40
0.5075061811
 40
0.6314289575
 40
0.7547887862
 40
1.0
 40
1.0
 40
1.0
 40
1.0
 10
53.5900604849
 20
273.4055435452
 30
0.0
 10
53.5919148809
 20
273.423109332
 30
0.0
 10
53.5617966628
 20
273.453355051
 30
0.0
 10
53.5067708948
 20
273.4895500656
 30
0.0
 10
53.4290197865
 20
273.528132396
 30
0.0
 10
53.3363399103
 20
273.566914577
 30
0.0
 10
53.2115791881
 20
273.614051786
 30
0.0
 10
53.0549620817
 20
273.6670701667
 30
0.0
 10
52.8663195278
 20
273.7256537049
 30
0.0
 10
52.6777590184
 20
273.7806406539
 30
0.0
 10
52.4271210965
 20
273.8503039801
 30
0.0
 10
52.2387994508
 20
273.8996856234
 30
0.0
 10
52.1132975228
 20
273.9316936678
 30
0.0
  0
SPLINE
  5
49B
100
AcDbEntity
  8
0
100
AcDbSpline
 62
7
  6
CONTINUOUS
 70
0
 71
3
 72
9
 73
5
 74
0
 42
0.0000001
 43
0.0000001
 44
0.0000000001
 40
0.0
 40
0.0
 40
0.0
 40
0.0
 40
0.4797772391
 40
1.0
 40
1.0
 40
1.0
 40
1.0
 10
53.2787340981
 20
270.061548799
 30
0.0
 10
55.7535006366
 20
270.6770319755
 30
0.0
 10
61.0366451989
 20
271.4810070889
 30
0.0
 10
66.3731813855
 20
271.4521436546
 30
0.0
 10
69.1306521977
 20
271.2464191
 30
0.0
  0
SPLINE
  5
49C
100
AcDbEntity
  8
0
100
AcDbSpline
 62
7
  6
CONTINUOUS
 70
0
 71
3
 72
12
 73
8
 74
0
 42
0.0000001
 43
0.0000001
 44
0.0000000001
 40
0.0
 40
0.0
 40
0.0
 40
0.0
 40
0.147399518
 40
0.2908913728
 40
0.5589099667
 40
0.7953647103
 40
1.0
 40
1.0
 40
1.0
 40
1.0
 10
69.1306521977
 20
271.2464191
 30
0.0
 10
67.6098648965
 20
271.3017712088
 30
0.0
 10
64.6032150188
 20
271.3047662953
 30
0.0
 10
58.8446176796
 20
270.8853951365
 30
0.0
 10
52.2403935067
 20
269.6082885643
 30
0.0
 10
45.3901800834
 20
266.9013209558
 30
0.0
 10
41.5811418304
 20
264.307406481
 30
0.0
 10
40.020475663
 20
262.8833715213
 30
0.0
  0
SPLINE
  5
49D
100
AcDbEntity
  8
0
100
AcDbSpline
 62
7
  6
CONTINUOUS
 70
0
 71
3
 72
9
 73
5
 74
0
 42
0.0000001
 43
0.0000001
 44
0.0000000001
 40
0.0
 40
0.0
 40
0.0
 40
0.0
 40
0.4647652935
 40
1.0
 40
1.0
 40
1.0
 40
1.0
 10
40.0041750324
 20
262.9101575518
 30
0.0
 10
41.7177529778
 20
264.5212711846
 30
0.0
 10
45.9287298569
 20
267.4431160377
 30
0.0
 10
50.6779683112
 20
269.3047072819
 30
0.0
 10
53.2787340981
 20
270.061548799
 30
0.0
  0
SPLINE
  5
49E
100
AcDbEntity
  8
0
100
AcDbSpline
 62
7
  6
CONTINUOUS
 70
0
 71
3
 72
10
 73
6
 74
0
 42
0.0000001
 43
0.0000001
 44
0.0000000001
 40
0.0
 40
0.0
 40
0.0
 40
0.0
 40
0.161188779
 40
0.4015708271
 40
1.0
 40
1.0
 40
1.0
 40
1.0
 10
69.1306498663
 20
271.2457974062
 30
0.0
 10
69.121524249
 20
271.2338767104
 30
0.0
 10
69.110129865
 20
271.1969658324
 30
0.0
 10
69.0929107591
 20
271.106209067
 30
0.0
 10
69.0968602072
 20
271.0255271106
 30
0.0
 10
69.110135774
 20
270.9713952613
 30
0.0
  0
SPLINE
  5
49F
100
AcDbEntity
  8
0
100
AcDbSpline
 62
7
  6
CONTINUOUS
 70
0
 71
3
 72
15
 73
11
 74
0
 42
0.0000001
 43
0.0000001
 44
0.0000000001
 40
0.0
 40
0.0
 40
0.0
 40
0.0
 40
0.0993183122
 40
0.2060348194
 40
0.3207136731
 40
0.4434943224
 40
0.573991529
 40
0.7112632656
 40
0.8538909027
 40
1.0
 40
1.0
 40
1.0
 40
1.0
 10
40.377556581
 20
262.3760147871
 30
0.0
 10
41.1444035196
 20
263.0400147814
 30
0.0
 10
42.7977756746
 20
264.3492730559
 30
0.0
 10
45.6005930162
 20
266.05933303
 30
0.0
 10
48.7871049638
 20
267.5570715695
 30
0.0
 10
52.3288805713
 20
268.8295075895
 30
0.0
 10
56.1944121861
 20
269.8337820408
 30
0.0
 10
60.3299451434
 20
270.5458353103
 30
0.0
 10
64.6665106118
 20
270.9400400243
 30
0.0
 10
67.6182668044
 20
271.0056235212
 30
0.0
 10
69.1101363326
 20
270.9713965696
 30
0.0
  0
SPLINE
  5
4A0
100
AcDbEntity
  8
0
100
AcDbSpline
 62
7
  6
CONTINUOUS
 70
0
 71
3
 72
9
 73
5
 74
0
 42
0.0000001
 43
0.0000001
 44
0.0000000001
 40
0.0
 40
0.0
 40
0.0
 40
0.0
 40
0.5028715139
 40
1.0
 40
1.0
 40
1.0
 40
1.0
 10
23.3251296349
 20
196.3599239934
 30
0.0
 10
22.9773001371
 20
196.2666863895
 30
0.0
 10
22.2657784177
 20
196.1478518766
 30
0.0
 10
21.5445427809
 20
196.1743439533
 30
0.0
 10
21.1919882117
 20
196.2237283533
 30
0.0
  0
SPLINE
  5
4A1
100
AcDbEntity
  8
0
100
AcDbSpline
 62
7
  6
CONTINUOUS
 70
0
 71
3
 72
13
 73
9
 74
0
 42
0.0000001
 43
0.0000001
 44
0.0000000001
 40
0.0
 40
0.0
 40
0.0
 40
0.0
 40
0.1204642249
 40
0.2432437219
 40
0.3679435488
 40
0.4940614908
 40
0.7478359993
 40
1.0
 40
1.0
 40
1.0
 40
1.0
 10
51.1204873184
 20
259.1251498776
 30
0.0
 10
50.22987309
 20
258.1525499272
 30
0.0
 10
48.5513382758
 20
256.0755508253
 30
0.0
 10
46.3992534883
 20
252.6607690953
 30
0.0
 10
44.6197153757
 20
248.9683850618
 30
0.0
 10
42.7802541129
 20
243.7497072222
 30
0.0
 10
41.5528265099
 20
236.8839889688
 30
0.0
 10
41.7611566165
 20
231.2986115022
 30
0.0
 10
42.1703615819
 20
228.5685768566
 30
0.0
  0
SPLINE
  5
4A2
100
AcDbEntity
  8
0
100
AcDbSpline
 62
7
  6
CONTINUOUS
 70
0
 71
3
 72
13
 73
9
 74
0
 42
0.0000001
 43
0.0000001
 44
0.0000000001
 40
0.0
 40
0.0
 40
0.0
 40
0.0
 40
0.2578099594
 40
0.5153687192
 40
0.641591305
 40
0.7646995267
 40
0.8841927251
 40
1.0
 40
1.0
 40
1.0
 40
1.0
 10
98.1620990455
 20
243.5774690685
 30
0.0
 10
98.7660071642
 20
239.5484610495
 30
0.0
 10
98.7476686297
 20
231.2691438481
 30
0.0
 10
95.7888736915
 20
221.4113664117
 30
0.0
 10
91.8065751427
 20
214.429064894
 30
0.0
 10
88.1410357921
 20
209.8633170049
 30
0.0
 10
83.890090638
 20
206.0808807353
 30
0.0
 10
80.6960998939
 20
204.1285657525
 30
0.0
 10
79.0501876464
 20
203.3285695567
 30
0.0
  0
SPLINE
  5
4A3
100
AcDbEntity
  8
0
100
AcDbSpline
 62
7
  6
CONTINUOUS
 70
0
 71
3
 72
13
 73
9
 74
0
 42
0.0000001
 43
0.0000001
 44
0.0000000001
 40
0.0
 40
0.0
 40
0.0
 40
0.0
 40
0.2663356287
 40
0.5275945158
 40
0.6524955498
 40
0.7721822378
 40
0.8873911502
 40
1.0
 40
1.0
 40
1.0
 40
1.0
 10
79.1615741172
 20
202.5854482603
 30
0.0
 10
79.3016768153
 20
201.6507449887
 30
0.0
 10
79.1958090128
 20
199.7247483571
 30
0.0
 10
78.1593237566
 20
197.5754995786
 30
0.0
 10
76.8854633876
 20
196.2901707177
 30
0.0
 10
75.7847055158
 20
195.6161606478
 30
0.0
 10
74.5879298482
 20
195.2629715777
 30
0.0
 10
73.7664581849
 20
195.2588781369
 30
0.0
 10
73.3707047362
 20
195.3142972269
 30
0.0
  0
SPLINE
  5
4A4
100
AcDbEntity
  8
0
100
AcDbSpline
 62
7
  6
CONTINUOUS
 70
0
 71
3
 72
11
 73
7
 74
0
 42
0.0000001
 43
0.0000001
 44
0.0000000001
 40
0.0
 40
0.0
 40
0.0
 40
0.0
 40
0.2685863187
 40
0.5241478096
 40
0.7663609521
 40
1.0
 40
1.0
 40
1.0
 40
1.0
 10
71.3103341776
 20
200.4808803487
 30
0.0
 10
71.3614888828
 20
200.1395987682
 30
0.0
 10
71.5489227096
 20
199.4824385969
 30
0.0
 10
72.0842163793
 20
198.6384424267
 30
0.0
 10
72.8255063026
 20
198.0325657635
 30
0.0
 10
73.4201700401
 20
197.8318096838
 30
0.0
 10
73.7174538283
 20
197.7901256671
 30
0.0
  0
SPLINE
  5
4A5
100
AcDbEntity
  8
0
100
AcDbSpline
 62
7
  6
CONTINUOUS
 70
0
 71
3
 72
15
 73
11
 74
0
 42
0.0000001
 43
0.0000001
 44
0.0000000001
 40
0.0
 40
0.0
 40
0.0
 40
0.0
 40
0.1355587454
 40
0.2683336004
 40
0.3978336048
 40
0.5238389343
 40
0.646459022
 40
0.7661405785
 40
0.8836507876
 40
1.0
 40
1.0
 40
1.0
 40
1.0
 10
42.1703615819
 20
228.5685768566
 30
0.0
 10
42.4108793846
 20
226.9639483943
 30
0.0
 10
43.0971518803
 20
223.8145609147
 30
0.0
 10
44.7448299672
 20
219.3308614016
 30
0.0
 10
46.9656216041
 20
215.228831557
 30
0.0
 10
49.7096263331
 20
211.6064272265
 30
0.0
 10
52.9144642331
 20
208.5502442048
 30
0.0
 10
56.5068403436
 20
206.1351312272
 30
0.0
 10
60.400271246
 20
204.4221788162
 30
0.0
 10
63.1429534328
 20
203.775708816
 30
0.0
 10
64.5221205593
 20
203.5825504432
 30
0.0
  0
SPLINE
  5
4A6
100
AcDbEntity
  8
0
100
AcDbSpline
 62
7
  6
CONTINUOUS
 70
0
 71
3
 72
9
 73
5
 74
0
 42
0.0000001
 43
0.0000001
 44
0.0000000001
 40
0.0
 40
0.0
 40
0.0
 40
0.0
 40
0.2487409505
 40
1.0
 40
1.0
 40
1.0
 40
1.0
 10
23.7414814886
 20
208.4886442717
 30
0.0
 10
23.6240248068
 20
208.5050971226
 30
0.0
 10
23.1486765422
 20
208.5473897712
 30
0.0
 10
22.6653838066
 20
208.490593464
 30
0.0
 10
22.3193872064
 20
208.3978471783
 30
0.0
  0
SPLINE
  5
4A7
100
AcDbEntity
  8
0
100
AcDbSpline
 62
7
  6
CONTINUOUS
 70
0
 71
3
 72
9
 73
5
 74
0
 42
0.0000001
 43
0.0000001
 44
0.0000000001
 40
0.0
 40
0.0
 40
0.0
 40
0.0
 40
0.4949263389
 40
1.0
 40
1.0
 40
1.0
 40
1.0
 10
100.9405443957
 20
258.0726803592
 30
0.0
 10
101.8069781012
 20
256.1316071686
 30
0.0
 10
103.278663339
 20
252.0801222366
 30
0.0
 10
104.1908962634
 20
247.8688879039
 30
0.0
 10
104.5124533301
 20
245.7236012947
 30
0.0
  0
SPLINE
  5
4A8
100
AcDbEntity
  8
0
100
AcDbSpline
 62
7
  6
CONTINUOUS
 70
0
 71
3
 72
15
 73
11
 74
0
 42
0.0000001
 43
0.0000001
 44
0.0000000001
 40
0.0
 40
0.0
 40
0.0
 40
0.0
 40
0.1300482411
 40
0.2611913022
 40
0.3919362061
 40
0.5208213963
 40
0.6466182885
 40
0.7684962554
 40
0.8861669866
 40
1.0
 40
1.0
 40
1.0
 40
1.0
 10
104.5124533301
 20
245.7236012947
 30
0.0
 10
104.9373458919
 20
242.8889059402
 30
0.0
 10
105.3048089529
 20
237.1120220774
 30
0.0
 10
104.4304490869
 20
228.4810724237
 30
0.0
 10
102.1703104241
 20
220.1291141207
 30
0.0
 10
98.6065858247
 20
212.3729589883
 30
0.0
 10
93.8701424458
 20
205.5043814795
 30
0.0
 10
88.1314833518
 20
199.7856345783
 30
0.0
 10
81.6053481172
 20
195.4412749751
 30
0.0
 10
76.813687033
 20
193.5516670329
 30
0.0
 10
74.3902762729
 20
192.9020584919
 30
0.0
  0
SPLINE
  5
4A9
100
AcDbEntity
  8
0
100
AcDbSpline
 62
7
  6
CONTINUOUS
 70
0
 71
3
 72
9
 73
5
 74
0
 42
0.0000001
 43
0.0000001
 44
0.0000000001
 40
0.0
 40
0.0
 40
0.0
 40
0.0
 40
0.4923210561
 40
1.0
 40
1.0
 40
1.0
 40
1.0
 10
93.5269920806
 20
256.8870414612
 30
0.0
 10
94.7079116456
 20
254.8859989207
 30
0.0
 10
96.6869636934
 20
250.5626276742
 30
0.0
 10
97.80692999
 20
245.9470000093
 30
0.0
 10
98.1620990455
 20
243.5774690685
 30
0.0
  0
SPLINE
  5
4AA
100
AcDbEntity
  8
0
100
AcDbSpline
 62
7
  6
CONTINUOUS
 70
0
 71
3
 72
9
 73
5
 74
0
 42
0.0000001
 43
0.0000001
 44
0.0000000001
 40
0.0
 40
0.0
 40
0.0
 40
0.0
 40
0.2601947702
 40
1.0
 40
1.0
 40
1.0
 40
1.0
 10
25.0490426854
 20
274.1722333516
 30
0.0
 10
25.1543900251
 20
274.4972512958
 30
0.0
 10
25.5823177231
 20
275.7386392639
 30
0.0
 10
26.1053604426
 20
276.9484457895
 30
0.0
 10
26.5541408776
 20
277.810016644
 30
0.0
  0
SPLINE
  5
4AB
100
AcDbEntity
  8
0
100
AcDbSpline
 62
7
  6
CONTINUOUS
 70
0
 71
3
 72
10
 73
6
 74
0
 42
0.0000001
 43
0.0000001
 44
0.0000000001
 40
0.0
 40
0.0
 40
0.0
 40
0.0
 40
0.5155583665
 40
0.762046862
 40
1.0
 40
1.0
 40
1.0
 40
1.0
 10
13.5866481064
 20
202.332470748
 30
0.0
 10
13.7271150659
 20
201.3953372856
 30
0.0
 10
14.1735659265
 20
200.0243663873
 30
0.0
 10
15.2252432473
 20
198.5061352937
 30
0.0
 10
15.8773921838
 20
197.8875116077
 30
0.0
 10
16.2264995076
 20
197.6240568551
 30
0.0
  0
SPLINE
  5
4AC
100
AcDbEntity
  8
0
100
AcDbSpline
 62
7
  6
CONTINUOUS
 70
0
 71
3
 72
9
 73
5
 74
0
 42
0.0000001
 43
0.0000001
 44
0.0000000001
 40
0.0
 40
0.0
 40
0.0
 40
0.0
 40
0.5048145498
 40
1.0
 40
1.0
 40
1.0
 40
1.0
 10
16.2264995076
 20
197.6240568551
 30
0.0
 10
16.5963526318
 20
197.3449462302
 30
0.0
 10
17.3986908722
 20
196.8775280343
 30
0.0
 10
18.2946293587
 20
196.6295239263
 30
0.0
 10
18.7447475861
 20
196.5664732087
 30
0.0
  0
SPLINE
  5
4AD
100
AcDbEntity
  8
0
100
AcDbSpline
 62
7
  6
CONTINUOUS
 70
0
 71
3
 72
13
 73
9
 74
0
 42
0.0000001
 43
0.0000001
 44
0.0000000001
 40
0.0
 40
0.0
 40
0.0
 40
0.0
 40
0.1140427663
 40
0.2319628577
 40
0.4790602363
 40
0.6081956592
 40
0.7391834222
 40
1.0
 40
1.0
 40
1.0
 40
1.0
 10
9.9489531874
 20
269.6156976691
 30
0.0
 10
9.5382478768
 20
269.5056058589
 30
0.0
 10
8.7259591718
 20
269.1850185861
 30
0.0
 10
7.2301822885
 20
268.1904034933
 30
0.0
 10
6.031669378
 20
266.7257394062
 30
0.0
 10
5.2410084735
 20
265.0008562267
 30
0.0
 10
4.7304176019
 20
263.1200388797
 30
0.0
 10
4.6993497918
 20
261.6245965967
 30
0.0
 10
4.8434994489
 20
260.6628938042
 30
0.0
  0
SPLINE
  5
4AE
100
AcDbEntity
  8
0
100
AcDbSpline
 62
7
  6
CONTINUOUS
 70
0
 71
3
 72
11
 73
7
 74
0
 42
0.0000001
 43
0.0000001
 44
0.0000000001
 40
0.0
 40
0.0
 40
0.0
 40
0.0
 40
0.2586594657
 40
0.512182324
 40
0.7594671462
 40
1.0
 40
1.0
 40
1.0
 40
1.0
 10
28.6536416745
 20
226.4934564817
 30
0.0
 10
29.0372842856
 20
224.1818629798
 30
0.0
 10
30.1164048785
 20
219.6503938419
 30
0.0
 10
32.6661566408
 20
213.2340838071
 30
0.0
 10
36.0694638513
 20
207.4146336643
 30
0.0
 10
38.893519698
 20
203.9848506105
 30
0.0
 10
40.4174018379
 20
202.4273411448
 30
0.0
  0
SPLINE
  5
4AF
100
AcDbEntity
  8
0
100
AcDbSpline
 62
7
  6
CONTINUOUS
 70
0
 71
3
 72
12
 73
8
 74
0
 42
0.0000001
 43
0.0000001
 44
0.0000000001
 40
0.0
 40
0.0
 40
0.0
 40
0.0
 40
0.2444800448
 40
0.3692867158
 40
0.495187773
 40
0.7481785673
 40
1.0
 40
1.0
 40
1.0
 40
1.0
 10
37.095717534
 20
264.2800870693
 30
0.0
 10
35.2181361902
 20
261.6499702952
 30
0.0
 10
32.8005362418
 20
257.3580630658
 30
0.0
 10
30.461979728
 20
251.2374283619
 30
0.0
 10
28.6980227857
 20
244.8071806071
 30
0.0
 10
27.6612460702
 20
236.4825661297
 30
0.0
 10
28.1086706609
 20
229.7771153276
 30
0.0
 10
28.6536416745
 20
226.4934564817
 30
0.0
  0
SPLINE
  5
4B0
100
AcDbEntity
  8
0
100
AcDbSpline
 62
7
  6
CONTINUOUS
 70
0
 71
3
 72
11
 73
7
 74
0
 42
0.0000001
 43
0.0000001
 44
0.0000000001
 40
0.0
 40
0.0
 40
0.0
 40
0.0
 40
0.2599050177
 40
0.5117602287
 40
0.7575496906
 40
1.0
 40
1.0
 40
1.0
 40
1.0
 10
42.5445383064
 20
201.1642870719
 30
0.0
 10
42.7324671798
 20
200.8980689873
 30
0.0
 10
43.1509073515
 20
200.405755827
 30
0.0
 10
43.8997636176
 20
199.81139518
 30
0.0
 10
44.7353647709
 20
199.3927524213
 30
0.0
 10
45.3342614983
 20
199.2408641536
 30
0.0
 10
45.635305303
 20
199.1986982785
 30
0.0
  0
SPLINE
  5
4B1
100
AcDbEntity
  8
0
100
AcDbSpline
 62
7
  6
CONTINUOUS
 70
0
 71
3
 72
11
 73
7
 74
0
 42
0.0000001
 43
0.0000001
 44
0.0000000001
 40
0.0
 40
0.0
 40
0.0
 40
0.0
 40
0.2344249651
 40
0.4784322237
 40
0.7339769556
 40
1.0
 40
1.0
 40
1.0
 40
1.0
 10
23.7014068849
 20
208.4017386846
 30
0.0
 10
24.0451450383
 20
208.2694423132
 30
0.0
 10
24.7079606081
 20
207.8875000862
 30
0.0
 10
25.5108662266
 20
207.0403876553
 30
0.0
 10
26.0908842677
 20
205.9727107075
 30
0.0
 10
26.3025111416
 20
205.1722402996
 30
0.0
 10
26.3644675999
 20
204.7588941973
 30
0.0
  0
SPLINE
  5
4B2
100
AcDbEntity
  8
0
100
AcDbSpline
 62
7
  6
CONTINUOUS
 70
0
 71
3
 72
14
 73
10
 74
0
 42
0.0000001
 43
0.0000001
 44
0.0000000001
 40
0.0
 40
0.0
 40
0.0
 40
0.0
 40
0.1124445437
 40
0.2274830372
 40
0.3469930647
 40
0.4717110303
 40
0.601197547
 40
0.7340251568
 40
1.0
 40
1.0
 40
1.0
 40
1.0
 10
73.7174538283
 20
197.7901256671
 30
0.0
 10
73.9482945323
 20
197.7577580501
 30
0.0
 10
74.4274646188
 20
197.7602070844
 30
0.0
 10
75.1255665697
 20
197.966209244
 30
0.0
 10
75.767556243
 20
198.3592781365
 30
0.0
 10
76.3176938068
 20
198.9142771582
 30
0.0
 10
76.7471427352
 20
199.5997016054
 30
0.0
 10
77.1287162831
 20
200.6315995088
 30
0.0
 10
77.177190031
 20
201.4863369091
 30
0.0
 10
77.0954583436
 20
202.0316145994
 30
0.0
  0
SPLINE
  5
4B3
100
AcDbEntity
  8
0
100
AcDbSpline
 62
7
  6
CONTINUOUS
 70
0
 71
3
 72
11
 73
7
 74
0
 42
0.0000001
 43
0.0000001
 44
0.0000000001
 40
0.0
 40
0.0
 40
0.0
 40
0.0
 40
0.2336410721
 40
0.4758480074
 40
0.7314186558
 40
1.0
 40
1.0
 40
1.0
 40
1.0
 10
73.3707047362
 20
195.3142972269
 30
0.0
 10
72.8610551926
 20
195.3856656863
 30
0.0
 10
71.8416427937
 20
195.7299107351
 30
0.0
 10
70.5708184813
 20
196.7685157206
 30
0.0
 10
69.6532697305
 20
198.2154465879
 30
0.0
 10
69.3319110831
 20
199.3419998962
 30
0.0
 10
69.244218404
 20
199.9270466877
 30
0.0
  0
SPLINE
  5
4B4
100
AcDbEntity
  8
0
100
AcDbSpline
 62
7
  6
CONTINUOUS
 70
0
 71
3
 72
11
 73
7
 74
0
 42
0.0000001
 43
0.0000001
 44
0.0000000001
 40
0.0
 40
0.0
 40
0.0
 40
0.0
 40
0.233633584
 40
0.4758467542
 40
0.7314152315
 40
1.0
 40
1.0
 40
1.0
 40
1.0
 10
21.1919882117
 20
196.2237283533
 30
0.0
 10
20.5549498369
 20
196.3129620796
 30
0.0
 10
19.2807143454
 20
196.7433168692
 30
0.0
 10
17.692160134
 20
198.0415262397
 30
0.0
 10
16.5452149442
 20
199.8502152013
 30
0.0
 10
16.1435060638
 20
201.2584075098
 30
0.0
 10
16.033888732
 20
201.9897258926
 30
0.0
  0
SPLINE
  5
4B5
100
AcDbEntity
  8
0
100
AcDbSpline
 62
7
  6
CONTINUOUS
 70
0
 71
3
 72
10
 73
6
 74
0
 42
0.0000001
 43
0.0000001
 44
0.0000000001
 40
0.0
 40
0.0
 40
0.0
 40
0.0
 40
0.5170963233
 40
0.7630523697
 40
1.0
 40
1.0
 40
1.0
 40
1.0
 10
17.1176257768
 20
259.6945928945
 30
0.0
 10
16.8228024121
 20
259.0748261258
 30
0.0
 10
16.2084983345
 20
258.2241725705
 30
0.0
 10
15.1217391095
 20
257.4479107766
 30
0.0
 10
14.5214484484
 20
257.2022073063
 30
0.0
 10
14.2176831167
 20
257.1207813437
 30
0.0
  0
SPLINE
  5
4B6
100
AcDbEntity
  8
0
100
AcDbSpline
 62
7
  6
CONTINUOUS
 70
0
 71
3
 72
13
 73
9
 74
0
 42
0.0000001
 43
0.0000001
 44
0.0000000001
 40
0.0
 40
0.0
 40
0.0
 40
0.0
 40
0.2608165778
 40
0.3918043408
 40
0.5209397637
 40
0.7680371423
 40
0.8859572337
 40
1.0
 40
1.0
 40
1.0
 40
1.0
 10
7.2907400745
 20
260.3201489488
 30
0.0
 10
7.1465904174
 20
261.2818517413
 30
0.0
 10
7.1776582275
 20
262.7772940243
 30
0.0
 10
7.6882490991
 20
264.6581113713
 30
0.0
 10
8.4789100036
 20
266.3829945508
 30
0.0
 10
9.6774229141
 20
267.8476586379
 30
0.0
 10
11.1731997974
 20
268.8422737307
 30
0.0
 10
11.9854885023
 20
269.1628610034
 30
0.0
 10
12.3961938129
 20
269.2729528137
 30
0.0
  0
SPLINE
  5
4B7
100
AcDbEntity
  8
0
100
AcDbSpline
 62
7
  6
CONTINUOUS
 70
0
 71
3
 72
12
 73
8
 74
0
 42
0.0000001
 43
0.0000001
 44
0.0000000001
 40
0.0
 40
0.0
 40
0.0
 40
0.0
 40
0.2515992808
 40
0.5049676739
 40
0.6310802856
 40
0.7559862936
 40
1.0
 40
1.0
 40
1.0
 40
1.0
 10
39.8976342309
 20
227.9593598295
 30
0.0
 10
39.4768218092
 20
230.7668342933
 30
0.0
 10
39.2299204102
 20
236.5061619236
 30
0.0
 10
40.3747730239
 20
243.5853035594
 30
0.0
 10
42.1336434095
 20
249.0079528046
 30
0.0
 10
44.4005804454
 20
254.1199181334
 30
0.0
 10
46.690730582
 20
257.6484692682
 30
0.0
 10
48.4459046071
 20
259.7697277146
 30
0.0
  0
SPLINE
  5
4B8
100
AcDbEntity
  8
0
100
AcDbSpline
 62
7
  6
CONTINUOUS
 70
0
 71
3
 72
11
 73
7
 74
0
 42
0.0000001
 43
0.0000001
 44
0.0000000001
 40
0.0
 40
0.0
 40
0.0
 40
0.0
 40
0.2631269178
 40
0.5180557404
 40
0.7635368014
 40
1.0
 40
1.0
 40
1.0
 40
1.0
 10
38.8099717307
 20
228.1116908764
 30
0.0
 10
39.1736515223
 20
225.685380066
 30
0.0
 10
40.3313805955
 20
220.9605906911
 30
0.0
 10
43.3592952163
 20
214.4647436792
 30
0.0
 10
47.5277926378
 20
208.9373152563
 30
0.0
 10
51.0139775902
 20
206.023431318
 30
0.0
 10
52.867626085
 20
204.8296415237
 30
0.0
  0
SPLINE
  5
4B9
100
AcDbEntity
  8
0
100
AcDbSpline
 62
7
  6
CONTINUOUS
 70
0
 71
3
 72
11
 73
7
 74
0
 42
0.0000001
 43
0.0000001
 44
0.0000000001
 40
0.0
 40
0.0
 40
0.0
 40
0.0
 40
0.2685847685
 40
0.5241532458
 40
0.766366416
 40
1.0
 40
1.0
 40
1.0
 40
1.0
 10
27.180214475
 20
204.6446459122
 30
0.0
 10
27.1071362539
 20
205.1321915007
 30
0.0
 10
26.8393303336
 20
206.0709863731
 30
0.0
 10
26.074700207
 20
207.2767790141
 30
0.0
 10
25.0156640662
 20
208.1422519278
 30
0.0
 10
24.1661737384
 20
208.4291551209
 30
0.0
 10
23.7414814886
 20
208.4886442717
 30
0.0
  0
SPLINE
  5
4BA
100
AcDbEntity
  8
0
100
AcDbSpline
 62
7
  6
CONTINUOUS
 70
0
 71
3
 72
12
 73
8
 74
0
 42
0.0000001
 43
0.0000001
 44
0.0000000001
 40
0.0
 40
0.0
 40
0.0
 40
0.0
 40
0.2439203865
 40
0.3688147733
 40
0.4949333244
 40
0.7483457906
 40
1.0
 40
1.0
 40
1.0
 40
1.0
 10
47.4531938819
 20
260.0364167869
 30
0.0
 10
45.6821667722
 20
257.91406382
 30
0.0
 10
43.3701527325
 20
254.3786588984
 30
0.0
 10
41.0802340846
 20
249.2513393152
 30
0.0
 10
39.3019653532
 20
243.8082451984
 30
0.0
 10
38.1419563547
 20
236.698129151
 30
0.0
 10
38.387228187
 20
230.9320489317
 30
0.0
 10
38.8099717307
 20
228.1116908764
 30
0.0
  0
SPLINE
  5
4BB
100
AcDbEntity
  8
0
100
AcDbSpline
 62
7
  6
CONTINUOUS
 70
0
 71
3
 72
12
 73
8
 74
0
 42
0.0000001
 43
0.0000001
 44
0.0000000001
 40
0.0
 40
0.0
 40
0.0
 40
0.0
 40
0.2505728563
 40
0.5031184534
 40
0.6291217284
 40
0.754252088
 40
1.0
 40
1.0
 40
1.0
 40
1.0
 10
31.3719549458
 20
226.1178896969
 30
0.0
 10
30.8932590714
 20
229.3115369703
 30
0.0
 10
30.5484950682
 20
235.8306216964
 30
0.0
 10
31.621240123
 20
243.9149780053
 30
0.0
 10
33.3578360439
 20
250.1789177944
 30
0.0
 10
35.6387610626
 20
256.1692153775
 30
0.0
 10
37.9727535541
 20
260.3860535956
 30
0.0
 10
39.7796856787
 20
262.9871647424
 30
0.0
  0
SPLINE
  5
4BC
100
AcDbEntity
  8
0
100
AcDbSpline
 62
7
  6
CONTINUOUS
 70
0
 71
3
 72
11
 73
7
 74
0
 42
0.0000001
 43
0.0000001
 44
0.0000000001
 40
0.0
 40
0.0
 40
0.0
 40
0.0
 40
0.2399373236
 40
0.4869295653
 40
0.7406174762
 40
1.0
 40
1.0
 40
1.0
 40
1.0
 10
42.7085057229
 20
202.1064336114
 30
0.0
 10
41.2148728889
 20
203.6602970343
 30
0.0
 10
38.4541698278
 20
207.0841391049
 30
0.0
 10
35.1562468327
 20
212.8921666447
 30
0.0
 10
32.7186384129
 20
219.2960895931
 30
0.0
 10
31.7173403421
 20
223.8136310056
 30
0.0
 10
31.3719549458
 20
226.1178896969
 30
0.0
  0
SPLINE
  5
4BD
100
AcDbEntity
  8
0
100
AcDbSpline
 62
7
  6
CONTINUOUS
 70
0
 71
3
 72
13
 73
9
 74
0
 42
0.0000001
 43
0.0000001
 44
0.0000000001
 40
0.0
 40
0.0
 40
0.0
 40
0.0
 40
0.1150992809
 40
0.2339924479
 40
0.3567469476
 40
0.4829194046
 40
0.7411058993
 40
1.0
 40
1.0
 40
1.0
 40
1.0
 10
76.6307583666
 20
205.1318874315
 30
0.0
 10
78.2492633733
 20
205.7844342092
 30
0.0
 10
81.4104290297
 20
207.4540375037
 30
0.0
 10
85.6509338316
 20
210.8576421198
 30
0.0
 10
89.3337232555
 20
215.0836598783
 30
0.0
 10
93.3657976369
 20
221.6655917836
 30
0.0
 10
96.4005695306
 20
231.1050190217
 30
0.0
 10
96.4712311138
 20
239.086343199
 30
0.0
 10
95.8893716946
 20
242.9682520414
 30
0.0
  0
SPLINE
  5
4BE
100
AcDbEntity
  8
0
100
AcDbSpline
 62
7
  6
CONTINUOUS
 70
0
 71
3
 72
9
 73
5
 74
0
 42
0.0000001
 43
0.0000001
 44
0.0000000001
 40
0.0
 40
0.0
 40
0.0
 40
0.0
 40
0.5090425929
 40
1.0
 40
1.0
 40
1.0
 40
1.0
 10
95.8893716946
 20
242.9682520414
 30
0.0
 10
95.5174125595
 20
245.4497989715
 30
0.0
 10
94.287617268
 20
250.2654562055
 30
0.0
 10
92.0346901188
 20
254.7052986294
 30
0.0
 10
90.6869279007
 20
256.7154021639
 30
0.0
  0
SPLINE
  5
4BF
100
AcDbEntity
  8
0
100
AcDbSpline
 62
7
  6
CONTINUOUS
 70
0
 71
3
 72
12
 73
8
 74
0
 42
0.0000001
 43
0.0000001
 44
0.0000000001
 40
0.0
 40
0.0
 40
0.0
 40
0.0
 40
0.1141465032
 40
0.2321738583
 40
0.4794960043
 40
0.7389461754
 40
1.0
 40
1.0
 40
1.0
 40
1.0
 10
15.0334299918
 20
257.0065330585
 30
0.0
 10
15.3072335321
 20
257.0799275987
 30
0.0
 10
15.8487229581
 20
257.2936117677
 30
0.0
 10
16.8461380386
 20
257.9569462471
 30
0.0
 10
17.8536126171
 20
259.1883418176
 30
0.0
 10
18.5056832623
 20
261.0137620394
 30
0.0
 10
18.5331655891
 20
262.3339337712
 30
0.0
 10
18.4370658179
 20
262.975068966
 30
0.0
  0
SPLINE
  5
4C0
100
AcDbEntity
  8
0
100
AcDbSpline
 62
7
  6
CONTINUOUS
 70
0
 71
3
 72
15
 73
11
 74
0
 42
0.0000001
 43
0.0000001
 44
0.0000000001
 40
0.0
 40
0.0
 40
0.0
 40
0.0
 40
0.1163494571
 40
0.2338599759
 40
0.3535414788
 40
0.4761615906
 40
0.6021667959
 40
0.7316670259
 40
0.8644406402
 40
1.0
 40
1.0
 40
1.0
 40
1.0
 10
64.1406940651
 20
200.8591179625
 30
0.0
 10
62.6448261785
 20
201.0686287397
 30
0.0
 10
59.670060912
 20
201.7697864763
 30
0.0
 10
55.4471870674
 20
203.6277050344
 30
0.0
 10
51.5508459904
 20
206.2471857095
 30
0.0
 10
48.0748355082
 20
209.5619714378
 30
0.0
 10
45.0986427581
 20
213.4908868769
 30
0.0
 10
42.6899542487
 20
217.9400026418
 30
0.0
 10
40.9028381894
 20
222.8030789587
 30
0.0
 10
40.1585047137
 20
226.2189472825
 30
0.0
 10
39.8976342309
 20
227.9593598295
 30
0.0
  0
SPLINE
  5
4C1
100
AcDbEntity
  8
0
100
AcDbSpline
 62
7
  6
CONTINUOUS
 70
0
 71
3
 72
9
 73
5
 74
0
 42
0.0000001
 43
0.0000001
 44
0.0000000001
 40
0.0
 40
0.0
 40
0.0
 40
0.0
 40
0.5051076886
 40
1.0
 40
1.0
 40
1.0
 40
1.0
 10
24.6660736868
 20
272.2290476782
 30
0.0
 10
24.7266413078
 20
270.3193630987
 30
0.0
 10
24.2321526566
 20
266.4965206801
 30
0.0
 10
22.5529474307
 20
263.017706562
 30
0.0
 10
21.455019042
 20
261.5014773976
 30
0.0
  0
SPLINE
  5
4C2
100
AcDbEntity
  8
0
100
AcDbSpline
 62
7
  6
CONTINUOUS
 70
0
 71
3
 72
12
 73
8
 74
0
 42
0.0000001
 43
0.0000001
 44
0.0000000001
 40
0.0
 40
0.0
 40
0.0
 40
0.0
 40
0.2453619895
 40
0.3704355598
 40
0.4964676788
 40
0.7491986103
 40
1.0
 40
1.0
 40
1.0
 40
1.0
 10
21.455019042
 20
261.5014773976
 30
0.0
 10
19.9429491517
 20
259.4133225709
 30
0.0
 10
17.9851304948
 20
256.0094905109
 30
0.0
 10
16.0658573651
 20
251.1531153709
 30
0.0
 10
14.5975168414
 20
246.0588174811
 30
0.0
 10
13.6778984187
 20
239.4670882094
 30
0.0
 10
13.9469267661
 20
234.1453082174
 30
0.0
 10
14.3375654747
 20
231.5391394304
 30
0.0
  0
SPLINE
  5
4C3
100
AcDbEntity
  8
0
100
AcDbSpline
 62
7
  6
CONTINUOUS
 70
0
 71
3
 72
15
 73
11
 74
0
 42
0.0000001
 43
0.0000001
 44
0.0000000001
 40
0.0
 40
0.0
 40
0.0
 40
0.0
 40
0.1355593598
 40
0.2683329741
 40
0.3978332041
 40
0.5238384094
 40
0.6464585212
 40
0.7661400241
 40
0.8836505429
 40
1.0
 40
1.0
 40
1.0
 40
1.0
 10
14.3375654747
 20
231.5391394304
 30
0.0
 10
14.5984359575
 20
229.7987268834
 30
0.0
 10
15.3427694332
 20
226.3828585596
 30
0.0
 10
17.1298854924
 20
221.5197822427
 30
0.0
 10
19.5385740018
 20
217.0706664778
 30
0.0
 10
22.514766752
 20
213.1417510387
 30
0.0
 10
25.9907772341
 20
209.8269653104
 30
0.0
 10
29.8871183111
 20
207.2074846353
 30
0.0
 10
34.1099921557
 20
205.3495660772
 30
0.0
 10
37.0847574223
 20
204.6484083406
 30
0.0
 10
38.5806253088
 20
204.4388975634
 30
0.0
  0
SPLINE
  5
4C4
100
AcDbEntity
  8
0
100
AcDbSpline
 62
7
  6
CONTINUOUS
 70
0
 71
3
 72
10
 73
6
 74
0
 42
0.0000001
 43
0.0000001
 44
0.0000000001
 40
0.0
 40
0.0
 40
0.0
 40
0.0
 40
0.4867889011
 40
0.7418713421
 40
1.0
 40
1.0
 40
1.0
 40
1.0
 10
-17.1199831177
 20
269.8779754129
 30
0.0
 10
-20.713214048
 20
268.0379579204
 30
0.0
 10
-25.727199734
 20
264.2494281123
 30
0.0
 10
-31.1410019626
 20
257.9505736048
 30
0.0
 10
-33.4482559144
 20
254.3519429263
 30
0.0
 10
-34.4754337685
 20
252.4738164591
 30
0.0
  0
SPLINE
  5
4C5
100
AcDbEntity
  8
0
100
AcDbSpline
 62
7
  6
CONTINUOUS
 70
0
 71
3
 72
17
 73
13
 74
0
 42
0.0000001
 43
0.0000001
 44
0.0000000001
 40
0.0
 40
0.0
 40
0.0
 40
0.0
 40
0.1179824722
 40
0.260576598
 40
0.4170373008
 40
0.5742978923
 40
0.719183279
 40
0.8405142201
 40
0.8902234175
 40
0.9324220067
 40
0.9681667655
 40
1.0
 40
1.0
 40
1.0
 40
1.0
 10
-34.3049923217
 20
224.6597780586
 30
0.0
 10
-34.1248122799
 20
224.5557094127
 30
0.0
 10
-33.6915699136
 20
224.3884192811
 30
0.0
 10
-32.968966827
 20
224.2421904838
 30
0.0
 10
-32.1637799032
 20
224.1875760301
 30
0.0
 10
-31.3539381101
 20
224.2306102721
 30
0.0
 10
-30.617727707
 20
224.3668261168
 30
0.0
 10
-30.0885620544
 20
224.5564868545
 30
0.0
 10
-29.7669025052
 20
224.7541260952
 30
0.0
 10
-29.5985212903
 20
224.9061497058
 30
0.0
 10
-29.4909890165
 20
225.0706654715
 30
0.0
 10
-29.4649633927
 20
225.1907004066
 30
0.0
 10
-29.4649305743
 20
225.2468417408
 30
0.0
  0
SPLINE
  5
4C6
100
AcDbEntity
  8
0
100
AcDbSpline
 62
7
  6
CONTINUOUS
 70
0
 71
3
 72
17
 73
13
 74
0
 42
0.0000001
 43
0.0000001
 44
0.0000000001
 40
0.0
 40
0.0
 40
0.0
 40
0.0
 40
0.1179824722
 40
0.260576598
 40
0.4170373008
 40
0.5742978923
 40
0.719183279
 40
0.8405142201
 40
0.8902234175
 40
0.9324220067
 40
0.9681667655
 40
1.0
 40
1.0
 40
1.0
 40
1.0
 10
-7.8432619687
 20
209.3759740462
 30
0.0
 10
-7.6630819269
 20
209.2719054004
 30
0.0
 10
-7.2298395606
 20
209.1046152687
 30
0.0
 10
-6.5072364739
 20
208.9583864715
 30
0.0
 10
-5.7020495502
 20
208.9037720178
 30
0.0
 10
-4.8922077571
 20
208.9468062597
 30
0.0
 10
-4.155997354
 20
209.0830221045
 30
0.0
 10
-3.6268317014
 20
209.2726828421
 30
0.0
 10
-3.3051721521
 20
209.4703220829
 30
0.0
 10
-3.1367909373
 20
209.6223456934
 30
0.0
 10
-3.0292586635
 20
209.7868614592
 30
0.0
 10
-3.0032330397
 20
209.9068963942
 30
0.0
 10
-3.0032002213
 20
209.9630377284
 30
0.0
  0
SPLINE
  5
4C7
100
AcDbEntity
  8
0
100
AcDbSpline
 62
7
  6
CONTINUOUS
 70
0
 71
3
 72
11
 73
7
 74
0
 42
0.0000001
 43
0.0000001
 44
0.0000000001
 40
0.0
 40
0.0
 40
0.0
 40
0.0
 40
0.2032237194
 40
0.4289289409
 40
0.6925283262
 40
1.0
 40
1.0
 40
1.0
 40
1.0
 10
-8.3031582762
 20
209.9630377253
 30
0.0
 10
-8.3031890745
 20
209.9103520563
 30
0.0
 10
-8.2805314501
 20
209.7983756523
 30
0.0
 10
-8.1857084251
 20
209.6429038328
 30
0.0
 10
-8.0360826112
 20
209.498270817
 30
0.0
 10
-7.9122876094
 20
209.4158419744
 30
0.0
 10
-7.8432619687
 20
209.3759740462
 30
0.0
  0
SPLINE
  5
4C8
100
AcDbEntity
  8
0
100
AcDbSpline
 62
7
  6
CONTINUOUS
 70
0
 71
3
 72
11
 73
7
 74
0
 42
0.0000001
 43
0.0000001
 44
0.0000000001
 40
0.0
 40
0.0
 40
0.0
 40
0.0
 40
0.2032237194
 40
0.4289289409
 40
0.6925283262
 40
1.0
 40
1.0
 40
1.0
 40
1.0
 10
-34.7648886292
 20
225.2468417376
 30
0.0
 10
-34.7649194275
 20
225.1941560686
 30
0.0
 10
-34.7422618031
 20
225.0821796647
 30
0.0
 10
-34.6474387781
 20
224.9267078451
 30
0.0
 10
-34.4978129643
 20
224.7820748293
 30
0.0
 10
-34.3740179624
 20
224.6996459867
 30
0.0
 10
-34.3049923217
 20
224.6597780586
 30
0.0
  0
SPLINE
  5
4C9
100
AcDbEntity
  8
0
100
AcDbSpline
 62
7
  6
CONTINUOUS
 70
0
 71
3
 72
11
 73
7
 74
0
 42
0.0000001
 43
0.0000001
 44
0.0000000001
 40
0.0
 40
0.0
 40
0.0
 40
0.0
 40
0.2032665715
 40
0.4289015617
 40
0.692283341
 40
1.0
 40
1.0
 40
1.0
 40
1.0
 10
-42.0322052867
 20
220.6178001265
 30
0.0
 10
-42.0321821896
 20
220.5183709707
 30
0.0
 10
-41.9895920817
 20
220.3070892268
 30
0.0
 10
-41.810613892
 20
220.0139029991
 30
0.0
 10
-41.5285327251
 20
219.7408214372
 30
0.0
 10
-41.2948310951
 20
219.5854161637
 30
0.0
 10
-41.164488619
 20
219.5101327701
 30
0.0
  0
SPLINE
  5
4CA
100
AcDbEntity
  8
0
100
AcDbSpline
 62
7
  6
CONTINUOUS
 70
0
 71
3
 72
13
 73
9
 74
0
 42
0.0000001
 43
0.0000001
 44
0.0000000001
 40
0.0
 40
0.0
 40
0.0
 40
0.0
 40
0.083672979
 40
0.1736474593
 40
0.2747441703
 40
0.3898444162
 40
0.6656232473
 40
1.0
 40
1.0
 40
1.0
 40
1.0
 10
-42.0322052867
 20
227.7375735968
 30
0.0
 10
-42.0322239845
 20
227.8180641153
 30
0.0
 10
-42.0052109523
 20
227.9860445031
 30
0.0
 10
-41.8883691707
 20
228.2263517607
 30
0.0
 10
-41.7004009247
 20
228.455806846
 30
0.0
 10
-41.3381531646
 20
228.7633066148
 30
0.0
 10
-40.716707832
 20
229.0947919366
 30
0.0
 10
-40.1580251564
 20
229.2802278976
 30
0.0
 10
-39.847334769
 20
229.3635101593
 30
0.0
  0
SPLINE
  5
4CB
100
AcDbEntity
  8
0
100
AcDbSpline
 62
7
  6
CONTINUOUS
 70
0
 71
3
 72
13
 73
9
 74
0
 42
0.0000001
 43
0.0000001
 44
0.0000000001
 40
0.0
 40
0.0
 40
0.0
 40
0.0
 40
0.1140354166
 40
0.2319219367
 40
0.3540191309
 40
0.4800422958
 40
0.7392299027
 40
1.0
 40
1.0
 40
1.0
 40
1.0
 10
7.4093303259
 20
272.3507940568
 30
0.0
 10
6.8616803032
 20
272.2039934656
 30
0.0
 10
5.7788110035
 20
271.7769442535
 30
0.0
 10
4.3039984429
 20
270.7952438513
 30
0.0
 10
3.0070014251
 20
269.5026085732
 30
0.0
 10
1.5682373138
 20
267.4164462503
 30
0.0
 10
0.4629322631
 20
264.3342942186
 30
0.0
 10
0.4098659288
 20
261.6959472822
 30
0.0
 10
0.6020586748
 20
260.413722237
 30
0.0
  0
SPLINE
  5
4CC
100
AcDbEntity
  8
0
100
AcDbSpline
 62
7
  6
CONTINUOUS
 70
0
 71
3
 72
12
 73
8
 74
0
 42
0.0000001
 43
0.0000001
 44
0.0000000001
 40
0.0
 40
0.0
 40
0.0
 40
0.0
 40
0.1142372862
 40
0.2323070729
 40
0.4796608302
 40
0.7390117088
 40
1.0
 40
1.0
 40
1.0
 40
1.0
 10
9.8608014029
 20
269.8446192936
 30
0.0
 10
9.440580895
 20
269.7277916196
 30
0.0
 10
8.6103900181
 20
269.392595875
 30
0.0
 10
7.0825461399
 20
268.3637005156
 30
0.0
 10
5.53925338
 20
266.4675993109
 30
0.0
 10
4.5361555012
 20
263.6627397625
 30
0.0
 10
4.4877949286
 20
261.6346416034
 30
0.0
 10
4.6308417478
 20
260.648508801
 30
0.0
  0
SPLINE
  5
4CD
100
AcDbEntity
  8
0
100
AcDbSpline
 62
7
  6
CONTINUOUS
 70
0
 71
3
 72
10
 73
6
 74
0
 42
0.0000001
 43
0.0000001
 44
0.0000000001
 40
0.0
 40
0.0
 40
0.0
 40
0.0
 40
0.515408323
 40
0.7619545271
 40
1.0
 40
1.0
 40
1.0
 40
1.0
 10
13.3800365291
 20
202.2770873819
 30
0.0
 10
13.524073924
 20
201.3161335525
 30
0.0
 10
13.9799997665
 20
199.9102165084
 30
0.0
 10
15.0523844735
 20
198.3487907928
 30
0.0
 10
15.7176643267
 20
197.7102632638
 30
0.0
 10
16.0739857581
 20
197.4374253104
 30
0.0
  0
SPLINE
  5
4CE
100
AcDbEntity
  8
0
100
AcDbSpline
 62
7
  6
CONTINUOUS
 70
0
 71
3
 72
9
 73
5
 74
0
 42
0.0000001
 43
0.0000001
 44
0.0000000001
 40
0.0
 40
0.0
 40
0.0
 40
0.0
 40
0.489337343
 40
1.0
 40
1.0
 40
1.0
 40
1.0
 10
-8.1937819054
 20
272.8746027334
 30
0.0
 10
-9.7143025015
 20
272.6273064633
 30
0.0
 10
-12.7818116473
 20
271.8513499395
 30
0.0
 10
-15.6890524422
 20
270.6107274142
 30
0.0
 10
-17.1199831177
 20
269.8779754129
 30
0.0
  0
SPLINE
  5
4CF
100
AcDbEntity
  8
0
100
AcDbSpline
 62
7
  6
CONTINUOUS
 70
0
 71
3
 72
11
 73
7
 74
0
 42
0.0000001
 43
0.0000001
 44
0.0000000001
 40
0.0
 40
0.0
 40
0.0
 40
0.0
 40
0.2032237194
 40
0.4289289409
 40
0.6925283262
 40
1.0
 40
1.0
 40
1.0
 40
1.0
 10
-3.0032002213
 20
209.9630377284
 30
0.0
 10
-3.003169423
 20
210.0157233974
 30
0.0
 10
-3.0258270474
 20
210.1276998014
 30
0.0
 10
-3.1206500723
 20
210.2831716209
 30
0.0
 10
-3.2702758862
 20
210.4278046367
 30
0.0
 10
-3.3940708881
 20
210.5102334793
 30
0.0
 10
-3.4630965288
 20
210.5501014075
 30
0.0
  0
SPLINE
  5
4D0
100
AcDbEntity
  8
0
100
AcDbSpline
 62
7
  6
CONTINUOUS
 70
0
 71
3
 72
11
 73
7
 74
0
 42
0.0000001
 43
0.0000001
 44
0.0000000001
 40
0.0
 40
0.0
 40
0.0
 40
0.0
 40
0.2032237194
 40
0.4289289409
 40
0.6925283262
 40
1.0
 40
1.0
 40
1.0
 40
1.0
 10
-29.4649305743
 20
225.2468417408
 30
0.0
 10
-29.464899776
 20
225.2995274097
 30
0.0
 10
-29.4875574004
 20
225.4115038137
 30
0.0
 10
-29.5823804254
 20
225.5669756333
 30
0.0
 10
-29.7320062392
 20
225.7116086491
 30
0.0
 10
-29.8558012411
 20
225.7940374917
 30
0.0
 10
-29.9248268818
 20
225.8339054198
 30
0.0
  0
SPLINE
  5
4D1
100
AcDbEntity
  8
0
100
AcDbSpline
 62
7
  6
CONTINUOUS
 70
0
 71
3
 72
17
 73
13
 74
0
 42
0.0000001
 43
0.0000001
 44
0.0000000001
 40
0.0
 40
0.0
 40
0.0
 40
0.0
 40
0.1179824722
 40
0.260576598
 40
0.4170373008
 40
0.5742978923
 40
0.719183279
 40
0.8405142201
 40
0.8902234175
 40
0.9324220067
 40
0.9681667655
 40
1.0
 40
1.0
 40
1.0
 40
1.0
 10
-29.9248268818
 20
225.8339054198
 30
0.0
 10
-30.1050069236
 20
225.9379740657
 30
0.0
 10
-30.5382492899
 20
226.1052641973
 30
0.0
 10
-31.2608523766
 20
226.2514929946
 30
0.0
 10
-32.0660393003
 20
226.3061074483
 30
0.0
 10
-32.8758810934
 20
226.2630732063
 30
0.0
 10
-33.6120914965
 20
226.1268573616
 30
0.0
 10
-34.1412571491
 20
225.9371966239
 30
0.0
 10
-34.4629166983
 20
225.7395573832
 30
0.0
 10
-34.6312979132
 20
225.5875337726
 30
0.0
 10
-34.738830187
 20
225.4230180069
 30
0.0
 10
-34.7648558108
 20
225.3029830718
 30
0.0
 10
-34.7648886292
 20
225.2468417376
 30
0.0
  0
SPLINE
  5
4D2
100
AcDbEntity
  8
0
100
AcDbSpline
 62
7
  6
CONTINUOUS
 70
0
 71
3
 72
17
 73
13
 74
0
 42
0.0000001
 43
0.0000001
 44
0.0000000001
 40
0.0
 40
0.0
 40
0.0
 40
0.0
 40
0.1179824722
 40
0.260576598
 40
0.4170373008
 40
0.5742978923
 40
0.719183279
 40
0.8405142201
 40
0.8902234175
 40
0.9324220067
 40
0.9681667655
 40
1.0
 40
1.0
 40
1.0
 40
1.0
 10
-3.4630965288
 20
210.5501014075
 30
0.0
 10
-3.6432765705
 20
210.6541700533
 30
0.0
 10
-4.0765189369
 20
210.821460185
 30
0.0
 10
-4.7991220235
 20
210.9676889822
 30
0.0
 10
-5.6043089473
 20
211.0223034359
 30
0.0
 10
-6.4141507403
 20
210.979269194
 30
0.0
 10
-7.1503611435
 20
210.8430533492
 30
0.0
 10
-7.6795267961
 20
210.6533926116
 30
0.0
 10
-8.0011863453
 20
210.4557533708
 30
0.0
 10
-8.1695675602
 20
210.3037297603
 30
0.0
 10
-8.2770998339
 20
210.1392139945
 30
0.0
 10
-8.3031254577
 20
210.0191790595
 30
0.0
 10
-8.3031582762
 20
209.9630377253
 30
0.0
  0
SPLINE
  5
4D3
100
AcDbEntity
  8
0
100
AcDbSpline
 62
7
  6
CONTINUOUS
 70
0
 71
3
 72
11
 73
7
 74
0
 42
0.0000001
 43
0.0000001
 44
0.0000000001
 40
0.0
 40
0.0
 40
0.0
 40
0.0
 40
0.307716659
 40
0.5710984383
 40
0.7967334285
 40
1.0
 40
1.0
 40
1.0
 40
1.0
 10
-41.164488619
 20
226.6299062404
 30
0.0
 10
-41.2948310951
 20
226.7051896339
 30
0.0
 10
-41.5285327251
 20
226.8605949075
 30
0.0
 10
-41.810613892
 20
227.1336764694
 30
0.0
 10
-41.9895920817
 20
227.426862697
 30
0.0
 10
-42.0321821896
 20
227.638144441
 30
0.0
 10
-42.0322052867
 20
227.7375735968
 30
0.0
  0
SPLINE
  5
4D4
100
AcDbEntity
  8
0
100
AcDbSpline
 62
7
  6
CONTINUOUS
 70
0
 71
3
 72
13
 73
9
 74
0
 42
0.0000001
 43
0.0000001
 44
0.0000000001
 40
0.0
 40
0.0
 40
0.0
 40
0.0
 40
0.2607701243
 40
0.5199577384
 40
0.6459808999
 40
0.7680780881
 40
0.8859645952
 40
1.0
 40
1.0
 40
1.0
 40
1.0
 10
2.7773836753
 20
260.1090601433
 30
0.0
 10
2.5851909094
 20
261.3912853215
 30
0.0
 10
2.6382572925
 20
264.0296324435
 30
0.0
 10
3.7435625233
 20
267.1117845769
 30
0.0
 10
5.1823267104
 20
269.1979468349
 30
0.0
 10
6.4793237165
 20
270.4905819636
 30
0.0
 10
7.9541361665
 20
271.4722822494
 30
0.0
 10
9.0370053604
 20
271.8993313871
 30
0.0
 10
9.5846553265
 20
272.0461319631
 30
0.0
  0
ELLIPSE
  5
4D5
100
AcDbEntity
  8
0
100
AcDbEllipse
 62
7
  6
CONTINUOUS
 10
20.5864507207
 20
203.8817250331
 30
0.0
 11
3.5632876605
 21
7.0844674323
 31
0.0
 40
0.7512579716
 41
2.9498023987
 42
3.626540475
  0
ENDSEC
  0
SECTION
  2
OBJECTS
  0
DICTIONARY
  5
C
100
AcDbDictionary
280
0
281
1
  3
ACAD_GROUP
350
D
  3
ACAD_MLINESTYLE
350
17
  3
ACAD_LAYOUT
350
1A
  3
ACAD_PLOTSETTINGS
350
19
  3
ACAD_PLOTSTYLENAME
350
E
  0
DICTIONARY
  5
D
102
{ACAD_REACTORS
330
C
102
}
100
AcDbDictionary
280
0
281
1
  0
ACDBDICTIONARYWDFLT
  5
E
102
{ACAD_REACTORS
330
C
102
}
100
AcDbDictionary
281
1
  3
Normal
350
F
100
AcDbDictionaryWithDefault
340
F
  0
DICTIONARY
  5
17
102
{ACAD_REACTORS
330
C
102
}
100
AcDbDictionary
280
0
281
1
  3
Standard
350
18
  0
DICTIONARY
  5
19
102
{ACAD_REACTORS
330
C
102
}
100
AcDbDictionary
281
1
  0
DICTIONARY
  5
1A
102
{ACAD_REACTORS
330
C
102
}
100
AcDbDictionary
281
1
  3
Model
350
4D6
  3
Layout1
350
4D7
  0
ACDBPLACEHOLDER
  5
F
102
{ACAD_REACTORS
330
E
102
}
  0
MLINESTYLE
  5
18
102
{ACAD_REACTORS
330
17
102
}
100
AcDbMlineStyle
  2
STANDARD
 70
0
  3

 62
256
 51
90.0
 52
90.0
 71
2
 49
0.5
 62
256
  6
BYLAYER
 49
-0.5
 62
256
  6
BYLAYER
  0
LAYOUT
  5
4D6
102
{ACAD_REACTORS
330
1A
102
}
100
AcDbPlotSettings
  1

  2
none_device
  4
ANSI_C_(22.00_x_17.00_Inches)
  6

 40
0.0
 41
0.0
 42
0.0
 43
0.0
 44
558.8
 45
431.8
 46
0.0
 47
0.0
 48
0.0
 49
0.0
140
0.0
141
0.0
142
1.0
143
1.0
 70
1024
 72
1
 73
0
 74
0
  7

 75
0
147
1.0
148
0.0
149
0.0
100
AcDbLayout
  1
Model
 70
0
 71
0
 10
0.0
 20
0.0
 11
558.8
 21
431.8
 12
0.0
 22
0.0
 32
0.0
 14
0.0
 24
0.0
 34
0.0
 15
0.0
 25
0.0
 35
0.0
146
0.0
 13
0.0
 23
0.0
 33
0.0
 16
1.0
 26
0.0
 36
0.0
 17
0.0
 27
1.0
 37
0.0
 76
0
330
216
345
0
346
0
  0
LAYOUT
  5
4D7
102
{ACAD_REACTORS
330
1A
102
}
100
AcDbPlotSettings
  1

  2
none_device
  4
ANSI_C_(22.00_x_17.00_Inches)
  6

 40
0.0
 41
0.0
 42
0.0
 43
0.0
 44
558.8
 45
431.8
 46
0.0
 47
0.0
 48
0.0
 49
0.0
140
0.0
141
0.0
142
1.0
143
1.0
 70
0
 72
1
 73
0
 74
0
  7

 75
0
147
1.0
148
0.0
149
0.0
100
AcDbLayout
  1
Layout1
 70
0
 71
1
 10
0.0
 20
0.0
 11
558.8
 21
431.8
 12
0.0
 22
0.0
 32
0.0
 14
0.0
 24
0.0
 34
0.0
 15
0.0
 25
0.0
 35
0.0
146
0.0
 13
0.0
 23
0.0
 33
0.0
 16
1.0
 26
0.0
 36
0.0
 17
0.0
 27
1.0
 37
0.0
 76
0
330
217
345
0
346
0
  0
ENDSEC
  0
EOF
