999
DXF file: C:\Users\SESA41376\OneDrive - Schneider Electric\Documents\a____TechPub\Projet - MACADAM\FD\Batch 9 - Last Check\20220318134443_61541\CAD\SB104284\drw0001_1.dxf
999
Pro/ENGINEER 2019471 by Parametric Technology Corporation
  0
SECTION
  2
HEADER
  9
$ACADVER
  1
AC1024
  9
$DWGCODEPAGE
  3
ANSI_1252
  9
$EXTMAX
 10
77.7440540713
 20
109.9523050436
 30
0.0
  9
$EXTMIN
 10
0.0
 20
0.0
 30
0.0
  9
$LIMMIN
 10
0.0
 20
0.0
  9
$LIMMAX
 10
77.7440540713
 20
109.9523050436
  9
$VIEWCTR
 10
38.8720270356
 20
54.9761525218
  9
$VIEWSIZE
 40
109.9523050436
  9
$CLAYER
  8
0
  9
$LTSCALE
 40
7.1672613658
  9
$CELTYPE
  6
BYLAYER
  9
$DIMSCALE
 40
1.0
  9
$DIMASZ
 40
0.9255244532
  9
$DIMEXO
 40
1.0
  9
$DIMDLI
 40
4.9519260346
  9
$DIMEXE
 40
1.0
  9
$DIMCEN
 40
1.1728245871
  9
$DIMLFAC
 40
1.0
  9
$DIMBLK
  1
_FILLED
  9
$DIMALT
 70
0
  9
$DIMALTF
 40
0.0393700787
  9
$DIMTXT
 40
1.2957342345
  9
$DIMTOL
 70
1
  9
$DIMLIM
 70
0
  9
$DIMTFAC
 40
1.0
  9
$DIMTP
 40
0.01
  9
$DIMTM
 40
0.01
  9
$DIMGAP
 40
0.625
  9
$DIMDSEP
 70
46
  9
$AUNITS
 70
0
  9
$PDMODE
 70
3
  9
$PDSIZE
 40
0.3125
  9
$HANDSEED
  5
2D6
  9
$TILEMODE
 70
1
  9
$MEASUREMENT
 70
1
  9
$INSUNITS
 70
4
  0
ENDSEC
  0
SECTION
  2
CLASSES
  0
CLASS
  1
ACDBDICTIONARYWDFLT
  2
AcDbDictionaryWithDefault
  3
AutoCAD 2000
 90
0
 91
1
280
0
281
0
  0
CLASS
  1
ACDBPLACEHOLDER
  2
AcDbPlaceHolder
  3
AutoCAD 2000
 90
0
 91
1
280
0
281
0
  0
CLASS
  1
LAYOUT
  2
AcDbLayout
  3
AutoCAD 2000
 90
0
 91
0
280
0
281
0
  0
ENDSEC
  0
SECTION
  2
TABLES
  0
TABLE
  2
VPORT
  5
8
100
AcDbSymbolTable
 70
2
  0
VPORT
  5
1F4
100
AcDbSymbolTableRecord
100
AcDbViewportTableRecord
  2
*ACTIVE
 70
0
 10
0.0
 20
0.0
 11
1.0
 21
1.0
 12
38.8720270356
 22
54.9761525218
 13
0.0
 23
0.0
 14
1.0
 24
1.0
 15
0.0
 25
0.0
 16
0.0
 26
0.0
 36
1.0
 17
0.0
 27
0.0
 37
0.0
 40
109.9523050436
 41
0.7070707071
 42
50.0
 43
0.0
 44
0.0
 50
0.0
 51
0.0
 71
0
 72
100
 73
1
 74
1
 75
0
 76
0
 77
0
 78
0
  0
ENDTAB
  0
TABLE
  2
LTYPE
  5
5
100
AcDbSymbolTable
 70
6
  0
LTYPE
  5
14
100
AcDbSymbolTableRecord
100
AcDbLinetypeTableRecord
  2
BYBLOCK
 70
0
  3

 72
65
 73
0
 40
0.0
  0
LTYPE
  5
15
100
AcDbSymbolTableRecord
100
AcDbLinetypeTableRecord
  2
BYLAYER
 70
0
  3

 72
65
 73
0
 40
0.0
  0
LTYPE
  5
16
100
AcDbSymbolTableRecord
100
AcDbLinetypeTableRecord
  2
CONTINUOUS
 70
64
  3
Solid line
 72
65
 73
0
 40
0.0
  0
LTYPE
  5
1F5
100
AcDbSymbolTableRecord
100
AcDbLinetypeTableRecord
  2
CENTER
 70
64
  3
____ _ ____ _ ____ _ ____ _ ____ _ ____ _ ____
 72
65
 73
4
 40
0.6
 49
0.375
 74
0
 49
-0.075
 74
0
 49
0.075
 74
0
 49
-0.075
 74
0
  0
LTYPE
  5
1F6
100
AcDbSymbolTableRecord
100
AcDbLinetypeTableRecord
  2
HIDDEN
 70
64
  3
- - - - - - - - - - - - - - - - - - - -
 72
65
 73
2
 40
0.2
 49
0.1
 74
0
 49
-0.1
 74
0
  0
LTYPE
  5
1F7
100
AcDbSymbolTableRecord
100
AcDbLinetypeTableRecord
  2
PHANTOM
 70
64
  3
_____ _ _ _____ _ _ _____ _ _ _____
 72
65
 73
6
 40
0.8
 49
0.45
 74
0
 49
-0.05
 74
0
 49
0.1
 74
0
 49
-0.05
 74
0
 49
0.1
 74
0
 49
-0.05
 74
0
  0
LTYPE
  5
1F8
100
AcDbSymbolTableRecord
100
AcDbLinetypeTableRecord
  2
DOT
 70
64
  3
. . . . . . . . . . . . . . . . . . . .
 72
65
 73
2
 40
0.2
 49
0.1
 74
0
 49
-0.1
 74
0
  0
LTYPE
  5
1F9
100
AcDbSymbolTableRecord
100
AcDbLinetypeTableRecord
  2
DASHED
 70
64
  3
- - - - - - - - - - - - - - - - - - - -
 72
65
 73
2
 40
0.2
 49
0.1
 74
0
 49
-0.1
 74
0
  0
ENDTAB
  0
TABLE
  2
LAYER
  5
2
100
AcDbSymbolTable
 70
36
  0
LAYER
  5
10
100
AcDbSymbolTableRecord
100
AcDbLayerTableRecord
  2
0
 70
0
 62
7
  6
CONTINUOUS
370
-3
390
F
  0
LAYER
  5
1FA
100
AcDbSymbolTableRecord
100
AcDbLayerTableRecord
  2
DEFAULT_1
 70
0
 62
7
  6
CENTER
370
-3
390
F
  0
LAYER
  5
1FB
100
AcDbSymbolTableRecord
100
AcDbLayerTableRecord
  2
DEFAULT_2
 70
0
 62
8
  6
HIDDEN
370
-3
390
F
  0
LAYER
  5
1FC
100
AcDbSymbolTableRecord
100
AcDbLayerTableRecord
  2
DEFAULT_3
 70
0
 62
7
  6
PHANTOM
370
-3
390
F
  0
LAYER
  5
1FD
100
AcDbSymbolTableRecord
100
AcDbLayerTableRecord
  2
00_COMPONENTS
 70
0
 62
7
  6
CONTINUOUS
370
-3
390
F
  0
LAYER
  5
1FE
100
AcDbSymbolTableRecord
100
AcDbLayerTableRecord
  2
01_1_DEFAULT_DATUMS
 70
0
 62
7
  6
CONTINUOUS
370
-3
390
F
  0
LAYER
  5
1FF
100
AcDbSymbolTableRecord
100
AcDbLayerTableRecord
  2
01_PLANES
 70
0
 62
7
  6
CONTINUOUS
370
-3
390
F
  0
LAYER
  5
200
100
AcDbSymbolTableRecord
100
AcDbLayerTableRecord
  2
02_COORD_SYS
 70
0
 62
7
  6
CONTINUOUS
370
-3
390
F
  0
LAYER
  5
201
100
AcDbSymbolTableRecord
100
AcDbLayerTableRecord
  2
03_AXES
 70
0
 62
7
  6
CONTINUOUS
370
-3
390
F
  0
LAYER
  5
202
100
AcDbSymbolTableRecord
100
AcDbLayerTableRecord
  2
04_POINTS
 70
0
 62
7
  6
CONTINUOUS
370
-3
390
F
  0
LAYER
  5
203
100
AcDbSymbolTableRecord
100
AcDbLayerTableRecord
  2
05_CURVES
 70
0
 62
7
  6
CONTINUOUS
370
-3
390
F
  0
LAYER
  5
204
100
AcDbSymbolTableRecord
100
AcDbLayerTableRecord
  2
06_SURFS
 70
0
 62
7
  6
CONTINUOUS
370
-3
390
F
  0
LAYER
  5
205
100
AcDbSymbolTableRecord
100
AcDbLayerTableRecord
  2
07_COSMETICS
 70
0
 62
7
  6
CONTINUOUS
370
-3
390
F
  0
LAYER
  5
206
100
AcDbSymbolTableRecord
100
AcDbLayerTableRecord
  2
10_NOTES
 70
0
 62
7
  6
CONTINUOUS
370
-3
390
F
  0
LAYER
  5
207
100
AcDbSymbolTableRecord
100
AcDbLayerTableRecord
  2
11_NOTES_PUB
 70
0
 62
7
  6
CONTINUOUS
370
-3
390
F
  0
LAYER
  5
208
100
AcDbSymbolTableRecord
100
AcDbLayerTableRecord
  2
13_REF_GTOL
 70
0
 62
7
  6
CONTINUOUS
370
-3
390
F
  0
LAYER
  5
209
100
AcDbSymbolTableRecord
100
AcDbLayerTableRecord
  2
16_MISC
 70
0
 62
7
  6
CONTINUOUS
370
-3
390
F
  0
LAYER
  5
20A
100
AcDbSymbolTableRecord
100
AcDbLayerTableRecord
  2
17_NO_PRINT
 70
0
 62
7
  6
CONTINUOUS
370
-3
390
F
  0
LAYER
  5
20B
100
AcDbSymbolTableRecord
100
AcDbLayerTableRecord
  2
18_DATUM_CAMS_JOINTS
 70
0
 62
7
  6
CONTINUOUS
370
-3
390
F
  0
LAYER
  5
20C
100
AcDbSymbolTableRecord
100
AcDbLayerTableRecord
  2
19_DATUM_FUNCTIONAL
 70
0
 62
7
  6
CONTINUOUS
370
-3
390
F
  0
LAYER
  5
20D
100
AcDbSymbolTableRecord
100
AcDbLayerTableRecord
  2
20_DATUM_KINEMATIC_SCHEME
 70
0
 62
7
  6
CONTINUOUS
370
-3
390
F
  0
ENDTAB
  0
TABLE
  2
STYLE
  5
3
100
AcDbSymbolTable
 70
1
  0
STYLE
  5
11
100
AcDbSymbolTableRecord
100
AcDbTextStyleTableRecord
  2
STANDARD
 70
0
 40
0.0
 41
0.8
 50
0.0
 71
0
 42
0.2
  3
txt
  4

  0
STYLE
  5
20E
100
AcDbSymbolTableRecord
100
AcDbTextStyleTableRecord
  2
TEXTSTYLE_1
 70
0
 40
0.0
 41
0.8
 50
0.0
 71
0
 42
0.2
  3
gdt
  4

  0
ENDTAB
  0
TABLE
  2
VIEW
  5
6
100
AcDbSymbolTable
 70
0
  0
ENDTAB
  0
TABLE
  2
UCS
  5
7
100
AcDbSymbolTable
 70
0
  0
ENDTAB
  0
TABLE
  2
APPID
  5
9
100
AcDbSymbolTable
 70
1
  0
APPID
  5
20F
100
AcDbSymbolTableRecord
100
AcDbRegAppTableRecord
  2
ACAD
 70
0
  0
ENDTAB
  0
TABLE
  2
BLOCK_RECORD
  5
1
100
AcDbSymbolTable
 70
0
  0
BLOCK_RECORD
  5
210
100
AcDbSymbolTableRecord
100
AcDbBlockTableRecord
  2
*Model_Space
  0
BLOCK_RECORD
  5
211
100
AcDbSymbolTableRecord
100
AcDbBlockTableRecord
  2
*Paper_Space
  0
BLOCK_RECORD
  5
212
100
AcDbSymbolTableRecord
100
AcDbBlockTableRecord
  2
_FILLED
  0
ENDTAB
  0
TABLE
  2
DIMSTYLE
  5
A
100
AcDbSymbolTable
 70
1
100
AcDbDimStyleTable
 71
0
  0
DIMSTYLE
105
213
100
AcDbSymbolTableRecord
100
AcDbDimStyleTableRecord
  2
STANDARD
 70
0
  3

  4

 40
1.0
 41
0.9255244532
 42
1.0
 43
0.38
 44
1.0
 45
0.0
 46
0.0
 47
0.01
 48
0.01
140
1.2957342345
141
0.09
142
0.0
143
25.4
144
1.0
145
0.0
146
1.0
147
0.625
 71
1
 72
0
 73
0
 74
0
 75
0
 76
0
 77
1
 78
8
 79
2
170
0
171
1
172
0
173
0
174
0
175
0
176
0
177
0
178
0
270
2
179
2
271
2
272
2
273
2
274
2
275
0
280
0
281
0
282
0
283
1
284
8
285
0
286
0
287
3
288
0
340
11
278
46
341
212
342
212
343
212
344
212
  0
ENDTAB
  0
ENDSEC
  0
SECTION
  2
BLOCKS
  0
BLOCK
  5
20
100
AcDbEntity
  8
0
100
AcDbBlockBegin
  2
*Model_Space
 70
0
 10
0.0
 20
0.0
 30
0.0
  3
*Model_Space
  1

  0
ENDBLK
  5
21
100
AcDbEntity
  8
0
100
AcDbBlockEnd
  0
BLOCK
  5
1C
100
AcDbEntity
  8
0
100
AcDbBlockBegin
  2
*Paper_Space
 70
0
 10
0.0
 20
0.0
 30
0.0
  3
*Paper_Space
  1

  0
ENDBLK
  5
1D
100
AcDbEntity
  8
0
100
AcDbBlockEnd
  0
BLOCK
  5
214
100
AcDbEntity
  8
0
100
AcDbBlockBegin
  2
_FILLED
 70
64
 10
0.0
 20
0.0
  3
_FILLED
  1

  0
SOLID
  5
215
100
AcDbEntity
  8
0
  6
BYBLOCK
 62
0
100
AcDbTrace
 10
0.0
 20
0.0
 11
-1.0
 21
0.25
 12
-1.0
 22
-0.25
 13
-1.0
 23
-0.25
  0
ENDBLK
  5
216
100
AcDbEntity
  8
0
  6
BYBLOCK
 62
0
100
AcDbBlockEnd
  0
ENDSEC
  0
SECTION
  2
ENTITIES
  0
LINE
  5
217
100
AcDbEntity
  8
0
100
AcDbLine
 62
7
  6
CONTINUOUS
 10
22.8343886343
 20
14.0466086012
 11
10.1064135817
 21
21.3949421826
  0
LINE
  5
218
100
AcDbEntity
  8
0
100
AcDbLine
 62
7
  6
CONTINUOUS
 10
33.8225497938
 20
8.4862517316
 11
23.5129443214
 21
14.4383705714
  0
LINE
  5
219
100
AcDbEntity
  8
0
100
AcDbLine
 62
7
  6
CONTINUOUS
 10
54.0526845937
 20
101.7343932878
 11
21.0662905877
 21
82.6898035097
  0
LINE
  5
21A
100
AcDbEntity
  8
0
100
AcDbLine
 62
7
  6
CONTINUOUS
 10
34.3882328636
 20
16.2473216082
 11
35.035798364
 21
15.8734579502
  0
LINE
  5
21B
100
AcDbEntity
  8
0
100
AcDbLine
 62
7
  6
CONTINUOUS
 10
10.1064135817
 20
21.3949421826
 11
10.1064135817
 21
54.2799036335
  0
LINE
  5
21C
100
AcDbEntity
  8
0
100
AcDbLine
 62
7
  6
CONTINUOUS
 10
49.9798724742
 20
11.6092122773
 11
44.6057456968
 21
14.7118956268
  0
LINE
  5
21D
100
AcDbEntity
  8
0
100
AcDbLine
 62
7
  6
CONTINUOUS
 10
10.7710967233
 20
53.8961573242
 11
10.7710967233
 21
57.7538046442
  0
LINE
  5
21E
100
AcDbEntity
  8
0
100
AcDbLine
 62
7
  6
CONTINUOUS
 10
48.7871205432
 20
19.3387065507
 11
49.4942302683
 21
18.9304657962
  0
LINE
  5
21F
100
AcDbEntity
  8
0
100
AcDbLine
 62
7
  6
CONTINUOUS
 10
14.6175153682
 20
59.1010140912
 11
14.6175153682
 21
59.1256431076
  0
LINE
  5
220
100
AcDbEntity
  8
0
100
AcDbLine
 62
7
  6
CONTINUOUS
 10
21.0662905877
 20
82.6898035097
 11
21.0662905877
 21
64.4817996077
  0
LINE
  5
221
100
AcDbEntity
  8
0
100
AcDbLine
 62
7
  6
CONTINUOUS
 10
10.7710967233
 20
54.936788392
 11
10.1064135817
 21
54.2799036335
  0
LINE
  5
222
100
AcDbEntity
  8
0
100
AcDbLine
 62
7
  6
CONTINUOUS
 10
66.7806596464
 20
94.3860597064
 11
33.7942656403
 21
75.3414699283
  0
LINE
  5
223
100
AcDbEntity
  8
0
100
AcDbLine
 62
7
  6
CONTINUOUS
 10
34.3599487101
 20
74.4351466015
 11
35.4907491666
 21
75.0880106524
  0
LINE
  5
224
100
AcDbEntity
  8
0
100
AcDbLine
 62
7
  6
CONTINUOUS
 10
63.0824573262
 20
19.1739480134
 11
63.5916095647
 21
18.8799954816
  0
LINE
  5
225
100
AcDbEntity
  8
0
100
AcDbLine
 62
7
  6
CONTINUOUS
 10
22.1697054927
 20
47.3153163613
 11
22.1697054927
 21
49.5813929501
  0
LINE
  5
226
100
AcDbEntity
  8
0
100
AcDbLine
 62
7
  6
CONTINUOUS
 10
22.1697054927
 20
50.0828278074
 11
22.1697054927
 21
51.1729636813
  0
LINE
  5
227
100
AcDbEntity
  8
0
100
AcDbLine
 62
7
  6
CONTINUOUS
 10
22.8343886343
 20
46.9315700521
 11
22.8343886343
 21
14.0466086012
  0
LINE
  5
228
100
AcDbEntity
  8
0
100
AcDbLine
 62
7
  6
CONTINUOUS
 10
21.0662905877
 20
64.4817996077
 11
11.2377797212
 21
58.8073400851
  0
LINE
  5
229
100
AcDbEntity
  8
0
100
AcDbLine
 62
7
  6
CONTINUOUS
 10
10.7710967233
 20
57.7538046442
 11
11.8030644669
 21
58.3496079422
  0
LINE
  5
22A
100
AcDbEntity
  8
0
100
AcDbLine
 62
7
  6
CONTINUOUS
 10
15.0276295881
 20
60.1952393234
 11
11.9307472519
 21
58.4072641457
  0
LINE
  5
22B
100
AcDbEntity
  8
0
100
AcDbLine
 62
7
  6
CONTINUOUS
 10
15.7488815077
 20
59.7788337538
 11
14.6175153682
 21
59.1256431076
  0
LINE
  5
22C
100
AcDbEntity
  8
0
100
AcDbLine
 62
7
  6
CONTINUOUS
 10
34.7836394414
 20
69.347988206
 11
34.3599487101
 21
69.1033717083
  0
LWPOLYLINE
  5
22D
100
AcDbEntity
  8
0
100
AcDbPolyline
 62
7
  6
CONTINUOUS
 90
4
 70
0
 10
40.4660311801
 20
39.9939306326
 10
42.5369029821
 20
39.5922842157
 10
45.0380573948
 20
40.4622624824
 10
47.5332120956
 20
42.4739496676
  0
LINE
  5
22E
100
AcDbEntity
  8
0
100
AcDbLine
 62
7
  6
CONTINUOUS
 10
10.7710967233
 20
53.8961573242
 11
10.1064135817
 21
54.2799036335
  0
LINE
  5
22F
100
AcDbEntity
  8
0
100
AcDbLine
 62
7
  6
CONTINUOUS
 10
22.1697054927
 20
47.3153163613
 11
22.8343886343
 21
46.9315700521
  0
LINE
  5
230
100
AcDbEntity
  8
0
100
AcDbLine
 62
7
  6
CONTINUOUS
 10
65.5997903503
 20
22.2603129619
 11
66.3069000754
 21
21.8520722074
  0
LINE
  5
231
100
AcDbEntity
  8
0
100
AcDbLine
 62
7
  6
CONTINUOUS
 10
27.0626371101
 20
16.5043729106
 11
27.0626371101
 21
47.5557285602
  0
LINE
  5
232
100
AcDbEntity
  8
0
100
AcDbLine
 62
7
  6
CONTINUOUS
 10
27.0770116576
 20
47.5617949686
 11
27.0770116576
 21
16.4960735245
  0
LINE
  5
233
100
AcDbEntity
  8
0
100
AcDbLine
 62
7
  6
CONTINUOUS
 10
35.4907491666
 20
68.9397474514
 11
34.3599487101
 21
68.2868834006
  0
LINE
  5
234
100
AcDbEntity
  8
0
100
AcDbLine
 62
7
  6
CONTINUOUS
 10
24.2680288196
 20
48.3483900795
 11
27.0770116576
 21
47.5617949686
  0
LINE
  5
235
100
AcDbEntity
  8
0
100
AcDbLine
 62
7
  6
CONTINUOUS
 10
27.0626371101
 20
47.5557285602
 11
23.2739747213
 21
48.6819786371
  0
LINE
  5
236
100
AcDbEntity
  8
0
100
AcDbLine
 62
7
  6
CONTINUOUS
 10
23.2739747213
 20
48.6819786371
 11
23.155794344
 21
48.7330804452
  0
LINE
  5
237
100
AcDbEntity
  8
0
100
AcDbLine
 62
7
  6
CONTINUOUS
 10
23.1556041376
 20
48.7327503419
 11
22.4626366069
 21
49.1328262813
  0
LINE
  5
238
100
AcDbEntity
  8
0
100
AcDbLine
 62
7
  6
CONTINUOUS
 10
10.7710967233
 20
55.8827872759
 11
10.4276290849
 21
56.0810839233
  0
LINE
  5
239
100
AcDbEntity
  8
0
100
AcDbLine
 62
7
  6
CONTINUOUS
 10
24.2680288196
 20
48.3483900795
 11
24.1320351686
 21
48.4269042743
  0
LINE
  5
23A
100
AcDbEntity
  8
0
100
AcDbLine
 62
7
  6
CONTINUOUS
 10
23.2597316332
 20
49.562127673
 11
23.5407619848
 21
49.3998783944
  0
LINE
  5
23B
100
AcDbEntity
  8
0
100
AcDbLine
 62
7
  6
CONTINUOUS
 10
27.0688574272
 20
47.5665027092
 11
27.0770116576
 21
47.5617949686
  0
LINE
  5
23C
100
AcDbEntity
  8
0
100
AcDbLine
 62
7
  6
CONTINUOUS
 10
40.0807511951
 20
40.3866282047
 11
40.4957129598
 21
40.147055338
  0
LINE
  5
23D
100
AcDbEntity
  8
0
100
AcDbLine
 62
7
  6
CONTINUOUS
 10
10.7710967233
 20
57.7538046442
 11
22.1697054927
 21
51.1729636813
  0
LINE
  5
23E
100
AcDbEntity
  8
0
100
AcDbLine
 62
7
  6
CONTINUOUS
 10
24.0743224675
 20
51.0548138884
 11
24.3907475629
 21
50.8721299073
  0
LINE
  5
23F
100
AcDbEntity
  8
0
100
AcDbLine
 62
7
  6
CONTINUOUS
 10
11.2377797212
 20
58.8073400851
 11
11.9307472519
 21
58.4072641457
  0
LINE
  5
240
100
AcDbEntity
  8
0
100
AcDbLine
 62
7
  6
CONTINUOUS
 10
23.2727872432
 20
51.8590824432
 11
23.9657547739
 21
51.4590065038
  0
LINE
  5
241
100
AcDbEntity
  8
0
100
AcDbLine
 62
7
  6
CONTINUOUS
 10
67.0318608508
 20
88.7964831371
 11
65.3369855717
 21
87.4987366972
  0
LINE
  5
242
100
AcDbEntity
  8
0
100
AcDbLine
 62
7
  6
CONTINUOUS
 10
14.6175153682
 20
59.1256431076
 11
24.5170515202
 21
53.4102725443
  0
LINE
  5
243
100
AcDbEntity
  8
0
100
AcDbLine
 62
7
  6
CONTINUOUS
 10
15.0276295881
 20
60.1952393234
 11
15.7488815077
 21
59.7788337538
  0
LINE
  5
244
100
AcDbEntity
  8
0
100
AcDbLine
 62
7
  6
CONTINUOUS
 10
25.6484176598
 20
54.0634631905
 11
26.3696695794
 21
53.6470576209
  0
LINE
  5
245
100
AcDbEntity
  8
0
100
AcDbLine
 62
7
  6
CONTINUOUS
 10
46.0579180971
 20
43.2398900074
 11
46.4114729597
 21
43.0357696302
  0
LINE
  5
246
100
AcDbEntity
  8
0
100
AcDbLine
 62
7
  6
CONTINUOUS
 10
33.7942656403
 20
75.3414699283
 11
33.7942656403
 21
57.1334660263
  0
LINE
  5
247
100
AcDbEntity
  8
0
100
AcDbLine
 62
7
  6
CONTINUOUS
 10
33.8225497938
 20
20.4071870216
 11
33.8225497938
 21
8.4862517316
  0
LINE
  5
248
100
AcDbEntity
  8
0
100
AcDbLine
 62
7
  6
CONTINUOUS
 10
34.3599487101
 20
68.2868834006
 11
34.3599487101
 21
74.4351466015
  0
LINE
  5
249
100
AcDbEntity
  8
0
100
AcDbLine
 62
7
  6
CONTINUOUS
 10
34.3882328636
 20
15.4995880659
 11
34.3882328636
 21
20.6865182075
  0
LINE
  5
24A
100
AcDbEntity
  8
0
100
AcDbLine
 62
7
  6
CONTINUOUS
 10
34.7836394414
 20
74.6797630992
 11
34.7836394414
 21
69.347988206
  0
LINE
  5
24B
100
AcDbEntity
  8
0
100
AcDbLine
 62
7
  6
CONTINUOUS
 10
35.035798364
 20
21.0603880918
 11
35.035798364
 21
15.8734579502
  0
LINE
  5
24C
100
AcDbEntity
  8
0
100
AcDbLine
 62
7
  6
CONTINUOUS
 10
35.4907491666
 20
75.0880106524
 11
35.4907491666
 21
68.9397474514
  0
LINE
  5
24D
100
AcDbEntity
  8
0
100
AcDbLine
 62
7
  6
CONTINUOUS
 10
23.4881646445
 20
48.6183067148
 11
22.1697054927
 21
47.3153163613
  0
LINE
  5
24E
100
AcDbEntity
  8
0
100
AcDbLine
 62
7
  6
CONTINUOUS
 10
22.8343886343
 20
46.9315700521
 11
24.2680288196
 21
48.3483900795
  0
LINE
  5
24F
100
AcDbEntity
  8
0
100
AcDbLine
 62
7
  6
CONTINUOUS
 10
67.1784703773
 20
83.6537155907
 11
66.0600377932
 21
82.7973446694
  0
LINE
  5
250
100
AcDbEntity
  8
0
100
AcDbLine
 62
7
  6
CONTINUOUS
 10
66.1907048233
 20
81.9477283963
 11
67.8855801024
 21
83.2454748362
  0
LINE
  5
251
100
AcDbEntity
  8
0
100
AcDbLine
 62
7
  6
CONTINUOUS
 10
24.5170515202
 20
53.4102725443
 11
25.6484176598
 21
54.0634631905
  0
LINE
  5
252
100
AcDbEntity
  8
0
100
AcDbLine
 62
7
  6
CONTINUOUS
 10
26.3696695794
 20
53.6470576209
 11
23.2727872432
 21
51.8590824432
  0
LINE
  5
253
100
AcDbEntity
  8
0
100
AcDbLine
 62
7
  6
CONTINUOUS
 10
22.1697054927
 20
51.1729636813
 11
23.1137721393
 21
51.7180175603
  0
LINE
  5
254
100
AcDbEntity
  8
0
100
AcDbLine
 62
7
  6
CONTINUOUS
 10
33.7942656403
 20
57.1334660263
 11
23.9657547739
 21
51.4590065038
  0
LINE
  5
255
100
AcDbEntity
  8
0
100
AcDbLine
 62
7
  6
CONTINUOUS
 10
45.4585798286
 20
42.2590842948
 11
46.124247381
 21
41.7155670293
  0
LINE
  5
256
100
AcDbEntity
  8
0
100
AcDbLine
 62
7
  6
CONTINUOUS
 10
41.6112245533
 20
54.7251019875
 11
42.5281633527
 21
54.5607115863
  0
LINE
  5
257
100
AcDbEntity
  8
0
100
AcDbLine
 62
7
  6
CONTINUOUS
 10
42.0331865451
 20
54.8464801145
 11
41.7765057369
 21
54.8924983014
  0
LINE
  5
258
100
AcDbEntity
  8
0
100
AcDbLine
 62
7
  6
CONTINUOUS
 10
33.7942656403
 20
57.1334660263
 11
21.0662905877
 21
64.4817996077
  0
LINE
  5
259
100
AcDbEntity
  8
0
100
AcDbLine
 62
7
  6
CONTINUOUS
 10
42.0464588954
 20
55.1659060944
 11
42.0331865451
 21
54.8464801145
  0
LINE
  5
25A
100
AcDbEntity
  8
0
100
AcDbLine
 62
7
  6
CONTINUOUS
 10
42.5281633527
 20
54.5607115863
 11
42.5755760635
 21
55.7017944613
  0
LINE
  5
25B
100
AcDbEntity
  8
0
100
AcDbLine
 62
7
  6
CONTINUOUS
 10
43.9910066464
 20
56.6680005024
 11
43.8640253647
 21
56.3694906268
  0
LINE
  5
25C
100
AcDbEntity
  8
0
100
AcDbLine
 62
7
  6
CONTINUOUS
 10
44.2198046162
 20
55.7564939859
 11
44.8082564296
 21
57.1398370682
  0
LINE
  5
25D
100
AcDbEntity
  8
0
100
AcDbLine
 62
7
  6
CONTINUOUS
 10
42.5755760635
 20
55.7017944613
 11
41.6112245533
 21
54.7251019875
  0
LINE
  5
25E
100
AcDbEntity
  8
0
100
AcDbLine
 62
7
  6
CONTINUOUS
 10
66.7382334161
 20
69.8664925433
 11
68.8595449278
 21
71.0912250049
  0
LINE
  5
25F
100
AcDbEntity
  8
0
100
AcDbLine
 62
7
  6
CONTINUOUS
 10
43.7661267943
 20
56.5381668343
 11
44.8082564296
 21
57.1398370682
  0
LINE
  5
260
100
AcDbEntity
  8
0
100
AcDbLine
 62
7
  6
CONTINUOUS
 10
44.030863527
 20
53.4385669756
 11
44.3844183895
 21
53.2344465983
  0
LINE
  5
261
100
AcDbEntity
  8
0
100
AcDbLine
 62
7
  6
CONTINUOUS
 10
42.0331865451
 20
54.8464801145
 11
42.5281633527
 21
54.5607115863
  0
LINE
  5
262
100
AcDbEntity
  8
0
100
AcDbLine
 62
7
  6
CONTINUOUS
 10
43.7512065284
 20
53.6714912902
 11
44.030863527
 21
53.4385669756
  0
LINE
  5
263
100
AcDbEntity
  8
0
100
AcDbLine
 62
7
  6
CONTINUOUS
 10
44.3844183895
 20
53.2344465983
 11
43.7707229692
 21
53.745589126
  0
LINE
  5
264
100
AcDbEntity
  8
0
100
AcDbLine
 62
7
  6
CONTINUOUS
 10
43.4315252585
 20
52.457761263
 11
45.4585798286
 21
42.2590842948
  0
LINE
  5
265
100
AcDbEntity
  8
0
100
AcDbLine
 62
7
  6
CONTINUOUS
 10
44.030863527
 20
53.4385669756
 11
46.0579180971
 21
43.2398900074
  0
LINE
  5
266
100
AcDbEntity
  8
0
100
AcDbLine
 62
7
  6
CONTINUOUS
 10
43.7707229692
 20
53.745589126
 11
43.4315252585
 21
52.457761263
  0
LINE
  5
267
100
AcDbEntity
  8
0
100
AcDbLine
 62
7
  6
CONTINUOUS
 10
68.8595449278
 20
43.7986519095
 11
63.4849193715
 21
46.9016232226
  0
LINE
  5
268
100
AcDbEntity
  8
0
100
AcDbLine
 62
7
  6
CONTINUOUS
 10
49.1661431494
 20
56.1220835027
 11
49.5805588143
 21
55.8828259197
  0
LINE
  5
269
100
AcDbEntity
  8
0
100
AcDbLine
 62
7
  6
CONTINUOUS
 10
43.7661267943
 20
56.5381668343
 11
44.2198046162
 21
55.7564939859
  0
LINE
  5
26A
100
AcDbEntity
  8
0
100
AcDbLine
 62
7
  6
CONTINUOUS
 10
46.4114729597
 20
43.0357696302
 11
44.3844183895
 21
53.2344465983
  0
LINE
  5
26B
100
AcDbEntity
  8
0
100
AcDbLine
 62
7
  6
CONTINUOUS
 10
48.0800225939
 20
18.1139774884
 11
48.0800225939
 21
24.2622406894
  0
LINE
  5
26C
100
AcDbEntity
  8
0
100
AcDbLine
 62
7
  6
CONTINUOUS
 10
48.7871205432
 20
24.6704814439
 11
48.7871205432
 21
19.3387065507
  0
LINE
  5
26D
100
AcDbEntity
  8
0
100
AcDbLine
 62
7
  6
CONTINUOUS
 10
49.4942302683
 20
25.0787289972
 11
49.4942302683
 21
18.9304657962
  0
LINE
  5
26E
100
AcDbEntity
  8
0
100
AcDbLine
 62
7
  6
CONTINUOUS
 10
49.9798724742
 20
17.8146306475
 11
49.9798724742
 21
11.6092122773
  0
LINE
  5
26F
100
AcDbEntity
  8
0
100
AcDbLine
 62
7
  6
CONTINUOUS
 10
46.0579180971
 20
43.2398900074
 11
45.7863139187
 21
41.9914895536
  0
LINE
  5
270
100
AcDbEntity
  8
0
100
AcDbLine
 62
7
  6
CONTINUOUS
 10
46.124247381
 20
41.7155670293
 11
46.4114729597
 21
43.0357696302
  0
LINE
  5
271
100
AcDbEntity
  8
0
100
AcDbLine
 62
7
  6
CONTINUOUS
 10
34.7836394414
 20
69.347988206
 11
35.4907491666
 21
68.9397474514
  0
LWPOLYLINE
  5
272
100
AcDbEntity
  8
0
100
AcDbPolyline
 62
7
  6
CONTINUOUS
 90
4
 70
0
 10
47.5332120956
 20
42.4739496676
 10
49.6547332779
 20
45.3301401405
 10
51.0755594816
 20
48.595342757
 10
51.5656716453
 20
51.707539885
  0
LINE
  5
273
100
AcDbEntity
  8
0
100
AcDbLine
 62
7
  6
CONTINUOUS
 10
33.7942656403
 20
75.3414699283
 11
21.0662905877
 21
82.6898035097
  0
LINE
  5
274
100
AcDbEntity
  8
0
100
AcDbLine
 62
7
  6
CONTINUOUS
 10
66.7382334161
 20
69.8664925433
 11
63.9094428296
 21
70.5804894162
  0
LINE
  5
275
100
AcDbEntity
  8
0
100
AcDbLine
 62
7
  6
CONTINUOUS
 10
63.4849193715
 20
40.6956289203
 11
63.4849193715
 21
70.0840033449
  0
LINE
  5
276
100
AcDbEntity
  8
0
100
AcDbLine
 62
7
  6
CONTINUOUS
 10
63.5916095647
 20
18.8799954816
 11
63.5916095647
 21
19.4678772219
  0
LINE
  5
277
100
AcDbEntity
  8
0
100
AcDbLine
 62
7
  6
CONTINUOUS
 10
64.892692401
 20
21.0355838996
 11
64.892692401
 21
27.3226525115
  0
LINE
  5
278
100
AcDbEntity
  8
0
100
AcDbLine
 62
7
  6
CONTINUOUS
 10
65.5997903503
 20
27.730893266
 11
65.5997903503
 21
22.2603129619
  0
LINE
  5
279
100
AcDbEntity
  8
0
100
AcDbLine
 62
7
  6
CONTINUOUS
 10
68.8595449278
 20
43.7986519095
 11
63.4849193715
 21
40.6956289203
  0
LINE
  5
27A
100
AcDbEntity
  8
0
100
AcDbLine
 62
7
  6
CONTINUOUS
 10
66.3069000754
 20
28.1391408193
 11
66.3069000754
 21
21.8520722074
  0
LINE
  5
27B
100
AcDbEntity
  8
0
100
AcDbLine
 62
7
  6
CONTINUOUS
 10
66.7382216403
 20
20.6966819663
 11
66.7382216403
 21
21.2845919253
  0
LINE
  5
27C
100
AcDbEntity
  8
0
100
AcDbLine
 62
7
  6
CONTINUOUS
 10
68.8595449278
 20
22.5093311857
 11
68.8595449278
 21
43.7986519095
  0
LINE
  5
27D
100
AcDbEntity
  8
0
100
AcDbLine
 62
7
  6
CONTINUOUS
 10
68.8595449278
 20
71.0912250049
 11
68.8595449278
 21
80.86884145
  0
LINE
  5
27E
100
AcDbEntity
  8
0
100
AcDbLine
 62
7
  6
CONTINUOUS
 10
27.0626371101
 20
16.5043729106
 11
33.8225497938
 21
20.4071870216
  0
LINE
  5
27F
100
AcDbEntity
  8
0
100
AcDbLine
 62
7
  6
CONTINUOUS
 10
22.8343886343
 20
14.0466086012
 11
27.0770116576
 21
16.4960735245
  0
LINE
  5
280
100
AcDbEntity
  8
0
100
AcDbLine
 62
7
  6
CONTINUOUS
 10
34.3882328636
 20
20.6865182075
 11
35.035798364
 21
21.0603880918
  0
LINE
  5
281
100
AcDbEntity
  8
0
100
AcDbLine
 62
7
  6
CONTINUOUS
 10
48.0800225939
 20
24.2622406894
 11
49.4942302683
 21
25.0787289972
  0
LINE
  5
282
100
AcDbEntity
  8
0
100
AcDbLine
 62
7
  6
CONTINUOUS
 10
35.035798364
 20
15.8734579502
 11
34.3882328636
 21
15.4995880659
  0
LINE
  5
283
100
AcDbEntity
  8
0
100
AcDbLine
 62
7
  6
CONTINUOUS
 10
65.3369855717
 20
87.4987366972
 11
66.1907048233
 21
81.9477283963
  0
LINE
  5
284
100
AcDbEntity
  8
0
100
AcDbLine
 62
7
  6
CONTINUOUS
 10
66.4554181558
 20
88.3551076185
 11
67.1784703773
 21
83.6537155907
  0
LINE
  5
285
100
AcDbEntity
  8
0
100
AcDbLine
 62
7
  6
CONTINUOUS
 10
67.8855801024
 20
83.2454748362
 11
67.0318608508
 21
88.7964831371
  0
LINE
  5
286
100
AcDbEntity
  8
0
100
AcDbLine
 62
7
  6
CONTINUOUS
 10
66.7806596464
 20
94.3860597064
 11
68.8595449278
 21
80.86884145
  0
LINE
  5
287
100
AcDbEntity
  8
0
100
AcDbLine
 62
7
  6
CONTINUOUS
 10
48.7871205432
 20
19.3387065507
 11
48.0800225939
 21
18.9304657962
  0
LINE
  5
288
100
AcDbEntity
  8
0
100
AcDbLine
 62
7
  6
CONTINUOUS
 10
49.4942302683
 20
18.9304657962
 11
48.0800225939
 21
18.1139774884
  0
LINE
  5
289
100
AcDbEntity
  8
0
100
AcDbLine
 62
7
  6
CONTINUOUS
 10
64.892692401
 20
27.3226525115
 11
66.3069000754
 21
28.1391408193
  0
LINE
  5
28A
100
AcDbEntity
  8
0
100
AcDbLine
 62
7
  6
CONTINUOUS
 10
33.8225497938
 20
8.4862517316
 11
49.9798724742
 21
17.8146306475
  0
LINE
  5
28B
100
AcDbEntity
  8
0
100
AcDbLine
 62
7
  6
CONTINUOUS
 10
67.1784703773
 20
83.6537155907
 11
67.8855801024
 21
83.2454748362
  0
LINE
  5
28C
100
AcDbEntity
  8
0
100
AcDbLine
 62
7
  6
CONTINUOUS
 10
65.5997903503
 20
22.2603129619
 11
64.892692401
 21
21.8520722074
  0
LINE
  5
28D
100
AcDbEntity
  8
0
100
AcDbLine
 62
7
  6
CONTINUOUS
 10
66.3069000754
 20
21.8520722074
 11
64.892692401
 21
21.0355838996
  0
LINE
  5
28E
100
AcDbEntity
  8
0
100
AcDbLine
 62
7
  6
CONTINUOUS
 10
49.9798724742
 20
11.6092122773
 11
68.8595449278
 21
22.5093311857
  0
LINE
  5
28F
100
AcDbEntity
  8
0
100
AcDbLine
 62
7
  6
CONTINUOUS
 10
63.5916095647
 20
18.8799954816
 11
66.7382216403
 21
20.6966819663
  0
LINE
  5
290
100
AcDbEntity
  8
0
100
AcDbLine
 62
7
  6
CONTINUOUS
 10
66.7806596464
 20
94.3860597064
 11
54.0526845937
 21
101.7343932878
  0
ARC
  5
291
100
AcDbEntity
  8
0
100
AcDbCircle
 62
7
  6
CONTINUOUS
 10
53.7249444131
 20
43.0371586915
 40
15.2558942158
100
AcDbArc
 50
144.0152600013
 51
144.5190519537
  0
ARC
  5
292
100
AcDbEntity
  8
0
100
AcDbCircle
 62
7
  6
CONTINUOUS
 10
42.8403046049
 20
51.7913068766
 40
8.738541777
100
AcDbArc
 50
359.4983791608
 51
359.9992930305
  0
ARC
  5
293
100
AcDbEntity
  8
0
100
AcDbCircle
 62
7
  6
CONTINUOUS
 10
47.980196822
 20
53.0068412044
 40
3.2965737802
100
AcDbArc
 50
75.7265438034
 51
77.5953449297
  0
ARC
  5
294
100
AcDbEntity
  8
0
100
AcDbCircle
 62
7
  6
CONTINUOUS
 10
41.9509634622
 20
42.6678328501
 40
3.0756729177
100
AcDbArc
 50
240.0019832452
 51
240.9511663797
  0
ARC
  5
295
100
AcDbEntity
  8
0
100
AcDbCircle
 62
7
  6
CONTINUOUS
 10
48.1253086173
 20
53.3620489441
 40
3.0756723004
100
AcDbArc
 50
60.0019831757
 51
60.9508746151
  0
ARC
  5
296
100
AcDbEntity
  8
0
100
AcDbCircle
 62
7
  6
CONTINUOUS
 10
48.1255265625
 20
53.3624474015
 40
3.0752182532
100
AcDbArc
 50
59.0534583778
 51
60.0017881631
  0
ARC
  5
297
100
AcDbEntity
  8
0
100
AcDbCircle
 62
7
  6
CONTINUOUS
 10
41.9507449094
 20
42.6674333402
 40
3.0752176552
100
AcDbArc
 50
239.0537497195
 51
240.0017882311
  0
ARC
  5
298
100
AcDbEntity
  8
0
100
AcDbCircle
 62
7
  6
CONTINUOUS
 10
24.3173840936
 20
50.7443515641
 40
0.3622974072
100
AcDbArc
 50
60.0563984111
 51
72.396140073
  0
SPLINE
  5
299
100
AcDbEntity
  8
0
100
AcDbSpline
 62
7
  6
CONTINUOUS
 70
0
 71
3
 72
15
 73
11
 74
0
 42
0.0000001
 43
0.0000001
 44
0.0000000001
 40
0.0
 40
0.0
 40
0.0
 40
0.0
 40
0.1080121392
 40
0.2180611231
 40
0.3319978772
 40
0.4513559443
 40
0.5772769875
 40
0.7104924056
 40
0.8514102224
 40
1.0
 40
1.0
 40
1.0
 40
1.0
 10
49.5805552309
 20
55.8828197218
 30
0.0
 10
49.7295062225
 20
55.7968182253
 30
0.0
 10
50.0159013841
 20
55.5969991818
 30
0.0
 10
50.3942939706
 20
55.2245795826
 30
0.0
 10
50.7197399834
 20
54.7825870693
 30
0.0
 10
50.9892108792
 20
54.2759637159
 30
0.0
 10
51.2005871424
 20
53.7098858634
 30
0.0
 10
51.3522903298
 20
53.0898239545
 30
0.0
 10
51.4430991412
 20
52.4217730296
 30
0.0
 10
51.4621742481
 20
51.9604497726
 30
0.0
 10
51.4621742481
 20
51.7238387668
 30
0.0
  0
SPLINE
  5
29A
100
AcDbEntity
  8
0
100
AcDbSpline
 62
7
  6
CONTINUOUS
 70
0
 71
3
 72
30
 73
26
 74
0
 42
0.0000001
 43
0.0000001
 44
0.0000000001
 40
0.0
 40
0.0
 40
0.0
 40
0.0
 40
0.0306639766
 40
0.0623994662
 40
0.128723663
 40
0.1983027053
 40
0.2702643561
 40
0.3436267346
 40
0.4173433134
 40
0.4903526817
 40
0.56162464
 40
0.6302080943
 40
0.6952826496
 40
0.7263117577
 40
0.7562475862
 40
0.7850523549
 40
0.8127108092
 40
0.8392307662
 40
0.8646488601
 40
0.8890305916
 40
0.9124753988
 40
0.9351153916
 40
0.9571162591
 40
0.978672321
 40
1.0
 40
1.0
 40
1.0
 40
1.0
 10
51.4621742481
 20
51.7238387668
 30
0.0
 10
51.4621742481
 20
51.5385385928
 30
0.0
 10
51.4499332848
 20
51.1613712161
 30
0.0
 10
51.3787137421
 20
50.386415819
 30
0.0
 10
51.2009745447
 20
49.3869816258
 30
0.0
 10
50.8594178438
 20
48.1763356264
 30
0.0
 10
50.3936268297
 20
46.9622488091
 30
0.0
 10
49.8135896277
 20
45.7706778881
 30
0.0
 10
49.1316502436
 20
44.6269847907
 30
0.0
 10
48.3623724033
 20
43.5555860535
 30
0.0
 10
47.5221092704
 20
42.5792813633
 30
0.0
 10
46.6287949534
 20
41.7189286624
 30
0.0
 10
45.8434685116
 20
41.1040657398
 30
0.0
 10
45.2044685256
 20
40.6888479719
 30
0.0
 10
44.7317898999
 20
40.4218876589
 30
0.0
 10
44.2606496709
 20
40.1959336665
 30
0.0
 10
43.7935580315
 20
40.0121758684
 30
0.0
 10
43.3329694238
 20
39.8716970059
 30
0.0
 10
42.8813455498
 20
39.7752409451
 30
0.0
 10
42.4410682624
 20
39.723485633
 30
0.0
 10
42.0145099967
 20
39.7167441784
 30
0.0
 10
41.6040030918
 20
39.755255121
 30
0.0
 10
41.2118279507
 20
39.8388920339
 30
0.0
 10
40.8403349151
 20
39.967313279
 30
0.0
 10
40.607329797
 20
40.0826181458
 30
0.0
 10
40.4957165431
 20
40.1470615359
 30
0.0
  0
SPLINE
  5
29B
100
AcDbEntity
  8
0
100
AcDbSpline
 62
7
  6
CONTINUOUS
 70
0
 71
3
 72
15
 73
11
 74
0
 42
0.0000001
 43
0.0000001
 44
0.0000000001
 40
0.0
 40
0.0
 40
0.0
 40
0.0
 40
0.1109466085
 40
0.227778896
 40
0.3497296877
 40
0.475883501
 40
0.6051707285
 40
0.7364345142
 40
0.8684570364
 40
1.0
 40
1.0
 40
1.0
 40
1.0
 10
38.6140975259
 20
44.3060424909
 30
0.0
 10
38.6140975259
 20
44.6080868275
 30
0.0
 10
38.646793005
 20
45.2285033897
 30
0.0
 10
38.7837277908
 20
46.1718480657
 30
0.0
 10
39.0079881851
 20
47.140832927
 30
0.0
 10
39.3163673399
 20
48.1218808476
 30
0.0
 10
39.7046077491
 20
49.1014122085
 30
0.0
 10
40.1672837467
 20
50.0657819153
 30
0.0
 10
40.6979109362
 20
51.001485499
 30
0.0
 10
41.0940756702
 20
51.6005545863
 30
0.0
 10
41.3019390361
 20
51.892171155
 30
0.0
  0
SPLINE
  5
29C
100
AcDbEntity
  8
0
100
AcDbSpline
 62
7
  6
CONTINUOUS
 70
0
 71
3
 72
18
 73
14
 74
0
 42
0.0000001
 43
0.0000001
 44
0.0000000001
 40
0.0
 40
0.0
 40
0.0
 40
0.0
 40
0.1515026653
 40
0.2980402079
 40
0.4376631409
 40
0.5687993592
 40
0.6308701517
 40
0.6904836122
 40
0.8022363357
 40
0.8546222256
 40
0.9048626642
 40
0.9532114526
 40
1.0
 40
1.0
 40
1.0
 40
1.0
 10
41.3802788691
 20
52.0010607956
 30
0.0
 10
41.6433984694
 20
52.3634140345
 30
0.0
 10
42.1926751201
 20
53.0539591436
 30
0.0
 10
43.0901527745
 20
53.9883617135
 30
0.0
 10
44.0316972466
 20
54.7886113453
 30
0.0
 10
44.8505185924
 20
55.3386976179
 30
0.0
 10
45.5096059597
 20
55.6921469899
 30
0.0
 10
46.1394986162
 20
55.9746109317
 30
0.0
 10
46.7730271963
 20
56.1770866348
 30
0.0
 10
47.3983940698
 20
56.284346862
 30
0.0
 10
47.8443761325
 20
56.3157297871
 30
0.0
 10
48.2746162883
 20
56.2994503003
 30
0.0
 10
48.5532822115
 20
56.2561677012
 30
0.0
 10
48.6883492554
 20
56.2264559049
 30
0.0
  0
SPLINE
  5
29D
100
AcDbEntity
  8
0
100
AcDbSpline
 62
7
  6
CONTINUOUS
 70
0
 71
3
 72
9
 73
5
 74
0
 42
0.0000001
 43
0.0000001
 44
0.0000000001
 40
0.0
 40
0.0
 40
0.0
 40
0.0
 40
0.5031762399
 40
1.0
 40
1.0
 40
1.0
 40
1.0
 10
48.7929672977
 20
56.2016499377
 30
0.0
 10
48.9314048554
 20
56.1664197478
 30
0.0
 10
49.2022649829
 20
56.0781747985
 30
0.0
 10
49.4584069635
 20
55.9533458303
 30
0.0
 10
49.5805552309
 20
55.8828197218
 30
0.0
  0
SPLINE
  5
29E
100
AcDbEntity
  8
0
100
AcDbSpline
 62
7
  6
CONTINUOUS
 70
0
 71
3
 72
15
 73
11
 74
0
 42
0.0000001
 43
0.0000001
 44
0.0000000001
 40
0.0
 40
0.0
 40
0.0
 40
0.0
 40
0.1080121392
 40
0.2180611231
 40
0.3319978772
 40
0.4513559443
 40
0.5772769875
 40
0.7104924056
 40
0.8514102224
 40
1.0
 40
1.0
 40
1.0
 40
1.0
 10
40.4957165431
 20
40.1470615359
 30
0.0
 10
40.3467655516
 20
40.2330630324
 30
0.0
 10
40.06037039
 20
40.432882076
 30
0.0
 10
39.6819778035
 20
40.8053016751
 30
0.0
 10
39.3565317907
 20
41.2472941885
 30
0.0
 10
39.0870608949
 20
41.7539175418
 30
0.0
 10
38.8756846316
 20
42.3199953944
 30
0.0
 10
38.7239814442
 20
42.9400573032
 30
0.0
 10
38.6331726328
 20
43.6081082282
 30
0.0
 10
38.6140975259
 20
44.0694314852
 30
0.0
 10
38.6140975259
 20
44.3060424909
 30
0.0
  0
SPLINE
  5
29F
100
AcDbEntity
  8
0
100
AcDbSpline
 62
7
  6
CONTINUOUS
 70
0
 71
3
 72
11
 73
7
 74
0
 42
0.0000001
 43
0.0000001
 44
0.0000000001
 40
0.0
 40
0.0
 40
0.0
 40
0.0
 40
0.2177651606
 40
0.4508956102
 40
0.7103690052
 40
1.0
 40
1.0
 40
1.0
 40
1.0
 10
24.3907386062
 20
50.8721145083
 30
0.0
 10
24.4187684933
 20
50.8559169616
 30
0.0
 10
24.4712560063
 20
50.8118582503
 30
0.0
 10
24.5270974642
 20
50.7205137164
 30
0.0
 10
24.5602481035
 20
50.6079755628
 30
0.0
 10
24.5667930355
 20
50.526068759
 30
0.0
 10
24.5667930355
 20
50.4830116816
 30
0.0
  0
SPLINE
  5
2A0
100
AcDbEntity
  8
0
100
AcDbSpline
 62
7
  6
CONTINUOUS
 70
0
 71
3
 72
17
 73
13
 74
0
 42
0.0000001
 43
0.0000001
 44
0.0000000001
 40
0.0
 40
0.0
 40
0.0
 40
0.0
 40
0.1286891333
 40
0.2702803493
 40
0.4174326844
 40
0.5617743804
 40
0.6954465661
 40
0.8127104963
 40
0.8646756522
 40
0.91250911
 40
0.9571392634
 40
1.0
 40
1.0
 40
1.0
 40
1.0
 10
24.5667930355
 20
50.4830116816
 30
0.0
 10
24.5667930355
 20
50.4103581106
 30
0.0
 10
24.5464672213
 20
50.2575929376
 30
0.0
 10
24.4706082245
 20
50.0332909342
 30
0.0
 10
24.3537095726
 20
49.8172185534
 30
0.0
 10
24.2051735038
 20
49.6270912239
 30
0.0
 10
24.0371348376
 20
49.4782659495
 30
0.0
 10
23.8850363379
 20
49.3950964543
 30
0.0
 10
23.7660572385
 20
49.3634475991
 30
0.0
 10
23.6841702682
 20
49.3574170431
 30
0.0
 10
23.6079198757
 20
49.3685914232
 30
0.0
 10
23.5617221055
 20
49.3877868072
 30
0.0
 10
23.5407709415
 20
49.3998937934
 30
0.0
  0
SPLINE
  5
2A1
100
AcDbEntity
  8
0
100
AcDbSpline
 62
7
  6
CONTINUOUS
 70
0
 71
3
 72
17
 73
13
 74
0
 42
0.0000001
 43
0.0000001
 44
0.0000000001
 40
0.0
 40
0.0
 40
0.0
 40
0.0
 40
0.1286891333
 40
0.2702803493
 40
0.4174326844
 40
0.5617743804
 40
0.6954465661
 40
0.8127104963
 40
0.8646756522
 40
0.91250911
 40
0.9571392634
 40
1.0
 40
1.0
 40
1.0
 40
1.0
 10
23.3647165122
 20
49.7889966201
 30
0.0
 10
23.3647165122
 20
49.8616501911
 30
0.0
 10
23.3850423264
 20
50.0144153641
 30
0.0
 10
23.4609013232
 20
50.2387173675
 30
0.0
 10
23.5777999751
 20
50.4547897483
 30
0.0
 10
23.7263360439
 20
50.6449170778
 30
0.0
 10
23.8943747101
 20
50.7937423522
 30
0.0
 10
24.0464732098
 20
50.8769118474
 30
0.0
 10
24.1654523092
 20
50.9085607026
 30
0.0
 10
24.2473392795
 20
50.9145912586
 30
0.0
 10
24.323589672
 20
50.9034168785
 30
0.0
 10
24.3697874422
 20
50.8842214945
 30
0.0
 10
24.3907386062
 20
50.8721145083
 30
0.0
  0
SPLINE
  5
2A2
100
AcDbEntity
  8
0
100
AcDbSpline
 62
7
  6
CONTINUOUS
 70
0
 71
3
 72
11
 73
7
 74
0
 42
0.0000001
 43
0.0000001
 44
0.0000000001
 40
0.0
 40
0.0
 40
0.0
 40
0.0
 40
0.2177651606
 40
0.4508956102
 40
0.7103690052
 40
1.0
 40
1.0
 40
1.0
 40
1.0
 10
23.5407709415
 20
49.3998937934
 30
0.0
 10
23.5127410545
 20
49.4160913401
 30
0.0
 10
23.4602535414
 20
49.4601500514
 30
0.0
 10
23.4044120835
 20
49.5514945853
 30
0.0
 10
23.3712614442
 20
49.6640327389
 30
0.0
 10
23.3647165122
 20
49.7459395427
 30
0.0
 10
23.3647165122
 20
49.7889966201
 30
0.0
  0
SPLINE
  5
2A3
100
AcDbEntity
  8
0
100
AcDbSpline
 62
7
  6
CONTINUOUS
 70
0
 71
3
 72
11
 73
7
 74
0
 42
0.0000001
 43
0.0000001
 44
0.0000000001
 40
0.0
 40
0.0
 40
0.0
 40
0.0
 40
0.2177245443
 40
0.4508738016
 40
0.7104688578
 40
1.0
 40
1.0
 40
1.0
 40
1.0
 10
46.8806835504
 20
70.1652189663
 30
0.0
 10
46.8477082568
 20
70.1842585312
 30
0.0
 10
46.7719532778
 20
70.211826412
 30
0.0
 10
46.6460244353
 20
70.2150009716
 30
0.0
 10
46.5118768854
 20
70.1825265479
 30
0.0
 10
46.424565443
 20
70.1410464095
 30
0.0
 10
46.3807139427
 20
70.1157288851
 30
0.0
  0
SPLINE
  5
2A4
100
AcDbEntity
  8
0
100
AcDbSpline
 62
7
  6
CONTINUOUS
 70
0
 71
3
 72
14
 73
10
 74
0
 42
0.0000001
 43
0.0000001
 44
0.0000000001
 40
0.0
 40
0.0
 40
0.0
 40
0.0
 40
0.0900997826
 40
0.1951895983
 40
0.3165194696
 40
0.4513649913
 40
0.7368346999
 40
0.8746963418
 40
1.0
 40
1.0
 40
1.0
 40
1.0
 10
63.9094428296
 20
70.5804894162
 30
0.0
 10
63.8885135877
 20
70.5857720317
 30
0.0
 10
63.8402284255
 20
70.5859742176
 30
0.0
 10
63.7678792277
 20
70.5602817401
 30
0.0
 10
63.6953612243
 20
70.5117052592
 30
0.0
 10
63.6031757269
 20
70.4196701814
 30
0.0
 10
63.5324976498
 20
70.3028731666
 30
0.0
 10
63.4928198368
 20
70.1771529483
 30
0.0
 10
63.4849193715
 20
70.114022926
 30
0.0
 10
63.4849193715
 20
70.0840033449
 30
0.0
  0
SPLINE
  5
2A5
100
AcDbEntity
  8
0
100
AcDbSpline
 62
7
  6
CONTINUOUS
 70
0
 71
3
 72
9
 73
5
 74
0
 42
0.0000001
 43
0.0000001
 44
0.0000000001
 40
0.0
 40
0.0
 40
0.0
 40
0.0
 40
0.5386132106
 40
1.0
 40
1.0
 40
1.0
 40
1.0
 10
23.2126891872
 20
49.701224127
 30
0.0
 10
23.2126891872
 20
49.627662729
 30
0.0
 10
23.2271112741
 20
49.4901961312
 30
0.0
 10
23.2847100195
 20
49.3622131672
 30
0.0
 10
23.3228311731
 20
49.3120378587
 30
0.0
  0
SPLINE
  5
2A6
100
AcDbEntity
  8
0
100
AcDbSpline
 62
7
  6
CONTINUOUS
 70
0
 71
3
 72
9
 73
5
 74
0
 42
0.0000001
 43
0.0000001
 44
0.0000000001
 40
0.0
 40
0.0
 40
0.0
 40
0.0
 40
0.2564498961
 40
1.0
 40
1.0
 40
1.0
 40
1.0
 10
23.3228311731
 20
49.3120378587
 30
0.0
 10
23.3305067836
 20
49.3019351707
 30
0.0
 10
23.3621905703
 20
49.263913706
 30
0.0
 10
23.4014274846
 20
49.2321135235
 30
0.0
 10
23.4332856829
 20
49.2137198197
 30
0.0
  0
SPLINE
  5
2A7
100
AcDbEntity
  8
0
100
AcDbSpline
 62
7
  6
CONTINUOUS
 70
0
 71
3
 72
15
 73
11
 74
0
 42
0.0000001
 43
0.0000001
 44
0.0000000001
 40
0.0
 40
0.0
 40
0.0
 40
0.0
 40
0.1483172127
 40
0.289191746
 40
0.4224360783
 40
0.5484232724
 40
0.6679018633
 40
0.781969028
 40
0.8920710637
 40
1.0
 40
1.0
 40
1.0
 40
1.0
 10
38.4974253928
 20
44.2386822056
 30
0.0
 10
38.4974253928
 20
44.0007251892
 30
0.0
 10
38.5164797685
 20
43.5364471989
 30
0.0
 10
38.6066131764
 20
42.8636735611
 30
0.0
 10
38.7574489276
 20
42.2384045113
 30
0.0
 10
38.9675368827
 20
41.6666742127
 30
0.0
 10
39.2355244885
 20
41.1538822267
 30
0.0
 10
39.5590609418
 20
40.7048675301
 30
0.0
 10
39.9355818456
 20
40.3247808443
 30
0.0
 10
40.2208543782
 20
40.1190166057
 30
0.0
 10
40.3693642592
 20
40.029972655
 30
0.0
  0
SPLINE
  5
2A8
100
AcDbEntity
  8
0
100
AcDbSpline
 62
7
  6
CONTINUOUS
 70
0
 71
3
 72
11
 73
7
 74
0
 42
0.0000001
 43
0.0000001
 44
0.0000000001
 40
0.0
 40
0.0
 40
0.0
 40
0.0
 40
0.2893975675
 40
0.5491290883
 40
0.7823145228
 40
1.0
 40
1.0
 40
1.0
 40
1.0
 10
32.6416863857
 20
24.7673217105
 30
0.0
 10
32.6416863857
 20
24.7306270304
 30
0.0
 10
32.6473258783
 20
24.6607750673
 30
0.0
 10
32.6755109346
 20
24.5647480723
 30
0.0
 10
32.7231942209
 20
24.4868377479
 30
0.0
 10
32.767944491
 20
24.4492373007
 30
0.0
 10
32.7918582488
 20
24.4354535228
 30
0.0
  0
SPLINE
  5
2A9
100
AcDbEntity
  8
0
100
AcDbSpline
 62
7
  6
CONTINUOUS
 70
0
 71
3
 72
11
 73
7
 74
0
 42
0.0000001
 43
0.0000001
 44
0.0000000001
 40
0.0
 40
0.0
 40
0.0
 40
0.0
 40
0.2895463391
 40
0.5491378616
 40
0.7822784713
 40
1.0
 40
1.0
 40
1.0
 40
1.0
 10
52.2037140422
 20
81.234392455
 30
0.0
 10
52.2037140422
 20
81.1602047744
 30
0.0
 10
52.2150419929
 20
81.0190368509
 30
0.0
 10
52.2721099235
 20
80.8250450323
 30
0.0
 10
52.3683827332
 20
80.6675974212
 30
0.0
 10
52.458852955
 20
80.5916807022
 30
0.0
 10
52.5071636818
 20
80.5637879385
 30
0.0
  0
SPLINE
  5
2AA
100
AcDbEntity
  8
0
100
AcDbSpline
 62
7
  6
CONTINUOUS
 70
0
 71
3
 72
11
 73
7
 74
0
 42
0.0000001
 43
0.0000001
 44
0.0000000001
 40
0.0
 40
0.0
 40
0.0
 40
0.0
 40
0.2895463391
 40
0.5491378616
 40
0.7822784713
 40
1.0
 40
1.0
 40
1.0
 40
1.0
 10
52.2037140422
 20
66.2107479798
 30
0.0
 10
52.2037140422
 20
66.1365602992
 30
0.0
 10
52.2150419929
 20
65.9953923758
 30
0.0
 10
52.2721099235
 20
65.8014005571
 30
0.0
 10
52.3683827332
 20
65.643952946
 30
0.0
 10
52.458852955
 20
65.568036227
 30
0.0
 10
52.5071636818
 20
65.5401434633
 30
0.0
  0
SPLINE
  5
2AB
100
AcDbEntity
  8
0
100
AcDbSpline
 62
7
  6
CONTINUOUS
 70
0
 71
3
 72
17
 73
13
 74
0
 42
0.0000001
 43
0.0000001
 44
0.0000000001
 40
0.0
 40
0.0
 40
0.0
 40
0.0
 40
0.128683677
 40
0.2703019317
 40
0.4174419792
 40
0.5617806345
 40
0.6954483591
 40
0.812712644
 40
0.8646793555
 40
0.9125090668
 40
0.9571393752
 40
1.0
 40
1.0
 40
1.0
 40
1.0
 10
42.3714351857
 20
64.1267236556
 30
0.0
 10
42.2974146353
 20
64.083988126
 30
0.0
 10
42.1537238969
 20
63.9733962772
 30
0.0
 10
41.9697954252
 20
63.7641728929
 30
0.0
 10
41.8184359563
 20
63.5179429975
 30
0.0
 10
41.712099941
 20
63.2547834086
 30
0.0
 10
41.6593181973
 20
62.9960276751
 30
0.0
 10
41.6640876564
 20
62.7921524686
 30
0.0
 10
41.7017747439
 20
62.652293011
 30
0.0
 10
41.7438484176
 20
62.5653444913
 30
0.0
 10
41.8000408815
 20
62.4941905995
 30
0.0
 10
41.8468120288
 20
62.4584634233
 30
0.0
 10
41.8714655781
 20
62.4442287402
 30
0.0
  0
SPLINE
  5
2AC
100
AcDbEntity
  8
0
100
AcDbSpline
 62
7
  6
CONTINUOUS
 70
0
 71
3
 72
17
 73
13
 74
0
 42
0.0000001
 43
0.0000001
 44
0.0000000001
 40
0.0
 40
0.0
 40
0.0
 40
0.0
 40
0.128683677
 40
0.2703019317
 40
0.4174419792
 40
0.5617806345
 40
0.6954483591
 40
0.812712644
 40
0.8646793555
 40
0.9125090668
 40
0.9571393752
 40
1.0
 40
1.0
 40
1.0
 40
1.0
 10
46.3807139427
 20
70.1157288851
 30
0.0
 10
46.3066933923
 20
70.0729933555
 30
0.0
 10
46.1630026539
 20
69.9624015067
 30
0.0
 10
45.9790741822
 20
69.7531781224
 30
0.0
 10
45.8277147133
 20
69.5069482271
 30
0.0
 10
45.721378698
 20
69.2437886381
 30
0.0
 10
45.6685969543
 20
68.9850329047
 30
0.0
 10
45.6733664134
 20
68.7811576981
 30
0.0
 10
45.7110535009
 20
68.6412982405
 30
0.0
 10
45.7531271746
 20
68.5543497209
 30
0.0
 10
45.8093196385
 20
68.483195829
 30
0.0
 10
45.8560907858
 20
68.4474686528
 30
0.0
 10
45.8807443351
 20
68.4332339698
 30
0.0
  0
SPLINE
  5
2AD
100
AcDbEntity
  8
0
100
AcDbSpline
 62
7
  6
CONTINUOUS
 70
0
 71
3
 72
11
 73
7
 74
0
 42
0.0000001
 43
0.0000001
 44
0.0000000001
 40
0.0
 40
0.0
 40
0.0
 40
0.0
 40
0.2177245443
 40
0.4508738016
 40
0.7104688578
 40
1.0
 40
1.0
 40
1.0
 40
1.0
 10
42.8714047934
 20
64.1762137367
 30
0.0
 10
42.8384294998
 20
64.1952533017
 30
0.0
 10
42.7626745208
 20
64.2228211825
 30
0.0
 10
42.6367456783
 20
64.2259957421
 30
0.0
 10
42.5025981284
 20
64.1935213183
 30
0.0
 10
42.415286686
 20
64.15204118
 30
0.0
 10
42.3714351857
 20
64.1267236556
 30
0.0
  0
SPLINE
  5
2AE
100
AcDbEntity
  8
0
100
AcDbSpline
 62
7
  6
CONTINUOUS
 70
0
 71
3
 72
17
 73
13
 74
0
 42
0.0000001
 43
0.0000001
 44
0.0000000001
 40
0.0
 40
0.0
 40
0.0
 40
0.0
 40
0.0428567682
 40
0.0874846361
 40
0.1353115866
 40
0.1872772446
 40
0.3045367808
 40
0.4381985211
 40
0.5825369695
 40
0.729684371
 40
0.8713138527
 40
1.0
 40
1.0
 40
1.0
 40
1.0
 10
53.9720786457
 20
68.0775078672
 30
0.0
 10
53.9359644009
 20
68.0983588492
 30
0.0
 10
53.8563814845
 20
68.1315235981
 30
0.0
 10
53.7249562278
 20
68.1506914136
 30
0.0
 10
53.5838301753
 20
68.1403912112
 30
0.0
 10
53.3787920965
 20
68.085755744
 30
0.0
 10
53.1166462984
 20
67.9424842068
 30
0.0
 10
52.827026506
 20
67.6859915287
 30
0.0
 10
52.5710398345
 20
67.3583205742
 30
0.0
 10
52.3694985537
 20
66.9859149736
 30
0.0
 10
52.2387739997
 20
66.5992878468
 30
0.0
 10
52.2037140422
 20
66.3359647327
 30
0.0
 10
52.2037140422
 20
66.2107479798
 30
0.0
  0
SPLINE
  5
2AF
100
AcDbEntity
  8
0
100
AcDbSpline
 62
7
  6
CONTINUOUS
 70
0
 71
3
 72
17
 73
13
 74
0
 42
0.0000001
 43
0.0000001
 44
0.0000000001
 40
0.0
 40
0.0
 40
0.0
 40
0.0
 40
0.0428567682
 40
0.0874846361
 40
0.1353115866
 40
0.1872772446
 40
0.3045367808
 40
0.4381985211
 40
0.5825369695
 40
0.729684371
 40
0.8713138527
 40
1.0
 40
1.0
 40
1.0
 40
1.0
 10
53.9720786457
 20
83.1011523424
 30
0.0
 10
53.9359644009
 20
83.1220033244
 30
0.0
 10
53.8563814845
 20
83.1551680733
 30
0.0
 10
53.7249562278
 20
83.1743358888
 30
0.0
 10
53.5838301753
 20
83.1640356864
 30
0.0
 10
53.3787920965
 20
83.1094002191
 30
0.0
 10
53.1166462984
 20
82.966128682
 30
0.0
 10
52.827026506
 20
82.7096360039
 30
0.0
 10
52.5710398345
 20
82.3819650494
 30
0.0
 10
52.3694985537
 20
82.0095594488
 30
0.0
 10
52.2387739997
 20
81.622932322
 30
0.0
 10
52.2037140422
 20
81.3596092079
 30
0.0
 10
52.2037140422
 20
81.234392455
 30
0.0
  0
SPLINE
  5
2B0
100
AcDbEntity
  8
0
100
AcDbSpline
 62
7
  6
CONTINUOUS
 70
0
 71
3
 72
17
 73
13
 74
0
 42
0.0000001
 43
0.0000001
 44
0.0000000001
 40
0.0
 40
0.0
 40
0.0
 40
0.0
 40
0.0428569944
 40
0.0874783169
 40
0.1353167971
 40
0.1872729805
 40
0.3045398562
 40
0.438205313
 40
0.5825464442
 40
0.7296715376
 40
0.8713404129
 40
1.0
 40
1.0
 40
1.0
 40
1.0
 10
33.5168150865
 20
25.6911439213
 30
0.0
 10
33.4989354736
 20
25.7014496464
 30
0.0
 10
33.4595482499
 20
25.7178253224
 30
0.0
 10
33.3945170142
 20
25.7274009708
 30
0.0
 10
33.3246827777
 20
25.7222119589
 30
0.0
 10
33.2231910441
 20
25.6952762007
 30
0.0
 10
33.0934798164
 20
25.6242995077
 30
0.0
 10
32.9501476355
 20
25.4973829585
 30
0.0
 10
32.8234891673
 20
25.3352147521
 30
0.0
 10
32.7237175857
 20
25.1509287486
 30
0.0
 10
32.6590585059
 20
24.959589484
 30
0.0
 10
32.6416863857
 20
24.8292755765
 30
0.0
 10
32.6416863857
 20
24.7673217105
 30
0.0
  0
SPLINE
  5
2B1
100
AcDbEntity
  8
0
100
AcDbSpline
 62
7
  6
CONTINUOUS
 70
0
 71
3
 72
13
 73
9
 74
0
 42
0.0000001
 43
0.0000001
 44
0.0000000001
 40
0.0
 40
0.0
 40
0.0
 40
0.0
 40
0.1142247162
 40
0.2375579183
 40
0.4999983243
 40
0.7624396433
 40
0.8857739388
 40
1.0
 40
1.0
 40
1.0
 40
1.0
 10
11.2377797212
 20
58.8073400851
 30
0.0
 10
11.1593664362
 20
58.7620684242
 30
0.0
 10
11.00443059
 20
58.6534350253
 30
0.0
 10
10.7143441823
 20
58.3819795541
 30
0.0
 10
10.4079639491
 20
57.9634447287
 30
0.0
 10
10.1986943768
 20
57.4888424685
 30
0.0
 10
10.1086506346
 20
57.1018897453
 30
0.0
 10
10.0920390341
 20
56.9133927802
 30
0.0
 10
10.0920390341
 20
56.8228479867
 30
0.0
  0
SPLINE
  5
2B2
100
AcDbEntity
  8
0
100
AcDbSpline
 62
7
  6
CONTINUOUS
 70
0
 71
3
 72
11
 73
7
 74
0
 42
0.0000001
 43
0.0000001
 44
0.0000000001
 40
0.0
 40
0.0
 40
0.0
 40
0.0
 40
0.2894987716
 40
0.54896258
 40
0.7820630662
 40
1.0
 40
1.0
 40
1.0
 40
1.0
 10
10.0920390341
 20
56.8228479867
 30
0.0
 10
10.0920390341
 20
56.7408078801
 30
0.0
 10
10.1045703802
 20
56.5847219139
 30
0.0
 10
10.1676315515
 20
56.370219852
 30
0.0
 10
10.2740592247
 20
56.1960130544
 30
0.0
 10
10.3742043239
 20
56.1120711151
 30
0.0
 10
10.4276760762
 20
56.0811660556
 30
0.0
  0
SPLINE
  5
2B3
100
AcDbEntity
  8
0
100
AcDbSpline
 62
7
  6
CONTINUOUS
 70
0
 71
3
 72
11
 73
7
 74
0
 42
0.0000001
 43
0.0000001
 44
0.0000000001
 40
0.0
 40
0.0
 40
0.0
 40
0.0
 40
0.2177839466
 40
0.4509170841
 40
0.710307871
 40
1.0
 40
1.0
 40
1.0
 40
1.0
 10
48.153933803
 20
14.8044483685
 30
0.0
 10
48.2363941262
 20
14.8520715847
 30
0.0
 10
48.3906984232
 20
14.9817681765
 30
0.0
 10
48.5549591849
 20
15.2503554874
 30
0.0
 10
48.6525151301
 20
15.5813398732
 30
0.0
 10
48.6717194826
 20
15.822237645
 30
0.0
 10
48.6717194826
 20
15.9489032844
 30
0.0
  0
SPLINE
  5
2B4
100
AcDbEntity
  8
0
100
AcDbSpline
 62
7
  6
CONTINUOUS
 70
0
 71
3
 72
11
 73
7
 74
0
 42
0.0000001
 43
0.0000001
 44
0.0000000001
 40
0.0
 40
0.0
 40
0.0
 40
0.0
 40
0.2177839466
 40
0.4509170841
 40
0.710307871
 40
1.0
 40
1.0
 40
1.0
 40
1.0
 10
31.8905446639
 20
11.7427239359
 30
0.0
 10
31.9730049871
 20
11.7903471521
 30
0.0
 10
32.1273092841
 20
11.9200437439
 30
0.0
 10
32.2915700458
 20
12.1886310548
 30
0.0
 10
32.389125991
 20
12.5196154406
 30
0.0
 10
32.4083303435
 20
12.7605132124
 30
0.0
 10
32.4083303435
 20
12.8871788518
 30
0.0
  0
SPLINE
  5
2B5
100
AcDbEntity
  8
0
100
AcDbSpline
 62
7
  6
CONTINUOUS
 70
0
 71
3
 72
9
 73
5
 74
0
 42
0.0000001
 43
0.0000001
 44
0.0000000001
 40
0.0
 40
0.0
 40
0.0
 40
0.0
 40
0.4884054479
 40
1.0
 40
1.0
 40
1.0
 40
1.0
 10
25.5265571376
 20
15.4168907266
 30
0.0
 10
25.5931383809
 20
15.4553433159
 30
0.0
 10
25.7188673729
 20
15.553778688
 30
0.0
 10
25.8140135429
 20
15.6814509689
 30
0.0
 10
25.8546653421
 20
15.7509763855
 30
0.0
  0
SPLINE
  5
2B6
100
AcDbEntity
  8
0
100
AcDbSpline
 62
7
  6
CONTINUOUS
 70
0
 71
3
 72
16
 73
12
 74
0
 42
0.0000001
 43
0.0000001
 44
0.0000000001
 40
0.0
 40
0.0
 40
0.0
 40
0.0
 40
0.0891550397
 40
0.1390365242
 40
0.1930800307
 40
0.3134919174
 40
0.4480390977
 40
0.5910735185
 40
0.7354577561
 40
0.8739240092
 40
1.0
 40
1.0
 40
1.0
 40
1.0
 10
24.4269551857
 20
51.0896826907
 30
0.0
 10
24.3690679005
 20
51.1080731617
 30
0.0
 10
24.2708645307
 20
51.1137830354
 30
0.0
 10
24.1420748045
 20
51.0860364775
 30
0.0
 10
23.9988117543
 20
51.031054256
 30
0.0
 10
23.8199676114
 20
50.9160756497
 30
0.0
 10
23.624425528
 20
50.7262940571
 30
0.0
 10
23.4539716704
 20
50.4932248385
 30
0.0
 10
23.3210164702
 20
50.233931417
 30
0.0
 10
23.2354159627
 20
49.9675406969
 30
0.0
 10
23.2126891872
 20
49.787115488
 30
0.0
 10
23.2126891872
 20
49.701224127
 30
0.0
  0
SPLINE
  5
2B7
100
AcDbEntity
  8
0
100
AcDbSpline
 62
7
  6
CONTINUOUS
 70
0
 71
3
 72
23
 73
19
 74
0
 42
0.0000001
 43
0.0000001
 44
0.0000000001
 40
0.0
 40
0.0
 40
0.0
 40
0.0
 40
0.0428201272
 40
0.0874974202
 40
0.135424361
 40
0.18748932
 40
0.2440762258
 40
0.3051397183
 40
0.3702999823
 40
0.4389250822
 40
0.5101973882
 40
0.5831706102
 40
0.6568208248
 40
0.7300976544
 40
0.8019672303
 40
0.8714462646
 40
0.9377055166
 40
1.0
 40
1.0
 40
1.0
 40
1.0
 10
49.6187300315
 20
56.0508130801
 30
0.0
 10
49.3891307157
 20
56.1783399646
 30
0.0
 10
48.884033652
 20
56.3788005962
 30
0.0
 10
48.0535802575
 20
56.4888608069
 30
0.0
 10
47.1634470914
 20
56.4135314089
 30
0.0
 10
46.2330669365
 20
56.1578451653
 30
0.0
 10
45.2805788858
 20
55.7292951477
 30
0.0
 10
44.3248065359
 20
55.1376991938
 30
0.0
 10
43.385021439
 20
54.3956942879
 30
0.0
 10
42.4805980704
 20
53.518857172
 30
0.0
 10
41.6304586202
 20
52.5255920147
 30
0.0
 10
40.8524868392
 20
51.4368784093
 30
0.0
 10
40.1630867618
 20
50.275760088
 30
0.0
 10
39.5768656047
 20
49.0667672203
 30
0.0
 10
39.1063180958
 20
47.8355067469
 30
0.0
 10
38.7611576583
 20
46.6077903183
 30
0.0
 10
38.5490447881
 20
45.4097719337
 30
0.0
 10
38.4974253928
 20
44.6207671559
 30
0.0
 10
38.4974253928
 20
44.2386822056
 30
0.0
  0
SPLINE
  5
2B8
100
AcDbEntity
  8
0
100
AcDbSpline
 62
7
  6
CONTINUOUS
 70
0
 71
3
 72
9
 73
5
 74
0
 42
0.0000001
 43
0.0000001
 44
0.0000000001
 40
0.0
 40
0.0
 40
0.0
 40
0.0
 40
0.4791272754
 40
1.0
 40
1.0
 40
1.0
 40
1.0
 10
48.6717194826
 20
15.9489032844
 30
0.0
 10
48.6717194826
 20
16.1104289938
 30
0.0
 10
48.6374808916
 20
16.4478493591
 30
0.0
 10
48.5509320589
 20
16.7749884655
 30
0.0
 10
48.4947290885
 20
16.9413503699
 30
0.0
  0
SPLINE
  5
2B9
100
AcDbEntity
  8
0
100
AcDbSpline
 62
7
  6
CONTINUOUS
 70
0
 71
3
 72
18
 73
14
 74
0
 42
0.0000001
 43
0.0000001
 44
0.0000000001
 40
0.0
 40
0.0
 40
0.0
 40
0.0
 40
0.1286589694
 40
0.2702080477
 40
0.4173270892
 40
0.5616299652
 40
0.695263725
 40
0.7562692232
 40
0.8127606992
 40
0.8647096812
 40
0.9125330127
 40
0.9571493498
 40
1.0
 40
1.0
 40
1.0
 40
1.0
 10
32.4083303435
 20
12.8871788518
 30
0.0
 10
32.4083303435
 20
13.1008733151
 30
0.0
 10
32.3485507621
 20
13.5501899186
 30
0.0
 10
32.1254246168
 20
14.2098819712
 30
0.0
 10
31.7815209134
 20
14.8454726539
 30
0.0
 10
31.3449475094
 20
15.4043858629
 30
0.0
 10
30.9201412302
 20
15.7806158684
 30
0.0
 10
30.56354878
 20
15.9988970879
 30
0.0
 10
30.3052235905
 20
16.1130536568
 30
0.0
 10
30.0531801368
 20
16.1799934174
 30
0.0
 10
29.8123482332
 20
16.1977740654
 30
0.0
 10
29.5880861014
 20
16.1648447423
 30
0.0
 10
29.4521995963
 20
16.1084319135
 30
0.0
 10
29.3905673975
 20
16.0728375403
 30
0.0
  0
SPLINE
  5
2BA
100
AcDbEntity
  8
0
100
AcDbSpline
 62
7
  6
CONTINUOUS
 70
0
 71
3
 72
15
 73
11
 74
0
 42
0.0000001
 43
0.0000001
 44
0.0000000001
 40
0.0
 40
0.0
 40
0.0
 40
0.0
 40
0.0987928903
 40
0.2117406336
 40
0.33738679
 40
0.4720973385
 40
0.610984401
 40
0.7485990437
 40
0.879823435
 40
1.0
 40
1.0
 40
1.0
 40
1.0
 10
42.6757312572
 20
64.1935080689
 30
0.0
 10
42.6982207237
 20
64.1406346618
 30
0.0
 10
42.7271353625
 20
64.0189510472
 30
0.0
 10
42.7263015665
 20
63.8215140725
 30
0.0
 10
42.6853601372
 20
63.6072071159
 30
0.0
 10
42.6065987449
 20
63.3878931905
 30
0.0
 10
42.4944834289
 20
63.1757776994
 30
0.0
 10
42.3553780621
 20
62.9827262139
 30
0.0
 10
42.1971296962
 20
62.8198942631
 30
0.0
 10
42.0784106043
 20
62.7327861641
 30
0.0
 10
42.0178803232
 20
62.6978391986
 30
0.0
  0
SPLINE
  5
2BB
100
AcDbEntity
  8
0
100
AcDbSpline
 62
7
  6
CONTINUOUS
 70
0
 71
3
 72
11
 73
7
 74
0
 42
0.0000001
 43
0.0000001
 44
0.0000000001
 40
0.0
 40
0.0
 40
0.0
 40
0.0
 40
0.2895463391
 40
0.5491378616
 40
0.7822784713
 40
1.0
 40
1.0
 40
1.0
 40
1.0
 10
54.2755282852
 20
67.4069033507
 30
0.0
 10
54.2755282852
 20
67.4810910313
 30
0.0
 10
54.2642003346
 20
67.6222589547
 30
0.0
 10
54.2071324039
 20
67.8162507734
 30
0.0
 10
54.1108595943
 20
67.9736983845
 30
0.0
 10
54.0203893724
 20
68.0496151035
 30
0.0
 10
53.9720786457
 20
68.0775078672
 30
0.0
  0
SPLINE
  5
2BC
100
AcDbEntity
  8
0
100
AcDbSpline
 62
7
  6
CONTINUOUS
 70
0
 71
3
 72
11
 73
7
 74
0
 42
0.0000001
 43
0.0000001
 44
0.0000000001
 40
0.0
 40
0.0
 40
0.0
 40
0.0
 40
0.2326321022
 40
0.4899494395
 40
0.7526122507
 40
1.0
 40
1.0
 40
1.0
 40
1.0
 10
32.9598772245
 20
25.7675164881
 30
0.0
 10
32.9598772245
 20
25.6935714373
 30
0.0
 10
32.9353118863
 20
25.5376867901
 30
0.0
 10
32.8469800535
 20
25.3137851732
 30
0.0
 10
32.7144581826
 20
25.1072653207
 30
0.0
 10
32.6000316859
 20
24.9900734218
 30
0.0
 10
32.5381934109
 20
24.9414983126
 30
0.0
  0
SPLINE
  5
2BD
100
AcDbEntity
  8
0
100
AcDbSpline
 62
7
  6
CONTINUOUS
 70
0
 71
3
 72
15
 73
11
 74
0
 42
0.0000001
 43
0.0000001
 44
0.0000000001
 40
0.0
 40
0.0
 40
0.0
 40
0.0
 40
0.1483171477
 40
0.2891916494
 40
0.4224359819
 40
0.5484232009
 40
0.6679018305
 40
0.7819690332
 40
0.8920710869
 40
1.0
 40
1.0
 40
1.0
 40
1.0
 10
51.5788463813
 20
51.7911990522
 30
0.0
 10
51.5788463813
 20
52.029155193
 30
0.0
 10
51.559792143
 20
52.4934315208
 30
0.0
 10
51.4696594069
 20
53.1662028635
 30
0.0
 10
51.3188247804
 20
53.7914700167
 30
0.0
 10
51.1087383848
 20
54.3631988775
 30
0.0
 10
50.8407527538
 20
54.8759899422
 30
0.0
 10
50.5172186593
 20
55.3250042866
 30
0.0
 10
50.1407004566
 20
55.7050912493
 30
0.0
 10
49.8554298464
 20
55.9108561604
 30
0.0
 10
49.7069209313
 20
55.9999005584
 30
0.0
  0
SPLINE
  5
2BE
100
AcDbEntity
  8
0
100
AcDbSpline
 62
7
  6
CONTINUOUS
 70
0
 71
3
 72
11
 73
7
 74
0
 42
0.0000001
 43
0.0000001
 44
0.0000000001
 40
0.0
 40
0.0
 40
0.0
 40
0.0
 40
0.2177245443
 40
0.4508738016
 40
0.7104688578
 40
1.0
 40
1.0
 40
1.0
 40
1.0
 10
41.8714655781
 20
62.4442287402
 30
0.0
 10
41.9044408716
 20
62.4251891753
 30
0.0
 10
41.9801958507
 20
62.3976212944
 30
0.0
 10
42.1061246932
 20
62.3944467349
 30
0.0
 10
42.2402722431
 20
62.4269211586
 30
0.0
 10
42.3275836854
 20
62.468401297
 30
0.0
 10
42.3714351857
 20
62.4937188213
 30
0.0
  0
SPLINE
  5
2BF
100
AcDbEntity
  8
0
100
AcDbSpline
 62
7
  6
CONTINUOUS
 70
0
 71
3
 72
13
 73
9
 74
0
 42
0.0000001
 43
0.0000001
 44
0.0000000001
 40
0.0
 40
0.0
 40
0.0
 40
0.0
 40
0.1142260229
 40
0.2375602528
 40
0.5000015383
 40
0.7624419778
 40
0.8857752456
 40
1.0
 40
1.0
 40
1.0
 40
1.0
 10
22.8200140868
 20
49.4745144053
 30
0.0
 10
22.8200140868
 20
49.5650591685
 30
0.0
 10
22.8366256519
 20
49.7535560535
 30
0.0
 10
22.9266693726
 20
50.1405086708
 30
0.0
 10
23.1359388608
 20
50.6151109032
 30
0.0
 10
23.4423190761
 20
51.0336458153
 30
0.0
 10
23.7324055646
 20
51.3051013581
 30
0.0
 10
23.8873414626
 20
51.4137348276
 30
0.0
 10
23.9657547739
 20
51.4590065038
 30
0.0
  0
SPLINE
  5
2C0
100
AcDbEntity
  8
0
100
AcDbSpline
 62
7
  6
CONTINUOUS
 70
0
 71
3
 72
17
 73
13
 74
0
 42
0.0000001
 43
0.0000001
 44
0.0000000001
 40
0.0
 40
0.0
 40
0.0
 40
0.0
 40
0.128683677
 40
0.2703019317
 40
0.4174419792
 40
0.5617806345
 40
0.6954483591
 40
0.812712644
 40
0.8646793555
 40
0.9125090668
 40
0.9571393752
 40
1.0
 40
1.0
 40
1.0
 40
1.0
 10
42.3714351857
 20
62.4937188213
 30
0.0
 10
42.4454557362
 20
62.536454351
 30
0.0
 10
42.5891464746
 20
62.6470461998
 30
0.0
 10
42.7730749463
 20
62.8562695841
 30
0.0
 10
42.9244344152
 20
63.1024994794
 30
0.0
 10
43.0307704305
 20
63.3656590684
 30
0.0
 10
43.0835521742
 20
63.6244148018
 30
0.0
 10
43.0787827151
 20
63.8282900083
 30
0.0
 10
43.0410956276
 20
63.968149466
 30
0.0
 10
42.9990219539
 20
64.0550979856
 30
0.0
 10
42.94282949
 20
64.1262518775
 30
0.0
 10
42.8960583427
 20
64.1619790536
 30
0.0
 10
42.8714047934
 20
64.1762137367
 30
0.0
  0
SPLINE
  5
2C1
100
AcDbEntity
  8
0
100
AcDbSpline
 62
7
  6
CONTINUOUS
 70
0
 71
3
 72
14
 73
10
 74
0
 42
0.0000001
 43
0.0000001
 44
0.0000000001
 40
0.0
 40
0.0
 40
0.0
 40
0.0
 40
0.3059425454
 40
0.4458969623
 40
0.5753323323
 40
0.6939850507
 40
0.8026724159
 40
0.9035167194
 40
1.0
 40
1.0
 40
1.0
 40
1.0
 10
46.1328912788
 20
15.577842885
 30
0.0
 10
46.2894395108
 20
15.3998724411
 30
0.0
 10
46.5423205035
 20
15.1594867784
 30
0.0
 10
46.9152758936
 20
14.9136626932
 30
0.0
 10
47.1872029397
 20
14.7829178425
 30
0.0
 10
47.4533954815
 20
14.7035703288
 30
0.0
 10
47.7082571132
 20
14.6781634938
 30
0.0
 10
47.9456338284
 20
14.7085796251
 30
0.0
 10
48.0892041471
 20
14.7670651244
 30
0.0
 10
48.153933803
 20
14.8044483685
 30
0.0
  0
SPLINE
  5
2C2
100
AcDbEntity
  8
0
100
AcDbSpline
 62
7
  6
CONTINUOUS
 70
0
 71
3
 72
9
 73
5
 74
0
 42
0.0000001
 43
0.0000001
 44
0.0000000001
 40
0.0
 40
0.0
 40
0.0
 40
0.0
 40
0.5119538938
 40
1.0
 40
1.0
 40
1.0
 40
1.0
 10
25.0657876131
 20
15.299792185
 30
0.0
 10
25.1476333202
 20
15.2996747966
 30
0.0
 10
25.3083825198
 20
15.3175715987
 30
0.0
 10
25.458991886
 20
15.3778698442
 30
0.0
 10
25.5265571376
 20
15.4168907266
 30
0.0
  0
SPLINE
  5
2C3
100
AcDbEntity
  8
0
100
AcDbSpline
 62
7
  6
CONTINUOUS
 70
0
 71
3
 72
18
 73
14
 74
0
 42
0.0000001
 43
0.0000001
 44
0.0000000001
 40
0.0
 40
0.0
 40
0.0
 40
0.0
 40
0.1286589694
 40
0.2702080477
 40
0.4173270892
 40
0.5616299652
 40
0.695263725
 40
0.7562692232
 40
0.8127606992
 40
0.8647096812
 40
0.9125330127
 40
0.9571493498
 40
1.0
 40
1.0
 40
1.0
 40
1.0
 10
28.8727817178
 20
14.9283826244
 30
0.0
 10
28.8727817178
 20
14.7146881611
 30
0.0
 10
28.9325612993
 20
14.2653715576
 30
0.0
 10
29.1556874445
 20
13.605679505
 30
0.0
 10
29.499591148
 20
12.9700888222
 30
0.0
 10
29.936164552
 20
12.4111756133
 30
0.0
 10
30.3609708311
 20
12.0349456078
 30
0.0
 10
30.7175632813
 20
11.8166643883
 30
0.0
 10
30.9758884709
 20
11.7025078194
 30
0.0
 10
31.2279319245
 20
11.6355680588
 30
0.0
 10
31.4687638282
 20
11.6177874108
 30
0.0
 10
31.69302596
 20
11.6507167339
 30
0.0
 10
31.828912465
 20
11.7071295626
 30
0.0
 10
31.8905446639
 20
11.7427239359
 30
0.0
  0
SPLINE
  5
2C4
100
AcDbEntity
  8
0
100
AcDbSpline
 62
7
  6
CONTINUOUS
 70
0
 71
3
 72
11
 73
7
 74
0
 42
0.0000001
 43
0.0000001
 44
0.0000000001
 40
0.0
 40
0.0
 40
0.0
 40
0.0
 40
0.2177839466
 40
0.4509170841
 40
0.710307871
 40
1.0
 40
1.0
 40
1.0
 40
1.0
 10
29.3905673975
 20
16.0728375403
 30
0.0
 10
29.3081070742
 20
16.0252143241
 30
0.0
 10
29.1538027772
 20
15.8955177323
 30
0.0
 10
28.9895420155
 20
15.6269304214
 30
0.0
 10
28.8919860703
 20
15.2959460356
 30
0.0
 10
28.8727817178
 20
15.0550482638
 30
0.0
 10
28.8727817178
 20
14.9283826244
 30
0.0
  0
SPLINE
  5
2C5
100
AcDbEntity
  8
0
100
AcDbSpline
 62
7
  6
CONTINUOUS
 70
0
 71
3
 72
16
 73
12
 74
0
 42
0.0000001
 43
0.0000001
 44
0.0000000001
 40
0.0
 40
0.0
 40
0.0
 40
0.0
 40
0.0428260577
 40
0.0872524189
 40
0.1853590016
 40
0.3003011236
 40
0.4313659501
 40
0.5739030205
 40
0.7211338878
 40
0.8654768238
 40
1.0
 40
1.0
 40
1.0
 40
1.0
 10
23.4332856829
 20
49.2137198197
 30
0.0
 10
23.4581832627
 20
49.1993449105
 30
0.0
 10
23.5127173691
 20
49.1761840442
 30
0.0
 10
23.6364604837
 20
49.1557029574
 30
0.0
 10
23.8113694336
 20
49.1840968259
 30
0.0
 10
24.0197782086
 20
49.2888961411
 30
0.0
 10
24.2228281185
 20
49.4553692487
 30
0.0
 10
24.4064507812
 20
49.6717972677
 30
0.0
 10
24.557577798
 20
49.9224302814
 30
0.0
 10
24.6651809852
 20
50.188723667
 30
0.0
 10
24.7044063725
 20
50.3732082256
 30
0.0
 10
24.7133199244
 20
50.4630734697
 30
0.0
  0
SPLINE
  5
2C6
100
AcDbEntity
  8
0
100
AcDbSpline
 62
7
  6
CONTINUOUS
 70
0
 71
3
 72
9
 73
5
 74
0
 42
0.0000001
 43
0.0000001
 44
0.0000000001
 40
0.0
 40
0.0
 40
0.0
 40
0.0
 40
0.2556724073
 40
1.0
 40
1.0
 40
1.0
 40
1.0
 10
24.7133199244
 20
50.4630734697
 30
0.0
 10
24.7142273638
 20
50.4722221537
 30
0.0
 10
24.7173639896
 20
50.5080438681
 30
0.0
 10
24.7188203605
 20
50.5440193259
 30
0.0
 10
24.7188203605
 20
50.5707841747
 30
0.0
  0
SPLINE
  5
2C7
100
AcDbEntity
  8
0
100
AcDbSpline
 62
7
  6
CONTINUOUS
 70
0
 71
3
 72
17
 73
13
 74
0
 42
0.0000001
 43
0.0000001
 44
0.0000000001
 40
0.0
 40
0.0
 40
0.0
 40
0.0
 40
0.0428567682
 40
0.0874846361
 40
0.1353115866
 40
0.1872772446
 40
0.3045367808
 40
0.4381985211
 40
0.5825369695
 40
0.729684371
 40
0.8713138527
 40
1.0
 40
1.0
 40
1.0
 40
1.0
 10
52.5071636818
 20
65.5401434633
 30
0.0
 10
52.5432779265
 20
65.5192924813
 30
0.0
 10
52.6228608429
 20
65.4861277324
 30
0.0
 10
52.7542860996
 20
65.4669599169
 30
0.0
 10
52.8954121522
 20
65.4772601193
 30
0.0
 10
53.100450231
 20
65.5318955865
 30
0.0
 10
53.362596029
 20
65.6751671236
 30
0.0
 10
53.6522158215
 20
65.9316598018
 30
0.0
 10
53.9082024929
 20
66.2593307563
 30
0.0
 10
54.1097437737
 20
66.6317363569
 30
0.0
 10
54.2404683278
 20
67.0183634836
 30
0.0
 10
54.2755282852
 20
67.2816865978
 30
0.0
 10
54.2755282852
 20
67.4069033507
 30
0.0
  0
SPLINE
  5
2C8
100
AcDbEntity
  8
0
100
AcDbSpline
 62
7
  6
CONTINUOUS
 70
0
 71
3
 72
17
 73
13
 74
0
 42
0.0000001
 43
0.0000001
 44
0.0000000001
 40
0.0
 40
0.0
 40
0.0
 40
0.0
 40
0.128683677
 40
0.2703019317
 40
0.4174419792
 40
0.5617806345
 40
0.6954483591
 40
0.812712644
 40
0.8646793555
 40
0.9125090668
 40
0.9571393752
 40
1.0
 40
1.0
 40
1.0
 40
1.0
 10
46.3807139427
 20
68.4827240509
 30
0.0
 10
46.4547344932
 20
68.5254595805
 30
0.0
 10
46.5984252316
 20
68.6360514293
 30
0.0
 10
46.7823537033
 20
68.8452748136
 30
0.0
 10
46.9337131722
 20
69.091504709
 30
0.0
 10
47.0400491875
 20
69.3546642979
 30
0.0
 10
47.0928309312
 20
69.6134200314
 30
0.0
 10
47.0880614721
 20
69.8172952379
 30
0.0
 10
47.0503743846
 20
69.9571546955
 30
0.0
 10
47.0083007109
 20
70.0441032152
 30
0.0
 10
46.952108247
 20
70.115257107
 30
0.0
 10
46.9053370997
 20
70.1509842832
 30
0.0
 10
46.8806835504
 20
70.1652189663
 30
0.0
  0
SPLINE
  5
2C9
100
AcDbEntity
  8
0
100
AcDbSpline
 62
7
  6
CONTINUOUS
 70
0
 71
3
 72
15
 73
11
 74
0
 42
0.0000001
 43
0.0000001
 44
0.0000000001
 40
0.0
 40
0.0
 40
0.0
 40
0.0
 40
0.0988198993
 40
0.2117907345
 40
0.3374481363
 40
0.4721564524
 40
0.6110309184
 40
0.7486285447
 40
0.8798347952
 40
1.0
 40
1.0
 40
1.0
 40
1.0
 10
46.685114696
 20
70.1822678843
 30
0.0
 10
46.7075794488
 20
70.1293763792
 30
0.0
 10
46.7364393986
 20
70.0076709233
 30
0.0
 10
46.7355496614
 20
69.8102300565
 30
0.0
 10
46.6945640593
 20
69.5959465786
 30
0.0
 10
46.6157786314
 20
69.3766817688
 30
0.0
 10
46.5036635688
 20
69.1646288102
 30
0.0
 10
46.3645786567
 20
68.9716418862
 30
0.0
 10
46.2063640183
 20
68.8088634231
 30
0.0
 10
46.0876744568
 20
68.7217827886
 30
0.0
 10
46.0271590802
 20
68.6868444281
 30
0.0
  0
SPLINE
  5
2CA
100
AcDbEntity
  8
0
100
AcDbSpline
 62
7
  6
CONTINUOUS
 70
0
 71
3
 72
17
 73
13
 74
0
 42
0.0000001
 43
0.0000001
 44
0.0000000001
 40
0.0
 40
0.0
 40
0.0
 40
0.0
 40
0.0428567682
 40
0.0874846361
 40
0.1353115866
 40
0.1872772446
 40
0.3045367808
 40
0.4381985211
 40
0.5825369695
 40
0.729684371
 40
0.8713138527
 40
1.0
 40
1.0
 40
1.0
 40
1.0
 10
52.5071636818
 20
80.5637879385
 30
0.0
 10
52.5432779265
 20
80.5429369565
 30
0.0
 10
52.6228608429
 20
80.5097722076
 30
0.0
 10
52.7542860996
 20
80.4906043921
 30
0.0
 10
52.8954121522
 20
80.5009045944
 30
0.0
 10
53.100450231
 20
80.5555400617
 30
0.0
 10
53.362596029
 20
80.6988115988
 30
0.0
 10
53.6522158215
 20
80.9553042769
 30
0.0
 10
53.9082024929
 20
81.2829752314
 30
0.0
 10
54.1097437737
 20
81.6553808321
 30
0.0
 10
54.2404683278
 20
82.0420079588
 30
0.0
 10
54.2755282852
 20
82.305331073
 30
0.0
 10
54.2755282852
 20
82.4305478258
 30
0.0
  0
SPLINE
  5
2CB
100
AcDbEntity
  8
0
100
AcDbSpline
 62
7
  6
CONTINUOUS
 70
0
 71
3
 72
11
 73
7
 74
0
 42
0.0000001
 43
0.0000001
 44
0.0000000001
 40
0.0
 40
0.0
 40
0.0
 40
0.0
 40
0.2177245443
 40
0.4508738016
 40
0.7104688578
 40
1.0
 40
1.0
 40
1.0
 40
1.0
 10
45.8807443351
 20
68.4332339698
 30
0.0
 10
45.9137196287
 20
68.4141944048
 30
0.0
 10
45.9894746077
 20
68.386626524
 30
0.0
 10
46.1154034502
 20
68.3834519644
 30
0.0
 10
46.2495510001
 20
68.4159263881
 30
0.0
 10
46.3368624425
 20
68.4574065265
 30
0.0
 10
46.3807139427
 20
68.4827240509
 30
0.0
  0
SPLINE
  5
2CC
100
AcDbEntity
  8
0
100
AcDbSpline
 62
7
  6
CONTINUOUS
 70
0
 71
3
 72
17
 73
13
 74
0
 42
0.0000001
 43
0.0000001
 44
0.0000000001
 40
0.0
 40
0.0
 40
0.0
 40
0.0
 40
0.0428569944
 40
0.0874783169
 40
0.1353167971
 40
0.1872729805
 40
0.3045398562
 40
0.438205313
 40
0.5825464442
 40
0.7296715376
 40
0.8713404129
 40
1.0
 40
1.0
 40
1.0
 40
1.0
 10
32.7918582488
 20
24.4354535228
 30
0.0
 10
32.8097378617
 20
24.4251477977
 30
0.0
 10
32.8491250854
 20
24.4087721216
 30
0.0
 10
32.9141563212
 20
24.3991964732
 30
0.0
 10
32.9839905576
 20
24.4043854852
 30
0.0
 10
33.0854822912
 20
24.4313212434
 30
0.0
 10
33.215193519
 20
24.5022979363
 30
0.0
 10
33.3585256999
 20
24.6292144856
 30
0.0
 10
33.485184168
 20
24.7913826919
 30
0.0
 10
33.5849557496
 20
24.9756686954
 30
0.0
 10
33.6496148294
 20
25.16700796
 30
0.0
 10
33.6669869496
 20
25.2973218675
 30
0.0
 10
33.6669869496
 20
25.3592757336
 30
0.0
  0
SPLINE
  5
2CD
100
AcDbEntity
  8
0
100
AcDbSpline
 62
7
  6
CONTINUOUS
 70
0
 71
3
 72
9
 73
5
 74
0
 42
0.0000001
 43
0.0000001
 44
0.0000000001
 40
0.0
 40
0.0
 40
0.0
 40
0.0
 40
0.5386076023
 40
1.0
 40
1.0
 40
1.0
 40
1.0
 10
24.7188203605
 20
50.5707841747
 30
0.0
 10
24.7188203605
 20
50.6443353335
 30
0.0
 10
24.7044018052
 20
50.7817838291
 30
0.0
 10
24.646821093
 20
50.9097532956
 30
0.0
 10
24.6087108643
 20
50.9599276741
 30
0.0
  0
SPLINE
  5
2CE
100
AcDbEntity
  8
0
100
AcDbSpline
 62
7
  6
CONTINUOUS
 70
0
 71
3
 72
9
 73
5
 74
0
 42
0.0000001
 43
0.0000001
 44
0.0000000001
 40
0.0
 40
0.0
 40
0.0
 40
0.0
 40
0.2564541961
 40
1.0
 40
1.0
 40
1.0
 40
1.0
 10
24.6087108643
 20
50.9599276741
 30
0.0
 10
24.6010336761
 20
50.9700351481
 30
0.0
 10
24.5693429975
 20
51.0080739877
 30
0.0
 10
24.5300933103
 20
51.0398882845
 30
0.0
 10
24.4982238648
 20
51.058288482
 30
0.0
  0
SPLINE
  5
2CF
100
AcDbEntity
  8
0
100
AcDbSpline
 62
7
  6
CONTINUOUS
 70
0
 71
3
 72
11
 73
7
 74
0
 42
0.0000001
 43
0.0000001
 44
0.0000000001
 40
0.0
 40
0.0
 40
0.0
 40
0.0
 40
0.2179369338
 40
0.45103742
 40
0.7105012284
 40
1.0
 40
1.0
 40
1.0
 40
1.0
 10
23.1556511288
 20
48.7328324742
 30
0.0
 10
23.1021793766
 20
48.7637375337
 30
0.0
 10
23.0020342773
 20
48.847679473
 30
0.0
 10
22.8956066041
 20
49.0218862706
 30
0.0
 10
22.8325454328
 20
49.2363883326
 30
0.0
 10
22.8200140868
 20
49.3924742987
 30
0.0
 10
22.8200140868
 20
49.4745144053
 30
0.0
  0
SPLINE
  5
2D0
100
AcDbEntity
  8
0
100
AcDbSpline
 62
7
  6
CONTINUOUS
 70
0
 71
3
 72
11
 73
7
 74
0
 42
0.0000001
 43
0.0000001
 44
0.0000000001
 40
0.0
 40
0.0
 40
0.0
 40
0.0
 40
0.2893975675
 40
0.5491290883
 40
0.7823145228
 40
1.0
 40
1.0
 40
1.0
 40
1.0
 10
33.6669869496
 20
25.3592757336
 30
0.0
 10
33.6669869496
 20
25.3959704136
 30
0.0
 10
33.6613474571
 20
25.4658223767
 30
0.0
 10
33.6331624007
 20
25.5618493717
 30
0.0
 10
33.5854791145
 20
25.6397596961
 30
0.0
 10
33.5407288443
 20
25.6773601433
 30
0.0
 10
33.5168150865
 20
25.6911439213
 30
0.0
  0
SPLINE
  5
2D1
100
AcDbEntity
  8
0
100
AcDbSpline
 62
7
  6
CONTINUOUS
 70
0
 71
3
 72
9
 73
5
 74
0
 42
0.0000001
 43
0.0000001
 44
0.0000000001
 40
0.0
 40
0.0
 40
0.0
 40
0.0
 40
0.274558024
 40
1.0
 40
1.0
 40
1.0
 40
1.0
 10
46.0271590802
 20
68.6868444281
 30
0.0
 10
46.001529835
 20
68.6720474649
 30
0.0
 10
45.9059220168
 20
68.6227085573
 30
0.0
 10
45.7984651152
 20
68.5922136095
 30
0.0
 10
45.7202883563
 20
68.5905746907
 30
0.0
  0
SPLINE
  5
2D2
100
AcDbEntity
  8
0
100
AcDbSpline
 62
7
  6
CONTINUOUS
 70
0
 71
3
 72
11
 73
7
 74
0
 42
0.0000001
 43
0.0000001
 44
0.0000000001
 40
0.0
 40
0.0
 40
0.0
 40
0.0
 40
0.2895463391
 40
0.5491378616
 40
0.7822784713
 40
1.0
 40
1.0
 40
1.0
 40
1.0
 10
54.2755282852
 20
82.4305478258
 30
0.0
 10
54.2755282852
 20
82.5047355064
 30
0.0
 10
54.2642003346
 20
82.6459034299
 30
0.0
 10
54.2071324039
 20
82.8398952486
 30
0.0
 10
54.1108595943
 20
82.9973428596
 30
0.0
 10
54.0203893724
 20
83.0732595787
 30
0.0
 10
53.9720786457
 20
83.1011523424
 30
0.0
  0
SPLINE
  5
2D3
100
AcDbEntity
  8
0
100
AcDbSpline
 62
7
  6
CONTINUOUS
 70
0
 71
3
 72
9
 73
5
 74
0
 42
0.0000001
 43
0.0000001
 44
0.0000000001
 40
0.0
 40
0.0
 40
0.0
 40
0.0
 40
0.2745600931
 40
1.0
 40
1.0
 40
1.0
 40
1.0
 10
42.0178803232
 20
62.6978391986
 30
0.0
 10
41.9922495961
 20
62.6830413798
 30
0.0
 10
41.896636577
 20
62.633700831
 30
0.0
 10
41.7891738138
 20
62.6032048285
 30
0.0
 10
41.7109933071
 20
62.6015677304
 30
0.0
  0
ENDSEC
  0
SECTION
  2
OBJECTS
  0
DICTIONARY
  5
C
100
AcDbDictionary
280
0
281
1
  3
ACAD_GROUP
350
D
  3
ACAD_MLINESTYLE
350
17
  3
ACAD_LAYOUT
350
1A
  3
ACAD_PLOTSETTINGS
350
19
  3
ACAD_PLOTSTYLENAME
350
E
  0
DICTIONARY
  5
D
102
{ACAD_REACTORS
330
C
102
}
100
AcDbDictionary
280
0
281
1
  0
ACDBDICTIONARYWDFLT
  5
E
102
{ACAD_REACTORS
330
C
102
}
100
AcDbDictionary
281
1
  3
Normal
350
F
100
AcDbDictionaryWithDefault
340
F
  0
DICTIONARY
  5
17
102
{ACAD_REACTORS
330
C
102
}
100
AcDbDictionary
280
0
281
1
  3
Standard
350
18
  0
DICTIONARY
  5
19
102
{ACAD_REACTORS
330
C
102
}
100
AcDbDictionary
281
1
  0
DICTIONARY
  5
1A
102
{ACAD_REACTORS
330
C
102
}
100
AcDbDictionary
281
1
  3
Model
350
2D4
  3
Layout1
350
2D5
  0
ACDBPLACEHOLDER
  5
F
102
{ACAD_REACTORS
330
E
102
}
  0
MLINESTYLE
  5
18
102
{ACAD_REACTORS
330
17
102
}
100
AcDbMlineStyle
  2
STANDARD
 70
0
  3

 62
256
 51
90.0
 52
90.0
 71
2
 49
0.5
 62
256
  6
BYLAYER
 49
-0.5
 62
256
  6
BYLAYER
  0
LAYOUT
  5
2D4
102
{ACAD_REACTORS
330
1A
102
}
100
AcDbPlotSettings
  1

  2
none_device
  4

  6

 40
0.0
 41
0.0
 42
0.0
 43
0.0
 44
210.0
 45
297.0
 46
0.0
 47
0.0
 48
0.0
 49
0.0
140
0.0
141
0.0
142
1.0
143
1.0
 70
1024
 72
1
 73
0
 74
0
  7

 75
0
147
1.0
148
0.0
149
0.0
100
AcDbLayout
  1
Model
 70
0
 71
0
 10
0.0
 20
0.0
 11
210.0
 21
297.0
 12
0.0
 22
0.0
 32
0.0
 14
0.0
 24
0.0
 34
0.0
 15
0.0
 25
0.0
 35
0.0
146
0.0
 13
0.0
 23
0.0
 33
0.0
 16
1.0
 26
0.0
 36
0.0
 17
0.0
 27
1.0
 37
0.0
 76
0
330
210
345
0
346
0
  0
LAYOUT
  5
2D5
102
{ACAD_REACTORS
330
1A
102
}
100
AcDbPlotSettings
  1

  2
none_device
  4

  6

 40
0.0
 41
0.0
 42
0.0
 43
0.0
 44
210.0
 45
297.0
 46
0.0
 47
0.0
 48
0.0
 49
0.0
140
0.0
141
0.0
142
1.0
143
1.0
 70
0
 72
1
 73
0
 74
0
  7

 75
0
147
1.0
148
0.0
149
0.0
100
AcDbLayout
  1
Layout1
 70
0
 71
1
 10
0.0
 20
0.0
 11
210.0
 21
297.0
 12
0.0
 22
0.0
 32
0.0
 14
0.0
 24
0.0
 34
0.0
 15
0.0
 25
0.0
 35
0.0
146
0.0
 13
0.0
 23
0.0
 33
0.0
 16
1.0
 26
0.0
 36
0.0
 17
0.0
 27
1.0
 37
0.0
 76
0
330
211
345
0
346
0
  0
ENDSEC
  0
EOF
