999
DXF file: C:\Users\SESA621925\Desktop\Projects\Drawing_creation_tool\Gen2D (3) (1)\CAD\G12-25AUX240_3D-CAD\drw0001_1.dxf
999
Pro/ENGINEER 2019471 by Parametric Technology Corporation
  0
SECTION
  2
HEADER
  9
$ACADVER
  1
AC1024
  9
$DWGCODEPAGE
  3
ANSI_1252
  9
$EXTMAX
 10
37.4978208592
 20
53.032632358
 30
0.0
  9
$EXTMIN
 10
0.0
 20
0.0
 30
0.0
  9
$LIMMIN
 10
0.0
 20
0.0
  9
$LIMMAX
 10
37.4978208592
 20
53.032632358
  9
$VIEWCTR
 10
18.7489104296
 20
26.516316179
  9
$VIEWSIZE
 40
53.032632358
  9
$CLAYER
  8
0
  9
$LTSCALE
 40
3.4569419611
  9
$CELTYPE
  6
BYLAYER
  9
$DIMSCALE
 40
1.0
  9
$DIMASZ
 40
0.4464026293
  9
$DIMEXO
 40
1.0
  9
$DIMDLI
 40
2.3884326277
  9
$DIMEXE
 40
1.0
  9
$DIMCEN
 40
0.5656814118
  9
$DIMLFAC
 40
1.0
  9
$DIMBLK
  1
_FILLED
  9
$DIMALT
 70
0
  9
$DIMALTF
 40
0.0393700787
  9
$DIMTXT
 40
0.624963681
  9
$DIMTOL
 70
1
  9
$DIMLIM
 70
0
  9
$DIMTFAC
 40
1.0
  9
$DIMTP
 40
0.01
  9
$DIMTM
 40
0.01
  9
$DIMGAP
 40
0.625
  9
$DIMDSEP
 70
46
  9
$AUNITS
 70
0
  9
$PDMODE
 70
3
  9
$PDSIZE
 40
0.3125
  9
$HANDSEED
  5
301
  9
$TILEMODE
 70
1
  9
$MEASUREMENT
 70
1
  9
$INSUNITS
 70
4
  0
ENDSEC
  0
SECTION
  2
CLASSES
  0
CLASS
  1
ACDBDICTIONARYWDFLT
  2
AcDbDictionaryWithDefault
  3
AutoCAD 2000
 90
0
 91
1
280
0
281
0
  0
CLASS
  1
ACDBPLACEHOLDER
  2
AcDbPlaceHolder
  3
AutoCAD 2000
 90
0
 91
1
280
0
281
0
  0
CLASS
  1
LAYOUT
  2
AcDbLayout
  3
AutoCAD 2000
 90
0
 91
0
280
0
281
0
  0
ENDSEC
  0
SECTION
  2
TABLES
  0
TABLE
  2
VPORT
  5
8
100
AcDbSymbolTable
 70
2
  0
VPORT
  5
1F4
100
AcDbSymbolTableRecord
100
AcDbViewportTableRecord
  2
*ACTIVE
 70
0
 10
0.0
 20
0.0
 11
1.0
 21
1.0
 12
18.7489104296
 22
26.516316179
 13
0.0
 23
0.0
 14
1.0
 24
1.0
 15
0.0
 25
0.0
 16
0.0
 26
0.0
 36
1.0
 17
0.0
 27
0.0
 37
0.0
 40
53.032632358
 41
0.7070707071
 42
50.0
 43
0.0
 44
0.0
 50
0.0
 51
0.0
 71
0
 72
100
 73
1
 74
1
 75
0
 76
0
 77
0
 78
0
  0
ENDTAB
  0
TABLE
  2
LTYPE
  5
5
100
AcDbSymbolTable
 70
6
  0
LTYPE
  5
14
100
AcDbSymbolTableRecord
100
AcDbLinetypeTableRecord
  2
BYBLOCK
 70
0
  3

 72
65
 73
0
 40
0.0
  0
LTYPE
  5
15
100
AcDbSymbolTableRecord
100
AcDbLinetypeTableRecord
  2
BYLAYER
 70
0
  3

 72
65
 73
0
 40
0.0
  0
LTYPE
  5
16
100
AcDbSymbolTableRecord
100
AcDbLinetypeTableRecord
  2
CONTINUOUS
 70
64
  3
Solid line
 72
65
 73
0
 40
0.0
  0
LTYPE
  5
1F5
100
AcDbSymbolTableRecord
100
AcDbLinetypeTableRecord
  2
CENTER
 70
64
  3
____ _ ____ _ ____ _ ____ _ ____ _ ____ _ ____
 72
65
 73
4
 40
0.6
 49
0.375
 74
0
 49
-0.075
 74
0
 49
0.075
 74
0
 49
-0.075
 74
0
  0
LTYPE
  5
1F6
100
AcDbSymbolTableRecord
100
AcDbLinetypeTableRecord
  2
HIDDEN
 70
64
  3
- - - - - - - - - - - - - - - - - - - -
 72
65
 73
2
 40
0.2
 49
0.1
 74
0
 49
-0.1
 74
0
  0
LTYPE
  5
1F7
100
AcDbSymbolTableRecord
100
AcDbLinetypeTableRecord
  2
PHANTOM
 70
64
  3
_____ _ _ _____ _ _ _____ _ _ _____
 72
65
 73
6
 40
0.8
 49
0.45
 74
0
 49
-0.05
 74
0
 49
0.1
 74
0
 49
-0.05
 74
0
 49
0.1
 74
0
 49
-0.05
 74
0
  0
LTYPE
  5
1F8
100
AcDbSymbolTableRecord
100
AcDbLinetypeTableRecord
  2
DOT
 70
64
  3
. . . . . . . . . . . . . . . . . . . .
 72
65
 73
2
 40
0.2
 49
0.1
 74
0
 49
-0.1
 74
0
  0
LTYPE
  5
1F9
100
AcDbSymbolTableRecord
100
AcDbLinetypeTableRecord
  2
DASHED
 70
64
  3
- - - - - - - - - - - - - - - - - - - -
 72
65
 73
2
 40
0.2
 49
0.1
 74
0
 49
-0.1
 74
0
  0
ENDTAB
  0
TABLE
  2
LAYER
  5
2
100
AcDbSymbolTable
 70
36
  0
LAYER
  5
10
100
AcDbSymbolTableRecord
100
AcDbLayerTableRecord
  2
0
 70
0
 62
7
  6
CONTINUOUS
370
-3
390
F
  0
LAYER
  5
1FA
100
AcDbSymbolTableRecord
100
AcDbLayerTableRecord
  2
DEFAULT_1
 70
0
 62
7
  6
CENTER
370
-3
390
F
  0
LAYER
  5
1FB
100
AcDbSymbolTableRecord
100
AcDbLayerTableRecord
  2
DEFAULT_2
 70
0
 62
8
  6
HIDDEN
370
-3
390
F
  0
LAYER
  5
1FC
100
AcDbSymbolTableRecord
100
AcDbLayerTableRecord
  2
DEFAULT_3
 70
0
 62
7
  6
PHANTOM
370
-3
390
F
  0
LAYER
  5
1FD
100
AcDbSymbolTableRecord
100
AcDbLayerTableRecord
  2
00_COMPONENTS
 70
0
 62
7
  6
CONTINUOUS
370
-3
390
F
  0
LAYER
  5
1FE
100
AcDbSymbolTableRecord
100
AcDbLayerTableRecord
  2
01_1_DEFAULT_DATUMS
 70
0
 62
7
  6
CONTINUOUS
370
-3
390
F
  0
LAYER
  5
1FF
100
AcDbSymbolTableRecord
100
AcDbLayerTableRecord
  2
01_PLANES
 70
0
 62
7
  6
CONTINUOUS
370
-3
390
F
  0
LAYER
  5
200
100
AcDbSymbolTableRecord
100
AcDbLayerTableRecord
  2
02_COORD_SYS
 70
0
 62
7
  6
CONTINUOUS
370
-3
390
F
  0
LAYER
  5
201
100
AcDbSymbolTableRecord
100
AcDbLayerTableRecord
  2
03_AXES
 70
0
 62
7
  6
CONTINUOUS
370
-3
390
F
  0
LAYER
  5
202
100
AcDbSymbolTableRecord
100
AcDbLayerTableRecord
  2
04_POINTS
 70
0
 62
7
  6
CONTINUOUS
370
-3
390
F
  0
LAYER
  5
203
100
AcDbSymbolTableRecord
100
AcDbLayerTableRecord
  2
05_CURVES
 70
0
 62
7
  6
CONTINUOUS
370
-3
390
F
  0
LAYER
  5
204
100
AcDbSymbolTableRecord
100
AcDbLayerTableRecord
  2
06_SURFS
 70
0
 62
7
  6
CONTINUOUS
370
-3
390
F
  0
LAYER
  5
205
100
AcDbSymbolTableRecord
100
AcDbLayerTableRecord
  2
07_COSMETICS
 70
0
 62
7
  6
CONTINUOUS
370
-3
390
F
  0
LAYER
  5
206
100
AcDbSymbolTableRecord
100
AcDbLayerTableRecord
  2
10_NOTES
 70
0
 62
7
  6
CONTINUOUS
370
-3
390
F
  0
LAYER
  5
207
100
AcDbSymbolTableRecord
100
AcDbLayerTableRecord
  2
11_NOTES_PUB
 70
0
 62
7
  6
CONTINUOUS
370
-3
390
F
  0
LAYER
  5
208
100
AcDbSymbolTableRecord
100
AcDbLayerTableRecord
  2
13_REF_GTOL
 70
0
 62
7
  6
CONTINUOUS
370
-3
390
F
  0
LAYER
  5
209
100
AcDbSymbolTableRecord
100
AcDbLayerTableRecord
  2
16_MISC
 70
0
 62
7
  6
CONTINUOUS
370
-3
390
F
  0
LAYER
  5
20A
100
AcDbSymbolTableRecord
100
AcDbLayerTableRecord
  2
17_NO_PRINT
 70
0
 62
7
  6
CONTINUOUS
370
-3
390
F
  0
LAYER
  5
20B
100
AcDbSymbolTableRecord
100
AcDbLayerTableRecord
  2
18_DATUM_CAMS_JOINTS
 70
0
 62
7
  6
CONTINUOUS
370
-3
390
F
  0
LAYER
  5
20C
100
AcDbSymbolTableRecord
100
AcDbLayerTableRecord
  2
19_DATUM_FUNCTIONAL
 70
0
 62
7
  6
CONTINUOUS
370
-3
390
F
  0
LAYER
  5
20D
100
AcDbSymbolTableRecord
100
AcDbLayerTableRecord
  2
20_DATUM_KINEMATIC_SCHEME
 70
0
 62
7
  6
CONTINUOUS
370
-3
390
F
  0
ENDTAB
  0
TABLE
  2
STYLE
  5
3
100
AcDbSymbolTable
 70
1
  0
STYLE
  5
11
100
AcDbSymbolTableRecord
100
AcDbTextStyleTableRecord
  2
STANDARD
 70
0
 40
0.0
 41
0.8
 50
0.0
 71
0
 42
0.2
  3
txt
  4

  0
STYLE
  5
20E
100
AcDbSymbolTableRecord
100
AcDbTextStyleTableRecord
  2
TEXTSTYLE_1
 70
0
 40
0.0
 41
0.8
 50
0.0
 71
0
 42
0.2
  3
gdt
  4

  0
ENDTAB
  0
TABLE
  2
VIEW
  5
6
100
AcDbSymbolTable
 70
0
  0
ENDTAB
  0
TABLE
  2
UCS
  5
7
100
AcDbSymbolTable
 70
0
  0
ENDTAB
  0
TABLE
  2
APPID
  5
9
100
AcDbSymbolTable
 70
1
  0
APPID
  5
20F
100
AcDbSymbolTableRecord
100
AcDbRegAppTableRecord
  2
ACAD
 70
0
  0
ENDTAB
  0
TABLE
  2
BLOCK_RECORD
  5
1
100
AcDbSymbolTable
 70
0
  0
BLOCK_RECORD
  5
210
100
AcDbSymbolTableRecord
100
AcDbBlockTableRecord
  2
*Model_Space
  0
BLOCK_RECORD
  5
211
100
AcDbSymbolTableRecord
100
AcDbBlockTableRecord
  2
*Paper_Space
  0
BLOCK_RECORD
  5
212
100
AcDbSymbolTableRecord
100
AcDbBlockTableRecord
  2
_FILLED
  0
ENDTAB
  0
TABLE
  2
DIMSTYLE
  5
A
100
AcDbSymbolTable
 70
1
100
AcDbDimStyleTable
 71
0
  0
DIMSTYLE
105
213
100
AcDbSymbolTableRecord
100
AcDbDimStyleTableRecord
  2
STANDARD
 70
0
  3

  4

 40
1.0
 41
0.4464026293
 42
1.0
 43
0.38
 44
1.0
 45
0.0
 46
0.0
 47
0.01
 48
0.01
140
0.624963681
141
0.09
142
0.0
143
25.4
144
1.0
145
0.0
146
1.0
147
0.625
 71
1
 72
0
 73
0
 74
0
 75
0
 76
0
 77
1
 78
8
 79
2
170
0
171
1
172
0
173
0
174
0
175
0
176
0
177
0
178
0
270
2
179
2
271
2
272
2
273
2
274
2
275
0
280
0
281
0
282
0
283
1
284
8
285
0
286
0
287
3
288
0
340
11
278
46
341
212
342
212
343
212
344
212
  0
ENDTAB
  0
ENDSEC
  0
SECTION
  2
BLOCKS
  0
BLOCK
  5
20
100
AcDbEntity
  8
0
100
AcDbBlockBegin
  2
*Model_Space
 70
0
 10
0.0
 20
0.0
 30
0.0
  3
*Model_Space
  1

  0
ENDBLK
  5
21
100
AcDbEntity
  8
0
100
AcDbBlockEnd
  0
BLOCK
  5
1C
100
AcDbEntity
  8
0
100
AcDbBlockBegin
  2
*Paper_Space
 70
0
 10
0.0
 20
0.0
 30
0.0
  3
*Paper_Space
  1

  0
ENDBLK
  5
1D
100
AcDbEntity
  8
0
100
AcDbBlockEnd
  0
BLOCK
  5
214
100
AcDbEntity
  8
0
100
AcDbBlockBegin
  2
_FILLED
 70
64
 10
0.0
 20
0.0
  3
_FILLED
  1

  0
SOLID
  5
215
100
AcDbEntity
  8
0
  6
BYBLOCK
 62
0
100
AcDbTrace
 10
0.0
 20
0.0
 11
-1.0
 21
0.25
 12
-1.0
 22
-0.25
 13
-1.0
 23
-0.25
  0
ENDBLK
  5
216
100
AcDbEntity
  8
0
  6
BYBLOCK
 62
0
100
AcDbBlockEnd
  0
ENDSEC
  0
SECTION
  2
ENTITIES
  0
LINE
  5
217
100
AcDbEntity
  8
0
100
AcDbLine
 62
7
  6
CONTINUOUS
 10
4.3501786423
 20
23.5359360887
 11
4.3501786423
 21
23.7316666281
  0
LINE
  5
218
100
AcDbEntity
  8
0
100
AcDbLine
 62
7
  6
CONTINUOUS
 10
4.6330225324
 20
35.4893056164
 11
7.7584214929
 21
37.2937447765
  0
LINE
  5
219
100
AcDbEntity
  8
0
100
AcDbLine
 62
7
  6
CONTINUOUS
 10
5.12799934
 20
20.9147447885
 11
4.3501786423
 21
23.5359360887
  0
LINE
  5
21A
100
AcDbEntity
  8
0
100
AcDbLine
 62
7
  6
CONTINUOUS
 10
4.6330225324
 20
24.3032225018
 11
4.6330225324
 21
35.4893056164
  0
LINE
  5
21B
100
AcDbEntity
  8
0
100
AcDbLine
 62
7
  6
CONTINUOUS
 10
5.12799934
 20
23.2826017982
 11
5.12799934
 21
24.0174539736
  0
LINE
  5
21C
100
AcDbEntity
  8
0
100
AcDbLine
 62
7
  6
CONTINUOUS
 10
7.4911888095
 20
17.0158789777
 11
7.4221250871
 21
17.2873574952
  0
LINE
  5
21D
100
AcDbEntity
  8
0
100
AcDbLine
 62
7
  6
CONTINUOUS
 10
6.0048163413
 20
21.4294265215
 11
6.0048163413
 21
28.7779482757
  0
LINE
  5
21E
100
AcDbEntity
  8
0
100
AcDbLine
 62
7
  6
CONTINUOUS
 10
19.553037733
 20
13.4847860551
 11
16.7245988324
 21
14.2195964144
  0
LINE
  5
21F
100
AcDbEntity
  8
0
100
AcDbLine
 62
7
  6
CONTINUOUS
 10
16.7245988324
 20
14.2195964144
 11
5.12799934
 21
20.9147447885
  0
LINE
  5
220
100
AcDbEntity
  8
0
100
AcDbLine
 62
7
  6
CONTINUOUS
 10
12.707458602
 20
35.8498893172
 11
11.9296443811
 21
35.4008207479
  0
LINE
  5
221
100
AcDbEntity
  8
0
100
AcDbLine
 62
7
  6
CONTINUOUS
 10
10.021190866
 20
33.4562711461
 11
10.9779664771
 21
34.0086625054
  0
LINE
  5
222
100
AcDbEntity
  8
0
100
AcDbLine
 62
7
  6
CONTINUOUS
 10
13.8657640643
 20
15.8701080977
 11
7.4911888095
 21
17.0158789777
  0
LINE
  5
223
100
AcDbEntity
  8
0
100
AcDbLine
 62
7
  6
CONTINUOUS
 10
7.4221250871
 20
17.2873574952
 11
13.2141864618
 21
16.2462880916
  0
LINE
  5
224
100
AcDbEntity
  8
0
100
AcDbLine
 62
7
  6
CONTINUOUS
 10
18.0256816688
 20
14.4893336947
 11
6.0048163413
 21
21.4294265215
  0
LINE
  5
225
100
AcDbEntity
  8
0
100
AcDbLine
 62
7
  6
CONTINUOUS
 10
14.0085404963
 20
35.0987263289
 11
13.2307262754
 21
34.6496577596
  0
LINE
  5
226
100
AcDbEntity
  8
0
100
AcDbLine
 62
7
  6
CONTINUOUS
 10
22.0476902283
 20
15.9048573606
 11
22.5061466207
 21
15.8224540689
  0
LINE
  5
227
100
AcDbEntity
  8
0
100
AcDbLine
 62
7
  6
CONTINUOUS
 10
4.3501786423
 20
23.7316666281
 11
5.12799934
 21
23.2826017982
  0
LINE
  5
228
100
AcDbEntity
  8
0
100
AcDbLine
 62
7
  6
CONTINUOUS
 10
5.12799934
 20
24.0174539736
 11
4.6330225324
 21
24.3032225018
  0
LINE
  5
229
100
AcDbEntity
  8
0
100
AcDbLine
 62
7
  6
CONTINUOUS
 10
10.9036042168
 20
33.6236634709
 11
10.9036042168
 21
32.9468210857
  0
LINE
  5
22A
100
AcDbEntity
  8
0
100
AcDbLine
 62
7
  6
CONTINUOUS
 10
15.3096223906
 20
34.3475633406
 11
14.5318081696
 21
33.8984947713
  0
LINE
  5
22B
100
AcDbEntity
  8
0
100
AcDbLine
 62
7
  6
CONTINUOUS
 10
6.0048163413
 20
28.7779482757
 11
6.1179529552
 21
28.8432673403
  0
LINE
  5
22C
100
AcDbEntity
  8
0
100
AcDbLine
 62
7
  6
CONTINUOUS
 10
24.4541652317
 20
16.3144364451
 11
24.1713213416
 21
16.387917481
  0
LINE
  5
22D
100
AcDbEntity
  8
0
100
AcDbLine
 62
7
  6
CONTINUOUS
 10
24.1614266319
 20
16.50220598
 11
24.1105499514
 21
16.5154234166
  0
LINE
  5
22E
100
AcDbEntity
  8
0
100
AcDbLine
 62
7
  6
CONTINUOUS
 10
12.2046861111
 20
32.8725004825
 11
12.2046861111
 21
32.1956580974
  0
LINE
  5
22F
100
AcDbEntity
  8
0
100
AcDbLine
 62
7
  6
CONTINUOUS
 10
16.1596185852
 20
32.8753179571
 11
15.3818043643
 21
32.4262493879
  0
LINE
  5
230
100
AcDbEntity
  8
0
100
AcDbLine
 62
7
  6
CONTINUOUS
 10
13.5057680053
 20
32.1213374942
 11
13.5057680053
 21
31.4444951091
  0
LINE
  5
231
100
AcDbEntity
  8
0
100
AcDbLine
 62
7
  6
CONTINUOUS
 10
28.9001364742
 20
39.4831635209
 11
18.2713594661
 21
33.3466728841
  0
LINE
  5
232
100
AcDbEntity
  8
0
100
AcDbLine
 62
7
  6
CONTINUOUS
 10
29.444259577
 20
39.3523575513
 11
30.5693838154
 21
40.0019444557
  0
LINE
  5
233
100
AcDbEntity
  8
0
100
AcDbLine
 62
7
  6
CONTINUOUS
 10
29.5227974627
 20
39.2781597212
 11
30.7108057605
 21
39.9640525374
  0
LINE
  5
234
100
AcDbEntity
  8
0
100
AcDbLine
 62
7
  6
CONTINUOUS
 10
29.631594956
 20
39.1339197141
 11
30.8522277055
 21
39.8386481539
  0
LINE
  5
235
100
AcDbEntity
  8
0
100
AcDbLine
 62
7
  6
CONTINUOUS
 10
16.3851666164
 20
31.4150741722
 11
14.970958942
 21
30.5985858644
  0
LINE
  5
236
100
AcDbEntity
  8
0
100
AcDbLine
 62
7
  6
CONTINUOUS
 10
29.7523366551
 20
38.9738444862
 11
30.95172726
 21
39.6663088414
  0
LINE
  5
237
100
AcDbEntity
  8
0
100
AcDbLine
 62
7
  6
CONTINUOUS
 10
29.7572241068
 20
38.9673648694
 11
30.9557557546
 21
39.6593333083
  0
LINE
  5
238
100
AcDbEntity
  8
0
100
AcDbLine
 62
7
  6
CONTINUOUS
 10
29.8309074346
 20
38.7801206403
 11
31.0552553091
 21
39.4869939958
  0
LINE
  5
239
100
AcDbEntity
  8
0
100
AcDbLine
 62
7
  6
CONTINUOUS
 10
20.4157067696
 20
20.5965205051
 11
22.5362850198
 21
20.1509179125
  0
LINE
  5
23A
100
AcDbEntity
  8
0
100
AcDbLine
 62
7
  6
CONTINUOUS
 10
24.4541652317
 20
16.3144364451
 11
24.1713213416
 21
16.4777327469
  0
LINE
  5
23B
100
AcDbEntity
  8
0
100
AcDbLine
 62
7
  6
CONTINUOUS
 10
15.2057680053
 20
32.1213374942
 11
15.2057680053
 21
30.7341521311
  0
LINE
  5
23C
100
AcDbEntity
  8
0
100
AcDbLine
 62
7
  6
CONTINUOUS
 10
29.8866151748
 20
38.6052273671
 11
31.0931492051
 21
39.3018159562
  0
LINE
  5
23D
100
AcDbEntity
  8
0
100
AcDbLine
 62
7
  6
CONTINUOUS
 10
30.2012183685
 20
38.7320005326
 11
18.6352216158
 21
32.0544090539
  0
LINE
  5
23E
100
AcDbEntity
  8
0
100
AcDbLine
 62
7
  6
CONTINUOUS
 10
30.3391512011
 20
38.7469525973
 11
31.0552553091
 21
39.1603930289
  0
LINE
  5
23F
100
AcDbEntity
  8
0
100
AcDbLine
 62
7
  6
CONTINUOUS
 10
4.3501786423
 20
23.7316666281
 11
4.9865883923
 21
24.0990957753
  0
LINE
  5
240
100
AcDbEntity
  8
0
100
AcDbLine
 62
7
  6
CONTINUOUS
 10
30.7823981349
 20
38.5735991061
 11
31.8775368069
 21
39.205873939
  0
LINE
  5
241
100
AcDbEntity
  8
0
100
AcDbLine
 62
7
  6
CONTINUOUS
 10
30.849621397
 20
38.4928688139
 11
32.018958752
 21
39.1679820207
  0
LINE
  5
242
100
AcDbEntity
  8
0
100
AcDbLine
 62
7
  6
CONTINUOUS
 10
30.9584188903
 20
38.3486288068
 11
32.160380697
 21
39.0425776372
  0
LINE
  5
243
100
AcDbEntity
  8
0
100
AcDbLine
 62
7
  6
CONTINUOUS
 10
31.0791605894
 20
38.1885535789
 11
32.2598802516
 21
38.8702383246
  0
LINE
  5
244
100
AcDbEntity
  8
0
100
AcDbLine
 62
7
  6
CONTINUOUS
 10
31.0833469993
 20
38.1816692179
 11
32.2639087461
 21
38.8632627916
  0
LINE
  5
245
100
AcDbEntity
  8
0
100
AcDbLine
 62
7
  6
CONTINUOUS
 10
31.1451699319
 20
37.9875774273
 11
32.3634083006
 21
38.6909234791
  0
LINE
  5
246
100
AcDbEntity
  8
0
100
AcDbLine
 62
7
  6
CONTINUOUS
 10
22.5362850198
 20
21.7839227468
 11
20.4157067696
 21
22.2295253394
  0
LINE
  5
247
100
AcDbEntity
  8
0
100
AcDbLine
 62
7
  6
CONTINUOUS
 10
19.553037733
 20
20.4250566007
 11
19.8358816231
 21
20.2617602989
  0
LINE
  5
248
100
AcDbEntity
  8
0
100
AcDbLine
 62
7
  6
CONTINUOUS
 10
6.0048163413
 20
28.7779482757
 11
18.0256816688
 21
21.8378554488
  0
LINE
  5
249
100
AcDbEntity
  8
0
100
AcDbLine
 62
7
  6
CONTINUOUS
 10
6.1179529552
 20
28.8432673403
 11
18.1388182827
 21
21.9031745134
  0
LINE
  5
24A
100
AcDbEntity
  8
0
100
AcDbLine
 62
7
  6
CONTINUOUS
 10
31.200877672
 20
37.8126841542
 11
32.4013021966
 21
38.5057454395
  0
LINE
  5
24B
100
AcDbEntity
  8
0
100
AcDbLine
 62
7
  6
CONTINUOUS
 10
31.5023002628
 20
37.9808375443
 11
19.0354114347
 21
30.783118888
  0
LINE
  5
24C
100
AcDbEntity
  8
0
100
AcDbLine
 62
7
  6
CONTINUOUS
 10
31.7447790151
 20
38.0071588597
 11
32.3634083006
 21
38.3643225122
  0
LINE
  5
24D
100
AcDbEntity
  8
0
100
AcDbLine
 62
7
  6
CONTINUOUS
 10
32.0587754089
 20
37.8408332215
 11
33.1856897985
 21
38.491453664
  0
LINE
  5
24E
100
AcDbEntity
  8
0
100
AcDbLine
 62
7
  6
CONTINUOUS
 10
32.1335418077
 20
37.7644579354
 11
33.3271117435
 21
38.4535617457
  0
LINE
  5
24F
100
AcDbEntity
  8
0
100
AcDbLine
 62
7
  6
CONTINUOUS
 10
32.242339301
 20
37.6202179283
 11
33.4685336885
 21
38.3281573622
  0
LINE
  5
250
100
AcDbEntity
  8
0
100
AcDbLine
 62
7
  6
CONTINUOUS
 10
32.3630810001
 20
37.4601427004
 11
33.5680332431
 21
38.1558180496
  0
LINE
  5
251
100
AcDbEntity
  8
0
100
AcDbLine
 62
7
  6
CONTINUOUS
 10
32.3679684518
 20
37.4536630836
 11
33.5720617376
 21
38.1488425166
  0
LINE
  5
252
100
AcDbEntity
  8
0
100
AcDbLine
 62
7
  6
CONTINUOUS
 10
32.4374646942
 20
37.2640014541
 11
33.6715612921
 21
37.976503204
  0
LINE
  5
253
100
AcDbEntity
  8
0
100
AcDbLine
 62
7
  6
CONTINUOUS
 10
18.0681073102
 20
22.9153670195
 11
19.8358816231
 21
21.8947651332
  0
LINE
  5
254
100
AcDbEntity
  8
0
100
AcDbLine
 62
7
  6
CONTINUOUS
 10
16.9352216158
 20
31.9956366145
 11
16.9352216158
 21
32.2749573472
  0
LINE
  5
255
100
AcDbEntity
  8
0
100
AcDbLine
 62
7
  6
CONTINUOUS
 10
32.4931724344
 20
37.0891081809
 11
33.7094551881
 21
37.7913251645
  0
LINE
  5
256
100
AcDbEntity
  8
0
100
AcDbLine
 62
7
  6
CONTINUOUS
 10
32.5225580333
 20
36.9865288562
 11
33.6715612921
 21
37.6499022372
  0
LINE
  5
257
100
AcDbEntity
  8
0
100
AcDbLine
 62
7
  6
CONTINUOUS
 10
32.3522964574
 20
36.5085921609
 11
20.735433201
 21
29.8016330678
  0
LINE
  5
258
100
AcDbEntity
  8
0
100
AcDbLine
 62
7
  6
CONTINUOUS
 10
18.0681073102
 20
27.7327312805
 11
21.1935062707
 21
29.5371704407
  0
LINE
  5
259
100
AcDbEntity
  8
0
100
AcDbLine
 62
7
  6
CONTINUOUS
 10
20.8399643616
 20
23.1276597584
 11
19.6378778288
 21
23.8216690411
  0
LINE
  5
25A
100
AcDbEntity
  8
0
100
AcDbLine
 62
7
  6
CONTINUOUS
 10
22.8552235455
 20
22.8623157616
 11
22.5016686829
 21
23.0664361389
  0
LINE
  5
25B
100
AcDbEntity
  8
0
100
AcDbLine
 62
7
  6
CONTINUOUS
 10
24.4541652317
 20
16.3144364451
 11
24.0923057704
 21
16.7680830403
  0
LINE
  5
25C
100
AcDbEntity
  8
0
100
AcDbLine
 62
7
  6
CONTINUOUS
 10
18.0256816688
 20
21.8378554488
 11
18.0256816688
 21
14.4893336947
  0
LINE
  5
25D
100
AcDbEntity
  8
0
100
AcDbLine
 62
7
  6
CONTINUOUS
 10
18.0681073102
 20
22.9153670195
 11
18.0681073102
 21
27.7327312805
  0
LINE
  5
25E
100
AcDbEntity
  8
0
100
AcDbLine
 62
7
  6
CONTINUOUS
 10
18.1388182827
 20
21.9031745134
 11
18.1388182827
 21
14.5546527593
  0
LINE
  5
25F
100
AcDbEntity
  8
0
100
AcDbLine
 62
7
  6
CONTINUOUS
 10
18.6352216158
 20
31.0141633608
 11
18.6352216158
 21
32.4274916854
  0
LINE
  5
260
100
AcDbEntity
  8
0
100
AcDbLine
 62
7
  6
CONTINUOUS
 10
23.9158837172
 20
22.8623183111
 11
23.3855514234
 21
23.168498877
  0
LINE
  5
261
100
AcDbEntity
  8
0
100
AcDbLine
 62
7
  6
CONTINUOUS
 10
23.0319965608
 20
23.3726192543
 11
22.5016642669
 21
23.6787998202
  0
LINE
  5
262
100
AcDbEntity
  8
0
100
AcDbLine
 62
7
  6
CONTINUOUS
 10
22.8552161856
 20
23.637971172
 11
23.3855484794
 21
23.3317906061
  0
LINE
  5
263
100
AcDbEntity
  8
0
100
AcDbLine
 62
7
  6
CONTINUOUS
 10
23.739103342
 20
23.1276702288
 11
24.0572990525
 21
22.9439640057
  0
LINE
  5
264
100
AcDbEntity
  8
0
100
AcDbLine
 62
7
  6
CONTINUOUS
 10
21.9006101079
 20
24.3115479163
 11
22.1462196869
 21
24.1697483677
  0
LINE
  5
265
100
AcDbEntity
  8
0
100
AcDbLine
 62
7
  6
CONTINUOUS
 10
22.8552161856
 20
23.8829218971
 11
23.3855484794
 21
23.5767413312
  0
LINE
  5
266
100
AcDbEntity
  8
0
100
AcDbLine
 62
7
  6
CONTINUOUS
 10
23.739103342
 20
23.3726209539
 11
24.2694356358
 21
23.0664403881
  0
LINE
  5
267
100
AcDbEntity
  8
0
100
AcDbLine
 62
7
  6
CONTINUOUS
 10
23.9158763573
 20
23.6379737215
 11
24.0572946366
 21
23.556327687
  0
LINE
  5
268
100
AcDbEntity
  8
0
100
AcDbLine
 62
7
  6
CONTINUOUS
 10
23.9158763573
 20
23.8829244466
 11
24.2694312199
 21
23.6788040693
  0
LINE
  5
269
100
AcDbEntity
  8
0
100
AcDbLine
 62
7
  6
CONTINUOUS
 10
21.9006101079
 20
25.1280503335
 11
23.0832849971
 21
24.4452481148
  0
LINE
  5
26A
100
AcDbEntity
  8
0
100
AcDbLine
 62
7
  6
CONTINUOUS
 10
20.9689028786
 20
14.9349312784
 11
20.891911493
 21
15.2375721798
  0
LINE
  5
26B
100
AcDbEntity
  8
0
100
AcDbLine
 62
7
  6
CONTINUOUS
 10
19.553037733
 20
20.4250566007
 11
19.553037733
 21
13.4847860551
  0
LINE
  5
26C
100
AcDbEntity
  8
0
100
AcDbLine
 62
7
  6
CONTINUOUS
 10
19.8358816231
 20
21.8947651332
 11
19.8358816231
 21
20.2617602989
  0
LINE
  5
26D
100
AcDbEntity
  8
0
100
AcDbLine
 62
7
  6
CONTINUOUS
 10
20.4157067696
 20
20.5965205051
 11
20.4157067696
 21
22.2295253394
  0
LINE
  5
26E
100
AcDbEntity
  8
0
100
AcDbLine
 62
7
  6
CONTINUOUS
 10
4.6330225324
 20
35.4893056164
 11
18.0681073102
 21
27.7327312805
  0
LINE
  5
26F
100
AcDbEntity
  8
0
100
AcDbLine
 62
7
  6
CONTINUOUS
 10
23.1026775776
 20
25.822060168
 11
22.4662931777
 21
26.1894685607
  0
LINE
  5
270
100
AcDbEntity
  8
0
100
AcDbLine
 62
7
  6
CONTINUOUS
 10
14.970958942
 20
30.5985858644
 11
10.021190866
 21
33.4562711461
  0
LINE
  5
271
100
AcDbEntity
  8
0
100
AcDbLine
 62
7
  6
CONTINUOUS
 10
22.5061466207
 20
15.8224540689
 11
22.4291552351
 21
16.1250949703
  0
LINE
  5
272
100
AcDbEntity
  8
0
100
AcDbLine
 62
7
  6
CONTINUOUS
 10
21.4855499514
 20
22.9643688955
 11
21.4855499514
 21
23.3726201041
  0
LINE
  5
273
100
AcDbEntity
  8
0
100
AcDbLine
 62
7
  6
CONTINUOUS
 10
9.41652622
 20
18.4388186528
 11
7.4221250871
 21
17.2873574952
  0
LINE
  5
274
100
AcDbEntity
  8
0
100
AcDbLine
 62
7
  6
CONTINUOUS
 10
19.6378778288
 20
23.8216690411
 11
18.0681073102
 21
22.9153670195
  0
LINE
  5
275
100
AcDbEntity
  8
0
100
AcDbLine
 62
7
  6
CONTINUOUS
 10
21.9006101079
 20
25.1280503335
 11
23.4562385498
 21
26.026187472
  0
LINE
  5
276
100
AcDbEntity
  8
0
100
AcDbLine
 62
7
  6
CONTINUOUS
 10
25.2240128626
 20
25.0055855857
 11
23.4562385498
 21
26.026187472
  0
LINE
  5
277
100
AcDbEntity
  8
0
100
AcDbLine
 62
7
  6
CONTINUOUS
 10
21.9006101079
 20
24.3115479163
 11
21.9006101079
 21
25.1280503335
  0
LINE
  5
278
100
AcDbEntity
  8
0
100
AcDbLine
 62
7
  6
CONTINUOUS
 10
22.4662931777
 20
28.3124041165
 11
22.4662931777
 21
25.4546456566
  0
LINE
  5
279
100
AcDbEntity
  8
0
100
AcDbLine
 62
7
  6
CONTINUOUS
 10
22.5362850198
 20
20.1509179125
 11
22.5362850198
 21
21.7839227468
  0
LINE
  5
27A
100
AcDbEntity
  8
0
100
AcDbLine
 62
7
  6
CONTINUOUS
 10
22.6605499514
 20
20.1478508868
 11
22.6605499514
 21
13.5745910986
  0
LINE
  5
27B
100
AcDbEntity
  8
0
100
AcDbLine
 62
7
  6
CONTINUOUS
 10
22.8552161856
 20
23.637971172
 11
22.8552161856
 21
23.8829218971
  0
LINE
  5
27C
100
AcDbEntity
  8
0
100
AcDbLine
 62
7
  6
CONTINUOUS
 10
23.0319965608
 20
23.1276685291
 11
23.0319965608
 21
23.3726192543
  0
LINE
  5
27D
100
AcDbEntity
  8
0
100
AcDbLine
 62
7
  6
CONTINUOUS
 10
20.3449997732
 20
23.4134212319
 11
21.9006101079
 21
24.3115479163
  0
LINE
  5
27E
100
AcDbEntity
  8
0
100
AcDbLine
 62
7
  6
CONTINUOUS
 10
18.0256816688
 20
21.8378554488
 11
18.1388182827
 21
21.9031745134
  0
LINE
  5
27F
100
AcDbEntity
  8
0
100
AcDbLine
 62
7
  6
CONTINUOUS
 10
21.5099012927
 20
23.5144457171
 11
20.8399643616
 21
23.1276597584
  0
LINE
  5
280
100
AcDbEntity
  8
0
100
AcDbLine
 62
7
  6
CONTINUOUS
 10
15.2057680053
 20
32.0959848735
 11
16.3851666164
 21
31.4150741722
  0
LINE
  5
281
100
AcDbEntity
  8
0
100
AcDbLine
 62
7
  6
CONTINUOUS
 10
7.7584214929
 20
37.2937447765
 11
11.5746808015
 21
35.090476282
  0
LINE
  5
282
100
AcDbEntity
  8
0
100
AcDbLine
 62
7
  6
CONTINUOUS
 10
15.7855795903
 20
32.6593677318
 11
21.1935062707
 21
29.5371704407
  0
LINE
  5
283
100
AcDbEntity
  8
0
100
AcDbLine
 62
7
  6
CONTINUOUS
 10
16.0275051432
 20
32.7990426811
 11
17.1531174663
 21
32.1491515223
  0
LINE
  5
284
100
AcDbEntity
  8
0
100
AcDbLine
 62
7
  6
CONTINUOUS
 10
21.1935062707
 20
29.5371704407
 11
22.4662931777
 21
28.3124041165
  0
LINE
  5
285
100
AcDbEntity
  8
0
100
AcDbLine
 62
7
  6
CONTINUOUS
 10
24.6583297929
 20
24.6789902626
 11
25.4301648146
 21
23.4546950521
  0
LINE
  5
286
100
AcDbEntity
  8
0
100
AcDbLine
 62
7
  6
CONTINUOUS
 10
23.3855484794
 20
23.3317906061
 11
23.3855484794
 21
23.5767413312
  0
LINE
  5
287
100
AcDbEntity
  8
0
100
AcDbLine
 62
7
  6
CONTINUOUS
 10
23.739103342
 20
23.1276702288
 11
23.739103342
 21
23.3726209539
  0
LINE
  5
288
100
AcDbEntity
  8
0
100
AcDbLine
 62
7
  6
CONTINUOUS
 10
23.9158763573
 20
23.6379737215
 11
23.9158763573
 21
23.8829244466
  0
LINE
  5
289
100
AcDbEntity
  8
0
100
AcDbLine
 62
7
  6
CONTINUOUS
 10
24.1105499514
 20
20.2603640735
 11
24.1105499514
 21
13.5745910986
  0
LINE
  5
28A
100
AcDbEntity
  8
0
100
AcDbLine
 62
7
  6
CONTINUOUS
 10
24.1713213416
 20
16.4777327469
 11
24.1713213416
 21
16.387917481
  0
LINE
  5
28B
100
AcDbEntity
  8
0
100
AcDbLine
 62
7
  6
CONTINUOUS
 10
22.5016642669
 20
23.6787998202
 11
22.8552161856
 21
23.8829218971
  0
LINE
  5
28C
100
AcDbEntity
  8
0
100
AcDbLine
 62
7
  6
CONTINUOUS
 10
22.7138008503
 20
23.5563254774
 11
22.8552161856
 21
23.637971172
  0
LINE
  5
28D
100
AcDbEntity
  8
0
100
AcDbLine
 62
7
  6
CONTINUOUS
 10
19.8358816231
 20
21.8947651332
 11
20.4157067696
 21
22.2295253394
  0
LINE
  5
28E
100
AcDbEntity
  8
0
100
AcDbLine
 62
7
  6
CONTINUOUS
 10
24.6583297929
 20
24.6789902626
 11
25.2240128626
 21
25.0055855857
  0
LINE
  5
28F
100
AcDbEntity
  8
0
100
AcDbLine
 62
7
  6
CONTINUOUS
 10
22.5016686829
 20
23.0664361389
 11
23.0319965608
 21
23.3726192543
  0
LINE
  5
290
100
AcDbEntity
  8
0
100
AcDbLine
 62
7
  6
CONTINUOUS
 10
23.3855484794
 20
23.5767413312
 11
23.9158763573
 21
23.8829244466
  0
LINE
  5
291
100
AcDbEntity
  8
0
100
AcDbLine
 62
7
  6
CONTINUOUS
 10
22.7138052662
 20
22.9439617961
 11
23.0319965608
 21
23.1276685291
  0
LINE
  5
292
100
AcDbEntity
  8
0
100
AcDbLine
 62
7
  6
CONTINUOUS
 10
23.3855484794
 20
23.3317906061
 11
23.9158763573
 21
23.6379737215
  0
LINE
  5
293
100
AcDbEntity
  8
0
100
AcDbLine
 62
7
  6
CONTINUOUS
 10
24.2694312199
 20
23.6788040693
 11
23.739103342
 21
23.3726209539
  0
LINE
  5
294
100
AcDbEntity
  8
0
100
AcDbLine
 62
7
  6
CONTINUOUS
 10
23.3855514234
 20
23.168498877
 11
22.8552235455
 21
22.8623157616
  0
LINE
  5
295
100
AcDbEntity
  8
0
100
AcDbLine
 62
7
  6
CONTINUOUS
 10
24.9411689726
 20
20.6283817132
 11
24.9411689726
 21
16.5956065076
  0
LINE
  5
296
100
AcDbEntity
  8
0
100
AcDbLine
 62
7
  6
CONTINUOUS
 10
25.2240128626
 20
25.0055855857
 11
25.2240128626
 21
23.7816960825
  0
LINE
  5
297
100
AcDbEntity
  8
0
100
AcDbLine
 62
7
  6
CONTINUOUS
 10
25.2855499514
 20
22.9643688955
 11
25.2855499514
 21
23.3726201041
  0
LINE
  5
298
100
AcDbEntity
  8
0
100
AcDbLine
 62
7
  6
CONTINUOUS
 10
25.5044884496
 20
21.4811052325
 11
25.5044884496
 21
23.1141100668
  0
LINE
  5
299
100
AcDbEntity
  8
0
100
AcDbLine
 62
7
  6
CONTINUOUS
 10
31.0552345805
 20
39.4870296388
 11
31.0758629495
 21
39.532543697
  0
LINE
  5
29A
100
AcDbEntity
  8
0
100
AcDbLine
 62
7
  6
CONTINUOUS
 10
24.2694356358
 20
23.0664403881
 11
23.9158837172
 21
22.8623183111
  0
LINE
  5
29B
100
AcDbEntity
  8
0
100
AcDbLine
 62
7
  6
CONTINUOUS
 10
19.8358816231
 20
20.2617602989
 11
20.4157067696
 21
20.5965205051
  0
LINE
  5
29C
100
AcDbEntity
  8
0
100
AcDbLine
 62
7
  6
CONTINUOUS
 10
14.0574528482
 20
35.8994134287
 11
18.0031139274
 21
33.6213967518
  0
LINE
  5
29D
100
AcDbEntity
  8
0
100
AcDbLine
 62
7
  6
CONTINUOUS
 10
25.4301648146
 20
23.4546950521
 11
25.5044631461
 21
23.1141100754
  0
LINE
  5
29E
100
AcDbEntity
  8
0
100
AcDbLine
 62
7
  6
CONTINUOUS
 10
32.363387572
 20
38.6909591221
 11
32.384015941
 21
38.7364731802
  0
LINE
  5
29F
100
AcDbEntity
  8
0
100
AcDbLine
 62
7
  6
CONTINUOUS
 10
33.6715405636
 20
37.9765388471
 11
33.6921689325
 21
38.0220529052
  0
LINE
  5
2A0
100
AcDbEntity
  8
0
100
AcDbLine
 62
7
  6
CONTINUOUS
 10
18.0256816688
 20
14.4893336947
 11
18.1388182827
 21
14.5546527593
  0
LINE
  5
2A1
100
AcDbEntity
  8
0
100
AcDbLine
 62
7
  6
CONTINUOUS
 10
20.5967111753
 20
15.0671392143
 11
22.6605499514
 21
16.2586899746
  0
LWPOLYLINE
  5
2A2
100
AcDbEntity
  8
0
100
AcDbPolyline
 62
7
  6
CONTINUOUS
 90
5
 70
0
 10
22.6605499514
 20
16.9777061129
 10
22.2541958682
 20
16.8405905059
 10
21.3247021543
 20
16.0809675128
 10
20.5482967846
 20
14.9997154675
 10
20.0541835507
 20
13.7741210008
  0
LINE
  5
2A3
100
AcDbEntity
  8
0
100
AcDbLine
 62
7
  6
CONTINUOUS
 10
20.9689028786
 20
14.9349312784
 11
20.3866507029
 21
14.5987698346
  0
LINE
  5
2A4
100
AcDbEntity
  8
0
100
AcDbLine
 62
7
  6
CONTINUOUS
 10
22.5061466207
 20
15.8224540689
 11
22.6605499514
 21
15.9115983413
  0
LINE
  5
2A5
100
AcDbEntity
  8
0
100
AcDbLine
 62
7
  6
CONTINUOUS
 10
19.553037733
 20
13.4847860551
 11
20.0541835507
 21
13.7741210008
  0
LINE
  5
2A6
100
AcDbEntity
  8
0
100
AcDbLine
 62
7
  6
CONTINUOUS
 10
24.4541652317
 20
16.3144364451
 11
24.9411689726
 21
16.5956065076
  0
ARC
  5
2A7
100
AcDbEntity
  8
0
100
AcDbCircle
 62
7
  6
CONTINUOUS
 10
22.6250144732
 20
15.9050014932
 40
1.6489651362
100
AcDbArc
 50
20.3239516185
 51
25.6850006219
  0
SPLINE
  5
2A8
100
AcDbEntity
  8
0
100
AcDbSpline
 62
7
  6
CONTINUOUS
 70
0
 71
3
 72
21
 73
17
 74
0
 42
0.0000001
 43
0.0000001
 44
0.0000000001
 40
0.0
 40
0.0
 40
0.0
 40
0.0
 40
0.0428232427
 40
0.0874147521
 40
0.1352089961
 40
0.187131037
 40
0.2435920288
 40
0.3045632133
 40
0.3696787917
 40
0.4383036506
 40
0.5825327101
 40
0.7295758867
 40
0.8015696429
 40
0.8712135344
 40
0.9376456376
 40
1.0
 40
1.0
 40
1.0
 40
1.0
 10
22.6605629199
 20
13.5745910753
 30
0.0
 10
22.6605546292
 20
13.5539534882
 30
0.0
 10
22.6660806805
 20
13.511646649
 30
0.0
 10
22.6903361747
 20
13.4505566885
 30
0.0
 10
22.7297180438
 20
13.3926523839
 30
0.0
 10
22.7830717502
 20
13.3390544998
 30
0.0
 10
22.8492034589
 20
13.2907450355
 30
0.0
 10
22.9266732104
 20
13.2485925376
 30
0.0
 10
23.0138900919
 20
13.2134688437
 30
0.0
 10
23.1427935085
 20
13.1763142205
 30
0.0
 10
23.3155149226
 20
13.1520923353
 30
0.0
 10
23.4913905993
 20
13.1569209486
 30
0.0
 10
23.6289528806
 20
13.1787227698
 30
0.0
 10
23.7263035151
 20
13.2034191896
 30
0.0
 10
23.8163428085
 20
13.2360970571
 30
0.0
 10
23.8721802938
 20
13.2635915575
 30
0.0
 10
23.8982045021
 20
13.2786165515
 30
0.0
  0
SPLINE
  5
2A9
100
AcDbEntity
  8
0
100
AcDbSpline
 62
7
  6
CONTINUOUS
 70
0
 71
3
 72
18
 73
14
 74
0
 42
0.0000001
 43
0.0000001
 44
0.0000000001
 40
0.0
 40
0.0
 40
0.0
 40
0.0
 40
0.0462505702
 40
0.0932165817
 40
0.1415587262
 40
0.191840375
 40
0.2445132916
 40
0.2998892522
 40
0.4193137634
 40
0.5505707096
 40
0.6925848287
 40
0.843302519
 40
1.0
 40
1.0
 40
1.0
 40
1.0
 10
21.4855629321
 20
23.3726201041
 30
0.0
 10
21.4855631794
 20
23.4050912398
 30
0.0
 10
21.4906206369
 20
23.470645516
 30
0.0
 10
21.51332362
 20
23.5677627333
 30
0.0
 10
21.5508459987
 20
23.6632054815
 30
0.0
 10
21.6028180335
 20
23.7561825631
 30
0.0
 10
21.6688047525
 20
23.8459613927
 30
0.0
 10
21.7773443153
 20
23.9634926365
 30
0.0
 10
21.9468155845
 20
24.0977928708
 30
0.0
 10
22.1887840052
 20
24.2319115956
 30
0.0
 10
22.467258232
 20
24.3394226487
 30
0.0
 10
22.7737349171
 20
24.4171481746
 30
0.0
 10
22.9879423176
 20
24.4471781776
 30
0.0
 10
23.0975256318
 20
24.4568873432
 30
0.0
  0
SPLINE
  5
2AA
100
AcDbEntity
  8
0
100
AcDbSpline
 62
7
  6
CONTINUOUS
 70
0
 71
3
 72
14
 73
10
 74
0
 42
0.0000001
 43
0.0000001
 44
0.0000000001
 40
0.0
 40
0.0
 40
0.0
 40
0.0
 40
0.2637021368
 40
0.3949707502
 40
0.5242094649
 40
0.6502738647
 40
0.7721867891
 40
0.8890657294
 40
1.0
 40
1.0
 40
1.0
 40
1.0
 10
23.0975256318
 20
24.4568873432
 30
0.0
 10
23.2449913142
 20
24.4699529157
 30
0.0
 10
23.4675876149
 20
24.4743876787
 30
0.0
 10
23.7610575592
 20
24.4504643797
 30
0.0
 10
23.9758238509
 20
24.4179194909
 30
0.0
 10
24.1825554465
 20
24.3711408555
 30
0.0
 10
24.3785247774
 20
24.3107872922
 30
0.0
 10
24.5609574466
 20
24.2376102526
 30
0.0
 10
24.6751118169
 20
24.1794229243
 30
0.0
 10
24.7290472421
 20
24.1482839965
 30
0.0
  0
SPLINE
  5
2AB
100
AcDbEntity
  8
0
100
AcDbSpline
 62
7
  6
CONTINUOUS
 70
0
 71
3
 72
9
 73
5
 74
0
 42
0.0000001
 43
0.0000001
 44
0.0000000001
 40
0.0
 40
0.0
 40
0.0
 40
0.0
 40
0.4874298326
 40
1.0
 40
1.0
 40
1.0
 40
1.0
 10
30.9517252995
 20
39.6663118849
 30
0.0
 10
30.9544488457
 20
39.6678853264
 30
0.0
 10
30.9595926131
 20
39.6719400736
 30
0.0
 10
30.9634392905
 20
39.6772189431
 30
0.0
 10
30.9650676224
 20
39.6800979758
 30
0.0
  0
SPLINE
  5
2AC
100
AcDbEntity
  8
0
100
AcDbSpline
 62
7
  6
CONTINUOUS
 70
0
 71
3
 72
9
 73
5
 74
0
 42
0.0000001
 43
0.0000001
 44
0.0000000001
 40
0.0
 40
0.0
 40
0.0
 40
0.0
 40
0.2278940546
 40
1.0
 40
1.0
 40
1.0
 40
1.0
 10
30.9650676224
 20
39.6800979758
 30
0.0
 10
30.966293941
 20
39.682266214
 30
0.0
 10
30.9708471427
 20
39.6922498006
 30
0.0
 10
30.9723349004
 20
39.7034190022
 30
0.0
 10
30.9723349004
 20
39.7118585425
 30
0.0
  0
SPLINE
  5
2AD
100
AcDbEntity
  8
0
100
AcDbSpline
 62
7
  6
CONTINUOUS
 70
0
 71
3
 72
11
 73
7
 74
0
 42
0.0000001
 43
0.0000001
 44
0.0000000001
 40
0.0
 40
0.0
 40
0.0
 40
0.0
 40
0.2176749331
 40
0.4512232616
 40
0.7112873818
 40
1.0
 40
1.0
 40
1.0
 40
1.0
 10
31.0931472445
 20
39.3018189998
 30
0.0
 10
31.0964268445
 20
39.3037136836
 30
0.0
 10
31.1025782802
 20
39.3088705538
 30
0.0
 10
31.1091109752
 20
39.3195861633
 30
0.0
 10
31.1129679885
 20
39.3327637466
 30
0.0
 10
31.1137568454
 20
39.3423420378
 30
0.0
 10
31.1137568454
 20
39.3473656574
 30
0.0
  0
SPLINE
  5
2AE
100
AcDbEntity
  8
0
100
AcDbSpline
 62
7
  6
CONTINUOUS
 70
0
 71
3
 72
21
 73
17
 74
0
 42
0.0000001
 43
0.0000001
 44
0.0000000001
 40
0.0
 40
0.0
 40
0.0
 40
0.0
 40
0.0744242297
 40
0.1497015313
 40
0.2998281861
 40
0.4453712554
 40
0.5149930278
 40
0.5818120559
 40
0.6454367974
 40
0.7055817338
 40
0.7621168013
 40
0.8150800745
 40
0.8647318589
 40
0.911567397
 40
0.9563316919
 40
1.0
 40
1.0
 40
1.0
 40
1.0
 10
22.5362850198
 20
20.1509179125
 30
0.0
 10
22.62436653
 20
20.1378977476
 30
0.0
 10
22.802504967
 20
20.1178331219
 30
0.0
 10
23.1610311376
 20
20.101295167
 30
0.0
 10
23.6055612468
 20
20.1243255259
 30
0.0
 10
24.0366730521
 20
20.2048882709
 30
0.0
 10
24.3595662852
 20
20.3036303634
 30
0.0
 10
24.5823987776
 20
20.391778077
 30
0.0
 10
24.7866126545
 20
20.493917402
 30
0.0
 10
24.9695895804
 20
20.6088687742
 30
0.0
 10
25.1290464274
 20
20.7351615996
 30
0.0
 10
25.2628729453
 20
20.8713821245
 30
0.0
 10
25.3693200668
 20
21.0158839138
 30
0.0
 10
25.4467472195
 20
21.1670273931
 30
0.0
 10
25.4938950578
 20
21.3227810943
 30
0.0
 10
25.5044891819
 20
21.4288619564
 30
0.0
 10
25.5044906253
 20
21.4811052409
 30
0.0
  0
SPLINE
  5
2AF
100
AcDbEntity
  8
0
100
AcDbSpline
 62
7
  6
CONTINUOUS
 70
0
 71
3
 72
11
 73
7
 74
0
 42
0.0000001
 43
0.0000001
 44
0.0000000001
 40
0.0
 40
0.0
 40
0.0
 40
0.0
 40
0.2176749331
 40
0.4512232616
 40
0.7112873818
 40
1.0
 40
1.0
 40
1.0
 40
1.0
 10
31.0552533485
 20
39.1603960724
 30
0.0
 10
31.0585329486
 20
39.1622907562
 30
0.0
 10
31.0646843842
 20
39.1674476265
 30
0.0
 10
31.0712170792
 20
39.178163236
 30
0.0
 10
31.0750740925
 20
39.1913408193
 30
0.0
 10
31.0758629495
 20
39.2009191105
 30
0.0
 10
31.0758629495
 20
39.2059427301
 30
0.0
  0
SPLINE
  5
2B0
100
AcDbEntity
  8
0
100
AcDbSpline
 62
7
  6
CONTINUOUS
 70
0
 71
3
 72
12
 73
8
 74
0
 42
0.0000001
 43
0.0000001
 44
0.0000000001
 40
0.0
 40
0.0
 40
0.0
 40
0.0
 40
0.2894224857
 40
0.5486962918
 40
0.781646137
 40
0.8918323221
 40
1.0
 40
1.0
 40
1.0
 40
1.0
 10
31.9272983601
 20
37.9387419071
 30
0.0
 10
31.8900094045
 20
37.9602702087
 30
0.0
 10
31.815784951
 20
37.9955416432
 30
0.0
 10
31.7018292911
 20
38.0231496006
 30
0.0
 10
31.6107926452
 20
38.0207311001
 30
0.0
 10
31.5458388703
 20
38.0027096427
 30
0.0
 10
31.5162472497
 20
37.9888647709
 30
0.0
 10
31.5023078418
 20
37.9808243624
 30
0.0
  0
SPLINE
  5
2B1
100
AcDbEntity
  8
0
100
AcDbSpline
 62
7
  6
CONTINUOUS
 70
0
 71
3
 72
14
 73
10
 74
0
 42
0.0000001
 43
0.0000001
 44
0.0000000001
 40
0.0
 40
0.0
 40
0.0
 40
0.0
 40
0.121803972
 40
0.2492510663
 40
0.511551376
 40
0.6417228768
 40
0.7679087289
 40
0.888016917
 40
1.0
 40
1.0
 40
1.0
 40
1.0
 10
29.9124695073
 20
38.5552674765
 30
0.0
 10
29.9050424224
 20
38.5990011103
 30
0.0
 10
29.8842911824
 20
38.6876278876
 30
0.0
 10
29.8223591381
 20
38.8635866049
 30
0.0
 10
29.7327545374
 20
39.0320746794
 30
0.0
 10
29.6207410909
 20
39.1844421052
 30
0.0
 10
29.5284902927
 20
39.2862520103
 30
0.0
 10
29.4304864014
 20
39.3727972197
 30
0.0
 10
29.3604540017
 20
39.4206766626
 30
0.0
 10
29.3251345715
 20
39.4410678838
 30
0.0
  0
SPLINE
  5
2B2
100
AcDbEntity
  8
0
100
AcDbSpline
 62
7
  6
CONTINUOUS
 70
0
 71
3
 72
13
 73
9
 74
0
 42
0.0000001
 43
0.0000001
 44
0.0000000001
 40
0.0
 40
0.0
 40
0.0
 40
0.0
 40
0.1256608316
 40
0.2507678689
 40
0.3757980486
 40
0.5006077764
 40
0.7492551981
 40
1.0
 40
1.0
 40
1.0
 40
1.0
 10
14.0574637312
 20
35.8994071454
 30
0.0
 10
14.0061686968
 20
35.929023194
 30
0.0
 10
13.899185406
 20
35.980509238
 30
0.0
 10
13.7293261425
 20
36.0328802158
 30
0.0
 10
13.5540310607
 20
36.0598673013
 30
0.0
 10
13.3184207789
 20
36.062927283
 30
0.0
 10
13.0261098544
 20
36.006925696
 30
0.0
 10
12.8098140791
 20
35.9089839267
 30
0.0
 10
12.707458602
 20
35.8498893172
 30
0.0
  0
SPLINE
  5
2B3
100
AcDbEntity
  8
0
100
AcDbSpline
 62
7
  6
CONTINUOUS
 70
0
 71
3
 72
13
 73
9
 74
0
 42
0.0000001
 43
0.0000001
 44
0.0000000001
 40
0.0
 40
0.0
 40
0.0
 40
0.0
 40
0.2457716414
 40
0.3722121424
 40
0.5000147207
 40
0.6278156121
 40
0.7542530456
 40
1.0
 40
1.0
 40
1.0
 40
1.0
 10
11.9296443833
 20
35.4008207492
 30
0.0
 10
11.7781346786
 20
35.3133471025
 30
0.0
 10
11.5687109303
 20
35.1436772616
 30
0.0
 10
11.3388285086
 20
34.8714090562
 30
0.0
 10
11.1888651147
 20
34.6437037932
 30
0.0
 10
11.0666558437
 20
34.3999775125
 30
0.0
 10
10.9458270476
 20
34.0647741405
 30
0.0
 10
10.9036042168
 20
33.7985939723
 30
0.0
 10
10.9036042168
 20
33.6236634686
 30
0.0
  0
SPLINE
  5
2B4
100
AcDbEntity
  8
0
100
AcDbSpline
 62
7
  6
CONTINUOUS
 70
0
 71
3
 72
11
 73
7
 74
0
 42
0.0000001
 43
0.0000001
 44
0.0000000001
 40
0.0
 40
0.0
 40
0.0
 40
0.0
 40
0.2176749331
 40
0.4512232616
 40
0.7112873818
 40
1.0
 40
1.0
 40
1.0
 40
1.0
 10
32.401300236
 20
38.505748483
 30
0.0
 10
32.4045798361
 20
38.5076431668
 30
0.0
 10
32.4107312717
 20
38.5128000371
 30
0.0
 10
32.4172639667
 20
38.5235156466
 30
0.0
 10
32.42112098
 20
38.5366932299
 30
0.0
 10
32.421909837
 20
38.5462715211
 30
0.0
 10
32.421909837
 20
38.5512951407
 30
0.0
  0
SPLINE
  5
2B5
100
AcDbEntity
  8
0
100
AcDbSpline
 62
7
  6
CONTINUOUS
 70
0
 71
3
 72
9
 73
5
 74
0
 42
0.0000001
 43
0.0000001
 44
0.0000000001
 40
0.0
 40
0.0
 40
0.0
 40
0.0
 40
0.4874298326
 40
1.0
 40
1.0
 40
1.0
 40
1.0
 10
32.259878291
 20
38.8702413681
 30
0.0
 10
32.2626018373
 20
38.8718148097
 30
0.0
 10
32.2677456046
 20
38.8758695569
 30
0.0
 10
32.271592282
 20
38.8811484263
 30
0.0
 10
32.2732206139
 20
38.8840274591
 30
0.0
  0
SPLINE
  5
2B6
100
AcDbEntity
  8
0
100
AcDbSpline
 62
7
  6
CONTINUOUS
 70
0
 71
3
 72
9
 73
5
 74
0
 42
0.0000001
 43
0.0000001
 44
0.0000000001
 40
0.0
 40
0.0
 40
0.0
 40
0.0
 40
0.2278940546
 40
1.0
 40
1.0
 40
1.0
 40
1.0
 10
32.2732206139
 20
38.8840274591
 30
0.0
 10
32.2744469325
 20
38.8861956973
 30
0.0
 10
32.2790001342
 20
38.8961792839
 30
0.0
 10
32.2804878919
 20
38.9073484854
 30
0.0
 10
32.2804878919
 20
38.9157880258
 30
0.0
  0
SPLINE
  5
2B7
100
AcDbEntity
  8
0
100
AcDbSpline
 62
7
  6
CONTINUOUS
 70
0
 71
3
 72
11
 73
7
 74
0
 42
0.0000001
 43
0.0000001
 44
0.0000000001
 40
0.0
 40
0.0
 40
0.0
 40
0.0
 40
0.2176749331
 40
0.4512232616
 40
0.7112873818
 40
1.0
 40
1.0
 40
1.0
 40
1.0
 10
32.3634063401
 20
38.3643255557
 30
0.0
 10
32.3666859401
 20
38.3662202395
 30
0.0
 10
32.3728373757
 20
38.3713771098
 30
0.0
 10
32.3793700707
 20
38.3820927192
 30
0.0
 10
32.3832270841
 20
38.3952703026
 30
0.0
 10
32.384015941
 20
38.4048485937
 30
0.0
 10
32.384015941
 20
38.4098722134
 30
0.0
  0
SPLINE
  5
2B8
100
AcDbEntity
  8
0
100
AcDbSpline
 62
7
  6
CONTINUOUS
 70
0
 71
3
 72
16
 73
12
 74
0
 42
0.0000001
 43
0.0000001
 44
0.0000000001
 40
0.0
 40
0.0
 40
0.0
 40
0.0
 40
0.1286295819
 40
0.2705367771
 40
0.4176967278
 40
0.5620599638
 40
0.6957794805
 40
0.8131236847
 40
0.9124978311
 40
0.9571471878
 40
1.0
 40
1.0
 40
1.0
 40
1.0
 10
33.5886408835
 20
38.2013677508
 30
0.0
 10
33.5886408835
 20
38.2098643465
 30
0.0
 10
33.5862341271
 20
38.2277504511
 30
0.0
 10
33.5773883462
 20
38.2540204494
 30
0.0
 10
33.5636851211
 20
38.2793177966
 30
0.0
 10
33.546303471
 20
38.3015578779
 30
0.0
 10
33.5266071226
 20
38.3189803309
 30
0.0
 10
33.5061151072
 20
38.3302382261
 30
0.0
 10
33.4887151476
 20
38.3336017432
 30
0.0
 10
33.4763927051
 20
38.3318183189
 30
0.0
 10
33.4709866581
 20
38.3295703105
 30
0.0
 10
33.4685356491
 20
38.3281543186
 30
0.0
  0
SPLINE
  5
2B9
100
AcDbEntity
  8
0
100
AcDbSpline
 62
7
  6
CONTINUOUS
 70
0
 71
3
 72
9
 73
5
 74
0
 42
0.0000001
 43
0.0000001
 44
0.0000000001
 40
0.0
 40
0.0
 40
0.0
 40
0.0
 40
0.2328449872
 40
1.0
 40
1.0
 40
1.0
 40
1.0
 10
33.4472189384
 20
38.3267721344
 30
0.0
 10
33.4472189384
 20
38.3299265152
 30
0.0
 10
33.4465106096
 20
38.3434710667
 30
0.0
 10
33.4433858787
 20
38.3568306304
 30
0.0
 10
33.4400387489
 20
38.36666963
 30
0.0
  0
SPLINE
  5
2BA
100
AcDbEntity
  8
0
100
AcDbSpline
 62
7
  6
CONTINUOUS
 70
0
 71
3
 72
14
 73
10
 74
0
 42
0.0000001
 43
0.0000001
 44
0.0000000001
 40
0.0
 40
0.0
 40
0.0
 40
0.0
 40
0.2965737975
 40
0.4428654394
 40
0.580608642
 40
0.7056872338
 40
0.8159525189
 40
0.9123641156
 40
1.0
 40
1.0
 40
1.0
 40
1.0
 10
33.4400387489
 20
38.36666963
 30
0.0
 10
33.4350255809
 20
38.3814060048
 30
0.0
 10
33.4242333545
 20
38.402443382
 30
0.0
 10
33.4051292851
 20
38.4262645888
 30
0.0
 10
33.3893092915
 20
38.4409277232
 30
0.0
 10
33.3727574877
 20
38.4516082237
 30
0.0
 10
33.3562773908
 20
38.4577601973
 30
0.0
 10
33.3406011022
 20
38.4588733508
 30
0.0
 10
33.3310964329
 20
38.4558595962
 30
0.0
 10
33.3271137041
 20
38.4535587022
 30
0.0
  0
SPLINE
  5
2BB
100
AcDbEntity
  8
0
100
AcDbSpline
 62
7
  6
CONTINUOUS
 70
0
 71
3
 72
14
 73
10
 74
0
 42
0.0000001
 43
0.0000001
 44
0.0000000001
 40
0.0
 40
0.0
 40
0.0
 40
0.0
 40
0.121803972
 40
0.2492510663
 40
0.511551376
 40
0.6417228768
 40
0.7679087289
 40
0.888016917
 40
1.0
 40
1.0
 40
1.0
 40
1.0
 10
31.2135514016
 20
37.8041044881
 30
0.0
 10
31.2061243167
 20
37.847838122
 30
0.0
 10
31.1853730766
 20
37.9364648993
 30
0.0
 10
31.1234410323
 20
38.1124236165
 30
0.0
 10
31.0338364316
 20
38.280911691
 30
0.0
 10
30.9218229852
 20
38.4332791169
 30
0.0
 10
30.829572187
 20
38.535089022
 30
0.0
 10
30.7315682957
 20
38.6216342314
 30
0.0
 10
30.661535896
 20
38.6695136743
 30
0.0
 10
30.6262164658
 20
38.6899048955
 30
0.0
  0
SPLINE
  5
2BC
100
AcDbEntity
  8
0
100
AcDbSpline
 62
7
  6
CONTINUOUS
 70
0
 71
3
 72
16
 73
12
 74
0
 42
0.0000001
 43
0.0000001
 44
0.0000000001
 40
0.0
 40
0.0
 40
0.0
 40
0.0
 40
0.1286295819
 40
0.2705367771
 40
0.4176967278
 40
0.5620599638
 40
0.6957794805
 40
0.8131236847
 40
0.9124978311
 40
0.9571471878
 40
1.0
 40
1.0
 40
1.0
 40
1.0
 10
33.6921689325
 20
38.0220529052
 30
0.0
 10
33.6921689325
 20
38.0305495009
 30
0.0
 10
33.6897621762
 20
38.0484356055
 30
0.0
 10
33.6809163953
 20
38.0747056038
 30
0.0
 10
33.6672131702
 20
38.100002951
 30
0.0
 10
33.64983152
 20
38.1222430323
 30
0.0
 10
33.6301351716
 20
38.1396654853
 30
0.0
 10
33.6096431563
 20
38.1509233805
 30
0.0
 10
33.5922431967
 20
38.1542868976
 30
0.0
 10
33.5799207541
 20
38.1525034733
 30
0.0
 10
33.5745147071
 20
38.1502554649
 30
0.0
 10
33.5720636982
 20
38.1488394731
 30
0.0
  0
SPLINE
  5
2BD
100
AcDbEntity
  8
0
100
AcDbSpline
 62
7
  6
CONTINUOUS
 70
0
 71
3
 72
10
 73
6
 74
0
 42
0.0000001
 43
0.0000001
 44
0.0000000001
 40
0.0
 40
0.0
 40
0.0
 40
0.0
 40
0.2275810435
 40
0.4755364241
 40
1.0
 40
1.0
 40
1.0
 40
1.0
 10
33.6921689325
 20
37.6954519384
 30
0.0
 10
33.6921689325
 20
37.7016653707
 30
0.0
 10
33.690867682
 20
37.7146622686
 30
0.0
 10
33.6840924081
 20
37.7411712595
 30
0.0
 10
33.6746908212
 20
37.7604039886
 30
0.0
 10
33.6668936717
 20
37.7724138369
 30
0.0
  0
SPLINE
  5
2BE
100
AcDbEntity
  8
0
100
AcDbSpline
 62
7
  6
CONTINUOUS
 70
0
 71
3
 72
13
 73
9
 74
0
 42
0.0000001
 43
0.0000001
 44
0.0000000001
 40
0.0
 40
0.0
 40
0.0
 40
0.0
 40
0.1256608316
 40
0.2507678689
 40
0.3757980486
 40
0.5006077764
 40
0.7492551981
 40
1.0
 40
1.0
 40
1.0
 40
1.0
 10
15.3585456254
 20
35.1482441571
 30
0.0
 10
15.3072505911
 20
35.1778602057
 30
0.0
 10
15.2002673002
 20
35.2293462497
 30
0.0
 10
15.0304080368
 20
35.2817172275
 30
0.0
 10
14.8551129549
 20
35.308704313
 30
0.0
 10
14.6195026732
 20
35.3117642947
 30
0.0
 10
14.3271917487
 20
35.2557627077
 30
0.0
 10
14.1108959734
 20
35.1578209384
 30
0.0
 10
14.0085404963
 20
35.0987263289
 30
0.0
  0
SPLINE
  5
2BF
100
AcDbEntity
  8
0
100
AcDbSpline
 62
7
  6
CONTINUOUS
 70
0
 71
3
 72
10
 73
6
 74
0
 42
0.0000001
 43
0.0000001
 44
0.0000000001
 40
0.0
 40
0.0
 40
0.0
 40
0.0
 40
0.5396096454
 40
0.784457312
 40
1.0
 40
1.0
 40
1.0
 40
1.0
 10
33.28906695
 20
38.4269091028
 30
0.0
 10
33.2809994389
 20
38.4425344893
 30
0.0
 10
33.2657282318
 20
38.4638020288
 30
0.0
 10
33.2403531975
 20
38.48446083
 30
0.0
 10
33.2267675815
 20
38.4912983729
 30
0.0
 10
33.2200752104
 20
38.4934319571
 30
0.0
  0
SPLINE
  5
2C0
100
AcDbEntity
  8
0
100
AcDbSpline
 62
7
  6
CONTINUOUS
 70
0
 71
3
 72
9
 73
5
 74
0
 42
0.0000001
 43
0.0000001
 44
0.0000000001
 40
0.0
 40
0.0
 40
0.0
 40
0.0
 40
0.5315551788
 40
1.0
 40
1.0
 40
1.0
 40
1.0
 10
33.2200752104
 20
38.4934319571
 30
0.0
 10
33.2141307518
 20
38.4953271005
 30
0.0
 10
33.2022798926
 20
38.4973778699
 30
0.0
 10
33.1904528172
 20
38.4942011692
 30
0.0
 10
33.185691759
 20
38.4914506205
 30
0.0
  0
SPLINE
  5
2C1
100
AcDbEntity
  8
0
100
AcDbSpline
 62
7
  6
CONTINUOUS
 70
0
 71
3
 72
13
 73
9
 74
0
 42
0.0000001
 43
0.0000001
 44
0.0000000001
 40
0.0
 40
0.0
 40
0.0
 40
0.0
 40
0.2457716414
 40
0.3722121424
 40
0.5000147207
 40
0.6278156121
 40
0.7542530456
 40
1.0
 40
1.0
 40
1.0
 40
1.0
 10
13.2307262776
 20
34.6496577609
 30
0.0
 10
13.0792165728
 20
34.5621841141
 30
0.0
 10
12.8697928246
 20
34.3925142733
 30
0.0
 10
12.6399104029
 20
34.1202460679
 30
0.0
 10
12.489947009
 20
33.8925408048
 30
0.0
 10
12.3677377379
 20
33.6488145241
 30
0.0
 10
12.2469089419
 20
33.3136111522
 30
0.0
 10
12.2046861111
 20
33.047430984
 30
0.0
 10
12.2046861111
 20
32.8725004803
 30
0.0
  0
SPLINE
  5
2C2
100
AcDbEntity
  8
0
100
AcDbSpline
 62
7
  6
CONTINUOUS
 70
0
 71
3
 72
12
 73
8
 74
0
 42
0.0000001
 43
0.0000001
 44
0.0000000001
 40
0.0
 40
0.0
 40
0.0
 40
0.0
 40
0.1164085103
 40
0.2432239085
 40
0.5115420187
 40
0.7735954655
 40
1.0
 40
1.0
 40
1.0
 40
1.0
 10
33.7300628285
 20
37.8368748657
 30
0.0
 10
33.7300628285
 20
37.8430197323
 30
0.0
 10
33.728786462
 20
37.8558704175
 30
0.0
 10
33.7221455719
 20
37.8821141085
 30
0.0
 10
33.7068408524
 20
37.9137242124
 30
0.0
 10
33.6813112322
 20
37.9448492659
 30
0.0
 10
33.6595333802
 20
37.9598607677
 30
0.0
 10
33.6483990505
 20
37.9642034354
 30
0.0
  0
SPLINE
  5
2C3
100
AcDbEntity
  8
0
100
AcDbSpline
 62
7
  6
CONTINUOUS
 70
0
 71
3
 72
11
 73
7
 74
0
 42
0.0000001
 43
0.0000001
 44
0.0000000001
 40
0.0
 40
0.0
 40
0.0
 40
0.0
 40
0.2176749331
 40
0.4512232616
 40
0.7112873818
 40
1.0
 40
1.0
 40
1.0
 40
1.0
 10
33.7094532275
 20
37.791328208
 30
0.0
 10
33.7127328276
 20
37.7932228918
 30
0.0
 10
33.7188842632
 20
37.7983797621
 30
0.0
 10
33.7254169582
 20
37.8090953716
 30
0.0
 10
33.7292739716
 20
37.8222729549
 30
0.0
 10
33.7300628285
 20
37.8318512461
 30
0.0
 10
33.7300628285
 20
37.8368748657
 30
0.0
  0
SPLINE
  5
2C4
100
AcDbEntity
  8
0
100
AcDbSpline
 62
7
  6
CONTINUOUS
 70
0
 71
3
 72
12
 73
8
 74
0
 42
0.0000001
 43
0.0000001
 44
0.0000000001
 40
0.0
 40
0.0
 40
0.0
 40
0.0
 40
0.2894224857
 40
0.5486962918
 40
0.781646137
 40
0.8918323221
 40
1.0
 40
1.0
 40
1.0
 40
1.0
 10
30.6262164658
 20
38.6899048955
 30
0.0
 10
30.5889275102
 20
38.711433197
 30
0.0
 10
30.5147030567
 20
38.7467046315
 30
0.0
 10
30.4007473968
 20
38.7743125889
 30
0.0
 10
30.309710751
 20
38.7718940885
 30
0.0
 10
30.244756976
 20
38.753872631
 30
0.0
 10
30.2151653555
 20
38.7400277592
 30
0.0
 10
30.2012259476
 20
38.7319873507
 30
0.0
  0
SPLINE
  5
2C5
100
AcDbEntity
  8
0
100
AcDbSpline
 62
7
  6
CONTINUOUS
 70
0
 71
3
 72
11
 73
7
 74
0
 42
0.0000001
 43
0.0000001
 44
0.0000000001
 40
0.0
 40
0.0
 40
0.0
 40
0.0
 40
0.2176749331
 40
0.4512232616
 40
0.7112873818
 40
1.0
 40
1.0
 40
1.0
 40
1.0
 10
33.6715593316
 20
37.6499052807
 30
0.0
 10
33.6748389316
 20
37.6517999645
 30
0.0
 10
33.6809903673
 20
37.6569568348
 30
0.0
 10
33.6875230623
 20
37.6676724442
 30
0.0
 10
33.6913800756
 20
37.6808500276
 30
0.0
 10
33.6921689325
 20
37.6904283187
 30
0.0
 10
33.6921689325
 20
37.6954519384
 30
0.0
  0
SPLINE
  5
2C6
100
AcDbEntity
  8
0
100
AcDbSpline
 62
7
  6
CONTINUOUS
 70
0
 71
3
 72
9
 73
5
 74
0
 42
0.0000001
 43
0.0000001
 44
0.0000000001
 40
0.0
 40
0.0
 40
0.0
 40
0.0
 40
0.4874298326
 40
1.0
 40
1.0
 40
1.0
 40
1.0
 10
33.5680312825
 20
38.1558210931
 30
0.0
 10
33.5707548288
 20
38.1573945347
 30
0.0
 10
33.5758985961
 20
38.1614492819
 30
0.0
 10
33.5797452735
 20
38.1667281513
 30
0.0
 10
33.5813736054
 20
38.1696071841
 30
0.0
  0
SPLINE
  5
2C7
100
AcDbEntity
  8
0
100
AcDbSpline
 62
7
  6
CONTINUOUS
 70
0
 71
3
 72
9
 73
5
 74
0
 42
0.0000001
 43
0.0000001
 44
0.0000000001
 40
0.0
 40
0.0
 40
0.0
 40
0.0
 40
0.2278940546
 40
1.0
 40
1.0
 40
1.0
 40
1.0
 10
33.5813736054
 20
38.1696071841
 30
0.0
 10
33.582599924
 20
38.1717754223
 30
0.0
 10
33.5871531258
 20
38.1817590088
 30
0.0
 10
33.5886408835
 20
38.1929282104
 30
0.0
 10
33.5886408835
 20
38.2013677508
 30
0.0
  0
SPLINE
  5
2C8
100
AcDbEntity
  8
0
100
AcDbSpline
 62
7
  6
CONTINUOUS
 70
0
 71
3
 72
29
 73
25
 74
0
 42
0.0000001
 43
0.0000001
 44
0.0000000001
 40
0.0
 40
0.0
 40
0.0
 40
0.0
 40
0.0020054578
 40
0.0044357517
 40
0.0116012814
 40
0.0238205262
 40
0.0643388841
 40
0.092290431
 40
0.1249368359
 40
0.2029449797
 40
0.2945016258
 40
0.3950968413
 40
0.5002161513
 40
0.6053247532
 40
0.705878331
 40
0.7973177627
 40
0.8752599068
 40
0.9356806413
 40
0.958546568
 40
0.9761610155
 40
0.9884018634
 40
0.9955493878
 40
0.9979340009
 40
1.0
 40
1.0
 40
1.0
 40
1.0
 10
15.381804363
 20
32.4262493871
 30
0.0
 10
15.3820140883
 20
32.4263704714
 30
0.0
 10
15.3828311097
 20
32.4268808998
 30
0.0
 10
15.3807769931
 20
32.425586592
 30
0.0
 10
15.3793270423
 20
32.4244818467
 30
0.0
 10
15.372970874
 20
32.4197410513
 30
0.0
 10
15.365952343
 20
32.4136653585
 30
0.0
 10
15.3568688584
 20
32.4053280217
 30
0.0
 10
15.3449749365
 20
32.3936073756
 30
0.0
 10
15.3284927442
 20
32.3755310008
 30
0.0
 10
15.3080233392
 20
32.3501150297
 30
0.0
 10
15.2873147126
 20
32.3207611499
 30
0.0
 10
15.267536518
 20
32.2888346023
 30
0.0
 10
15.24979169
 20
32.2557405886
 30
0.0
 10
15.2347403073
 20
32.2231448259
 30
0.0
 10
15.2229866071
 20
32.1927301081
 30
0.0
 10
15.2145739193
 20
32.1662331547
 30
0.0
 10
15.2099198668
 20
32.1473888957
 30
0.0
 10
15.2076312238
 20
32.1353057352
 30
0.0
 10
15.2066349595
 20
32.1292318097
 30
0.0
 10
15.2060649099
 20
32.1243249511
 30
0.0
 10
15.205833631
 20
32.1225130657
 30
0.0
 10
15.2057354728
 20
32.1201095759
 30
0.0
 10
15.2057680053
 20
32.1210880151
 30
0.0
 10
15.2057680053
 20
32.1213374955
 30
0.0
  0
SPLINE
  5
2C9
100
AcDbEntity
  8
0
100
AcDbSpline
 62
7
  6
CONTINUOUS
 70
0
 71
3
 72
13
 73
9
 74
0
 42
0.0000001
 43
0.0000001
 44
0.0000000001
 40
0.0
 40
0.0
 40
0.0
 40
0.0
 40
0.2507487877
 40
0.4993826906
 40
0.6241869866
 40
0.7492106313
 40
0.8743364497
 40
1.0
 40
1.0
 40
1.0
 40
1.0
 10
18.6352216158
 20
32.4274916854
 30
0.0
 10
18.6352216158
 20
32.5456822855
 30
0.0
 10
18.6118980349
 20
32.7819651303
 30
0.0
 10
18.5142426695
 20
33.0631037398
 30
0.0
 10
18.3938073964
 20
33.2656129069
 30
0.0
 10
18.2827951933
 20
33.403938142
 30
0.0
 10
18.1525004808
 20
33.5248515083
 30
0.0
 10
18.054420509
 20
33.5917740364
 30
0.0
 10
18.0031248104
 20
33.6213904685
 30
0.0
  0
SPLINE
  5
2CA
100
AcDbEntity
  8
0
100
AcDbSpline
 62
7
  6
CONTINUOUS
 70
0
 71
3
 72
23
 73
19
 74
0
 42
0.0000001
 43
0.0000001
 44
0.0000000001
 40
0.0
 40
0.0
 40
0.0
 40
0.0
 40
0.0428123329
 40
0.0873923569
 40
0.1351740833
 40
0.1870822943
 40
0.2435280288
 40
0.3044825512
 40
0.369580183
 40
0.4381860104
 40
0.5094815492
 40
0.5825161484
 40
0.6562624334
 40
0.7296512681
 40
0.8016248686
 40
0.8712492981
 40
0.9376629025
 40
1.0
 40
1.0
 40
1.0
 40
1.0
 10
32.3522888783
 20
36.5086053427
 30
0.0
 10
32.373248508
 20
36.5206950947
 30
0.0
 10
32.4129661055
 20
36.5511070056
 30
0.0
 10
32.4607762484
 20
36.6115468226
 30
0.0
 10
32.4964846152
 20
36.6854776471
 30
0.0
 10
32.519630039
 20
36.7710703205
 30
0.0
 10
32.5299149585
 20
36.8665365025
 30
0.0
 10
32.5273028244
 20
36.9699070146
 30
0.0
 10
32.5118358702
 20
37.0790469208
 30
0.0
 10
32.4839361723
 20
37.1916867314
 30
0.0
 10
32.4441249295
 20
37.305430896
 30
0.0
 10
32.3933242056
 20
37.4178937627
 30
0.0
 10
32.3325334443
 20
37.5266381627
 30
0.0
 10
32.263146926
 20
37.6293897574
 30
0.0
 10
32.1865590545
 20
37.7239210284
 30
0.0
 10
32.1044221733
 20
37.8082861275
 30
0.0
 10
32.0184587272
 20
37.8805505327
 30
0.0
 10
31.9578097801
 20
37.9211265291
 30
0.0
 10
31.9272983601
 20
37.9387419071
 30
0.0
  0
SPLINE
  5
2CB
100
AcDbEntity
  8
0
100
AcDbSpline
 62
7
  6
CONTINUOUS
 70
0
 71
3
 72
13
 73
9
 74
0
 42
0.0000001
 43
0.0000001
 44
0.0000000001
 40
0.0
 40
0.0
 40
0.0
 40
0.0
 40
0.1256608316
 40
0.2507678689
 40
0.3757980486
 40
0.5006077764
 40
0.7492551981
 40
1.0
 40
1.0
 40
1.0
 40
1.0
 10
16.6596275197
 20
34.3970811687
 30
0.0
 10
16.6083324853
 20
34.4266972174
 30
0.0
 10
16.5013491945
 20
34.4781832613
 30
0.0
 10
16.3314899311
 20
34.5305542392
 30
0.0
 10
16.1561948492
 20
34.5575413247
 30
0.0
 10
15.9205845675
 20
34.5606013064
 30
0.0
 10
15.628273643
 20
34.5045997194
 30
0.0
 10
15.4119778677
 20
34.4066579501
 30
0.0
 10
15.3096223906
 20
34.3475633406
 30
0.0
  0
SPLINE
  5
2CC
100
AcDbEntity
  8
0
100
AcDbSpline
 62
7
  6
CONTINUOUS
 70
0
 71
3
 72
13
 73
9
 74
0
 42
0.0000001
 43
0.0000001
 44
0.0000000001
 40
0.0
 40
0.0
 40
0.0
 40
0.0
 40
0.2457716414
 40
0.3722121424
 40
0.5000147207
 40
0.6278156121
 40
0.7542530456
 40
1.0
 40
1.0
 40
1.0
 40
1.0
 10
14.5318081719
 20
33.8984947726
 30
0.0
 10
14.3802984671
 20
33.8110211258
 30
0.0
 10
14.1708747189
 20
33.641351285
 30
0.0
 10
13.9409922971
 20
33.3690830796
 30
0.0
 10
13.7910289033
 20
33.1413778165
 30
0.0
 10
13.6688196322
 20
32.8976515358
 30
0.0
 10
13.5479908362
 20
32.5624481639
 30
0.0
 10
13.5057680054
 20
32.2962679957
 30
0.0
 10
13.5057680053
 20
32.121337492
 30
0.0
  0
SPLINE
  5
2CD
100
AcDbEntity
  8
0
100
AcDbSpline
 62
7
  6
CONTINUOUS
 70
0
 71
3
 72
9
 73
5
 74
0
 42
0.0000001
 43
0.0000001
 44
0.0000000001
 40
0.0
 40
0.0
 40
0.0
 40
0.0
 40
0.2328449872
 40
1.0
 40
1.0
 40
1.0
 40
1.0
 10
32.1390659469
 20
39.0411924094
 30
0.0
 10
32.1390659469
 20
39.0443467902
 30
0.0
 10
32.1383576181
 20
39.0578913417
 30
0.0
 10
32.1352328872
 20
39.0712509054
 30
0.0
 10
32.1318857574
 20
39.081089905
 30
0.0
  0
SPLINE
  5
2CE
100
AcDbEntity
  8
0
100
AcDbSpline
 62
7
  6
CONTINUOUS
 70
0
 71
3
 72
14
 73
10
 74
0
 42
0.0000001
 43
0.0000001
 44
0.0000000001
 40
0.0
 40
0.0
 40
0.0
 40
0.0
 40
0.2965737975
 40
0.4428654394
 40
0.580608642
 40
0.7056872338
 40
0.8159525189
 40
0.9123641156
 40
1.0
 40
1.0
 40
1.0
 40
1.0
 10
32.1318857574
 20
39.081089905
 30
0.0
 10
32.1268725893
 20
39.0958262798
 30
0.0
 10
32.116080363
 20
39.116863657
 30
0.0
 10
32.0969762936
 20
39.1406848638
 30
0.0
 10
32.0811563
 20
39.1553479982
 30
0.0
 10
32.0646044962
 20
39.1660284987
 30
0.0
 10
32.0481243993
 20
39.1721804723
 30
0.0
 10
32.0324481107
 20
39.1732936258
 30
0.0
 10
32.0229434414
 20
39.1702798712
 30
0.0
 10
32.0189607125
 20
39.1679789772
 30
0.0
  0
SPLINE
  5
2CF
100
AcDbEntity
  8
0
100
AcDbSpline
 62
7
  6
CONTINUOUS
 70
0
 71
3
 72
16
 73
12
 74
0
 42
0.0000001
 43
0.0000001
 44
0.0000000001
 40
0.0
 40
0.0
 40
0.0
 40
0.0
 40
0.1286295819
 40
0.2705367771
 40
0.4176967278
 40
0.5620599638
 40
0.6957794805
 40
0.8131236847
 40
0.9124978311
 40
0.9571471878
 40
1.0
 40
1.0
 40
1.0
 40
1.0
 10
32.384015941
 20
38.7364731802
 30
0.0
 10
32.384015941
 20
38.744969776
 30
0.0
 10
32.3816091847
 20
38.7628558805
 30
0.0
 10
32.3727634038
 20
38.7891258789
 30
0.0
 10
32.3590601786
 20
38.814423226
 30
0.0
 10
32.3416785285
 20
38.8366633073
 30
0.0
 10
32.3219821801
 20
38.8540857603
 30
0.0
 10
32.3014901648
 20
38.8653436555
 30
0.0
 10
32.2840902052
 20
38.8687071726
 30
0.0
 10
32.2717677626
 20
38.8669237483
 30
0.0
 10
32.2663617156
 20
38.8646757399
 30
0.0
 10
32.2639107066
 20
38.8632597481
 30
0.0
  0
SPLINE
  5
2D0
100
AcDbEntity
  8
0
100
AcDbSpline
 62
7
  6
CONTINUOUS
 70
0
 71
3
 72
10
 73
6
 74
0
 42
0.0000001
 43
0.0000001
 44
0.0000000001
 40
0.0
 40
0.0
 40
0.0
 40
0.0
 40
0.2275810435
 40
0.4755364241
 40
1.0
 40
1.0
 40
1.0
 40
1.0
 10
32.384015941
 20
38.4098722134
 30
0.0
 10
32.384015941
 20
38.4160856457
 30
0.0
 10
32.3827146904
 20
38.4290825436
 30
0.0
 10
32.3759394166
 20
38.4555915345
 30
0.0
 10
32.3665378297
 20
38.4748242636
 30
0.0
 10
32.3587406801
 20
38.4868341119
 30
0.0
  0
SPLINE
  5
2D1
100
AcDbEntity
  8
0
100
AcDbSpline
 62
7
  6
CONTINUOUS
 70
0
 71
3
 72
10
 73
6
 74
0
 42
0.0000001
 43
0.0000001
 44
0.0000000001
 40
0.0
 40
0.0
 40
0.0
 40
0.0
 40
0.5398534272
 40
0.7842218613
 40
1.0
 40
1.0
 40
1.0
 40
1.0
 10
31.9791879388
 20
39.1445863672
 30
0.0
 10
31.9710984847
 20
39.1594644473
 30
0.0
 10
31.9561021296
 20
39.1796730044
 30
0.0
 10
31.9314665353
 20
39.199293329
 30
0.0
 10
31.918371316
 20
39.2057962057
 30
0.0
 10
31.9119222189
 20
39.2078522321
 30
0.0
  0
SPLINE
  5
2D2
100
AcDbEntity
  8
0
100
AcDbSpline
 62
7
  6
CONTINUOUS
 70
0
 71
3
 72
9
 73
5
 74
0
 42
0.0000001
 43
0.0000001
 44
0.0000000001
 40
0.0
 40
0.0
 40
0.0
 40
0.0
 40
0.5315551788
 40
1.0
 40
1.0
 40
1.0
 40
1.0
 10
31.9119222189
 20
39.2078522321
 30
0.0
 10
31.9059777603
 20
39.2097473755
 30
0.0
 10
31.8941269011
 20
39.2117981449
 30
0.0
 10
31.8822998257
 20
39.2086214442
 30
0.0
 10
31.8775387675
 20
39.2058708955
 30
0.0
  0
SPLINE
  5
2D3
100
AcDbEntity
  8
0
100
AcDbSpline
 62
7
  6
CONTINUOUS
 70
0
 71
3
 72
16
 73
12
 74
0
 42
0.0000001
 43
0.0000001
 44
0.0000000001
 40
0.0
 40
0.0
 40
0.0
 40
0.0
 40
0.1286295819
 40
0.2705367771
 40
0.4176967278
 40
0.5620599638
 40
0.6957794805
 40
0.8131236847
 40
0.9124978311
 40
0.9571471878
 40
1.0
 40
1.0
 40
1.0
 40
1.0
 10
32.2804878919
 20
38.9157880258
 30
0.0
 10
32.2804878919
 20
38.9242846215
 30
0.0
 10
32.2780811356
 20
38.9421707261
 30
0.0
 10
32.2692353547
 20
38.9684407244
 30
0.0
 10
32.2555321296
 20
38.9937380716
 30
0.0
 10
32.2381504794
 20
39.0159781529
 30
0.0
 10
32.2184541311
 20
39.0334006059
 30
0.0
 10
32.1979621157
 20
39.0446585011
 30
0.0
 10
32.1805621561
 20
39.0480220182
 30
0.0
 10
32.1682397136
 20
39.0462385939
 30
0.0
 10
32.1628336665
 20
39.0439905855
 30
0.0
 10
32.1603826576
 20
39.0425745937
 30
0.0
  0
SPLINE
  5
2D4
100
AcDbEntity
  8
0
100
AcDbSpline
 62
7
  6
CONTINUOUS
 70
0
 71
3
 72
12
 73
8
 74
0
 42
0.0000001
 43
0.0000001
 44
0.0000000001
 40
0.0
 40
0.0
 40
0.0
 40
0.0
 40
0.1164085103
 40
0.2432239085
 40
0.5115420187
 40
0.7735954655
 40
1.0
 40
1.0
 40
1.0
 40
1.0
 10
32.421909837
 20
38.5512951407
 30
0.0
 10
32.421909837
 20
38.5574400073
 30
0.0
 10
32.4206334705
 20
38.5702906925
 30
0.0
 10
32.4139925804
 20
38.5965343835
 30
0.0
 10
32.3986878609
 20
38.6281444874
 30
0.0
 10
32.3731582407
 20
38.6592695409
 30
0.0
 10
32.3513803886
 20
38.6742810427
 30
0.0
 10
32.340246059
 20
38.6786237105
 30
0.0
  0
SPLINE
  5
2D5
100
AcDbEntity
  8
0
100
AcDbSpline
 62
7
  6
CONTINUOUS
 70
0
 71
3
 72
12
 73
8
 74
0
 42
0.0000001
 43
0.0000001
 44
0.0000000001
 40
0.0
 40
0.0
 40
0.0
 40
0.0
 40
0.2894224857
 40
0.5486962918
 40
0.781646137
 40
0.8918323221
 40
1.0
 40
1.0
 40
1.0
 40
1.0
 10
29.3251345715
 20
39.4410678838
 30
0.0
 10
29.2878456159
 20
39.4625961853
 30
0.0
 10
29.2136211624
 20
39.4978676198
 30
0.0
 10
29.0996655025
 20
39.5254755773
 30
0.0
 10
29.0086288567
 20
39.5230570768
 30
0.0
 10
28.9436750817
 20
39.5050356193
 30
0.0
 10
28.9140834612
 20
39.4911907475
 30
0.0
 10
28.9001440533
 20
39.4831503391
 30
0.0
  0
SPLINE
  5
2D6
100
AcDbEntity
  8
0
100
AcDbSpline
 62
7
  6
CONTINUOUS
 70
0
 71
3
 72
12
 73
8
 74
0
 42
0.0000001
 43
0.0000001
 44
0.0000000001
 40
0.0
 40
0.0
 40
0.0
 40
0.0
 40
0.2894249481
 40
0.5486994449
 40
0.781648259
 40
0.8918334611
 40
1.0
 40
1.0
 40
1.0
 40
1.0
 10
23.8982045021
 20
13.2786165515
 30
0.0
 10
23.9300096344
 20
13.2969791436
 30
0.0
 10
23.9877184227
 20
13.3367632721
 30
0.0
 10
24.0567108939
 20
13.4091633112
 30
0.0
 10
24.0937492756
 20
13.4774394862
 30
0.0
 10
24.1081383258
 20
13.5331034696
 30
0.0
 10
24.110531469
 20
13.5608657897
 30
0.0
 10
24.1105369828
 20
13.5745911218
 30
0.0
  0
SPLINE
  5
2D7
100
AcDbEntity
  8
0
100
AcDbSpline
 62
7
  6
CONTINUOUS
 70
0
 71
3
 72
15
 73
11
 74
0
 42
0.0000001
 43
0.0000001
 44
0.0000000001
 40
0.0
 40
0.0
 40
0.0
 40
0.0
 40
0.148481374
 40
0.2894752358
 40
0.4227553246
 40
0.5486629843
 40
0.668000495
 40
0.7819373449
 40
0.8919909504
 40
1.0
 40
1.0
 40
1.0
 40
1.0
 10
24.7290472421
 20
24.1482839965
 30
0.0
 10
24.7718691523
 20
24.1235613144
 30
0.0
 10
24.8534025141
 20
24.0718534517
 30
0.0
 10
24.9649256244
 20
23.985571525
 30
0.0
 10
25.0614034457
 20
23.893238647
 30
0.0
 10
25.1418269352
 20
23.7957534014
 30
0.0
 10
25.205393863
 20
23.6939795247
 30
0.0
 10
25.2513958414
 20
23.588820923
 30
0.0
 10
25.2793107979
 20
23.4813550138
 30
0.0
 10
25.2855372447
 20
23.4085885038
 30
0.0
 10
25.2855369707
 20
23.3726201041
 30
0.0
  0
SPLINE
  5
2D8
100
AcDbEntity
  8
0
100
AcDbSpline
 62
7
  6
CONTINUOUS
 70
0
 71
3
 72
16
 73
12
 74
0
 42
0.0000001
 43
0.0000001
 44
0.0000000001
 40
0.0
 40
0.0
 40
0.0
 40
0.0
 40
0.1286295819
 40
0.2705367771
 40
0.4176967278
 40
0.5620599638
 40
0.6957794805
 40
0.8131236847
 40
0.9124978311
 40
0.9571471878
 40
1.0
 40
1.0
 40
1.0
 40
1.0
 10
30.9723349004
 20
39.7118585425
 30
0.0
 10
30.9723349004
 20
39.7203551382
 30
0.0
 10
30.9699281441
 20
39.7382412428
 30
0.0
 10
30.9610823632
 20
39.7645112411
 30
0.0
 10
30.9473791381
 20
39.7898085883
 30
0.0
 10
30.9299974879
 20
39.8120486696
 30
0.0
 10
30.9103011395
 20
39.8294711226
 30
0.0
 10
30.8898091242
 20
39.8407290178
 30
0.0
 10
30.8724091646
 20
39.8440925349
 30
0.0
 10
30.860086722
 20
39.8423091106
 30
0.0
 10
30.854680675
 20
39.8400611022
 30
0.0
 10
30.852229666
 20
39.8386451104
 30
0.0
  0
SPLINE
  5
2D9
100
AcDbEntity
  8
0
100
AcDbSpline
 62
7
  6
CONTINUOUS
 70
0
 71
3
 72
12
 73
8
 74
0
 42
0.0000001
 43
0.0000001
 44
0.0000000001
 40
0.0
 40
0.0
 40
0.0
 40
0.0
 40
0.1164085103
 40
0.2432239085
 40
0.5115420187
 40
0.7735954655
 40
1.0
 40
1.0
 40
1.0
 40
1.0
 10
31.1137568454
 20
39.3473656574
 30
0.0
 10
31.1137568454
 20
39.3535105241
 30
0.0
 10
31.112480479
 20
39.3663612092
 30
0.0
 10
31.1058395888
 20
39.3926049002
 30
0.0
 10
31.0905348694
 20
39.4242150041
 30
0.0
 10
31.0650052492
 20
39.4553400576
 30
0.0
 10
31.0432273971
 20
39.4703515594
 30
0.0
 10
31.0320930675
 20
39.4746942272
 30
0.0
  0
SPLINE
  5
2DA
100
AcDbEntity
  8
0
100
AcDbSpline
 62
7
  6
CONTINUOUS
 70
0
 71
3
 72
9
 73
5
 74
0
 42
0.0000001
 43
0.0000001
 44
0.0000000001
 40
0.0
 40
0.0
 40
0.0
 40
0.0
 40
0.2328449872
 40
1.0
 40
1.0
 40
1.0
 40
1.0
 10
30.8309129554
 20
39.8372629261
 30
0.0
 10
30.8309129554
 20
39.8404173069
 30
0.0
 10
30.8302046266
 20
39.8539618584
 30
0.0
 10
30.8270798957
 20
39.8673214221
 30
0.0
 10
30.8237327659
 20
39.8771604217
 30
0.0
  0
SPLINE
  5
2DB
100
AcDbEntity
  8
0
100
AcDbSpline
 62
7
  6
CONTINUOUS
 70
0
 71
3
 72
14
 73
10
 74
0
 42
0.0000001
 43
0.0000001
 44
0.0000000001
 40
0.0
 40
0.0
 40
0.0
 40
0.0
 40
0.2965737975
 40
0.4428654394
 40
0.580608642
 40
0.7056872338
 40
0.8159525189
 40
0.9123641156
 40
1.0
 40
1.0
 40
1.0
 40
1.0
 10
30.8237327659
 20
39.8771604217
 30
0.0
 10
30.8187195978
 20
39.8918967966
 30
0.0
 10
30.8079273714
 20
39.9129341737
 30
0.0
 10
30.7888233021
 20
39.9367553805
 30
0.0
 10
30.7730033085
 20
39.9514185149
 30
0.0
 10
30.7564515046
 20
39.9620990154
 30
0.0
 10
30.7399714077
 20
39.968250989
 30
0.0
 10
30.7242951192
 20
39.9693641425
 30
0.0
 10
30.7147904499
 20
39.9663503879
 30
0.0
 10
30.710807721
 20
39.9640494939
 30
0.0
  0
SPLINE
  5
2DC
100
AcDbEntity
  8
0
100
AcDbSpline
 62
7
  6
CONTINUOUS
 70
0
 71
3
 72
10
 73
6
 74
0
 42
0.0000001
 43
0.0000001
 44
0.0000000001
 40
0.0
 40
0.0
 40
0.0
 40
0.0
 40
0.5398534272
 40
0.7842218613
 40
1.0
 40
1.0
 40
1.0
 40
1.0
 10
30.6710349473
 20
39.9406568839
 30
0.0
 10
30.6629454932
 20
39.955534964
 30
0.0
 10
30.6479491381
 20
39.9757435212
 30
0.0
 10
30.6233135438
 20
39.9953638457
 30
0.0
 10
30.6102183245
 20
40.0018667224
 30
0.0
 10
30.6037692274
 20
40.0039227488
 30
0.0
  0
SPLINE
  5
2DD
100
AcDbEntity
  8
0
100
AcDbSpline
 62
7
  6
CONTINUOUS
 70
0
 71
3
 72
9
 73
5
 74
0
 42
0.0000001
 43
0.0000001
 44
0.0000000001
 40
0.0
 40
0.0
 40
0.0
 40
0.0
 40
0.5315551788
 40
1.0
 40
1.0
 40
1.0
 40
1.0
 10
30.6037692274
 20
40.0039227488
 30
0.0
 10
30.5978247688
 20
40.0058178922
 30
0.0
 10
30.5859739096
 20
40.0078686616
 30
0.0
 10
30.5741468341
 20
40.0046919609
 30
0.0
 10
30.569385776
 20
40.0019414122
 30
0.0
  0
SPLINE
  5
2DE
100
AcDbEntity
  8
0
100
AcDbSpline
 62
7
  6
CONTINUOUS
 70
0
 71
3
 72
10
 73
6
 74
0
 42
0.0000001
 43
0.0000001
 44
0.0000000001
 40
0.0
 40
0.0
 40
0.0
 40
0.0
 40
0.2275810435
 40
0.4755364241
 40
1.0
 40
1.0
 40
1.0
 40
1.0
 10
31.0758629495
 20
39.2059427301
 30
0.0
 10
31.0758629495
 20
39.2121561625
 30
0.0
 10
31.0745616989
 20
39.2251530603
 30
0.0
 10
31.0677864251
 20
39.2516620512
 30
0.0
 10
31.0583848381
 20
39.2708947803
 30
0.0
 10
31.0505876886
 20
39.2829046286
 30
0.0
  0
SPLINE
  5
2DF
100
AcDbEntity
  8
0
100
AcDbSpline
 62
7
  6
CONTINUOUS
 70
0
 71
3
 72
16
 73
12
 74
0
 42
0.0000001
 43
0.0000001
 44
0.0000000001
 40
0.0
 40
0.0
 40
0.0
 40
0.0
 40
0.1286295819
 40
0.2705367771
 40
0.4176967278
 40
0.5620599638
 40
0.6957794805
 40
0.8131236847
 40
0.9124978311
 40
0.9571471878
 40
1.0
 40
1.0
 40
1.0
 40
1.0
 10
31.0758629495
 20
39.532543697
 30
0.0
 10
31.0758629495
 20
39.5410402927
 30
0.0
 10
31.0734561932
 20
39.5589263973
 30
0.0
 10
31.0646104123
 20
39.5851963956
 30
0.0
 10
31.0509071871
 20
39.6104937428
 30
0.0
 10
31.033525537
 20
39.632733824
 30
0.0
 10
31.0138291886
 20
39.650156277
 30
0.0
 10
30.9933371732
 20
39.6614141722
 30
0.0
 10
30.9759372137
 20
39.6647776893
 30
0.0
 10
30.9636147711
 20
39.662994265
 30
0.0
 10
30.9582087241
 20
39.6607462567
 30
0.0
 10
30.9557577151
 20
39.6593302648
 30
0.0
  0
SPLINE
  5
2E0
100
AcDbEntity
  8
0
100
AcDbSpline
 62
7
  6
CONTINUOUS
 70
0
 71
3
 72
14
 73
10
 74
0
 42
0.0000001
 43
0.0000001
 44
0.0000000001
 40
0.0
 40
0.0
 40
0.0
 40
0.0
 40
0.1164843219
 40
0.2342814165
 40
0.3540257277
 40
0.4764842614
 40
0.6022611481
 40
0.7315973003
 40
1.0
 40
1.0
 40
1.0
 40
1.0
 10
15.3585347425
 20
35.1482504404
 30
0.0
 10
15.3858716017
 20
35.1324678544
 30
0.0
 10
15.4382555549
 20
35.0959880159
 30
0.0
 10
15.5072175161
 20
35.0287068362
 30
0.0
 10
15.5653316218
 20
34.949828091
 30
0.0
 10
15.6115616148
 20
34.8610510413
 30
0.0
 10
15.6450369546
 20
34.7639741326
 30
0.0
 10
15.6724002838
 20
34.6244353469
 30
0.0
 10
15.6716682259
 20
34.5151393626
 30
0.0
 10
15.6627497403
 20
34.4429546447
 30
0.0
  0
SPLINE
  5
2E1
100
AcDbEntity
  8
0
100
AcDbSpline
 62
7
  6
CONTINUOUS
 70
0
 71
3
 72
15
 73
11
 74
0
 42
0.0000001
 43
0.0000001
 44
0.0000000001
 40
0.0
 40
0.0
 40
0.0
 40
0.0
 40
0.1127682554
 40
0.2341060248
 40
0.3616697968
 40
0.4930175285
 40
0.6253333596
 40
0.7557158235
 40
0.8814071034
 40
1.0
 40
1.0
 40
1.0
 40
1.0
 10
13.6557243727
 20
34.6075621225
 30
0.0
 10
13.693594375
 20
34.585698361
 30
0.0
 10
13.7685720438
 20
34.5338558656
 30
0.0
 10
13.8727537056
 20
34.4394868301
 30
0.0
 10
13.9699380255
 20
34.3281749826
 30
0.0
 10
14.0569855982
 20
34.203587648
 30
0.0
 10
14.1311940154
 20
34.0697052184
 30
0.0
 10
14.1901209302
 20
33.9307842364
 30
0.0
 10
14.231874986
 20
33.7913229441
 30
0.0
 10
14.2479749126
 20
33.6976481976
 30
0.0
 10
14.2524669413
 20
33.6518812236
 30
0.0
  0
SPLINE
  5
2E2
100
AcDbEntity
  8
0
100
AcDbSpline
 62
7
  6
CONTINUOUS
 70
0
 71
3
 72
9
 73
5
 74
0
 42
0.0000001
 43
0.0000001
 44
0.0000000001
 40
0.0
 40
0.0
 40
0.0
 40
0.0
 40
0.2548014027
 40
1.0
 40
1.0
 40
1.0
 40
1.0
 10
17.1841833542
 20
32.0804841546
 30
0.0
 10
17.1790383388
 20
32.0834545634
 30
0.0
 10
17.1589784633
 20
32.0953393873
 30
0.0
 10
17.1394591535
 20
32.10814224
 30
0.0
 10
17.1253030572
 20
32.1182166709
 30
0.0
  0
SPLINE
  5
2E3
100
AcDbEntity
  8
0
100
AcDbSpline
 62
7
  6
CONTINUOUS
 70
0
 71
3
 72
9
 73
5
 74
0
 42
0.0000001
 43
0.0000001
 44
0.0000000001
 40
0.0
 40
0.0
 40
0.0
 40
0.0
 40
0.2634237195
 40
1.0
 40
1.0
 40
1.0
 40
1.0
 10
17.1253030572
 20
32.1182166709
 30
0.0
 10
17.1145623732
 20
32.1258604647
 30
0.0
 10
17.0746495536
 20
32.1560344548
 30
0.0
 10
17.0382774695
 20
32.1911430817
 30
0.0
 10
17.015093816
 20
32.2198014389
 30
0.0
  0
SPLINE
  5
2E4
100
AcDbEntity
  8
0
100
AcDbSpline
 62
7
  6
CONTINUOUS
 70
0
 71
3
 72
14
 73
10
 74
0
 42
0.0000001
 43
0.0000001
 44
0.0000000001
 40
0.0
 40
0.0
 40
0.0
 40
0.0
 40
0.1218252714
 40
0.2492861464
 40
0.5115924774
 40
0.6417565766
 40
0.767927237
 40
0.888021632
 40
1.0
 40
1.0
 40
1.0
 40
1.0
 10
13.7197303663
 20
34.9223834304
 30
0.0
 10
13.7122881759
 20
34.9661062185
 30
0.0
 10
13.6915112861
 20
35.0547062456
 30
0.0
 10
13.6295512733
 20
35.2305997265
 30
0.0
 10
13.5399435382
 20
35.3990124258
 30
0.0
 10
13.4279523074
 20
35.5513043957
 30
0.0
 10
13.3357308117
 20
35.6530561043
 30
0.0
 10
13.2377657187
 20
35.7395555543
 30
0.0
 10
13.1677619716
 20
35.7874106327
 30
0.0
 10
13.1324566993
 20
35.80779368
 30
0.0
  0
SPLINE
  5
2E5
100
AcDbEntity
  8
0
100
AcDbSpline
 62
7
  6
CONTINUOUS
 70
0
 71
3
 72
23
 73
19
 74
0
 42
0.0000001
 43
0.0000001
 44
0.0000000001
 40
0.0
 40
0.0
 40
0.0
 40
0.0
 40
0.0428149608
 40
0.0873975766
 40
0.1351803376
 40
0.1870895469
 40
0.2435366081
 40
0.3044936475
 40
0.3695926897
 40
0.4382003285
 40
0.5094975184
 40
0.5825338638
 40
0.6562802177
 40
0.7296679819
 40
0.8016376326
 40
0.8712556294
 40
0.9376643404
 40
1.0
 40
1.0
 40
1.0
 40
1.0
 10
16.1596126154
 20
32.8753283006
 30
0.0
 10
16.1805738677
 20
32.8874184239
 30
0.0
 10
16.2202946975
 20
32.917831818
 30
0.0
 10
16.2681048011
 20
32.9782765211
 30
0.0
 10
16.3038163233
 20
33.0522091159
 30
0.0
 10
16.326958109
 20
33.1378053351
 30
0.0
 10
16.3372431631
 20
33.2332745537
 30
0.0
 10
16.334627137
 20
33.3366484486
 30
0.0
 10
16.3191599541
 20
33.4457920535
 30
0.0
 10
16.2912550294
 20
33.5584339991
 30
0.0
 10
16.2514416457
 20
33.6721810485
 30
0.0
 10
16.2006363169
 20
33.784644591
 30
0.0
 10
16.1398440777
 20
33.8933892963
 30
0.0
 10
16.0704546276
 20
33.9961361799
 30
0.0
 10
15.9938698876
 20
34.0906622866
 30
0.0
 10
15.9117365683
 20
34.1750194841
 30
0.0
 10
15.8257782635
 20
34.2472795133
 30
0.0
 10
15.7651313376
 20
34.2878526546
 30
0.0
 10
15.7346204879
 20
34.3054677034
 30
0.0
  0
SPLINE
  5
2E6
100
AcDbEntity
  8
0
100
AcDbSpline
 62
7
  6
CONTINUOUS
 70
0
 71
3
 72
23
 73
19
 74
0
 42
0.0000001
 43
0.0000001
 44
0.0000000001
 40
0.0
 40
0.0
 40
0.0
 40
0.0
 40
0.0428141113
 40
0.0873959552
 40
0.1351780787
 40
0.1870868068
 40
0.2435335508
 40
0.3044904263
 40
0.3695894486
 40
0.4381971939
 40
0.5094946028
 40
0.5825312612
 40
0.6562780039
 40
0.7296662105
 40
0.8016363343
 40
0.8712548077
 40
0.9376639644
 40
1.0
 40
1.0
 40
1.0
 40
1.0
 10
18.6352096758
 20
32.4274916837
 30
0.0
 10
18.635219886
 20
32.4032943873
 30
0.0
 10
18.6287414419
 20
32.3536899116
 30
0.0
 10
18.6002999238
 20
32.2820650286
 30
0.0
 10
18.5541284493
 20
32.2141738307
 30
0.0
 10
18.4915713207
 20
32.1513363808
 30
0.0
 10
18.4140357121
 20
32.094696486
 30
0.0
 10
18.3232040407
 20
32.0452766416
 30
0.0
 10
18.2209501521
 20
32.0041010705
 30
0.0
 10
18.1094477788
 20
31.9719473813
 30
0.0
 10
17.9910341188
 20
31.9495538068
 30
0.0
 10
17.8682359825
 20
31.9373209042
 30
0.0
 10
17.7436649003
 20
31.9355959526
 30
0.0
 10
17.6199893377
 20
31.9443149302
 30
0.0
 10
17.4998353511
 20
31.9633752328
 30
0.0
 10
17.3857133945
 20
31.9923248549
 30
0.0
 10
17.2801551542
 20
32.0306352816
 30
0.0
 10
17.2146940573
 20
32.0628691905
 30
0.0
 10
17.1841833542
 20
32.0804841546
 30
0.0
  0
SPLINE
  5
2E7
100
AcDbEntity
  8
0
100
AcDbSpline
 62
7
  6
CONTINUOUS
 70
0
 71
3
 72
23
 73
19
 74
0
 42
0.0000001
 43
0.0000001
 44
0.0000000001
 40
0.0
 40
0.0
 40
0.0
 40
0.0
 40
0.0561493283
 40
0.1133992744
 40
0.172462018
 40
0.2338869161
 40
0.2977568815
 40
0.3638032699
 40
0.431472459
 40
0.5000005736
 40
0.5685286482
 40
0.636197721
 40
0.7022439306
 40
0.7661136786
 40
0.8275383514
 40
0.8866008944
 40
0.9438506973
 40
1.0
 40
1.0
 40
1.0
 40
1.0
 10
17.1531174663
 20
32.1491515223
 30
0.0
 10
17.1924663188
 20
32.1264339657
 30
0.0
 10
17.2778701305
 20
32.0901174124
 30
0.0
 10
17.4167053163
 20
32.0669843832
 30
0.0
 10
17.5614163022
 20
32.0757070361
 30
0.0
 10
17.7062064889
 20
32.1155458886
 30
0.0
 10
17.8457128585
 20
32.1847171162
 30
0.0
 10
17.9747677532
 20
32.28043765
 30
0.0
 10
18.0885956993
 20
32.3990473699
 30
0.0
 10
18.1829819464
 20
32.5360533154
 30
0.0
 10
18.2544409304
 20
32.6862963705
 30
0.0
 10
18.3002474359
 20
32.8441784252
 30
0.0
 10
18.3186177844
 20
33.0038029385
 30
0.0
 10
18.3087698952
 20
33.1592041982
 30
0.0
 10
18.2708773058
 20
33.3045153521
 30
0.0
 10
18.2060766809
 20
33.4341999785
 30
0.0
 10
18.1166258646
 20
33.54286836
 30
0.0
 10
18.0424731343
 20
33.5986720377
 30
0.0
 10
18.0031248104
 20
33.6213904685
 30
0.0
  0
SPLINE
  5
2E8
100
AcDbEntity
  8
0
100
AcDbSpline
 62
7
  6
CONTINUOUS
 70
0
 71
3
 72
21
 73
17
 74
0
 42
0.0000001
 43
0.0000001
 44
0.0000000001
 40
0.0
 40
0.0
 40
0.0
 40
0.0
 40
0.0552141473
 40
0.111249
 40
0.1685779725
 40
0.2276838681
 40
0.2888091716
 40
0.3519345264
 40
0.4168473111
 40
0.4831740854
 40
0.6176650753
 40
0.751066288
 40
0.8161207111
 40
0.8794156154
 40
0.9407207299
 40
1.0
 40
1.0
 40
1.0
 40
1.0
 10
16.6596166367
 20
34.397087452
 30
0.0
 10
16.6925820799
 20
34.3780552751
 30
0.0
 10
16.7552496727
 20
34.3327885862
 30
0.0
 10
16.8346631323
 20
34.2469626598
 30
0.0
 10
16.8975461948
 20
34.1452133777
 30
0.0
 10
16.9422742598
 20
34.0305978161
 30
0.0
 10
16.9678560653
 20
33.9062248883
 30
0.0
 10
16.9736006427
 20
33.7754310796
 30
0.0
 10
16.959533785
 20
33.6416862512
 30
0.0
 10
16.9146448018
 20
33.4635483228
 30
0.0
 10
16.8128824811
 20
33.2535576932
 30
0.0
 10
16.6599735126
 20
33.0782711345
 30
0.0
 10
16.5149175725
 20
32.9700151791
 30
0.0
 10
16.3992832575
 20
32.9078548919
 30
0.0
 10
16.2790711757
 20
32.8659941929
 30
0.0
 10
16.196600774
 20
32.8520865292
 30
0.0
 10
16.1558484268
 20
32.8490204946
 30
0.0
  0
SPLINE
  5
2E9
100
AcDbEntity
  8
0
100
AcDbSpline
 62
7
  6
CONTINUOUS
 70
0
 71
3
 72
12
 73
8
 74
0
 42
0.0000001
 43
0.0000001
 44
0.0000000001
 40
0.0
 40
0.0
 40
0.0
 40
0.0
 40
0.1081730276
 40
0.2183635449
 40
0.4513165416
 40
0.7105834505
 40
1.0
 40
1.0
 40
1.0
 40
1.0
 10
14.5318141417
 20
33.8984844291
 30
0.0
 10
14.5457544559
 20
33.9065249847
 30
0.0
 10
14.5753477474
 20
33.9203699413
 30
0.0
 10
14.6403038209
 20
33.9383914269
 30
0.0
 10
14.7313410055
 20
33.9408070196
 30
0.0
 10
14.8452954402
 20
33.91319901
 30
0.0
 10
14.9195179308
 20
33.877927078
 30
0.0
 10
14.956806267
 20
33.8563991341
 30
0.0
  0
SPLINE
  5
2EA
100
AcDbEntity
  8
0
100
AcDbSpline
 62
7
  6
CONTINUOUS
 70
0
 71
3
 72
23
 73
19
 74
0
 42
0.0000001
 43
0.0000001
 44
0.0000000001
 40
0.0
 40
0.0
 40
0.0
 40
0.0
 40
0.0428141113
 40
0.0873959551
 40
0.1351780786
 40
0.1870868069
 40
0.2435335508
 40
0.3044904262
 40
0.3695894485
 40
0.4381971939
 40
0.5094946029
 40
0.5825312611
 40
0.6562780038
 40
0.7296662105
 40
0.8016363343
 40
0.8712548077
 40
0.9376639644
 40
1.0
 40
1.0
 40
1.0
 40
1.0
 10
15.2057560653
 20
32.1213374925
 30
0.0
 10
15.2057662755
 20
32.0971401962
 30
0.0
 10
15.1992878315
 20
32.0475357206
 30
0.0
 10
15.1708463134
 20
31.9759108375
 30
0.0
 10
15.1246748388
 20
31.9080196396
 30
0.0
 10
15.0621177102
 20
31.8451821896
 30
0.0
 10
14.9845821017
 20
31.7885422948
 30
0.0
 10
14.8937504303
 20
31.7391224505
 30
0.0
 10
14.7914965417
 20
31.6979468795
 30
0.0
 10
14.6799941684
 20
31.6657931902
 30
0.0
 10
14.5615805084
 20
31.6433996156
 30
0.0
 10
14.4387823721
 20
31.631166713
 30
0.0
 10
14.31421129
 20
31.6294417614
 30
0.0
 10
14.1905357273
 20
31.6381607391
 30
0.0
 10
14.0703817407
 20
31.6572210417
 30
0.0
 10
13.956259784
 20
31.6861706638
 30
0.0
 10
13.8507015437
 20
31.7244810905
 30
0.0
 10
13.7852404468
 20
31.7567149993
 30
0.0
 10
13.7547297437
 20
31.7743299634
 30
0.0
  0
SPLINE
  5
2EB
100
AcDbEntity
  8
0
100
AcDbSpline
 62
7
  6
CONTINUOUS
 70
0
 71
3
 72
23
 73
19
 74
0
 42
0.0000001
 43
0.0000001
 44
0.0000000001
 40
0.0
 40
0.0
 40
0.0
 40
0.0
 40
0.0623356598
 40
0.1287443709
 40
0.1983623674
 40
0.2703320177
 40
0.3437197814
 40
0.4174661351
 40
0.4905024805
 40
0.5617996706
 40
0.6304073097
 40
0.6955063521
 40
0.7564633915
 40
0.8129104527
 40
0.8648196622
 40
0.9126024234
 40
0.9571850391
 40
1.0
 40
1.0
 40
1.0
 40
1.0
 10
14.956806267
 20
33.8563991341
 30
0.0
 10
14.9873171167
 20
33.8387840853
 30
0.0
 10
15.0479640428
 20
33.7982109437
 30
0.0
 10
15.1339223477
 20
33.7259509145
 30
0.0
 10
15.2160556669
 20
33.6415937172
 30
0.0
 10
15.2926404063
 20
33.5470676108
 30
0.0
 10
15.3620298564
 20
33.4443207278
 30
0.0
 10
15.4228220953
 20
33.3355760227
 30
0.0
 10
15.4736274244
 20
33.2231124802
 30
0.0
 10
15.5134408082
 20
33.1093654304
 30
0.0
 10
15.5413457332
 20
32.9967234844
 30
0.0
 10
15.556812916
 20
32.8875798792
 30
0.0
 10
15.5594289423
 20
32.784205984
 30
0.0
 10
15.5491438878
 20
32.6887367652
 30
0.0
 10
15.5260021021
 20
32.6031405457
 30
0.0
 10
15.4902905795
 20
32.5292079508
 30
0.0
 10
15.4424804756
 20
32.4687632477
 30
0.0
 10
15.4027596455
 20
32.4383498539
 30
0.0
 10
15.3817983931
 20
32.4262597306
 30
0.0
  0
SPLINE
  5
2EC
100
AcDbEntity
  8
0
100
AcDbSpline
 62
7
  6
CONTINUOUS
 70
0
 71
3
 72
12
 73
8
 74
0
 42
0.0000001
 43
0.0000001
 44
0.0000000001
 40
0.0
 40
0.0
 40
0.0
 40
0.0
 40
0.1081730276
 40
0.2183635449
 40
0.4513165416
 40
0.7105834505
 40
1.0
 40
1.0
 40
1.0
 40
1.0
 10
13.2307322475
 20
34.6496474174
 30
0.0
 10
13.2446725617
 20
34.657687973
 30
0.0
 10
13.2742658531
 20
34.6715329296
 30
0.0
 10
13.3392219267
 20
34.6895544152
 30
0.0
 10
13.4302591112
 20
34.6919700079
 30
0.0
 10
13.5442135459
 20
34.6643619983
 30
0.0
 10
13.6184360365
 20
34.6290900663
 30
0.0
 10
13.6557243727
 20
34.6075621225
 30
0.0
  0
SPLINE
  5
2ED
100
AcDbEntity
  8
0
100
AcDbSpline
 62
7
  6
CONTINUOUS
 70
0
 71
3
 72
12
 73
8
 74
0
 42
0.0000001
 43
0.0000001
 44
0.0000000001
 40
0.0
 40
0.0
 40
0.0
 40
0.0
 40
0.2894194897
 40
0.5486872564
 40
0.781639024
 40
0.8918283545
 40
1.0
 40
1.0
 40
1.0
 40
1.0
 10
12.4536478494
 20
32.5254929517
 30
0.0
 10
12.4163589954
 20
32.5470211946
 30
0.0
 10
12.3486996821
 20
32.5936628857
 30
0.0
 10
12.2678108826
 20
32.6785452295
 30
0.0
 10
12.2243828358
 20
32.7585929775
 30
0.0
 10
12.207511421
 20
32.8238569129
 30
0.0
 10
12.2047048416
 20
32.8564076835
 30
0.0
 10
12.2046980511
 20
32.872500482
 30
0.0
  0
SPLINE
  5
2EE
100
AcDbEntity
  8
0
100
AcDbSpline
 62
7
  6
CONTINUOUS
 70
0
 71
3
 72
15
 73
11
 74
0
 42
0.0000001
 43
0.0000001
 44
0.0000000001
 40
0.0
 40
0.0
 40
0.0
 40
0.0
 40
0.1186928491
 40
0.2444391766
 40
0.3748361468
 40
0.5071347827
 40
0.6384444833
 40
0.7659628757
 40
0.8872593912
 40
1.0
 40
1.0
 40
1.0
 40
1.0
 10
13.5777544808
 20
32.4856822489
 30
0.0
 10
13.5358712198
 20
32.4667999985
 30
0.0
 10
13.4467415646
 20
32.4341115933
 30
0.0
 10
13.3052312502
 20
32.4007930464
 30
0.0
 10
13.1556885449
 20
32.3825662044
 30
0.0
 10
13.0029285078
 20
32.3800363809
 30
0.0
 10
12.851830557
 20
32.3932097142
 30
0.0
 10
12.7071642405
 20
32.4217359854
 30
0.0
 10
12.5736470212
 20
32.4647330341
 30
0.0
 10
12.4914404687
 20
32.5036738665
 30
0.0
 10
12.4536478494
 20
32.5254929517
 30
0.0
  0
SPLINE
  5
2EF
100
AcDbEntity
  8
0
100
AcDbSpline
 62
7
  6
CONTINUOUS
 70
0
 71
3
 72
12
 73
8
 74
0
 42
0.0000001
 43
0.0000001
 44
0.0000000001
 40
0.0
 40
0.0
 40
0.0
 40
0.0
 40
0.2894165497
 40
0.5486834585
 40
0.7816364551
 40
0.8918269724
 40
1.0
 40
1.0
 40
1.0
 40
1.0
 10
14.4335385936
 20
35.0566306917
 30
0.0
 10
14.3962502572
 20
35.0781586357
 30
0.0
 10
14.3220277661
 20
35.1134305679
 30
0.0
 10
14.2080733307
 20
35.1410385774
 30
0.0
 10
14.1170361457
 20
35.1386229843
 30
0.0
 10
14.0520800719
 20
35.1206014981
 30
0.0
 10
14.0224867804
 20
35.1067565412
 30
0.0
 10
14.0085464661
 20
35.0987159854
 30
0.0
  0
SPLINE
  5
2F0
100
AcDbEntity
  8
0
100
AcDbSpline
 62
7
  6
CONTINUOUS
 70
0
 71
3
 72
12
 73
8
 74
0
 42
0.0000001
 43
0.0000001
 44
0.0000000001
 40
0.0
 40
0.0
 40
0.0
 40
0.0
 40
0.2894194897
 40
0.5486872564
 40
0.781639024
 40
0.8918283545
 40
1.0
 40
1.0
 40
1.0
 40
1.0
 10
11.1525659552
 20
33.2766559401
 30
0.0
 10
11.1152771012
 20
33.2981841829
 30
0.0
 10
11.0476177878
 20
33.344825874
 30
0.0
 10
10.9667289883
 20
33.4297082179
 30
0.0
 10
10.9233009415
 20
33.5097559658
 30
0.0
 10
10.9064295268
 20
33.5750199012
 30
0.0
 10
10.9036229474
 20
33.6075706718
 30
0.0
 10
10.9036161568
 20
33.6236634703
 30
0.0
  0
SPLINE
  5
2F1
100
AcDbEntity
  8
0
100
AcDbSpline
 62
7
  6
CONTINUOUS
 70
0
 71
3
 72
12
 73
8
 74
0
 42
0.0000001
 43
0.0000001
 44
0.0000000001
 40
0.0
 40
0.0
 40
0.0
 40
0.0
 40
0.2894165497
 40
0.5486834585
 40
0.7816364551
 40
0.8918269724
 40
1.0
 40
1.0
 40
1.0
 40
1.0
 10
13.1324566993
 20
35.80779368
 30
0.0
 10
13.095168363
 20
35.829321624
 30
0.0
 10
13.0209458719
 20
35.8645935562
 30
0.0
 10
12.9069914364
 20
35.8922015657
 30
0.0
 10
12.8159542514
 20
35.8897859726
 30
0.0
 10
12.7509981776
 20
35.8717644864
 30
0.0
 10
12.7214048861
 20
35.8579195295
 30
0.0
 10
12.7074645719
 20
35.8498789737
 30
0.0
  0
SPLINE
  5
2F2
100
AcDbEntity
  8
0
100
AcDbSpline
 62
7
  6
CONTINUOUS
 70
0
 71
3
 72
24
 73
20
 74
0
 42
0.0000001
 43
0.0000001
 44
0.0000000001
 40
0.0
 40
0.0
 40
0.0
 40
0.0
 40
0.0213323001
 40
0.0428931672
 40
0.0874705041
 40
0.1352493373
 40
0.1871526514
 40
0.2435948221
 40
0.3045471603
 40
0.3696381277
 40
0.4382408378
 40
0.5095323237
 40
0.5825607772
 40
0.6562964425
 40
0.7296811933
 40
0.801663857
 40
0.871256136
 40
0.9376320556
 40
1.0
 40
1.0
 40
1.0
 40
1.0
 10
25.2855369707
 20
23.3726201041
 30
0.0
 10
25.2855367654
 20
23.345668116
 30
0.0
 10
25.282064661
 20
23.2914082137
 30
0.0
 10
25.2610748023
 20
23.1826573759
 30
0.0
 10
25.2074999483
 20
23.0474993595
 30
0.0
 10
25.1042987881
 20
22.8958161244
 30
0.0
 10
24.9644603552
 20
22.755337688
 30
0.0
 10
24.7911582793
 20
22.6287172719
 30
0.0
 10
24.5881048353
 20
22.518284289
 30
0.0
 10
24.3595588107
 20
22.4261944633
 30
0.0
 10
24.1103056518
 20
22.3543647637
 30
0.0
 10
23.8456235778
 20
22.3042754783
 30
0.0
 10
23.571138438
 20
22.2769633697
 30
0.0
 10
23.2926896196
 20
22.2730462637
 30
0.0
 10
23.0162206806
 20
22.2926010996
 30
0.0
 10
22.747632704
 20
22.3351692795
 30
0.0
 10
22.49258197
 20
22.3999044971
 30
0.0
 10
22.2566079542
 20
22.4854505205
 30
0.0
 10
22.1102940155
 20
22.5575579385
 30
0.0
 10
22.0420526607
 20
22.5969562118
 30
0.0
  0
SPLINE
  5
2F3
100
AcDbEntity
  8
0
100
AcDbSpline
 62
7
  6
CONTINUOUS
 70
0
 71
3
 72
12
 73
8
 74
0
 42
0.0000001
 43
0.0000001
 44
0.0000000001
 40
0.0
 40
0.0
 40
0.0
 40
0.0
 40
0.1081730276
 40
0.2183635449
 40
0.4513165416
 40
0.7105834505
 40
1.0
 40
1.0
 40
1.0
 40
1.0
 10
11.9296503532
 20
35.4008104057
 30
0.0
 10
11.9435906674
 20
35.4088509613
 30
0.0
 10
11.9731839588
 20
35.422695918
 30
0.0
 10
12.0381400324
 20
35.4407174035
 30
0.0
 10
12.1291772169
 20
35.4431329962
 30
0.0
 10
12.2431316516
 20
35.4155249866
 30
0.0
 10
12.3173541423
 20
35.3802530546
 30
0.0
 10
12.3546424784
 20
35.3587251108
 30
0.0
  0
SPLINE
  5
2F4
100
AcDbEntity
  8
0
100
AcDbSpline
 62
7
  6
CONTINUOUS
 70
0
 71
3
 72
21
 73
17
 74
0
 42
0.0000001
 43
0.0000001
 44
0.0000000001
 40
0.0
 40
0.0
 40
0.0
 40
0.0
 40
0.0436683081
 40
0.088432603
 40
0.1352681411
 40
0.1849199255
 40
0.2378831987
 40
0.2944182662
 40
0.3545632026
 40
0.4181879441
 40
0.4850069722
 40
0.5546287446
 40
0.7001718139
 40
0.8502984687
 40
0.9255757703
 40
1.0
 40
1.0
 40
1.0
 40
1.0
 10
25.5044906253
 20
23.1141100752
 30
0.0
 10
25.5044891819
 20
23.0618667907
 30
0.0
 10
25.4938950578
 20
22.9557859286
 30
0.0
 10
25.4467472195
 20
22.8000322274
 30
0.0
 10
25.3693200668
 20
22.6488887481
 30
0.0
 10
25.2628729453
 20
22.5043869587
 30
0.0
 10
25.1290464274
 20
22.3681664338
 30
0.0
 10
24.9695895804
 20
22.2418736085
 30
0.0
 10
24.7866126545
 20
22.1269222363
 30
0.0
 10
24.5823987776
 20
22.0247829113
 30
0.0
 10
24.3595662852
 20
21.9366351976
 30
0.0
 10
24.0366730521
 20
21.8378931052
 30
0.0
 10
23.6055612468
 20
21.7573303601
 30
0.0
 10
23.1610311376
 20
21.7343000013
 30
0.0
 10
22.802504967
 20
21.7508379562
 30
0.0
 10
22.62436653
 20
21.7709025818
 30
0.0
 10
22.5362850198
 20
21.7839227468
 30
0.0
  0
SPLINE
  5
2F5
100
AcDbEntity
  8
0
100
AcDbSpline
 62
7
  6
CONTINUOUS
 70
0
 71
3
 72
15
 73
11
 74
0
 42
0.0000001
 43
0.0000001
 44
0.0000000001
 40
0.0
 40
0.0
 40
0.0
 40
0.0
 40
0.148481374
 40
0.2894752358
 40
0.4227553246
 40
0.5486629843
 40
0.668000495
 40
0.7819373449
 40
0.8919909504
 40
1.0
 40
1.0
 40
1.0
 40
1.0
 10
22.0420526607
 20
22.5969562118
 30
0.0
 10
21.9992307505
 20
22.6216788938
 30
0.0
 10
21.9176973887
 20
22.6733867565
 30
0.0
 10
21.8061742783
 20
22.7596686832
 30
0.0
 10
21.7096964571
 20
22.8520015613
 30
0.0
 10
21.6292729676
 20
22.9494868068
 30
0.0
 10
21.5657060398
 20
23.0512606836
 30
0.0
 10
21.5197040614
 20
23.1564192852
 30
0.0
 10
21.4917891049
 20
23.2638851944
 30
0.0
 10
21.4855626581
 20
23.3366517044
 30
0.0
 10
21.4855629321
 20
23.3726201041
 30
0.0
  0
SPLINE
  5
2F6
100
AcDbEntity
  8
0
100
AcDbSpline
 62
7
  6
CONTINUOUS
 70
0
 71
3
 72
15
 73
11
 74
0
 42
0.0000001
 43
0.0000001
 44
0.0000000001
 40
0.0
 40
0.0
 40
0.0
 40
0.0
 40
0.1186928491
 40
0.2444391766
 40
0.3748361468
 40
0.5071347827
 40
0.6384444833
 40
0.7659628757
 40
0.8872593912
 40
1.0
 40
1.0
 40
1.0
 40
1.0
 10
12.2766725865
 20
33.2368452372
 30
0.0
 10
12.2347893255
 20
33.2179629868
 30
0.0
 10
12.1456596703
 20
33.1852745816
 30
0.0
 10
12.0041493559
 20
33.1519560347
 30
0.0
 10
11.8546066506
 20
33.1337291927
 30
0.0
 10
11.7018466135
 20
33.1311993692
 30
0.0
 10
11.5507486627
 20
33.1443727025
 30
0.0
 10
11.4060823462
 20
33.1728989737
 30
0.0
 10
11.2725651269
 20
33.2158960225
 30
0.0
 10
11.1903585744
 20
33.2548368548
 30
0.0
 10
11.1525659552
 20
33.2766559401
 30
0.0
  0
SPLINE
  5
2F7
100
AcDbEntity
  8
0
100
AcDbSpline
 62
7
  6
CONTINUOUS
 70
0
 71
3
 72
14
 73
10
 74
0
 42
0.0000001
 43
0.0000001
 44
0.0000000001
 40
0.0
 40
0.0
 40
0.0
 40
0.0
 40
0.1164843219
 40
0.2342814165
 40
0.3540257277
 40
0.4764842614
 40
0.6022611481
 40
0.7315973003
 40
1.0
 40
1.0
 40
1.0
 40
1.0
 10
14.0574528482
 20
35.8994134287
 30
0.0
 10
14.0847897074
 20
35.8836308427
 30
0.0
 10
14.1371736607
 20
35.8471510042
 30
0.0
 10
14.2061356218
 20
35.7798698245
 30
0.0
 10
14.2642497276
 20
35.7009910794
 30
0.0
 10
14.3104797206
 20
35.6122140296
 30
0.0
 10
14.3439550603
 20
35.5151371209
 30
0.0
 10
14.3713183895
 20
35.3755983352
 30
0.0
 10
14.3705863316
 20
35.2663023509
 30
0.0
 10
14.3616678461
 20
35.194117633
 30
0.0
  0
SPLINE
  5
2F8
100
AcDbEntity
  8
0
100
AcDbSpline
 62
7
  6
CONTINUOUS
 70
0
 71
3
 72
15
 73
11
 74
0
 42
0.0000001
 43
0.0000001
 44
0.0000000001
 40
0.0
 40
0.0
 40
0.0
 40
0.0
 40
0.1127682554
 40
0.2341060248
 40
0.3616697968
 40
0.4930175285
 40
0.6253333596
 40
0.7557158235
 40
0.8814071034
 40
1.0
 40
1.0
 40
1.0
 40
1.0
 10
12.3546424784
 20
35.3587251108
 30
0.0
 10
12.3925124807
 20
35.3368613494
 30
0.0
 10
12.4674901495
 20
35.2850188539
 30
0.0
 10
12.5716718113
 20
35.1906498184
 30
0.0
 10
12.6688561312
 20
35.0793379709
 30
0.0
 10
12.7559037039
 20
34.9547506363
 30
0.0
 10
12.8301121211
 20
34.8208682068
 30
0.0
 10
12.8890390359
 20
34.6819472247
 30
0.0
 10
12.9307930917
 20
34.5424859324
 30
0.0
 10
12.9468930183
 20
34.4488111859
 30
0.0
 10
12.951385047
 20
34.4030442119
 30
0.0
  0
SPLINE
  5
2F9
100
AcDbEntity
  8
0
100
AcDbSpline
 62
7
  6
CONTINUOUS
 70
0
 71
3
 72
15
 73
11
 74
0
 42
0.0000001
 43
0.0000001
 44
0.0000000001
 40
0.0
 40
0.0
 40
0.0
 40
0.0
 40
0.1080089774
 40
0.2180633354
 40
0.3320000948
 40
0.4513381202
 40
0.5772469855
 40
0.7105286485
 40
0.8515217843
 40
1.0
 40
1.0
 40
1.0
 40
1.0
 10
21.4855639511
 20
22.9643688945
 30
0.0
 10
21.4855630779
 20
22.9284005391
 30
0.0
 10
21.4917892976
 20
22.8556336358
 30
0.0
 10
21.5197065065
 20
22.7481683381
 30
0.0
 10
21.5657056827
 20
22.6430081796
 30
0.0
 10
21.629274646
 20
22.5412348566
 30
0.0
 10
21.7096981066
 20
22.4437483767
 30
0.0
 10
21.8061771193
 20
22.3514157613
 30
0.0
 10
21.9176995238
 20
22.2651344013
 30
0.0
 10
21.9992316854
 20
22.2134271455
 30
0.0
 10
22.0420526607
 20
22.1887050032
 30
0.0
  0
SPLINE
  5
2FA
100
AcDbEntity
  8
0
100
AcDbSpline
 62
7
  6
CONTINUOUS
 70
0
 71
3
 72
24
 73
20
 74
0
 42
0.0000001
 43
0.0000001
 44
0.0000000001
 40
0.0
 40
0.0
 40
0.0
 40
0.0
 40
0.0623679185
 40
0.1287422852
 40
0.198332719
 40
0.2703138621
 40
0.3436970265
 40
0.4174318541
 40
0.4904608258
 40
0.5617534162
 40
0.6303577565
 40
0.6954499808
 40
0.7564029546
 40
0.8128456454
 40
0.8647490526
 40
0.9125278827
 40
0.9571058384
 40
0.978667075
 40
1.0
 40
1.0
 40
1.0
 40
1.0
 10
22.0420526607
 20
22.1887050032
 30
0.0
 10
22.110293982
 20
22.1493067493
 30
0.0
 10
22.2566058797
 20
22.0771997476
 30
0.0
 10
22.492575845
 20
21.991655241
 30
0.0
 10
22.7476202987
 20
21.9269210186
 30
0.0
 10
23.0162016066
 20
21.8843507131
 30
0.0
 10
23.2926655543
 20
21.8647962146
 30
0.0
 10
23.5711119043
 20
21.8687098286
 30
0.0
 10
23.8455983738
 20
21.8960194737
 30
0.0
 10
24.1102844488
 20
21.9461093616
 30
0.0
 10
24.3595434505
 20
22.0179368147
 30
0.0
 10
24.5880941071
 20
22.110027399
 30
0.0
 10
24.7911499464
 20
22.2204621815
 30
0.0
 10
24.9644549566
 20
22.3470809841
 30
0.0
 10
25.1042950289
 20
22.4875594912
 30
0.0
 10
25.2074942714
 20
22.6392443438
 30
0.0
 10
25.2610756511
 20
22.7744014943
 30
0.0
 10
25.2820620353
 20
22.8831551669
 30
0.0
 10
25.2855352974
 20
22.937416121
 30
0.0
 10
25.2855359517
 20
22.9643688966
 30
0.0
  0
SPLINE
  5
2FB
100
AcDbEntity
  8
0
100
AcDbSpline
 62
7
  6
CONTINUOUS
 70
0
 71
3
 72
14
 73
10
 74
0
 42
0.0000001
 43
0.0000001
 44
0.0000000001
 40
0.0
 40
0.0
 40
0.0
 40
0.0
 40
0.1218252714
 40
0.2492861464
 40
0.5115924774
 40
0.6417565766
 40
0.767927237
 40
0.888021632
 40
1.0
 40
1.0
 40
1.0
 40
1.0
 10
15.0208122606
 20
34.1712204421
 30
0.0
 10
15.0133700702
 20
34.2149432302
 30
0.0
 10
14.9925931803
 20
34.3035432573
 30
0.0
 10
14.9306331675
 20
34.4794367382
 30
0.0
 10
14.8410254325
 20
34.6478494375
 30
0.0
 10
14.7290342017
 20
34.8001414074
 30
0.0
 10
14.6368127059
 20
34.901893116
 30
0.0
 10
14.538847613
 20
34.988392566
 30
0.0
 10
14.4688438658
 20
35.0362476444
 30
0.0
 10
14.4335385936
 20
35.0566306917
 30
0.0
  0
SPLINE
  5
2FC
100
AcDbEntity
  8
0
100
AcDbSpline
 62
7
  6
CONTINUOUS
 70
0
 71
3
 72
12
 73
8
 74
0
 42
0.0000001
 43
0.0000001
 44
0.0000000001
 40
0.0
 40
0.0
 40
0.0
 40
0.0
 40
0.2894194897
 40
0.5486872564
 40
0.781639024
 40
0.8918283545
 40
1.0
 40
1.0
 40
1.0
 40
1.0
 10
13.7547297437
 20
31.7743299634
 30
0.0
 10
13.7174408897
 20
31.7958582063
 30
0.0
 10
13.6497815763
 20
31.8424998974
 30
0.0
 10
13.5688927769
 20
31.9273822412
 30
0.0
 10
13.5254647301
 20
32.0074299892
 30
0.0
 10
13.5085933153
 20
32.0726939246
 30
0.0
 10
13.5057867359
 20
32.1052446952
 30
0.0
 10
13.5057799453
 20
32.1213374936
 30
0.0
  0
SPLINE
  5
2FD
100
AcDbEntity
  8
0
100
AcDbSpline
 62
7
  6
CONTINUOUS
 70
0
 71
3
 72
9
 73
5
 74
0
 42
0.0000001
 43
0.0000001
 44
0.0000000001
 40
0.0
 40
0.0
 40
0.0
 40
0.0
 40
0.2555723208
 40
1.0
 40
1.0
 40
1.0
 40
1.0
 10
16.1213675207
 20
32.7348506853
 30
0.0
 10
16.1102440783
 20
32.7378810966
 30
0.0
 10
16.0668932735
 20
32.7503591042
 30
0.0
 10
16.0242620897
 20
32.7653748696
 30
0.0
 10
15.993176322
 20
32.7780777809
 30
0.0
  0
SPLINE
  5
2FE
100
AcDbEntity
  8
0
100
AcDbSpline
 62
7
  6
CONTINUOUS
 70
0
 71
3
 72
12
 73
8
 74
0
 42
0.0000001
 43
0.0000001
 44
0.0000000001
 40
0.0
 40
0.0
 40
0.0
 40
0.0
 40
0.2894165497
 40
0.5486834585
 40
0.7816364551
 40
0.8918269724
 40
1.0
 40
1.0
 40
1.0
 40
1.0
 10
15.7346204879
 20
34.3054677034
 30
0.0
 10
15.6973321515
 20
34.3269956474
 30
0.0
 10
15.6231096604
 20
34.3622675796
 30
0.0
 10
15.509155225
 20
34.3898755891
 30
0.0
 10
15.4181180399
 20
34.3874599959
 30
0.0
 10
15.3531619661
 20
34.3694385098
 30
0.0
 10
15.3235686746
 20
34.3555935529
 30
0.0
 10
15.3096283604
 20
34.3475529971
 30
0.0
  0
ENDSEC
  0
SECTION
  2
OBJECTS
  0
DICTIONARY
  5
C
100
AcDbDictionary
280
0
281
1
  3
ACAD_GROUP
350
D
  3
ACAD_MLINESTYLE
350
17
  3
ACAD_LAYOUT
350
1A
  3
ACAD_PLOTSETTINGS
350
19
  3
ACAD_PLOTSTYLENAME
350
E
  0
DICTIONARY
  5
D
102
{ACAD_REACTORS
330
C
102
}
100
AcDbDictionary
280
0
281
1
  0
ACDBDICTIONARYWDFLT
  5
E
102
{ACAD_REACTORS
330
C
102
}
100
AcDbDictionary
281
1
  3
Normal
350
F
100
AcDbDictionaryWithDefault
340
F
  0
DICTIONARY
  5
17
102
{ACAD_REACTORS
330
C
102
}
100
AcDbDictionary
280
0
281
1
  3
Standard
350
18
  0
DICTIONARY
  5
19
102
{ACAD_REACTORS
330
C
102
}
100
AcDbDictionary
281
1
  0
DICTIONARY
  5
1A
102
{ACAD_REACTORS
330
C
102
}
100
AcDbDictionary
281
1
  3
Model
350
2FF
  3
Layout1
350
300
  0
ACDBPLACEHOLDER
  5
F
102
{ACAD_REACTORS
330
E
102
}
  0
MLINESTYLE
  5
18
102
{ACAD_REACTORS
330
17
102
}
100
AcDbMlineStyle
  2
STANDARD
 70
0
  3

 62
256
 51
90.0
 52
90.0
 71
2
 49
0.5
 62
256
  6
BYLAYER
 49
-0.5
 62
256
  6
BYLAYER
  0
LAYOUT
  5
2FF
102
{ACAD_REACTORS
330
1A
102
}
100
AcDbPlotSettings
  1

  2
none_device
  4

  6

 40
0.0
 41
0.0
 42
0.0
 43
0.0
 44
210.0
 45
297.0
 46
0.0
 47
0.0
 48
0.0
 49
0.0
140
0.0
141
0.0
142
1.0
143
1.0
 70
1024
 72
1
 73
0
 74
0
  7

 75
0
147
1.0
148
0.0
149
0.0
100
AcDbLayout
  1
Model
 70
0
 71
0
 10
0.0
 20
0.0
 11
210.0
 21
297.0
 12
0.0
 22
0.0
 32
0.0
 14
0.0
 24
0.0
 34
0.0
 15
0.0
 25
0.0
 35
0.0
146
0.0
 13
0.0
 23
0.0
 33
0.0
 16
1.0
 26
0.0
 36
0.0
 17
0.0
 27
1.0
 37
0.0
 76
0
330
210
345
0
346
0
  0
LAYOUT
  5
300
102
{ACAD_REACTORS
330
1A
102
}
100
AcDbPlotSettings
  1

  2
none_device
  4

  6

 40
0.0
 41
0.0
 42
0.0
 43
0.0
 44
210.0
 45
297.0
 46
0.0
 47
0.0
 48
0.0
 49
0.0
140
0.0
141
0.0
142
1.0
143
1.0
 70
0
 72
1
 73
0
 74
0
  7

 75
0
147
1.0
148
0.0
149
0.0
100
AcDbLayout
  1
Layout1
 70
0
 71
1
 10
0.0
 20
0.0
 11
210.0
 21
297.0
 12
0.0
 22
0.0
 32
0.0
 14
0.0
 24
0.0
 34
0.0
 15
0.0
 25
0.0
 35
0.0
146
0.0
 13
0.0
 23
0.0
 33
0.0
 16
1.0
 26
0.0
 36
0.0
 17
0.0
 27
1.0
 37
0.0
 76
0
330
211
345
0
346
0
  0
ENDSEC
  0
EOF
