999
DXF file: C:\Users\SESA621925\Desktop\Projects\Drawing_creation_tool\Gen2D (3) (1)\CAD\G12ROTDS_3D-CAD\drw0001_1.dxf
999
Pro/ENGINEER 2019471 by Parametric Technology Corporation
  0
SECTION
  2
HEADER
  9
$ACADVER
  1
AC1024
  9
$DWGCODEPAGE
  3
ANSI_1252
  9
$EXTMAX
 10
132.2408255888
 20
187.0263104756
 30
0.0
  9
$EXTMIN
 10
0.0
 20
0.0
 30
0.0
  9
$LIMMIN
 10
0.0
 20
0.0
  9
$LIMMAX
 10
132.2408255888
 20
187.0263104756
  9
$VIEWCTR
 10
66.1204127944
 20
93.5131552378
  9
$VIEWSIZE
 40
187.0263104756
  9
$CLAYER
  8
0
  9
$LTSCALE
 40
12.1913446829
  9
$CELTYPE
  6
BYLAYER
  9
$DIMSCALE
 40
1.0
  9
$DIMASZ
 40
1.5742955427
  9
$DIMEXO
 40
1.0
  9
$DIMDLI
 40
8.4231108718
  9
$DIMEXE
 40
1.0
  9
$DIMCEN
 40
1.9949473117
  9
$DIMLFAC
 40
1.0
  9
$DIMBLK
  1
_FILLED
  9
$DIMALT
 70
0
  9
$DIMALTF
 40
0.0393700787
  9
$DIMTXT
 40
2.2040137598
  9
$DIMTOL
 70
1
  9
$DIMLIM
 70
0
  9
$DIMTFAC
 40
1.0
  9
$DIMTP
 40
0.01
  9
$DIMTM
 40
0.01
  9
$DIMGAP
 40
0.625
  9
$DIMDSEP
 70
46
  9
$AUNITS
 70
0
  9
$PDMODE
 70
3
  9
$PDSIZE
 40
0.3125
  9
$HANDSEED
  5
357
  9
$TILEMODE
 70
1
  9
$MEASUREMENT
 70
1
  9
$INSUNITS
 70
4
  0
ENDSEC
  0
SECTION
  2
CLASSES
  0
CLASS
  1
ACDBDICTIONARYWDFLT
  2
AcDbDictionaryWithDefault
  3
AutoCAD 2000
 90
0
 91
1
280
0
281
0
  0
CLASS
  1
ACDBPLACEHOLDER
  2
AcDbPlaceHolder
  3
AutoCAD 2000
 90
0
 91
1
280
0
281
0
  0
CLASS
  1
LAYOUT
  2
AcDbLayout
  3
AutoCAD 2000
 90
0
 91
0
280
0
281
0
  0
ENDSEC
  0
SECTION
  2
TABLES
  0
TABLE
  2
VPORT
  5
8
100
AcDbSymbolTable
 70
2
  0
VPORT
  5
1F4
100
AcDbSymbolTableRecord
100
AcDbViewportTableRecord
  2
*ACTIVE
 70
0
 10
0.0
 20
0.0
 11
1.0
 21
1.0
 12
66.1204127944
 22
93.5131552378
 13
0.0
 23
0.0
 14
1.0
 24
1.0
 15
0.0
 25
0.0
 16
0.0
 26
0.0
 36
1.0
 17
0.0
 27
0.0
 37
0.0
 40
187.0263104756
 41
0.7070707071
 42
50.0
 43
0.0
 44
0.0
 50
0.0
 51
0.0
 71
0
 72
100
 73
1
 74
1
 75
0
 76
0
 77
0
 78
0
  0
ENDTAB
  0
TABLE
  2
LTYPE
  5
5
100
AcDbSymbolTable
 70
6
  0
LTYPE
  5
14
100
AcDbSymbolTableRecord
100
AcDbLinetypeTableRecord
  2
BYBLOCK
 70
0
  3

 72
65
 73
0
 40
0.0
  0
LTYPE
  5
15
100
AcDbSymbolTableRecord
100
AcDbLinetypeTableRecord
  2
BYLAYER
 70
0
  3

 72
65
 73
0
 40
0.0
  0
LTYPE
  5
16
100
AcDbSymbolTableRecord
100
AcDbLinetypeTableRecord
  2
CONTINUOUS
 70
64
  3
Solid line
 72
65
 73
0
 40
0.0
  0
LTYPE
  5
1F5
100
AcDbSymbolTableRecord
100
AcDbLinetypeTableRecord
  2
CENTER
 70
64
  3
____ _ ____ _ ____ _ ____ _ ____ _ ____ _ ____
 72
65
 73
4
 40
0.6
 49
0.375
 74
0
 49
-0.075
 74
0
 49
0.075
 74
0
 49
-0.075
 74
0
  0
LTYPE
  5
1F6
100
AcDbSymbolTableRecord
100
AcDbLinetypeTableRecord
  2
HIDDEN
 70
64
  3
- - - - - - - - - - - - - - - - - - - -
 72
65
 73
2
 40
0.2
 49
0.1
 74
0
 49
-0.1
 74
0
  0
LTYPE
  5
1F7
100
AcDbSymbolTableRecord
100
AcDbLinetypeTableRecord
  2
PHANTOM
 70
64
  3
_____ _ _ _____ _ _ _____ _ _ _____
 72
65
 73
6
 40
0.8
 49
0.45
 74
0
 49
-0.05
 74
0
 49
0.1
 74
0
 49
-0.05
 74
0
 49
0.1
 74
0
 49
-0.05
 74
0
  0
LTYPE
  5
1F8
100
AcDbSymbolTableRecord
100
AcDbLinetypeTableRecord
  2
DOT
 70
64
  3
. . . . . . . . . . . . . . . . . . . .
 72
65
 73
2
 40
0.2
 49
0.1
 74
0
 49
-0.1
 74
0
  0
LTYPE
  5
1F9
100
AcDbSymbolTableRecord
100
AcDbLinetypeTableRecord
  2
DASHED
 70
64
  3
- - - - - - - - - - - - - - - - - - - -
 72
65
 73
2
 40
0.2
 49
0.1
 74
0
 49
-0.1
 74
0
  0
ENDTAB
  0
TABLE
  2
LAYER
  5
2
100
AcDbSymbolTable
 70
36
  0
LAYER
  5
10
100
AcDbSymbolTableRecord
100
AcDbLayerTableRecord
  2
0
 70
0
 62
7
  6
CONTINUOUS
370
-3
390
F
  0
LAYER
  5
1FA
100
AcDbSymbolTableRecord
100
AcDbLayerTableRecord
  2
DEFAULT_1
 70
0
 62
7
  6
CENTER
370
-3
390
F
  0
LAYER
  5
1FB
100
AcDbSymbolTableRecord
100
AcDbLayerTableRecord
  2
DEFAULT_2
 70
0
 62
8
  6
HIDDEN
370
-3
390
F
  0
LAYER
  5
1FC
100
AcDbSymbolTableRecord
100
AcDbLayerTableRecord
  2
DEFAULT_3
 70
0
 62
7
  6
PHANTOM
370
-3
390
F
  0
LAYER
  5
1FD
100
AcDbSymbolTableRecord
100
AcDbLayerTableRecord
  2
00_COMPONENTS
 70
0
 62
7
  6
CONTINUOUS
370
-3
390
F
  0
LAYER
  5
1FE
100
AcDbSymbolTableRecord
100
AcDbLayerTableRecord
  2
01_1_DEFAULT_DATUMS
 70
0
 62
7
  6
CONTINUOUS
370
-3
390
F
  0
LAYER
  5
1FF
100
AcDbSymbolTableRecord
100
AcDbLayerTableRecord
  2
01_PLANES
 70
0
 62
7
  6
CONTINUOUS
370
-3
390
F
  0
LAYER
  5
200
100
AcDbSymbolTableRecord
100
AcDbLayerTableRecord
  2
02_COORD_SYS
 70
0
 62
7
  6
CONTINUOUS
370
-3
390
F
  0
LAYER
  5
201
100
AcDbSymbolTableRecord
100
AcDbLayerTableRecord
  2
03_AXES
 70
0
 62
7
  6
CONTINUOUS
370
-3
390
F
  0
LAYER
  5
202
100
AcDbSymbolTableRecord
100
AcDbLayerTableRecord
  2
04_POINTS
 70
0
 62
7
  6
CONTINUOUS
370
-3
390
F
  0
LAYER
  5
203
100
AcDbSymbolTableRecord
100
AcDbLayerTableRecord
  2
05_CURVES
 70
0
 62
7
  6
CONTINUOUS
370
-3
390
F
  0
LAYER
  5
204
100
AcDbSymbolTableRecord
100
AcDbLayerTableRecord
  2
06_SURFS
 70
0
 62
7
  6
CONTINUOUS
370
-3
390
F
  0
LAYER
  5
205
100
AcDbSymbolTableRecord
100
AcDbLayerTableRecord
  2
07_COSMETICS
 70
0
 62
7
  6
CONTINUOUS
370
-3
390
F
  0
LAYER
  5
206
100
AcDbSymbolTableRecord
100
AcDbLayerTableRecord
  2
10_NOTES
 70
0
 62
7
  6
CONTINUOUS
370
-3
390
F
  0
LAYER
  5
207
100
AcDbSymbolTableRecord
100
AcDbLayerTableRecord
  2
11_NOTES_PUB
 70
0
 62
7
  6
CONTINUOUS
370
-3
390
F
  0
LAYER
  5
208
100
AcDbSymbolTableRecord
100
AcDbLayerTableRecord
  2
13_REF_GTOL
 70
0
 62
7
  6
CONTINUOUS
370
-3
390
F
  0
LAYER
  5
209
100
AcDbSymbolTableRecord
100
AcDbLayerTableRecord
  2
16_MISC
 70
0
 62
7
  6
CONTINUOUS
370
-3
390
F
  0
LAYER
  5
20A
100
AcDbSymbolTableRecord
100
AcDbLayerTableRecord
  2
17_NO_PRINT
 70
0
 62
7
  6
CONTINUOUS
370
-3
390
F
  0
LAYER
  5
20B
100
AcDbSymbolTableRecord
100
AcDbLayerTableRecord
  2
18_DATUM_CAMS_JOINTS
 70
0
 62
7
  6
CONTINUOUS
370
-3
390
F
  0
LAYER
  5
20C
100
AcDbSymbolTableRecord
100
AcDbLayerTableRecord
  2
19_DATUM_FUNCTIONAL
 70
0
 62
7
  6
CONTINUOUS
370
-3
390
F
  0
LAYER
  5
20D
100
AcDbSymbolTableRecord
100
AcDbLayerTableRecord
  2
20_DATUM_KINEMATIC_SCHEME
 70
0
 62
7
  6
CONTINUOUS
370
-3
390
F
  0
LAYER
  5
20E
100
AcDbSymbolTableRecord
100
AcDbLayerTableRecord
  2
black
 70
0
 62
7
  6
CONTINUOUS
370
-3
390
F
  0
ENDTAB
  0
TABLE
  2
STYLE
  5
3
100
AcDbSymbolTable
 70
1
  0
STYLE
  5
11
100
AcDbSymbolTableRecord
100
AcDbTextStyleTableRecord
  2
STANDARD
 70
0
 40
0.0
 41
0.8
 50
0.0
 71
0
 42
0.2
  3
txt
  4

  0
STYLE
  5
20F
100
AcDbSymbolTableRecord
100
AcDbTextStyleTableRecord
  2
TEXTSTYLE_1
 70
0
 40
0.0
 41
0.8
 50
0.0
 71
0
 42
0.2
  3
gdt
  4

  0
ENDTAB
  0
TABLE
  2
VIEW
  5
6
100
AcDbSymbolTable
 70
0
  0
ENDTAB
  0
TABLE
  2
UCS
  5
7
100
AcDbSymbolTable
 70
0
  0
ENDTAB
  0
TABLE
  2
APPID
  5
9
100
AcDbSymbolTable
 70
1
  0
APPID
  5
210
100
AcDbSymbolTableRecord
100
AcDbRegAppTableRecord
  2
ACAD
 70
0
  0
ENDTAB
  0
TABLE
  2
BLOCK_RECORD
  5
1
100
AcDbSymbolTable
 70
0
  0
BLOCK_RECORD
  5
211
100
AcDbSymbolTableRecord
100
AcDbBlockTableRecord
  2
*Model_Space
  0
BLOCK_RECORD
  5
212
100
AcDbSymbolTableRecord
100
AcDbBlockTableRecord
  2
*Paper_Space
  0
BLOCK_RECORD
  5
213
100
AcDbSymbolTableRecord
100
AcDbBlockTableRecord
  2
_FILLED
  0
ENDTAB
  0
TABLE
  2
DIMSTYLE
  5
A
100
AcDbSymbolTable
 70
1
100
AcDbDimStyleTable
 71
0
  0
DIMSTYLE
105
214
100
AcDbSymbolTableRecord
100
AcDbDimStyleTableRecord
  2
STANDARD
 70
0
  3

  4

 40
1.0
 41
1.5742955427
 42
1.0
 43
0.38
 44
1.0
 45
0.0
 46
0.0
 47
0.01
 48
0.01
140
2.2040137598
141
0.09
142
0.0
143
25.4
144
1.0
145
0.0
146
1.0
147
0.625
 71
1
 72
0
 73
0
 74
0
 75
0
 76
0
 77
1
 78
8
 79
2
170
0
171
1
172
0
173
0
174
0
175
0
176
0
177
0
178
0
270
2
179
2
271
2
272
2
273
2
274
2
275
0
280
0
281
0
282
0
283
1
284
8
285
0
286
0
287
3
288
0
340
11
278
46
341
213
342
213
343
213
344
213
  0
ENDTAB
  0
ENDSEC
  0
SECTION
  2
BLOCKS
  0
BLOCK
  5
20
100
AcDbEntity
  8
0
100
AcDbBlockBegin
  2
*Model_Space
 70
0
 10
0.0
 20
0.0
 30
0.0
  3
*Model_Space
  1

  0
ENDBLK
  5
21
100
AcDbEntity
  8
0
100
AcDbBlockEnd
  0
BLOCK
  5
1C
100
AcDbEntity
  8
0
100
AcDbBlockBegin
  2
*Paper_Space
 70
0
 10
0.0
 20
0.0
 30
0.0
  3
*Paper_Space
  1

  0
ENDBLK
  5
1D
100
AcDbEntity
  8
0
100
AcDbBlockEnd
  0
BLOCK
  5
215
100
AcDbEntity
  8
0
100
AcDbBlockBegin
  2
_FILLED
 70
64
 10
0.0
 20
0.0
  3
_FILLED
  1

  0
SOLID
  5
216
100
AcDbEntity
  8
0
  6
BYBLOCK
 62
0
100
AcDbTrace
 10
0.0
 20
0.0
 11
-1.0
 21
0.25
 12
-1.0
 22
-0.25
 13
-1.0
 23
-0.25
  0
ENDBLK
  5
217
100
AcDbEntity
  8
0
  6
BYBLOCK
 62
0
100
AcDbBlockEnd
  0
ENDSEC
  0
SECTION
  2
ENTITIES
  0
LINE
  5
218
100
AcDbEntity
  8
0
100
AcDbLine
 62
7
  6
CONTINUOUS
 10
62.1725065381
 20
150.283746577
 11
29.2917195867
 21
131.3001286964
  0
LINE
  5
219
100
AcDbEntity
  8
0
100
AcDbLine
 62
7
  6
CONTINUOUS
 10
16.8211350287
 20
73.5061913136
 11
17.7937471653
 21
71.5985642268
  0
LINE
  5
21A
100
AcDbEntity
  8
0
100
AcDbLine
 62
7
  6
CONTINUOUS
 10
24.135723873
 20
59.1597655557
 11
25.0691080317
 21
57.3290780321
  0
LINE
  5
21B
100
AcDbEntity
  8
0
100
AcDbLine
 62
7
  6
CONTINUOUS
 10
81.9713941102
 20
37.1990039486
 11
36.6772892351
 21
63.3489759995
  0
LINE
  5
21C
100
AcDbEntity
  8
0
100
AcDbLine
 62
7
  6
CONTINUOUS
 10
37.7581146472
 20
63.9094823
 11
50.4347971133
 21
56.5907618373
  0
LINE
  5
21D
100
AcDbEntity
  8
0
100
AcDbLine
 62
7
  6
CONTINUOUS
 10
51.1419068385
 20
56.1825210827
 11
59.6272235402
 21
51.2836320285
  0
LINE
  5
21E
100
AcDbEntity
  8
0
100
AcDbLine
 62
7
  6
CONTINUOUS
 10
60.3343332654
 20
50.875391274
 11
73.6279960981
 21
43.200465089
  0
LINE
  5
21F
100
AcDbEntity
  8
0
100
AcDbLine
 62
7
  6
CONTINUOUS
 10
59.587125681
 20
51.5108627258
 11
51.247936251
 21
56.3253870689
  0
LINE
  5
220
100
AcDbEntity
  8
0
100
AcDbLine
 62
7
  6
CONTINUOUS
 10
73.5805602784
 20
43.4771529726
 11
60.5502377147
 21
51.0000430219
  0
LINE
  5
221
100
AcDbEntity
  8
0
100
AcDbLine
 62
7
  6
CONTINUOUS
 10
50.386097583
 20
56.868179308
 11
37.9855943529
 21
64.0274512216
  0
LINE
  5
222
100
AcDbEntity
  8
0
100
AcDbLine
 62
7
  6
CONTINUOUS
 10
47.853781897
 20
124.2582557036
 11
44.6713561087
 21
122.4208922856
  0
LINE
  5
223
100
AcDbEntity
  8
0
100
AcDbLine
 62
7
  6
CONTINUOUS
 10
59.0043128664
 20
55.0065086156
 11
50.5189961646
 21
59.9053976699
  0
LINE
  5
224
100
AcDbEntity
  8
0
100
AcDbLine
 62
7
  6
CONTINUOUS
 10
49.6983752148
 20
61.0646054966
 11
59.5979113668
 21
55.3492349334
  0
LINE
  5
225
100
AcDbEntity
  8
0
100
AcDbLine
 62
7
  6
CONTINUOUS
 10
59.8126758421
 20
55.4732285208
 11
49.9131396901
 21
61.1885990841
  0
LINE
  5
226
100
AcDbEntity
  8
0
100
AcDbLine
 62
7
  6
CONTINUOUS
 10
77.2681560171
 20
45.874654448
 11
76.5638766427
 21
46.2812611357
  0
LINE
  5
227
100
AcDbEntity
  8
0
100
AcDbLine
 62
7
  6
CONTINUOUS
 10
76.5638766427
 20
46.9367918476
 11
75.1836700418
 21
47.7336364731
  0
LINE
  5
228
100
AcDbEntity
  8
0
100
AcDbLine
 62
7
  6
CONTINUOUS
 10
77.2681560171
 20
46.5301851599
 11
77.3353780919
 21
46.4913753549
  0
LINE
  5
229
100
AcDbEntity
  8
0
100
AcDbLine
 62
7
  6
CONTINUOUS
 10
75.1836700418
 20
48.546870673
 11
76.2910677089
 21
47.9075287956
  0
LINE
  5
22A
100
AcDbEntity
  8
0
100
AcDbLine
 62
7
  6
CONTINUOUS
 10
30.0886338937
 20
80.3865964392
 11
31.0516863218
 21
78.4977192303
  0
LINE
  5
22B
100
AcDbEntity
  8
0
100
AcDbLine
 62
7
  6
CONTINUOUS
 10
38.0741360236
 20
64.7242788592
 11
38.3366068968
 21
64.2094831577
  0
LINE
  5
22C
100
AcDbEntity
  8
0
100
AcDbLine
 62
7
  6
CONTINUOUS
 10
80.4340943656
 20
139.7406524457
 11
81.1407190272
 21
140.1491732454
  0
LINE
  5
22D
100
AcDbEntity
  8
0
100
AcDbLine
 62
7
  6
CONTINUOUS
 10
78.880582788
 20
140.899905377
 11
78.6533752685
 21
140.7687278375
  0
LINE
  5
22E
100
AcDbEntity
  8
0
100
AcDbLine
 62
7
  6
CONTINUOUS
 10
48.7251166686
 20
122.9123934125
 11
47.1694882267
 21
122.0142562739
  0
LINE
  5
22F
100
AcDbEntity
  8
0
100
AcDbLine
 62
7
  6
CONTINUOUS
 10
44.2923691426
 20
119.9158785969
 11
46.6689790033
 21
121.2880067492
  0
LINE
  5
230
100
AcDbEntity
  8
0
100
AcDbLine
 62
7
  6
CONTINUOUS
 10
80.8104976712
 20
140.3398223212
 11
87.1715906005
 21
144.012379114
  0
LINE
  5
231
100
AcDbEntity
  8
0
100
AcDbLine
 62
7
  6
CONTINUOUS
 10
47.392383303
 20
120.849289974
 11
46.6872245388
 21
120.4421688018
  0
LINE
  5
232
100
AcDbEntity
  8
0
100
AcDbLine
 62
7
  6
CONTINUOUS
 10
48.6488304059
 20
120.7958312722
 11
48.0669093412
 21
120.4598609943
  0
LINE
  5
233
100
AcDbEntity
  8
0
100
AcDbLine
 62
7
  6
CONTINUOUS
 10
48.7720620126
 20
120.0527430845
 11
48.0669093412
 21
119.64562543
  0
LINE
  5
234
100
AcDbEntity
  8
0
100
AcDbLine
 62
7
  6
CONTINUOUS
 10
52.0964402479
 20
121.8088111765
 11
48.9140144596
 21
119.9714477585
  0
LINE
  5
235
100
AcDbEntity
  8
0
100
AcDbLine
 62
7
  6
CONTINUOUS
 10
48.8275175635
 20
119.4128252099
 11
48.0669093412
 21
118.9736904693
  0
LINE
  5
236
100
AcDbEntity
  8
0
100
AcDbLine
 62
7
  6
CONTINUOUS
 10
48.8033230786
 20
119.2565700675
 11
48.7720559201
 21
119.2385180728
  0
LINE
  5
237
100
AcDbEntity
  8
0
100
AcDbLine
 62
7
  6
CONTINUOUS
 10
83.2034335255
 20
138.1418099068
 11
88.7215836613
 21
141.327696356
  0
LINE
  5
238
100
AcDbEntity
  8
0
100
AcDbLine
 62
7
  6
CONTINUOUS
 10
78.9128501053
 20
140.6189233597
 11
79.6204331181
 21
141.0268908676
  0
LINE
  5
239
100
AcDbEntity
  8
0
100
AcDbLine
 62
7
  6
CONTINUOUS
 10
55.247367929
 20
63.1340568424
 11
63.0990484799
 21
62.2495319586
  0
LINE
  5
23A
100
AcDbEntity
  8
0
100
AcDbLine
 62
7
  6
CONTINUOUS
 10
72.4260512604
 20
51.0798014355
 11
79.6739259431
 21
46.8953337016
  0
LINE
  5
23B
100
AcDbEntity
  8
0
100
AcDbLine
 62
7
  6
CONTINUOUS
 10
79.6577677461
 20
47.1518225982
 11
72.6401013049
 21
51.2033825486
  0
LINE
  5
23C
100
AcDbEntity
  8
0
100
AcDbLine
 62
7
  6
CONTINUOUS
 10
46.2502338415
 20
65.5061548813
 11
45.2671618335
 21
67.4342973755
  0
LINE
  5
23D
100
AcDbEntity
  8
0
100
AcDbLine
 62
7
  6
CONTINUOUS
 10
38.9251851258
 20
79.8730960465
 11
38.0022608385
 21
81.6832681628
  0
LINE
  5
23E
100
AcDbEntity
  8
0
100
AcDbLine
 62
7
  6
CONTINUOUS
 10
37.8600206911
 20
93.2500054341
 11
41.0198773842
 21
100.4920063608
  0
LINE
  5
23F
100
AcDbEntity
  8
0
100
AcDbLine
 62
7
  6
CONTINUOUS
 10
49.2421372186
 20
117.0581933152
 11
49.4578364504
 21
117.1827265814
  0
LINE
  5
240
100
AcDbEntity
  8
0
100
AcDbLine
 62
7
  6
CONTINUOUS
 10
49.5557258129
 20
117.8460291122
 11
49.5455699116
 21
117.7778006996
  0
LINE
  5
241
100
AcDbEntity
  8
0
100
AcDbLine
 62
7
  6
CONTINUOUS
 10
46.3506926259
 20
105.7876003265
 11
44.7634539742
 21
104.8712131338
  0
LINE
  5
242
100
AcDbEntity
  8
0
100
AcDbLine
 62
7
  6
CONTINUOUS
 10
51.1419068385
 20
56.1825210827
 11
51.1202211707
 21
56.3025789233
  0
LINE
  5
243
100
AcDbEntity
  8
0
100
AcDbLine
 62
7
  6
CONTINUOUS
 10
50.6165813553
 20
59.8490581083
 11
51.247936251
 21
56.3253870689
  0
LINE
  5
244
100
AcDbEntity
  8
0
100
AcDbLine
 62
7
  6
CONTINUOUS
 10
47.853781897
 20
122.4093310504
 11
47.853781897
 21
124.2582557036
  0
LINE
  5
245
100
AcDbEntity
  8
0
100
AcDbLine
 62
7
  6
CONTINUOUS
 10
48.0669093412
 20
118.9736904693
 11
48.0669093412
 21
119.64562543
  0
LINE
  5
246
100
AcDbEntity
  8
0
100
AcDbLine
 62
7
  6
CONTINUOUS
 10
48.0669093412
 20
120.4598609943
 11
48.0669093412
 21
121.131795955
  0
LINE
  5
247
100
AcDbEntity
  8
0
100
AcDbLine
 62
7
  6
CONTINUOUS
 10
48.7720559201
 20
120.7246885979
 11
48.7720559201
 21
120.0527536372
  0
LINE
  5
248
100
AcDbEntity
  8
0
100
AcDbLine
 62
7
  6
CONTINUOUS
 10
48.7720559201
 20
119.2385180728
 11
48.7720559201
 21
119.0527450499
  0
LINE
  5
249
100
AcDbEntity
  8
0
100
AcDbLine
 62
7
  6
CONTINUOUS
 10
65.5315250257
 20
114.0522368406
 11
62.3490992374
 21
112.2148734226
  0
LINE
  5
24A
100
AcDbEntity
  8
0
100
AcDbLine
 62
7
  6
CONTINUOUS
 10
96.5583259167
 20
130.693886514
 11
96.3311183972
 21
130.5627089745
  0
LINE
  5
24B
100
AcDbEntity
  8
0
100
AcDbLine
 62
7
  6
CONTINUOUS
 10
97.29673872
 20
130.8217019423
 11
96.5896348828
 21
130.4134577885
  0
LINE
  5
24C
100
AcDbEntity
  8
0
100
AcDbLine
 62
7
  6
CONTINUOUS
 10
66.4028597973
 20
112.7063745495
 11
64.8472313554
 21
111.8082374109
  0
LINE
  5
24D
100
AcDbEntity
  8
0
100
AcDbLine
 62
7
  6
CONTINUOUS
 10
61.9701122713
 20
109.7098597339
 11
64.346722132
 21
111.0819878862
  0
LINE
  5
24E
100
AcDbEntity
  8
0
100
AcDbLine
 62
7
  6
CONTINUOUS
 10
98.4882407998
 20
130.1338034582
 11
104.8493337291
 21
133.806360251
  0
LINE
  5
24F
100
AcDbEntity
  8
0
100
AcDbLine
 62
7
  6
CONTINUOUS
 10
65.0701264317
 20
110.643271111
 11
64.3649676674
 21
110.2361499388
  0
LINE
  5
250
100
AcDbEntity
  8
0
100
AcDbLine
 62
7
  6
CONTINUOUS
 10
98.1127958455
 20
129.5340802908
 11
98.8198996827
 21
129.9423244447
  0
LINE
  5
251
100
AcDbEntity
  8
0
100
AcDbLine
 62
7
  6
CONTINUOUS
 10
66.3265735345
 20
110.5898124092
 11
65.7446524698
 21
110.2538421313
  0
LINE
  5
252
100
AcDbEntity
  8
0
100
AcDbLine
 62
7
  6
CONTINUOUS
 10
59.58637769
 20
51.5102687659
 11
59.6272235402
 21
51.2836320285
  0
LINE
  5
253
100
AcDbEntity
  8
0
100
AcDbLine
 62
7
  6
CONTINUOUS
 10
66.4498051413
 20
109.8467242215
 11
65.7446524698
 21
109.439606567
  0
LINE
  5
254
100
AcDbEntity
  8
0
100
AcDbLine
 62
7
  6
CONTINUOUS
 10
69.7741833766
 20
111.6027923135
 11
66.5917575882
 21
109.7654288955
  0
LINE
  5
255
100
AcDbEntity
  8
0
100
AcDbLine
 62
7
  6
CONTINUOUS
 10
66.5052606922
 20
109.2068063469
 11
65.7446524698
 21
108.7676716063
  0
LINE
  5
256
100
AcDbEntity
  8
0
100
AcDbLine
 62
7
  6
CONTINUOUS
 10
66.4810662073
 20
109.0505512045
 11
66.4497990487
 21
109.0324992098
  0
LINE
  5
257
100
AcDbEntity
  8
0
100
AcDbLine
 62
7
  6
CONTINUOUS
 10
100.8811766542
 20
127.9357910438
 11
106.39932679
 21
131.121677493
  0
LINE
  5
258
100
AcDbEntity
  8
0
100
AcDbLine
 62
7
  6
CONTINUOUS
 10
66.9198803473
 20
106.8521744522
 11
67.1355795791
 21
106.9767077184
  0
LINE
  5
259
100
AcDbEntity
  8
0
100
AcDbLine
 62
7
  6
CONTINUOUS
 10
38.0022608385
 20
81.6832681628
 11
43.119461741
 21
85.4172110379
  0
LINE
  5
25A
100
AcDbEntity
  8
0
100
AcDbLine
 62
7
  6
CONTINUOUS
 10
37.1204725892
 20
85.5089998104
 11
15.3414572351
 21
72.9349544899
  0
LINE
  5
25B
100
AcDbEntity
  8
0
100
AcDbLine
 62
7
  6
CONTINUOUS
 10
19.7531790992
 20
72.6182117354
 11
17.2471138682
 21
71.1713429363
  0
LINE
  5
25C
100
AcDbEntity
  8
0
100
AcDbLine
 62
7
  6
CONTINUOUS
 10
30.0886338937
 20
80.3865964392
 11
16.8211350287
 21
73.5061913137
  0
LINE
  5
25D
100
AcDbEntity
  8
0
100
AcDbLine
 62
7
  6
CONTINUOUS
 10
73.4252441478
 20
82.4388883033
 11
70.0311174671
 21
84.398443925
  0
LINE
  5
25E
100
AcDbEntity
  8
0
100
AcDbLine
 62
7
  6
CONTINUOUS
 10
70.947919336
 20
84.9277735025
 11
72.6449826764
 21
83.9479956916
  0
LINE
  5
25F
100
AcDbEntity
  8
0
100
AcDbLine
 62
7
  6
CONTINUOUS
 10
75.1700700447
 20
82.629762629
 11
74.46295421
 21
83.0380069108
  0
LINE
  5
260
100
AcDbEntity
  8
0
100
AcDbLine
 62
7
  6
CONTINUOUS
 10
65.5315250257
 20
112.2033121874
 11
65.5315250257
 21
114.0522368406
  0
LINE
  5
261
100
AcDbEntity
  8
0
100
AcDbLine
 62
7
  6
CONTINUOUS
 10
65.7446524698
 20
108.7676716063
 11
65.7446524698
 21
109.439606567
  0
LINE
  5
262
100
AcDbEntity
  8
0
100
AcDbLine
 62
7
  6
CONTINUOUS
 10
65.7446524698
 20
110.2538421313
 11
65.7446524698
 21
110.925777092
  0
LINE
  5
263
100
AcDbEntity
  8
0
100
AcDbLine
 62
7
  6
CONTINUOUS
 10
66.4497990487
 20
110.5186697349
 11
66.4497990487
 21
109.8467347742
  0
LINE
  5
264
100
AcDbEntity
  8
0
100
AcDbLine
 62
7
  6
CONTINUOUS
 10
66.4497990487
 20
109.0324992098
 11
66.4497990487
 21
108.8467261869
  0
LINE
  5
265
100
AcDbEntity
  8
0
100
AcDbLine
 62
7
  6
CONTINUOUS
 10
67.2334689416
 20
107.6400102492
 11
67.2233130403
 21
107.5717818366
  0
LINE
  5
266
100
AcDbEntity
  8
0
100
AcDbLine
 62
7
  6
CONTINUOUS
 10
73.0005206991
 20
101.9529592845
 11
72.785156244
 21
101.8286193006
  0
LINE
  5
267
100
AcDbEntity
  8
0
100
AcDbLine
 62
7
  6
CONTINUOUS
 10
39.4605660225
 20
82.2462539864
 11
64.2705077627
 21
96.5701950264
  0
LINE
  5
268
100
AcDbEntity
  8
0
100
AcDbLine
 62
7
  6
CONTINUOUS
 10
73.077257473
 20
101.1807676547
 11
71.6423719847
 21
100.3523410768
  0
LINE
  5
269
100
AcDbEntity
  8
0
100
AcDbLine
 62
7
  6
CONTINUOUS
 10
68.0239056249
 20
96.6096267558
 11
68.2378604011
 21
96.7331528661
  0
LINE
  5
26A
100
AcDbEntity
  8
0
100
AcDbLine
 62
7
  6
CONTINUOUS
 10
39.6109820261
 20
79.9284629691
 11
39.7357432442
 21
80.000493462
  0
LINE
  5
26B
100
AcDbEntity
  8
0
100
AcDbLine
 62
7
  6
CONTINUOUS
 10
77.1017571049
 20
99.5851629083
 11
76.8863926498
 21
99.4608229244
  0
LINE
  5
26C
100
AcDbEntity
  8
0
100
AcDbLine
 62
7
  6
CONTINUOUS
 10
76.4713841537
 20
99.221212033
 11
75.0364986654
 21
98.3927854551
  0
LINE
  5
26D
100
AcDbEntity
  8
0
100
AcDbLine
 62
7
  6
CONTINUOUS
 10
31.0516863218
 20
78.4977192303
 11
17.7937471653
 21
71.5985642268
  0
LINE
  5
26E
100
AcDbEntity
  8
0
100
AcDbLine
 62
7
  6
CONTINUOUS
 10
55.1355922131
 20
91.8821509322
 11
37.1429344169
 21
84.9359976993
  0
LINE
  5
26F
100
AcDbEntity
  8
0
100
AcDbLine
 62
7
  6
CONTINUOUS
 10
43.119461741
 20
85.4172110379
 11
30.0886338937
 21
80.3865964392
  0
LINE
  5
270
100
AcDbEntity
  8
0
100
AcDbLine
 62
7
  6
CONTINUOUS
 10
72.7703157039
 20
85.5143334057
 11
72.3670929716
 21
85.7471288921
  0
LINE
  5
271
100
AcDbEntity
  8
0
100
AcDbLine
 62
7
  6
CONTINUOUS
 10
108.0639842243
 20
67.1236944046
 11
108.3821464623
 21
66.9400075064
  0
LINE
  5
272
100
AcDbEntity
  8
0
100
AcDbLine
 62
7
  6
CONTINUOUS
 10
108.13160685
 20
67.1663035884
 11
108.4528586567
 21
66.9808329672
  0
LINE
  5
273
100
AcDbEntity
  8
0
100
AcDbLine
 62
7
  6
CONTINUOUS
 10
114.8521810615
 20
66.1439513182
 11
110.6064702802
 21
68.5951581269
  0
LWPOLYLINE
  5
274
100
AcDbEntity
  8
0
100
AcDbPolyline
 62
7
  6
CONTINUOUS
 90
3
 70
0
 10
72.5814670656
 20
73.2151195053
 10
71.8848108364
 20
79.9963398042
 10
70.6857963331
 20
84.0204734563
  0
LINE
  5
275
100
AcDbEntity
  8
0
100
AcDbLine
 62
7
  6
CONTINUOUS
 10
70.947919336
 20
84.9277735025
 11
70.9533832883
 21
85.0063184463
  0
LINE
  5
276
100
AcDbEntity
  8
0
100
AcDbLine
 62
7
  6
CONTINUOUS
 10
70.947919336
 20
84.9277735025
 11
70.9542370577
 21
85.0067286346
  0
LINE
  5
277
100
AcDbEntity
  8
black
100
AcDbLine
 62
7
  6
CONTINUOUS
 10
18.9758506311
 20
64.7484718378
 11
18.4945409321
 21
64.4705892122
  0
LINE
  5
278
100
AcDbEntity
  8
0
100
AcDbLine
 62
7
  6
CONTINUOUS
 10
81.9713941102
 20
100.8861924847
 11
114.8521810615
 21
119.8698103653
  0
LINE
  5
279
100
AcDbEntity
  8
0
100
AcDbLine
 62
7
  6
CONTINUOUS
 10
69.5552047089
 20
93.4522715635
 11
69.7688257971
 21
93.5756050201
  0
LINE
  5
27A
100
AcDbEntity
  8
0
100
AcDbLine
 62
7
  6
CONTINUOUS
 10
25.0461862497
 20
65.1252235078
 11
24.9754758659
 21
65.0843990924
  0
LINE
  5
27B
100
AcDbEntity
  8
0
100
AcDbLine
 62
7
  6
CONTINUOUS
 10
18.9590266131
 20
63.5867849361
 11
18.9944408681
 21
63.6047317982
  0
LINE
  5
27C
100
AcDbEntity
  8
0
100
AcDbLine
 62
7
  6
CONTINUOUS
 10
23.3846510709
 20
68.1920114262
 11
23.3052099683
 21
68.1535049454
  0
LINE
  5
27D
100
AcDbEntity
  8
0
100
AcDbLine
 62
7
  6
CONTINUOUS
 10
38.1994122979
 20
81.2965863087
 11
31.0516863218
 21
78.4977192303
  0
LINE
  5
27E
100
AcDbEntity
  8
0
100
AcDbLine
 62
7
  6
CONTINUOUS
 10
39.635723153
 20
80.1513246046
 11
38.9251851258
 21
79.8730960465
  0
LINE
  5
27F
100
AcDbEntity
  8
0
100
AcDbLine
 62
7
  6
CONTINUOUS
 10
17.7937471653
 20
71.5985642268
 11
17.0405641931
 21
71.3036369965
  0
LINE
  5
280
100
AcDbEntity
  8
0
100
AcDbLine
 62
7
  6
CONTINUOUS
 10
17.2471138682
 20
71.1713429363
 11
39.6109820261
 21
79.9284629691
  0
LINE
  5
281
100
AcDbEntity
  8
0
100
AcDbLine
 62
7
  6
CONTINUOUS
 10
15.3414572351
 20
72.9349544899
 11
16.8211350287
 21
73.5061913136
  0
LINE
  5
282
100
AcDbEntity
  8
0
100
AcDbLine
 62
7
  6
CONTINUOUS
 10
38.0022608385
 20
81.6832681628
 11
39.4605660225
 21
82.2462539864
  0
LINE
  5
283
100
AcDbEntity
  8
0
100
AcDbLine
 62
7
  6
CONTINUOUS
 10
76.5638766427
 20
46.2812611357
 11
76.5638766427
 21
46.9367918476
  0
LINE
  5
284
100
AcDbEntity
  8
0
100
AcDbLine
 62
7
  6
CONTINUOUS
 10
77.2681560171
 20
46.5301851599
 11
77.2681560171
 21
45.874654448
  0
LINE
  5
285
100
AcDbEntity
  8
0
100
AcDbLine
 62
7
  6
CONTINUOUS
 10
45.2671618335
 20
67.4342973755
 11
45.5871537019
 21
67.6661848457
  0
LINE
  5
286
100
AcDbEntity
  8
0
100
AcDbLine
 62
7
  6
CONTINUOUS
 10
23.9776130445
 20
59.2044402113
 11
23.4038633733
 21
58.8731876615
  0
LINE
  5
287
100
AcDbEntity
  8
0
100
AcDbLine
 62
7
  6
CONTINUOUS
 10
72.3670929716
 20
85.7471288921
 11
70.947919336
 21
84.9277735025
  0
LINE
  5
288
100
AcDbEntity
  8
0
100
AcDbLine
 62
7
  6
CONTINUOUS
 10
24.9632313469
 20
59.5903831851
 11
24.135723873
 21
59.1597655557
  0
LINE
  5
289
100
AcDbEntity
  8
0
100
AcDbLine
 62
7
  6
CONTINUOUS
 10
39.6549354554
 20
70.83250084
 11
39.734376558
 21
70.8710073208
  0
LINE
  5
28A
100
AcDbEntity
  8
0
100
AcDbLine
 62
7
  6
CONTINUOUS
 10
38.0641106603
 20
73.9401131737
 11
23.3846510709
 21
68.1920114262
  0
LINE
  5
28B
100
AcDbEntity
  8
0
100
AcDbLine
 62
7
  6
CONTINUOUS
 10
74.0457076133
 20
97.8207384578
 11
72.348644273
 21
98.8005162687
  0
LINE
  5
28C
100
AcDbEntity
  8
0
100
AcDbLine
 62
7
  6
CONTINUOUS
 10
71.6423719847
 20
100.3523410768
 11
75.0364986654
 21
98.3927854551
  0
LINE
  5
28D
100
AcDbEntity
  8
0
100
AcDbLine
 62
7
  6
CONTINUOUS
 10
76.4713841537
 20
99.221212033
 11
73.077257473
 21
101.1807676547
  0
LINE
  5
28E
100
AcDbEntity
  8
0
100
AcDbLine
 62
7
  6
CONTINUOUS
 10
72.785156244
 20
101.8286193006
 11
76.8863926498
 21
99.4608229244
  0
LINE
  5
28F
100
AcDbEntity
  8
0
100
AcDbLine
 62
7
  6
CONTINUOUS
 10
77.1017571049
 20
99.5851629083
 11
73.0005206991
 21
101.9529592845
  0
LINE
  5
290
100
AcDbEntity
  8
0
100
AcDbLine
 62
7
  6
CONTINUOUS
 10
45.9570072421
 20
67.8331322785
 11
45.8379247951
 21
67.764380406
  0
LINE
  5
291
100
AcDbEntity
  8
0
100
AcDbLine
 62
7
  6
CONTINUOUS
 10
74.8437305888
 20
83.2578469433
 11
73.4252441478
 21
82.4388883033
  0
LINE
  5
292
100
AcDbEntity
  8
0
100
AcDbLine
 62
7
  6
CONTINUOUS
 10
75.3828093094
 20
82.7525869675
 11
75.1700700447
 21
82.629762629
  0
LINE
  5
293
100
AcDbEntity
  8
0
100
AcDbLine
 62
7
  6
CONTINUOUS
 10
71.8767079491
 20
80.0235347228
 11
47.7034239397
 21
66.0671660011
  0
LINE
  5
294
100
AcDbEntity
  8
0
100
AcDbLine
 62
7
  6
CONTINUOUS
 10
114.8521810615
 20
103.0498605724
 11
108.0639842243
 21
99.1307166952
  0
LINE
  5
295
100
AcDbEntity
  8
0
100
AcDbLine
 62
7
  6
CONTINUOUS
 10
25.0691080318
 20
57.3290780321
 11
38.3366068968
 21
64.2094831577
  0
LINE
  5
296
100
AcDbEntity
  8
0
100
AcDbLine
 62
7
  6
CONTINUOUS
 10
39.7256458391
 20
70.8733252554
 11
25.0461862497
 21
65.1252235078
  0
LINE
  5
297
100
AcDbEntity
  8
0
100
AcDbLine
 62
7
  6
CONTINUOUS
 10
24.9754758659
 20
65.0843990924
 11
39.6549354554
 21
70.83250084
  0
LINE
  5
298
100
AcDbEntity
  8
0
100
AcDbLine
 62
7
  6
CONTINUOUS
 10
80.8758707809
 20
99.7637771896
 11
67.0518756543
 21
107.7448839405
  0
LINE
  5
299
100
AcDbEntity
  8
0
100
AcDbLine
 62
7
  6
CONTINUOUS
 10
61.3949978531
 20
111.0108099766
 11
49.3741325256
 21
117.9509028035
  0
LINE
  5
29A
100
AcDbEntity
  8
0
100
AcDbLine
 62
7
  6
CONTINUOUS
 10
43.7172547244
 20
121.2168288396
 11
29.8932595978
 21
129.1979355905
  0
LINE
  5
29B
100
AcDbEntity
  8
0
100
AcDbLine
 62
7
  6
CONTINUOUS
 10
66.382155356
 20
108.3996174698
 11
65.7446524698
 21
108.7676716063
  0
LINE
  5
29C
100
AcDbEntity
  8
0
100
AcDbLine
 62
7
  6
CONTINUOUS
 10
48.7044122274
 20
118.6056363328
 11
48.0669093412
 21
118.9736904693
  0
LINE
  5
29D
100
AcDbEntity
  8
0
100
AcDbLine
 62
7
  6
CONTINUOUS
 10
65.7446524698
 20
109.439606567
 11
64.3649676674
 21
110.2361499388
  0
LINE
  5
29E
100
AcDbEntity
  8
0
100
AcDbLine
 62
7
  6
CONTINUOUS
 10
48.7981915307
 20
119.2234290124
 11
48.7720559201
 21
119.2385180728
  0
LINE
  5
29F
100
AcDbEntity
  8
0
100
AcDbLine
 62
7
  6
CONTINUOUS
 10
48.0669093412
 20
119.64562543
 11
46.6872245388
 21
120.4421688018
  0
LINE
  5
2A0
100
AcDbEntity
  8
0
100
AcDbLine
 62
7
  6
CONTINUOUS
 10
66.4497990487
 20
109.0324992098
 11
66.4759346593
 21
109.0174101494
  0
LINE
  5
2A1
100
AcDbEntity
  8
0
100
AcDbLine
 62
7
  6
CONTINUOUS
 10
48.0669093412
 20
120.4598609943
 11
46.6872245388
 21
121.2564043662
  0
LINE
  5
2A2
100
AcDbEntity
  8
0
100
AcDbLine
 62
7
  6
CONTINUOUS
 10
64.3649676674
 20
111.0503855032
 11
65.7446524698
 21
110.2538421313
  0
LINE
  5
2A3
100
AcDbEntity
  8
0
100
AcDbLine
 62
7
  6
CONTINUOUS
 10
29.2917195867
 20
131.3001286964
 11
44.6713561087
 21
122.4208922856
  0
LINE
  5
2A4
100
AcDbEntity
  8
0
100
AcDbLine
 62
7
  6
CONTINUOUS
 10
48.7720559201
 20
120.0527536372
 11
62.3490992374
 21
112.2148734226
  0
LINE
  5
2A5
100
AcDbEntity
  8
0
100
AcDbLine
 62
7
  6
CONTINUOUS
 10
66.4497990487
 20
109.8467347742
 11
81.9713941102
 21
100.8861924847
  0
LINE
  5
2A6
100
AcDbEntity
  8
0
100
AcDbLine
 62
7
  6
CONTINUOUS
 10
66.4497990487
 20
110.1755733225
 11
66.0294390777
 21
110.4182627746
  0
LINE
  5
2A7
100
AcDbEntity
  8
0
100
AcDbLine
 62
7
  6
CONTINUOUS
 10
48.7720559201
 20
120.3815921855
 11
48.351695949
 21
120.6242816376
  0
LINE
  5
2A8
100
AcDbEntity
  8
0
100
AcDbLine
 62
7
  6
CONTINUOUS
 10
48.0669093412
 20
121.131795955
 11
48.7720559201
 21
120.7246885979
  0
LINE
  5
2A9
100
AcDbEntity
  8
0
100
AcDbLine
 62
7
  6
CONTINUOUS
 10
65.7446524698
 20
110.925777092
 11
66.4497990487
 21
110.5186697349
  0
LINE
  5
2AA
100
AcDbEntity
  8
0
100
AcDbLine
 62
7
  6
CONTINUOUS
 10
49.9131396901
 20
61.1885990841
 11
49.6983752148
 21
61.0646054966
  0
LINE
  5
2AB
100
AcDbEntity
  8
0
100
AcDbLine
 62
7
  6
CONTINUOUS
 10
45.8379247951
 20
67.764380406
 11
23.4740566371
 21
59.0072603733
  0
LINE
  5
2AC
100
AcDbEntity
  8
0
100
AcDbLine
 62
7
  6
CONTINUOUS
 10
23.4038633733
 20
58.8731876615
 11
24.135723873
 21
59.1597655557
  0
LINE
  5
2AD
100
AcDbEntity
  8
0
100
AcDbLine
 62
7
  6
CONTINUOUS
 10
45.2671618335
 20
67.4342973755
 11
45.9990223332
 21
67.7208752697
  0
LINE
  5
2AE
100
AcDbEntity
  8
0
100
AcDbLine
 62
7
  6
CONTINUOUS
 10
45.501139828
 20
66.9753860136
 11
38.3366068968
 21
64.2094831577
  0
LINE
  5
2AF
100
AcDbEntity
  8
0
100
AcDbLine
 62
7
  6
CONTINUOUS
 10
47.7034239397
 20
66.0671660011
 11
46.2502338415
 21
65.5061548813
  0
LINE
  5
2B0
100
AcDbEntity
  8
0
100
AcDbLine
 62
7
  6
CONTINUOUS
 10
25.0691080317
 20
57.3290780321
 11
23.5945453239
 21
56.7598159122
  0
LINE
  5
2B1
100
AcDbEntity
  8
0
100
AcDbLine
 62
7
  6
CONTINUOUS
 10
69.7741833766
 20
111.6027923135
 11
65.5315250257
 21
114.0522368406
  0
LINE
  5
2B2
100
AcDbEntity
  8
0
100
AcDbLine
 62
7
  6
CONTINUOUS
 10
52.0964402479
 20
121.8088111765
 11
47.853781897
 21
124.2582557036
  0
LINE
  5
2B3
100
AcDbEntity
  8
0
100
AcDbLine
 62
7
  6
CONTINUOUS
 10
51.3186484455
 20
56.284562288
 11
51.1419068385
 21
56.1825210827
  0
LINE
  5
2B4
100
AcDbEntity
  8
0
100
AcDbLine
 62
7
  6
CONTINUOUS
 10
69.6628312545
 20
63.8212463673
 11
68.7633465291
 21
63.3019317188
  0
LINE
  5
2B5
100
AcDbEntity
  8
0
100
AcDbLine
 62
7
  6
CONTINUOUS
 10
59.8126758421
 20
55.4732285208
 11
59.5979113668
 21
55.3492349334
  0
LINE
  5
2B6
100
AcDbEntity
  8
0
100
AcDbLine
 62
7
  6
CONTINUOUS
 10
60.5502377147
 20
51.0000430219
 11
60.3343332654
 21
50.875391274
  0
LINE
  5
2B7
100
AcDbEntity
  8
0
100
AcDbLine
 62
7
  6
CONTINUOUS
 10
97.29673872
 20
130.8217019423
 11
96.558333253
 21
130.6938738003
  0
LINE
  5
2B8
100
AcDbEntity
  8
0
100
AcDbLine
 62
7
  6
CONTINUOUS
 10
108.0639842243
 20
99.1307166952
 11
108.0639842243
 21
62.224807441
  0
LINE
  5
2B9
100
AcDbEntity
  8
0
100
AcDbLine
 62
7
  6
CONTINUOUS
 10
72.6401013049
 20
51.2033825486
 11
72.4260512604
 21
51.0798014355
  0
LINE
  5
2BA
100
AcDbEntity
  8
0
100
AcDbLine
 62
7
  6
CONTINUOUS
 10
108.0639842243
 20
68.3564425897
 11
108.1842198768
 21
68.4258602617
  0
LINE
  5
2BB
100
AcDbEntity
  8
0
100
AcDbLine
 62
7
  6
CONTINUOUS
 10
108.0639842243
 20
67.6345564774
 11
109.8564736379
 21
68.6694445454
  0
LINE
  5
2BC
100
AcDbEntity
  8
0
100
AcDbLine
 62
7
  6
CONTINUOUS
 10
110.6064702802
 20
68.5951581269
 11
108.13160685
 21
67.1663035884
  0
LINE
  5
2BD
100
AcDbEntity
  8
0
100
AcDbLine
 62
7
  6
CONTINUOUS
 10
110.7919693465
 20
68.4880626139
 11
117.0823319742
 21
72.1197834918
  0
LINE
  5
2BE
100
AcDbEntity
  8
0
100
AcDbLine
 62
7
  6
CONTINUOUS
 10
108.4528586567
 20
66.9808329672
 11
108.0639842243
 21
66.7563175491
  0
LINE
  5
2BF
100
AcDbEntity
  8
0
100
AcDbLine
 62
7
  6
CONTINUOUS
 10
75.8879615865
 20
48.1402569589
 11
75.1836700418
 21
47.7336364731
  0
LINE
  5
2C0
100
AcDbEntity
  8
0
100
AcDbLine
 62
7
  6
CONTINUOUS
 10
76.8972825181
 20
47.1292826705
 11
76.5638766427
 21
46.9367918476
  0
LINE
  5
2C1
100
AcDbEntity
  8
0
100
AcDbLine
 62
7
  6
CONTINUOUS
 10
77.2246543253
 20
46.6627590314
 11
76.5638766427
 21
46.2812611357
  0
LINE
  5
2C2
100
AcDbEntity
  8
0
100
AcDbLine
 62
7
  6
CONTINUOUS
 10
77.3034043738
 20
46.5505356866
 11
77.2681560171
 21
46.5301851599
  0
LINE
  5
2C3
100
AcDbEntity
  8
0
100
AcDbLine
 62
7
  6
CONTINUOUS
 10
79.6200746972
 20
141.0275229998
 11
78.8805900862
 21
140.8998927293
  0
LINE
  5
2C4
100
AcDbEntity
  8
0
100
AcDbLine
 62
7
  6
CONTINUOUS
 10
62.1725065381
 20
150.283746577
 11
78.9128501053
 21
140.6189233597
  0
LINE
  5
2C5
100
AcDbEntity
  8
0
100
AcDbLine
 62
7
  6
CONTINUOUS
 10
80.4340943656
 20
139.7406524457
 11
96.5896348828
 21
130.4134577885
  0
LINE
  5
2C6
100
AcDbEntity
  8
0
100
AcDbLine
 62
7
  6
CONTINUOUS
 10
98.1127958455
 20
129.5340802908
 11
114.8521810615
 21
119.8698103653
  0
LINE
  5
2C7
100
AcDbEntity
  8
0
100
AcDbLine
 62
7
  6
CONTINUOUS
 10
114.8521810615
 20
66.1439513182
 11
114.8521810615
 21
56.1826218292
  0
LINE
  5
2C8
100
AcDbEntity
  8
0
100
AcDbLine
 62
7
  6
CONTINUOUS
 10
114.8521810615
 20
103.0498605724
 11
114.8521810615
 21
119.8698103653
  0
LINE
  5
2C9
100
AcDbEntity
  8
0
100
AcDbLine
 62
7
  6
CONTINUOUS
 10
113.8920090381
 20
66.6982943535
 11
118.632325035
 21
69.4351007338
  0
LINE
  5
2CA
100
AcDbEntity
  8
0
100
AcDbLine
 62
7
  6
CONTINUOUS
 10
108.0639842243
 20
62.224807441
 11
114.8521810615
 21
66.1439513182
  0
LINE
  5
2CB
100
AcDbEntity
  8
0
100
AcDbLine
 62
7
  6
CONTINUOUS
 10
79.6204331181
 20
141.0268908676
 11
81.1407190272
 21
140.1491732454
  0
LINE
  5
2CC
100
AcDbEntity
  8
0
100
AcDbLine
 62
7
  6
CONTINUOUS
 10
97.29673872
 20
130.8217019423
 11
98.8198996827
 21
129.9423244447
  0
LINE
  5
2CD
100
AcDbEntity
  8
0
100
AcDbLine
 62
7
  6
CONTINUOUS
 10
114.8521810615
 20
56.1826218292
 11
81.9713941102
 21
37.1990039486
  0
ARC
  5
2CE
100
AcDbEntity
  8
0
100
AcDbCircle
 62
7
  6
CONTINUOUS
 10
289.4535713312
 20
82.2987118149
 40
243.4717919051
100
AcDbArc
 50
171.098780204
 51
171.6949916569
  0
ARC
  5
2CF
100
AcDbEntity
  8
0
100
AcDbCircle
 62
7
  6
CONTINUOUS
 10
307.1313144589
 20
72.092692952
 40
243.4717919041
100
AcDbArc
 50
171.098780204
 51
171.6949916569
  0
ARC
  5
2D0
100
AcDbEntity
  8
0
100
AcDbCircle
 62
7
  6
CONTINUOUS
 10
302.2166470412
 20
74.6438066551
 40
242.7921447401
100
AcDbArc
 50
171.0979457102
 51
171.6958261508
  0
ARC
  5
2D1
100
AcDbEntity
  8
0
100
AcDbCircle
 62
7
  6
CONTINUOUS
 10
284.5389039112
 20
84.8498255183
 40
242.7921447388
100
AcDbArc
 50
171.0979457102
 51
171.6958261508
  0
ARC
  5
2D2
100
AcDbEntity
  8
0
100
AcDbCircle
 62
7
  6
CONTINUOUS
 10
282.8711210211
 20
85.3996174047
 40
241.8210999884
100
AcDbArc
 50
171.4823251202
 51
171.6961385795
  0
ARC
  5
2D3
100
AcDbEntity
  8
0
100
AcDbCircle
 62
7
  6
CONTINUOUS
 10
306.2057419479
 20
71.927672506
 40
241.8210999854
100
AcDbArc
 50
171.4823251202
 51
171.6961385795
  0
ARC
  5
2D4
100
AcDbEntity
  8
0
100
AcDbCircle
 62
7
  6
CONTINUOUS
 10
288.5279988187
 20
82.1336913691
 40
241.8210999848
100
AcDbArc
 50
171.4823251202
 51
171.6961385795
  0
ARC
  5
2D5
100
AcDbEntity
  8
0
100
AcDbCircle
 62
7
  6
CONTINUOUS
 10
300.5488641457
 20
75.1935985423
 40
241.8210999843
100
AcDbArc
 50
171.4823251202
 51
171.6961385795
  0
ARC
  5
2D6
100
AcDbEntity
  8
0
100
AcDbCircle
 62
7
  6
CONTINUOUS
 10
288.2168989987
 20
82.2858068193
 40
241.2958452974
100
AcDbArc
 50
171.5417256401
 51
171.6845536561
  0
ARC
  5
2D7
100
AcDbEntity
  8
0
100
AcDbCircle
 62
7
  6
CONTINUOUS
 10
305.894642125
 20
72.0797879567
 40
241.2958452951
100
AcDbArc
 50
171.5417256401
 51
171.6845536561
  0
ARC
  5
2D8
100
AcDbEntity
  8
0
100
AcDbCircle
 62
7
  6
CONTINUOUS
 10
308.3586195223
 20
68.9772831835
 40
237.8530363179
100
AcDbArc
 50
172.0611517177
 51
172.276308349
  0
ARC
  5
2D9
100
AcDbEntity
  8
0
100
AcDbCircle
 62
7
  6
CONTINUOUS
 10
218.1364703249
 20
69.2756967965
 40
146.8421493712
100
AcDbArc
 50
187.1180832311
 51
190.228437899
  0
ARC
  5
2DA
100
AcDbEntity
  8
0
100
AcDbCircle
 62
7
  6
CONTINUOUS
 10
191.7312250756
 20
82.1465455423
 40
143.5889223989
100
AcDbArc
 50
188.4427721089
 51
190.2520525409
  0
ARC
  5
2DB
100
AcDbEntity
  8
0
100
AcDbCircle
 62
7
  6
CONTINUOUS
 10
201.5655613252
 20
76.5487753914
 40
143.311057559
100
AcDbArc
 50
188.4566775157
 51
190.2692806717
  0
ARC
  5
2DC
100
AcDbEntity
  8
0
100
AcDbCircle
 62
7
  6
CONTINUOUS
 10
200.3718846112
 20
76.7452472898
 40
143.0292386199
100
AcDbArc
 50
188.7421560408
 51
190.1620202989
  0
ARC
  5
2DD
100
AcDbEntity
  8
0
100
AcDbCircle
 62
7
  6
CONTINUOUS
 10
200.4147804434
 20
76.2310171403
 40
142.35673305
100
AcDbArc
 50
188.4349412051
 51
190.2598834447
  0
ARC
  5
2DE
100
AcDbEntity
  8
0
100
AcDbCircle
 62
7
  6
CONTINUOUS
 10
190.8354710003
 20
81.4693151706
 40
141.9637828754
100
AcDbArc
 50
188.7368948002
 51
190.211120052
  0
ARC
  5
2DF
100
AcDbEntity
  8
0
100
AcDbCircle
 62
7
  6
CONTINUOUS
 10
51.7733631301
 20
80.9768851034
 40
35.963897968
100
AcDbArc
 50
217.8098187006
 51
217.9234384326
  0
ARC
  5
2E0
100
AcDbEntity
  8
0
100
AcDbCircle
 62
7
  6
CONTINUOUS
 10
48.041827073
 20
80.1192284857
 40
32.2303110977
100
AcDbArc
 50
195.8737553832
 51
196.210424301
  0
ARC
  5
2E1
100
AcDbEntity
  8
0
100
AcDbCircle
 62
7
  6
CONTINUOUS
 10
15.0485524439
 20
58.9198137602
 40
32.177480791
100
AcDbArc
 50
15.8736074622
 51
16.0793248854
  0
ARC
  5
2E2
100
AcDbEntity
  8
0
100
AcDbCircle
 62
7
  6
CONTINUOUS
 10
48.2712365276
 20
73.3914930094
 40
24.3108703346
100
AcDbArc
 50
355.8005716422
 51
359.5843198571
  0
ARC
  5
2E3
100
AcDbEntity
  8
0
100
AcDbCircle
 62
7
  6
CONTINUOUS
 10
44.8929138661
 20
83.137276923
 40
23.7280424406
100
AcDbArc
 50
56.2451298296
 51
59.9819719323
  0
ARC
  5
2E4
100
AcDbEntity
  8
0
100
AcDbCircle
 62
7
  6
CONTINUOUS
 10
54.1930607715
 20
71.1024905859
 40
9.2328779447
100
AcDbArc
 50
335.4197627397
 51
335.7512390404
  0
ARC
  5
2E5
100
AcDbEntity
  8
0
100
AcDbCircle
 62
7
  6
CONTINUOUS
 10
51.8729829705
 20
99.0330871015
 40
9.1382950748
100
AcDbArc
 50
137.8293529893
 51
140.1576085676
  0
ARC
  5
2E6
100
AcDbEntity
  8
0
100
AcDbCircle
 62
7
  6
CONTINUOUS
 10
67.3039122114
 20
72.1800055218
 40
8.9359089148
100
AcDbArc
 50
282.180117465
 51
283.3062889609
  0
ARC
  5
2E7
100
AcDbEntity
  8
0
100
AcDbCircle
 62
7
  6
CONTINUOUS
 10
51.6363805998
 20
99.2474753501
 40
8.8190099357
100
AcDbArc
 50
133.4214029393
 51
137.8296952943
  0
ARC
  5
2E8
100
AcDbEntity
  8
0
100
AcDbCircle
 62
7
  6
CONTINUOUS
 10
49.5038093283
 20
119.6802950061
 40
2.1636778946
100
AcDbArc
 50
239.9239020653
 51
244.8126245974
  0
ARC
  5
2E9
100
AcDbEntity
  8
0
100
AcDbCircle
 62
7
  6
CONTINUOUS
 10
67.181552457
 20
109.4742761431
 40
2.1636778946
100
AcDbArc
 50
239.9239020652
 51
244.8126245974
  0
ARC
  5
2EA
100
AcDbEntity
  8
0
100
AcDbCircle
 62
7
  6
CONTINUOUS
 10
76.5442586877
 20
48.3013263329
 40
1.3814413121
100
AcDbArc
 50
160.2614711264
 51
161.0936172351
  0
ARC
  5
2EB
100
AcDbEntity
  8
0
100
AcDbCircle
 62
7
  6
CONTINUOUS
 10
107.4577849371
 20
66.0003829599
 40
1.3466279673
100
AcDbArc
 50
59.9750424337
 51
63.2520181664
  0
ARC
  5
2EC
100
AcDbEntity
  8
0
100
AcDbCircle
 62
7
  6
CONTINUOUS
 10
77.7071724965
 20
45.9162071987
 40
1.0582725789
100
AcDbArc
 50
270.9978945102
 51
272.8637887008
  0
ARC
  5
2ED
100
AcDbEntity
  8
0
100
AcDbCircle
 62
7
  6
CONTINUOUS
 10
18.8272330615
 20
63.8938121194
 40
0.3341287977
100
AcDbArc
 50
300.0456290794
 51
302.0436728533
  0
SPLINE
  5
2EE
100
AcDbEntity
  8
0
100
AcDbSpline
 62
7
  6
CONTINUOUS
 70
0
 71
3
 72
11
 73
7
 74
0
 42
0.0000001
 43
0.0000001
 44
0.0000000001
 40
0.0
 40
0.0
 40
0.0
 40
0.0
 40
0.2650807683
 40
0.5176395018
 40
0.761185457
 40
1.0
 40
1.0
 40
1.0
 40
1.0
 10
41.019879268
 20
100.4920043978
 30
0.0
 10
41.2267653303
 20
100.9661914436
 30
0.0
 10
41.6916806034
 20
101.8674981238
 30
0.0
 10
42.5640362915
 20
103.0772359344
 30
0.0
 10
43.5843651125
 20
104.0944893616
 30
0.0
 10
44.3598070244
 20
104.6381688611
 30
0.0
 10
44.7634539742
 20
104.8712131338
 30
0.0
  0
SPLINE
  5
2EF
100
AcDbEntity
  8
0
100
AcDbSpline
 62
7
  6
CONTINUOUS
 70
0
 71
3
 72
17
 73
13
 74
0
 42
0.0000001
 43
0.0000001
 44
0.0000000001
 40
0.0
 40
0.0
 40
0.0
 40
0.0
 40
0.0428874893
 40
0.0875271718
 40
0.1353542118
 40
0.187320678
 40
0.3045834777
 40
0.4382488089
 40
0.5825863847
 40
0.7297365119
 40
0.8713122496
 40
1.0
 40
1.0
 40
1.0
 40
1.0
 10
39.734503966
 20
70.8707867017
 30
0.0
 10
39.777667324
 20
70.8957270173
 30
0.0
 10
39.8595190632
 20
70.9583093313
 30
0.0
 10
39.9579280893
 20
71.0828272453
 30
0.0
 10
40.0314614178
 20
71.2350473562
 30
0.0
 10
40.0974666794
 20
71.4797760059
 30
0.0
 10
40.1057506936
 20
71.8365743518
 30
0.0
 10
40.013354244
 20
72.2893799839
 30
0.0
 10
39.8272537425
 20
72.7499246558
 30
0.0
 10
39.562331003
 20
73.1807574287
 30
0.0
 10
39.2405142427
 20
73.5469118216
 30
0.0
 10
38.9890652244
 20
73.740396724
 30
0.0
 10
38.8595230578
 20
73.8151862368
 30
0.0
  0
SPLINE
  5
2F0
100
AcDbEntity
  8
0
100
AcDbSpline
 62
7
  6
CONTINUOUS
 70
0
 71
3
 72
10
 73
6
 74
0
 42
0.0000001
 43
0.0000001
 44
0.0000000001
 40
0.0
 40
0.0
 40
0.0
 40
0.0
 40
0.472646345
 40
0.7295464554
 40
1.0
 40
1.0
 40
1.0
 40
1.0
 10
55.2473586205
 20
63.1340889608
 30
0.0
 10
54.4140336972
 20
63.2279864604
 30
0.0
 10
53.1439110834
 20
63.5447484137
 30
0.0
 10
51.5036526048
 20
64.2234043136
 30
0.0
 10
50.6736142503
 20
64.6589069069
 30
0.0
 10
50.2580449493
 20
64.8988305269
 30
0.0
  0
SPLINE
  5
2F1
100
AcDbEntity
  8
0
100
AcDbSpline
 62
7
  6
CONTINUOUS
 70
0
 71
3
 72
11
 73
7
 74
0
 42
0.0000001
 43
0.0000001
 44
0.0000000001
 40
0.0
 40
0.0
 40
0.0
 40
0.0
 40
0.2388145427
 40
0.4823604979
 40
0.7349192312
 40
1.0
 40
1.0
 40
1.0
 40
1.0
 10
68.7633465291
 20
63.3019317188
 30
0.0
 10
68.3596995794
 20
63.0688874463
 30
0.0
 10
67.5011363188
 20
62.6691792032
 30
0.0
 10
66.1100026496
 20
62.2941824492
 30
0.0
 10
64.6261603524
 20
62.143576847
 30
0.0
 10
63.6131484795
 20
62.1916069728
 30
0.0
 10
63.0990477199
 20
62.2495345781
 30
0.0
  0
SPLINE
  5
2F2
100
AcDbEntity
  8
0
100
AcDbSpline
 62
7
  6
CONTINUOUS
 70
0
 71
3
 72
9
 73
5
 74
0
 42
0.0000001
 43
0.0000001
 44
0.0000000001
 40
0.0
 40
0.0
 40
0.0
 40
0.0
 40
0.2466931435
 40
1.0
 40
1.0
 40
1.0
 40
1.0
 10
19.0045102816
 20
63.6105898733
 30
0.0
 10
19.0125053066
 20
63.6155940773
 30
0.0
 10
19.0440538835
 20
63.6372355841
 30
0.0
 10
19.0718553132
 20
63.6642342562
 30
0.0
 10
19.0900690219
 20
63.6865456743
 30
0.0
  0
SPLINE
  5
2F3
100
AcDbEntity
  8
0
100
AcDbSpline
 62
7
  6
CONTINUOUS
 70
0
 71
3
 72
9
 73
5
 74
0
 42
0.0000001
 43
0.0000001
 44
0.0000000001
 40
0.0
 40
0.0
 40
0.0
 40
0.0
 40
0.4598543325
 40
1.0
 40
1.0
 40
1.0
 40
1.0
 10
19.0900690219
 20
63.6865456743
 30
0.0
 10
19.1286175218
 20
63.7337667933
 30
0.0
 10
19.1872325684
 20
63.8572259572
 30
0.0
 10
19.2016506572
 20
63.9907476365
 30
0.0
 10
19.2016506572
 20
64.0623484577
 30
0.0
  0
SPLINE
  5
2F4
100
AcDbEntity
  8
0
100
AcDbSpline
 62
7
  6
CONTINUOUS
 70
0
 71
3
 72
11
 73
7
 74
0
 42
0.0000001
 43
0.0000001
 44
0.0000000001
 40
0.0
 40
0.0
 40
0.0
 40
0.0
 40
0.2782599791
 40
0.5381822496
 40
0.7786301608
 40
1.0
 40
1.0
 40
1.0
 40
1.0
 10
37.1429344169
 20
84.9359976993
 30
0.0
 10
37.0233105829
 20
85.7102027391
 30
0.0
 10
36.8674991239
 20
87.2209118384
 30
0.0
 10
36.9007973557
 20
89.4185595943
 30
0.0
 10
37.2084575421
 20
91.4339568399
 30
0.0
 10
37.61079981
 20
92.6787728869
 30
0.0
 10
37.8600273075
 20
93.2499985439
 30
0.0
  0
SPLINE
  5
2F5
100
AcDbEntity
  8
0
100
AcDbSpline
 62
7
  6
CONTINUOUS
 70
0
 71
3
 72
11
 73
7
 74
0
 42
0.0000001
 43
0.0000001
 44
0.0000000001
 40
0.0
 40
0.0
 40
0.0
 40
0.0
 40
0.2864439774
 40
0.5461831899
 40
0.7817302935
 40
1.0
 40
1.0
 40
1.0
 40
1.0
 10
38.8595230578
 20
73.8151862368
 30
0.0
 10
38.7908334282
 20
73.8548433158
 30
0.0
 10
38.6540989049
 20
73.9212522458
 30
0.0
 10
38.4442446386
 20
73.9798508246
 30
0.0
 10
38.2450466248
 20
73.9898809407
 30
0.0
 10
38.1203881806
 20
73.9621500144
 30
0.0
 10
38.0641106603
 20
73.9401131737
 30
0.0
  0
SPLINE
  5
2F6
100
AcDbEntity
  8
0
100
AcDbSpline
 62
7
  6
CONTINUOUS
 70
0
 71
3
 72
15
 73
11
 74
0
 42
0.0000001
 43
0.0000001
 44
0.0000000001
 40
0.0
 40
0.0
 40
0.0
 40
0.0
 40
0.1264656052
 40
0.2653443653
 40
0.4101604463
 40
0.5534447113
 40
0.6879758151
 40
0.8080712235
 40
0.9111814132
 40
1.0
 40
1.0
 40
1.0
 40
1.0
 10
19.2016506572
 20
64.0623484577
 30
0.0
 10
19.2016506572
 20
64.1436072856
 30
0.0
 10
19.1800173523
 20
64.3142961183
 30
0.0
 10
19.0985287634
 20
64.5661444864
 30
0.0
 10
18.9721510353
 20
64.811015402
 30
0.0
 10
18.8102579631
 20
65.030515653
 30
0.0
 10
18.6247857284
 20
65.2085796509
 30
0.0
 10
18.4285721211
 20
65.3320940148
 30
0.0
 10
18.2341004511
 20
65.3921475366
 30
0.0
 10
18.1065853528
 20
65.3818512882
 30
0.0
 10
18.0526685363
 20
65.3631463823
 30
0.0
  0
SPLINE
  5
2F7
100
AcDbEntity
  8
0
100
AcDbSpline
 62
7
  6
CONTINUOUS
 70
0
 71
3
 72
9
 73
5
 74
0
 42
0.0000001
 43
0.0000001
 44
0.0000000001
 40
0.0
 40
0.0
 40
0.0
 40
0.0
 40
0.5088173586
 40
1.0
 40
1.0
 40
1.0
 40
1.0
 10
18.0526685363
 20
65.3631463823
 30
0.0
 10
17.4615216733
 20
66.594628067
 30
0.0
 10
16.4197596324
 20
69.0746052785
 30
0.0
 10
15.6453432618
 20
71.6517741557
 30
0.0
 10
15.3414572351
 20
72.9349544899
 30
0.0
  0
SPLINE
  5
2F8
100
AcDbEntity
  8
0
100
AcDbSpline
 62
7
  6
CONTINUOUS
 70
0
 71
3
 72
9
 73
5
 74
0
 42
0.0000001
 43
0.0000001
 44
0.0000000001
 40
0.0
 40
0.0
 40
0.0
 40
0.0
 40
0.4963579249
 40
1.0
 40
1.0
 40
1.0
 40
1.0
 10
23.5945453239
 20
56.7598159122
 30
0.0
 10
22.7138165405
 20
57.8053850833
 30
0.0
 10
21.0515799689
 20
60.0083888789
 30
0.0
 10
19.6191046252
 20
62.3667642467
 30
0.0
 10
18.9590266131
 20
63.5867849361
 30
0.0
  0
SPLINE
  5
2F9
100
AcDbEntity
  8
0
100
AcDbSpline
 62
7
  6
CONTINUOUS
 70
0
 71
3
 72
11
 73
7
 74
0
 42
0.0000001
 43
0.0000001
 44
0.0000000001
 40
0.0
 40
0.0
 40
0.0
 40
0.0
 40
0.2513415308
 40
0.5046376733
 40
0.7555847461
 40
1.0
 40
1.0
 40
1.0
 40
1.0
 10
23.4740566371
 20
59.0072603733
 30
0.0
 10
22.7683807213
 20
59.9168070474
 30
0.0
 10
21.4388217074
 20
61.812360274
 30
0.0
 10
19.7185201957
 20
64.8206406183
 30
0.0
 10
18.2957175235
 20
67.9457771314
 30
0.0
 10
17.5556790919
 20
70.095235643
 30
0.0
 10
17.2471138682
 20
71.1713429363
 30
0.0
  0
SPLINE
  5
2FA
100
AcDbEntity
  8
0
100
AcDbSpline
 62
7
  6
CONTINUOUS
 70
0
 71
3
 72
9
 73
5
 74
0
 42
0.0000001
 43
0.0000001
 44
0.0000000001
 40
0.0
 40
0.0
 40
0.0
 40
0.0
 40
0.2431334064
 40
1.0
 40
1.0
 40
1.0
 40
1.0
 10
50.2580449493
 20
64.8988305269
 30
0.0
 10
50.0802095544
 20
65.0015015173
 30
0.0
 10
49.3561266661
 20
65.4364502325
 30
0.0
 10
48.6613460187
 20
65.9196598977
 30
0.0
 10
48.1527869144
 20
66.3069422915
 30
0.0
  0
SPLINE
  5
2FB
100
AcDbEntity
  8
0
100
AcDbSpline
 62
7
  6
CONTINUOUS
 70
0
 71
3
 72
11
 73
7
 74
0
 42
0.0000001
 43
0.0000001
 44
0.0000000001
 40
0.0
 40
0.0
 40
0.0
 40
0.0
 40
0.2445141724
 40
0.4955038484
 40
0.7487725975
 40
1.0
 40
1.0
 40
1.0
 40
1.0
 10
45.967223166
 20
67.8319443044
 30
0.0
 10
45.6528156938
 20
68.9227180127
 30
0.0
 10
44.8994060125
 20
71.1010280084
 30
0.0
 10
43.4521436187
 20
74.267021415
 30
0.0
 10
41.7035062157
 20
77.3129652111
 30
0.0
 10
40.3525710484
 20
79.2312702681
 30
0.0
 10
39.635723153
 20
80.1513246046
 30
0.0
  0
SPLINE
  5
2FC
100
AcDbEntity
  8
0
100
AcDbSpline
 62
7
  6
CONTINUOUS
 70
0
 71
3
 72
9
 73
5
 74
0
 42
0.0000001
 43
0.0000001
 44
0.0000000001
 40
0.0
 40
0.0
 40
0.0
 40
0.0
 40
0.4936292438
 40
1.0
 40
1.0
 40
1.0
 40
1.0
 10
44.7634539742
 20
104.8712131338
 30
0.0
 10
45.2261437908
 20
105.1383456162
 30
0.0
 10
46.2206454351
 20
105.5857643319
 30
0.0
 10
47.2824889387
 20
105.8297829311
 30
0.0
 10
47.82539335
 20
105.9047642117
 30
0.0
  0
SPLINE
  5
2FD
100
AcDbEntity
  8
0
100
AcDbSpline
 62
7
  6
CONTINUOUS
 70
0
 71
3
 72
9
 73
5
 74
0
 42
0.0000001
 43
0.0000001
 44
0.0000000001
 40
0.0
 40
0.0
 40
0.0
 40
0.0
 40
0.4863321725
 40
1.0
 40
1.0
 40
1.0
 40
1.0
 10
49.1858701769
 20
105.995498493
 30
0.0
 10
49.6951836115
 20
105.9949253508
 30
0.0
 10
50.743254829
 20
105.9176405125
 30
0.0
 10
51.7720895337
 20
105.7079112577
 30
0.0
 10
52.292470999
 20
105.5715887795
 30
0.0
  0
SPLINE
  5
2FE
100
AcDbEntity
  8
0
100
AcDbSpline
 62
7
  6
CONTINUOUS
 70
0
 71
3
 72
9
 73
5
 74
0
 42
0.0000001
 43
0.0000001
 44
0.0000000001
 40
0.0
 40
0.0
 40
0.0
 40
0.0
 40
0.2399342149
 40
1.0
 40
1.0
 40
1.0
 40
1.0
 10
53.3888905955
 20
105.2395494321
 30
0.0
 10
53.6702861225
 20
105.1430165243
 30
0.0
 10
54.8320441904
 20
104.7086893272
 30
0.0
 10
55.9472525905
 20
104.1538228495
 30
0.0
 10
56.7634002517
 20
103.6826304374
 30
0.0
  0
SPLINE
  5
2FF
100
AcDbEntity
  8
0
100
AcDbSpline
 62
7
  6
CONTINUOUS
 70
0
 71
3
 72
18
 73
14
 74
0
 42
0.0000001
 43
0.0000001
 44
0.0000000001
 40
0.0
 40
0.0
 40
0.0
 40
0.0
 40
0.1271459819
 40
0.266849004
 40
0.4123814166
 40
0.4849650638
 40
0.5560893553
 40
0.6902801881
 40
0.8093685797
 40
0.8625126591
 40
0.9114768581
 40
0.9569189722
 40
1.0
 40
1.0
 40
1.0
 40
1.0
 10
24.2507738521
 20
65.2501504447
 30
0.0
 10
24.1254431674
 20
65.3225085123
 30
0.0
 10
23.8816874467
 20
65.5084925334
 30
0.0
 10
23.5673985097
 20
65.8598801547
 30
0.0
 10
23.3485461968
 20
66.2057642672
 30
0.0
 10
23.2076426211
 20
66.5036614979
 30
0.0
 10
23.0969812911
 20
66.800328414
 30
0.0
 10
23.0131188344
 20
67.162062204
 30
0.0
 10
23.0066550037
 20
67.5147881221
 30
0.0
 10
23.0569980562
 20
67.7624495997
 30
0.0
 10
23.1178925053
 20
67.9199886247
 30
0.0
 10
23.202565292
 20
68.0529316668
 30
0.0
 10
23.2754252038
 20
68.1241697184
 30
0.0
 10
23.3144921909
 20
68.1538044788
 30
0.0
  0
SPLINE
  5
300
100
AcDbEntity
  8
0
100
AcDbSpline
 62
7
  6
CONTINUOUS
 70
0
 71
3
 72
11
 73
7
 74
0
 42
0.0000001
 43
0.0000001
 44
0.0000000001
 40
0.0
 40
0.0
 40
0.0
 40
0.0
 40
0.2182697065
 40
0.4538168101
 40
0.7135560226
 40
1.0
 40
1.0
 40
1.0
 40
1.0
 10
25.0461862497
 20
65.1252235078
 30
0.0
 10
24.9899087293
 20
65.1031866671
 30
0.0
 10
24.8652502852
 20
65.0754557409
 30
0.0
 10
24.6660522713
 20
65.085485857
 30
0.0
 10
24.456198005
 20
65.1440844358
 30
0.0
 10
24.3194634818
 20
65.2104933657
 30
0.0
 10
24.2507738521
 20
65.2501504447
 30
0.0
  0
SPLINE
  5
301
100
AcDbEntity
  8
0
100
AcDbSpline
 62
7
  6
CONTINUOUS
 70
0
 71
3
 72
17
 73
13
 74
0
 42
0.0000001
 43
0.0000001
 44
0.0000000001
 40
0.0
 40
0.0
 40
0.0
 40
0.0
 40
0.0428874893
 40
0.0875271718
 40
0.1353542118
 40
0.187320678
 40
0.3045834777
 40
0.4382488089
 40
0.5825863847
 40
0.7297365119
 40
0.8713122496
 40
1.0
 40
1.0
 40
1.0
 40
1.0
 10
23.3050825603
 20
68.1537255645
 30
0.0
 10
23.2619192023
 20
68.1287852489
 30
0.0
 10
23.180067463
 20
68.0662029349
 30
0.0
 10
23.0816584369
 20
67.9416850209
 30
0.0
 10
23.0081251084
 20
67.78946491
 30
0.0
 10
22.9421198469
 20
67.5447362602
 30
0.0
 10
22.9338358326
 20
67.1879379144
 30
0.0
 10
23.0262322822
 20
66.7351322823
 30
0.0
 10
23.2123327838
 20
66.2745876104
 30
0.0
 10
23.4772555232
 20
65.8437548374
 30
0.0
 10
23.7990722835
 20
65.4776004445
 30
0.0
 10
24.0505213018
 20
65.2841155421
 30
0.0
 10
24.1800634684
 20
65.2093260293
 30
0.0
  0
SPLINE
  5
302
100
AcDbEntity
  8
0
100
AcDbSpline
 62
7
  6
CONTINUOUS
 70
0
 71
3
 72
19
 73
15
 74
0
 42
0.0000001
 43
0.0000001
 44
0.0000000001
 40
0.0
 40
0.0
 40
0.0
 40
0.0
 40
0.1223546078
 40
0.1805772862
 40
0.2373909753
 40
0.2933474487
 40
0.3490446937
 40
0.4050940371
 40
0.4620872983
 40
0.5205689368
 40
0.5810107383
 40
0.7090833167
 40
0.8485146318
 40
1.0
 40
1.0
 40
1.0
 40
1.0
 10
37.8600273075
 20
93.2499985439
 30
0.0
 10
38.0972723743
 20
93.7937606509
 30
0.0
 10
38.5259819611
 20
94.567395064
 30
0.0
 10
39.251703487
 20
95.4635764481
 30
0.0
 10
39.8490012991
 20
96.0417929789
 30
0.0
 10
40.5046748778
 20
96.5326587109
 30
0.0
 10
41.2147865469
 20
96.9334631027
 30
0.0
 10
41.9751424236
 20
97.2415296777
 30
0.0
 10
42.7810152636
 20
97.455403249
 30
0.0
 10
43.6277264144
 20
97.573828106
 30
0.0
 10
44.827123316
 20
97.6048782448
 30
0.0
 10
46.4139901051
 20
97.3892796439
 30
0.0
 10
48.3546645071
 20
96.7613143179
 30
0.0
 10
49.6219358442
 20
96.1298713492
 30
0.0
 10
50.2580449493
 20
95.7626218944
 30
0.0
  0
SPLINE
  5
303
100
AcDbEntity
  8
0
100
AcDbSpline
 62
7
  6
CONTINUOUS
 70
0
 71
3
 72
9
 73
5
 74
0
 42
0.0000001
 43
0.0000001
 44
0.0000000001
 40
0.0
 40
0.0
 40
0.0
 40
0.0
 40
0.2501481984
 40
1.0
 40
1.0
 40
1.0
 40
1.0
 10
55.1355922131
 20
91.8821509323
 30
0.0
 10
55.8964857617
 20
92.2738776519
 30
0.0
 10
58.9377552334
 20
93.8408305273
 30
0.0
 10
61.9774623422
 20
95.4108140177
 30
0.0
 10
64.2563084447
 20
96.5890033286
 30
0.0
  0
SPLINE
  5
304
100
AcDbEntity
  8
0
100
AcDbSpline
 62
7
  6
CONTINUOUS
 70
0
 71
3
 72
11
 73
7
 74
0
 42
0.0000001
 43
0.0000001
 44
0.0000000001
 40
0.0
 40
0.0
 40
0.0
 40
0.0
 40
0.2446010192
 40
0.4955576078
 40
0.7487652596
 40
1.0
 40
1.0
 40
1.0
 40
1.0
 10
17.0928993352
 20
71.1216273981
 30
0.0
 10
17.4066111791
 20
70.0425403898
 30
0.0
 10
18.1556926562
 20
67.8879767706
 30
0.0
 10
19.5895640712
 20
64.7558591724
 30
0.0
 10
21.3184758539
 20
61.7413277217
 30
0.0
 10
22.6524880532
 20
59.841396243
 30
0.0
 10
23.3600867015
 20
58.9294888933
 30
0.0
  0
SPLINE
  5
305
100
AcDbEntity
  8
0
100
AcDbSpline
 62
7
  6
CONTINUOUS
 70
0
 71
3
 72
11
 73
7
 74
0
 42
0.0000001
 43
0.0000001
 44
0.0000000001
 40
0.0
 40
0.0
 40
0.0
 40
0.0
 40
0.2864439774
 40
0.5461831899
 40
0.7817302935
 40
1.0
 40
1.0
 40
1.0
 40
1.0
 10
24.1800634684
 20
65.2093260293
 30
0.0
 10
24.248753098
 20
65.1696689503
 30
0.0
 10
24.3854876213
 20
65.1032600204
 30
0.0
 10
24.5953418876
 20
65.0446614416
 30
0.0
 10
24.7945399015
 20
65.0346313255
 30
0.0
 10
24.9191983456
 20
65.0623622517
 30
0.0
 10
24.9754758659
 20
65.0843990924
 30
0.0
  0
SPLINE
  5
306
100
AcDbEntity
  8
0
100
AcDbSpline
 62
7
  6
CONTINUOUS
 70
0
 71
3
 72
11
 73
7
 74
0
 42
0.0000001
 43
0.0000001
 44
0.0000000001
 40
0.0
 40
0.0
 40
0.0
 40
0.0
 40
0.2513415308
 40
0.5046376733
 40
0.7555847461
 40
1.0
 40
1.0
 40
1.0
 40
1.0
 10
39.6109820261
 20
79.9284629691
 30
0.0
 10
40.316657942
 20
79.0189162949
 30
0.0
 10
41.6462169559
 20
77.1233630684
 30
0.0
 10
43.3665184676
 20
74.115082724
 30
0.0
 10
44.7893211398
 20
70.9899462109
 30
0.0
 10
45.5293595714
 20
68.8404876994
 30
0.0
 10
45.8379247951
 20
67.764380406
 30
0.0
  0
SPLINE
  5
307
100
AcDbEntity
  8
0
100
AcDbSpline
 62
7
  6
CONTINUOUS
 70
0
 71
3
 72
9
 73
5
 74
0
 42
0.0000001
 43
0.0000001
 44
0.0000000001
 40
0.0
 40
0.0
 40
0.0
 40
0.0
 40
0.5031744312
 40
1.0
 40
1.0
 40
1.0
 40
1.0
 10
70.5326937016
 20
64.6822483489
 30
0.0
 10
70.2692934921
 20
64.4121380286
 30
0.0
 10
69.7097283777
 20
63.9091900249
 30
0.0
 10
69.0859574049
 20
63.4881900739
 30
0.0
 10
68.7633465291
 20
63.3019317188
 30
0.0
  0
SPLINE
  5
308
100
AcDbEntity
  8
0
100
AcDbSpline
 62
7
  6
CONTINUOUS
 70
0
 71
3
 72
11
 73
7
 74
0
 42
0.0000001
 43
0.0000001
 44
0.0000000001
 40
0.0
 40
0.0
 40
0.0
 40
0.0
 40
0.2778236767
 40
0.4100972031
 40
0.5377111476
 40
1.0
 40
1.0
 40
1.0
 40
1.0
 10
63.4603697753
 20
75.1042594595
 30
0.0
 10
63.5521551235
 20
74.3766121672
 30
0.0
 10
63.634688942
 20
73.2944786861
 30
0.0
 10
63.6172713751
 20
71.8739108572
 30
0.0
 10
63.4758031813
 20
69.9741822532
 30
0.0
 10
63.1125409628
 20
68.4232554201
 30
0.0
 10
62.6113304383
 20
67.3105555971
 30
0.0
  0
SPLINE
  5
309
100
AcDbEntity
  8
0
100
AcDbSpline
 62
7
  6
CONTINUOUS
 70
0
 71
3
 72
15
 73
11
 74
0
 42
0.0000001
 43
0.0000001
 44
0.0000000001
 40
0.0
 40
0.0
 40
0.0
 40
0.0
 40
0.1318765281
 40
0.2577616342
 40
0.3793990849
 40
0.4988907189
 40
0.6185373581
 40
0.7406242623
 40
0.8672150057
 40
1.0
 40
1.0
 40
1.0
 40
1.0
 10
62.5892519982
 20
67.2619166669
 30
0.0
 10
62.4236147192
 20
66.8998069371
 30
0.0
 10
62.0533298427
 20
66.2118441468
 30
0.0
 10
61.3652122956
 20
65.2904731338
 30
0.0
 10
60.5648753414
 20
64.5165700538
 30
0.0
 10
59.6604783905
 20
63.8997159185
 30
0.0
 10
58.6622146255
 20
63.4471423026
 30
0.0
 10
57.5815951983
 20
63.1635722403
 30
0.0
 10
56.4309459696
 20
63.0511485658
 30
0.0
 10
55.6457753294
 20
63.0891961085
 30
0.0
 10
55.2473586205
 20
63.1340889608
 30
0.0
  0
SPLINE
  5
30A
100
AcDbEntity
  8
0
100
AcDbSpline
 62
7
  6
CONTINUOUS
 70
0
 71
3
 72
9
 73
5
 74
0
 42
0.0000001
 43
0.0000001
 44
0.0000000001
 40
0.0
 40
0.0
 40
0.0
 40
0.0
 40
0.4816480995
 40
1.0
 40
1.0
 40
1.0
 40
1.0
 10
50.2580449493
 20
95.7626218944
 30
0.0
 10
51.1267052577
 20
95.2611119772
 30
0.0
 10
52.8444778649
 20
94.0681753331
 30
0.0
 10
54.3836479131
 20
92.6566452568
 30
0.0
 10
55.1355922131
 20
91.8821509322
 30
0.0
  0
SPLINE
  5
30B
100
AcDbEntity
  8
0
100
AcDbSpline
 62
7
  6
CONTINUOUS
 70
0
 71
3
 72
11
 73
7
 74
0
 42
0.0000001
 43
0.0000001
 44
0.0000000001
 40
0.0
 40
0.0
 40
0.0
 40
0.0
 40
0.2512167468
 40
0.5058326875
 40
0.757475092
 40
1.0
 40
1.0
 40
1.0
 40
1.0
 10
39.4605660225
 20
82.2462539864
 30
0.0
 10
40.4474562288
 20
81.0731448452
 30
0.0
 10
42.2940728057
 20
78.5895853787
 30
0.0
 10
44.6249825454
 20
74.5873101615
 30
0.0
 10
46.473987036
 20
70.3985666647
 30
0.0
 10
47.3633686832
 20
67.5075438871
 30
0.0
 10
47.7034239397
 20
66.0671660011
 30
0.0
  0
SPLINE
  5
30C
100
AcDbEntity
  8
0
100
AcDbSpline
 62
7
  6
CONTINUOUS
 70
0
 71
3
 72
11
 73
7
 74
0
 42
0.0000001
 43
0.0000001
 44
0.0000000001
 40
0.0
 40
0.0
 40
0.0
 40
0.0
 40
0.3049422049
 40
0.5706402267
 40
0.7986431653
 40
1.0
 40
1.0
 40
1.0
 40
1.0
 10
75.3515584831
 20
48.6863780751
 30
0.0
 10
75.2208326377
 20
48.7618509704
 30
0.0
 10
74.9658806289
 20
48.8866890448
 30
0.0
 10
74.5825125159
 20
48.9941359975
 30
0.0
 10
74.2339138837
 20
49.0035824616
 30
0.0
 10
74.0263924253
 20
48.9354545322
 30
0.0
 10
73.9400598339
 20
48.8856411202
 30
0.0
  0
SPLINE
  5
30D
100
AcDbEntity
  8
0
100
AcDbSpline
 62
7
  6
CONTINUOUS
 70
0
 71
3
 72
13
 73
9
 74
0
 42
0.0000001
 43
0.0000001
 44
0.0000000001
 40
0.0
 40
0.0
 40
0.0
 40
0.0
 40
0.1082186261
 40
0.2280361892
 40
0.489977648
 40
0.7574528118
 40
0.8836717795
 40
1.0
 40
1.0
 40
1.0
 40
1.0
 10
77.7859248496
 20
45.1929233351
 30
0.0
 10
77.763160812
 20
45.3489953474
 30
0.0
 10
77.6873996721
 20
45.6739981623
 30
0.0
 10
77.4395316748
 20
46.3451170287
 30
0.0
 10
76.9684022595
 20
47.1732099258
 30
0.0
 10
76.3519433516
 20
47.9114379739
 30
0.0
 10
75.7911296045
 20
48.4012307723
 30
0.0
 10
75.4983876439
 20
48.6016081366
 30
0.0
 10
75.3515584831
 20
48.6863780751
 30
0.0
  0
SPLINE
  5
30E
100
AcDbEntity
  8
0
100
AcDbSpline
 62
7
  6
CONTINUOUS
 70
0
 71
3
 72
9
 73
5
 74
0
 42
0.0000001
 43
0.0000001
 44
0.0000000001
 40
0.0
 40
0.0
 40
0.0
 40
0.0
 40
0.5109540423
 40
1.0
 40
1.0
 40
1.0
 40
1.0
 10
29.2917195867
 20
131.3001286964
 30
0.0
 10
28.4076972334
 20
125.6553990211
 30
0.0
 10
27.0620769676
 20
114.5433611229
 30
0.0
 10
26.5768993727
 20
103.3576972538
 30
0.0
 10
26.5768993727
 20
97.8891416031
 30
0.0
  0
SPLINE
  5
30F
100
AcDbEntity
  8
0
100
AcDbSpline
 62
7
  6
CONTINUOUS
 70
0
 71
3
 72
9
 73
5
 74
0
 42
0.0000001
 43
0.0000001
 44
0.0000000001
 40
0.0
 40
0.0
 40
0.0
 40
0.0
 40
0.2556031832
 40
1.0
 40
1.0
 40
1.0
 40
1.0
 10
26.5768993727
 20
97.8891416031
 30
0.0
 10
26.5768993727
 20
96.3573629466
 30
0.0
 10
26.6499658188
 20
90.3649272576
 30
0.0
 10
27.0209514418
 20
84.3750202591
 30
0.0
 10
27.4848870365
 20
79.9381889908
 30
0.0
  0
SPLINE
  5
310
100
AcDbEntity
  8
0
100
AcDbSpline
 62
7
  6
CONTINUOUS
 70
0
 71
3
 72
11
 73
7
 74
0
 42
0.0000001
 43
0.0000001
 44
0.0000000001
 40
0.0
 40
0.0
 40
0.0
 40
0.0
 40
0.2895153569
 40
0.5491498804
 40
0.7823144838
 40
1.0
 40
1.0
 40
1.0
 40
1.0
 10
110.6064702802
 20
68.5951581269
 30
0.0
 10
110.5406954592
 20
68.6331323785
 30
0.0
 10
110.4097187474
 20
68.6953459732
 30
0.0
 10
110.2084815532
 20
68.744074455
 30
0.0
 10
110.0195910708
 20
68.7392632894
 30
0.0
 10
109.9059430093
 20
68.6979741069
 30
0.0
 10
109.8564872528
 20
68.6694212599
 30
0.0
  0
SPLINE
  5
311
100
AcDbEntity
  8
0
100
AcDbSpline
 62
7
  6
CONTINUOUS
 70
0
 71
3
 72
11
 73
7
 74
0
 42
0.0000001
 43
0.0000001
 44
0.0000000001
 40
0.0
 40
0.0
 40
0.0
 40
0.0
 40
0.2814656405
 40
0.5378500943
 40
0.7744492051
 40
1.0
 40
1.0
 40
1.0
 40
1.0
 10
109.3105262216
 20
68.4231877472
 30
0.0
 10
109.2096209996
 20
68.4651798098
 30
0.0
 10
109.0100754577
 20
68.5309236945
 30
0.0
 10
108.7094005074
 20
68.568231013
 30
0.0
 10
108.4292574585
 20
68.5372812312
 30
0.0
 10
108.2600753427
 20
68.4696390545
 30
0.0
 10
108.1842268626
 20
68.4258481619
 30
0.0
  0
SPLINE
  5
312
100
AcDbEntity
  8
0
100
AcDbSpline
 62
7
  6
CONTINUOUS
 70
0
 71
3
 72
9
 73
5
 74
0
 42
0.0000001
 43
0.0000001
 44
0.0000000001
 40
0.0
 40
0.0
 40
0.0
 40
0.0
 40
0.2263492019
 40
1.0
 40
1.0
 40
1.0
 40
1.0
 10
77.7256030165
 20
44.8580951218
 30
0.0
 10
77.6614249732
 20
44.8569715789
 30
0.0
 10
77.3773225518
 20
44.8774994703
 30
0.0
 10
77.1060156784
 20
44.9891558674
 30
0.0
 10
76.9160163299
 20
45.0988495608
 30
0.0
  0
SPLINE
  5
313
100
AcDbEntity
  8
0
100
AcDbSpline
 62
7
  6
CONTINUOUS
 70
0
 71
3
 72
11
 73
7
 74
0
 42
0.0000001
 43
0.0000001
 44
0.0000000001
 40
0.0
 40
0.0
 40
0.0
 40
0.0
 40
0.2074096421
 40
0.4328546368
 40
0.6948486342
 40
1.0
 40
1.0
 40
1.0
 40
1.0
 10
77.405776212
 20
43.9590097933
 30
0.0
 10
77.4875494026
 20
44.0061924617
 30
0.0
 10
77.6388452799
 20
44.1426626845
 30
0.0
 10
77.7740419195
 20
44.4355692566
 30
0.0
 10
77.8242155984
 20
44.7963601715
 30
0.0
 10
77.8059720115
 20
45.055478434
 30
0.0
 10
77.7859248496
 20
45.1929233351
 30
0.0
  0
SPLINE
  5
314
100
AcDbEntity
  8
0
100
AcDbSpline
 62
7
  6
CONTINUOUS
 70
0
 71
3
 72
9
 73
5
 74
0
 42
0.0000001
 43
0.0000001
 44
0.0000000001
 40
0.0
 40
0.0
 40
0.0
 40
0.0
 40
0.5065492607
 40
1.0
 40
1.0
 40
1.0
 40
1.0
 10
99.7374523012
 20
128.6232763949
 30
0.0
 10
99.6191886938
 20
128.8684245234
 30
0.0
 10
99.3471266678
 20
129.3345818198
 30
0.0
 10
99.0053812711
 20
129.7528551058
 30
0.0
 10
98.8198996827
 20
129.9423244447
 30
0.0
  0
SPLINE
  5
315
100
AcDbEntity
  8
0
100
AcDbSpline
 62
7
  6
CONTINUOUS
 70
0
 71
3
 72
11
 73
7
 74
0
 42
0.0000001
 43
0.0000001
 44
0.0000000001
 40
0.0
 40
0.0
 40
0.0
 40
0.0
 40
0.2222829445
 40
0.4593610134
 40
0.7181683286
 40
1.0
 40
1.0
 40
1.0
 40
1.0
 10
69.3350717009
 20
93.9025795291
 30
0.0
 10
69.3816953913
 20
93.9295385262
 30
0.0
 10
69.4697208583
 20
94.0007271328
 30
0.0
 10
69.5705114634
 20
94.1448159275
 30
0.0
 10
69.6400111556
 20
94.3214829356
 30
0.0
 10
69.6637522228
 20
94.4511152641
 30
0.0
 10
69.6706717112
 20
94.5190486124
 30
0.0
  0
SPLINE
  5
316
100
AcDbEntity
  8
0
100
AcDbSpline
 62
7
  6
CONTINUOUS
 70
0
 71
3
 72
11
 73
7
 74
0
 42
0.0000001
 43
0.0000001
 44
0.0000000001
 40
0.0
 40
0.0
 40
0.0
 40
0.0
 40
0.223225166
 40
0.4607151109
 40
0.7190958668
 40
1.0
 40
1.0
 40
1.0
 40
1.0
 10
68.0239218359
 20
96.6096077306
 30
0.0
 10
67.95804123
 20
96.5715397051
 30
0.0
 10
67.8336658322
 20
96.4713708225
 30
0.0
 10
67.6910452982
 20
96.2688653062
 30
0.0
 10
67.592542211
 20
96.020942065
 30
0.0
 10
67.5590450208
 20
95.8390267708
 30
0.0
 10
67.5493425423
 20
95.7437709403
 30
0.0
  0
SPLINE
  5
317
100
AcDbEntity
  8
0
100
AcDbSpline
 62
7
  6
CONTINUOUS
 70
0
 71
3
 72
11
 73
7
 74
0
 42
0.0000001
 43
0.0000001
 44
0.0000000001
 40
0.0
 40
0.0
 40
0.0
 40
0.0
 40
0.2237505569
 40
0.4622364857
 40
0.7207998692
 40
1.0
 40
1.0
 40
1.0
 40
1.0
 10
65.3235750177
 20
105.7328044629
 30
0.0
 10
65.4414106111
 20
105.800865057
 30
0.0
 10
65.6650112197
 20
105.978378746
 30
0.0
 10
65.9262945553
 20
106.3356004705
 30
0.0
 10
66.1152908086
 20
106.7716496297
 30
0.0
 10
66.1882476683
 20
107.0923935354
 30
0.0
 10
66.2127706222
 20
107.2604152067
 30
0.0
  0
SPLINE
  5
318
100
AcDbEntity
  8
0
100
AcDbSpline
 62
7
  6
CONTINUOUS
 70
0
 71
3
 72
11
 73
7
 74
0
 42
0.0000001
 43
0.0000001
 44
0.0000000001
 40
0.0
 40
0.0
 40
0.0
 40
0.0
 40
0.2177239861
 40
0.4508730345
 40
0.7104683317
 40
1.0
 40
1.0
 40
1.0
 40
1.0
 10
118.6322912697
 20
69.4351594416
 30
0.0
 10
118.6834068724
 20
69.4646682486
 30
0.0
 10
118.779126749
 20
69.5449941808
 30
0.0
 10
118.8809873591
 20
69.7115791559
 30
0.0
 10
118.9413624344
 20
69.9168264251
 30
0.0
 10
118.9533485786
 20
70.0661811084
 30
0.0
 10
118.9533485786
 20
70.1446689433
 30
0.0
  0
SPLINE
  5
319
100
AcDbEntity
  8
0
100
AcDbSpline
 62
7
  6
CONTINUOUS
 70
0
 71
3
 72
11
 73
7
 74
0
 42
0.0000001
 43
0.0000001
 44
0.0000000001
 40
0.0
 40
0.0
 40
0.0
 40
0.0
 40
0.2177239861
 40
0.4508730345
 40
0.7104683317
 40
1.0
 40
1.0
 40
1.0
 40
1.0
 10
106.3992930246
 20
131.1217362008
 30
0.0
 10
106.4504086273
 20
131.1512450078
 30
0.0
 10
106.5461285039
 20
131.23157094
 30
0.0
 10
106.647989114
 20
131.3981559151
 30
0.0
 10
106.7083641893
 20
131.6034031843
 30
0.0
 10
106.7203503335
 20
131.7527578675
 30
0.0
 10
106.7203503335
 20
131.8312457025
 30
0.0
  0
SPLINE
  5
31A
100
AcDbEntity
  8
0
100
AcDbSpline
 62
7
  6
CONTINUOUS
 70
0
 71
3
 72
11
 73
7
 74
0
 42
0.0000001
 43
0.0000001
 44
0.0000000001
 40
0.0
 40
0.0
 40
0.0
 40
0.0
 40
0.2177239861
 40
0.4508730345
 40
0.7104683317
 40
1.0
 40
1.0
 40
1.0
 40
1.0
 10
88.7215498959
 20
141.3277550638
 30
0.0
 10
88.7726654986
 20
141.3572638708
 30
0.0
 10
88.8683853752
 20
141.437589803
 30
0.0
 10
88.9702459854
 20
141.6041747781
 30
0.0
 10
89.0306210607
 20
141.8094220473
 30
0.0
 10
89.0426072048
 20
141.9587767305
 30
0.0
 10
89.0426072048
 20
142.0372645655
 30
0.0
  0
SPLINE
  5
31B
100
AcDbEntity
  8
0
100
AcDbSpline
 62
7
  6
CONTINUOUS
 70
0
 71
3
 72
11
 73
7
 74
0
 42
0.0000001
 43
0.0000001
 44
0.0000000001
 40
0.0
 40
0.0
 40
0.0
 40
0.0
 40
0.2237505569
 40
0.4622364857
 40
0.7207998692
 40
1.0
 40
1.0
 40
1.0
 40
1.0
 10
47.645831889
 20
115.938823326
 30
0.0
 10
47.7636674824
 20
116.00688392
 30
0.0
 10
47.987268091
 20
116.184397609
 30
0.0
 10
48.2485514266
 20
116.5416193335
 30
0.0
 10
48.43754768
 20
116.9776684928
 30
0.0
 10
48.5105045396
 20
117.2984123984
 30
0.0
 10
48.5350274935
 20
117.4664340697
 30
0.0
  0
SPLINE
  5
31C
100
AcDbEntity
  8
0
100
AcDbSpline
 62
7
  6
CONTINUOUS
 70
0
 71
3
 72
11
 73
7
 74
0
 42
0.0000001
 43
0.0000001
 44
0.0000000001
 40
0.0
 40
0.0
 40
0.0
 40
0.0
 40
0.2321702816
 40
0.4888429817
 40
0.7514563991
 40
1.0
 40
1.0
 40
1.0
 40
1.0
 10
76.9160163299
 20
45.0988495608
 30
0.0
 10
76.6989063169
 20
45.2241952496
 30
0.0
 10
76.2822670546
 20
45.5593070769
 30
0.0
 10
75.7713313089
 20
46.1958977064
 30
0.0
 10
75.382921009
 20
46.9338547724
 30
0.0
 10
75.2260186975
 20
47.4686233548
 30
0.0
 10
75.1836700418
 20
47.7336364731
 30
0.0
  0
SPLINE
  5
31D
100
AcDbEntity
  8
0
100
AcDbSpline
 62
7
  6
CONTINUOUS
 70
0
 71
3
 72
9
 73
5
 74
0
 42
0.0000001
 43
0.0000001
 44
0.0000000001
 40
0.0
 40
0.0
 40
0.0
 40
0.0
 40
0.2561687455
 40
1.0
 40
1.0
 40
1.0
 40
1.0
 10
75.1836700418
 20
48.546870673
 30
0.0
 10
75.1871046876
 20
48.5643984022
 30
0.0
 10
75.2016016434
 20
48.6326001064
 30
0.0
 10
75.2205412606
 20
48.6998804639
 30
0.0
 10
75.237347145
 20
48.7489448292
 30
0.0
  0
SPLINE
  5
31E
100
AcDbEntity
  8
0
100
AcDbSpline
 62
7
  6
CONTINUOUS
 70
0
 71
3
 72
15
 73
11
 74
0
 42
0.0000001
 43
0.0000001
 44
0.0000000001
 40
0.0
 40
0.0
 40
0.0
 40
0.0
 40
0.1511407253
 40
0.2938366474
 40
0.4280071128
 40
0.5540857296
 40
0.6728874498
 40
0.785637733
 40
0.8939995902
 40
1.0
 40
1.0
 40
1.0
 40
1.0
 10
72.5165412917
 20
71.6114169378
 30
0.0
 10
72.4761932558
 20
71.0658792585
 30
0.0
 10
72.3597658976
 20
70.0075294247
 30
0.0
 10
72.0641350042
 20
68.4849585631
 30
0.0
 10
71.652932935
 20
67.0832083537
 30
0.0
 10
71.1279059208
 20
65.8125535575
 30
0.0
 10
70.4907848738
 20
64.6817289346
 30
0.0
 10
69.7434587061
 20
63.6990047749
 30
0.0
 10
68.8895148525
 20
62.8722626206
 30
0.0
 10
68.2487414232
 20
62.427515068
 30
0.0
 10
67.9164917131
 20
62.2356881431
 30
0.0
  0
SPLINE
  5
31F
100
AcDbEntity
  8
0
100
AcDbSpline
 62
7
  6
CONTINUOUS
 70
0
 71
3
 72
9
 73
5
 74
0
 42
0.0000001
 43
0.0000001
 44
0.0000000001
 40
0.0
 40
0.0
 40
0.0
 40
0.0
 40
0.253228033
 40
1.0
 40
1.0
 40
1.0
 40
1.0
 10
74.0457076133
 20
97.8207384578
 30
0.0
 10
73.8920435959
 20
96.6537651188
 30
0.0
 10
73.3194225372
 20
92.0409592095
 30
0.0
 10
72.8852328689
 20
87.4107942923
 30
0.0
 10
72.6449826764
 20
83.9479956916
 30
0.0
  0
SPLINE
  5
320
100
AcDbEntity
  8
0
100
AcDbSpline
 62
7
  6
CONTINUOUS
 70
0
 71
3
 72
9
 73
5
 74
0
 42
0.0000001
 43
0.0000001
 44
0.0000000001
 40
0.0
 40
0.0
 40
0.0
 40
0.0
 40
0.2537111297
 40
1.0
 40
1.0
 40
1.0
 40
1.0
 10
71.6423719847
 20
100.3523410768
 30
0.0
 10
71.4592840385
 20
99.008507223
 30
0.0
 10
70.7826102533
 20
93.7058086505
 30
0.0
 10
70.2882155126
 20
88.3795436318
 30
0.0
 10
70.0311174671
 20
84.398443925
 30
0.0
  0
SPLINE
  5
321
100
AcDbEntity
  8
0
100
AcDbSpline
 62
7
  6
CONTINUOUS
 70
0
 71
3
 72
16
 73
12
 74
0
 42
0.0000001
 43
0.0000001
 44
0.0000000001
 40
0.0
 40
0.0
 40
0.0
 40
0.0
 40
0.1317572469
 40
0.2732040958
 40
0.4177917338
 40
0.5583384683
 40
0.6884035718
 40
0.8039796657
 40
0.9055372389
 40
0.9531100032
 40
1.0
 40
1.0
 40
1.0
 40
1.0
 10
69.6706717112
 20
94.5190486124
 30
0.0
 10
69.6819986156
 20
94.6302525773
 30
0.0
 10
69.675774683
 20
94.8642856362
 30
0.0
 10
69.5946917442
 20
95.2113614253
 30
0.0
 10
69.4479589113
 20
95.5445080071
 30
0.0
 10
69.2465558833
 20
95.8362927592
 30
0.0
 10
69.0057122195
 20
96.0627317787
 30
0.0
 10
68.7431845745
 20
96.2050849053
 30
0.0
 10
68.5148612871
 20
96.2401486328
 30
0.0
 10
68.3499776166
 20
96.2100618675
 30
0.0
 10
68.2757623954
 20
96.177664534
 30
0.0
 10
68.2413244722
 20
96.1577523345
 30
0.0
  0
SPLINE
  5
322
100
AcDbEntity
  8
0
100
AcDbSpline
 62
7
  6
CONTINUOUS
 70
0
 71
3
 72
16
 73
12
 74
0
 42
0.0000001
 43
0.0000001
 44
0.0000000001
 40
0.0
 40
0.0
 40
0.0
 40
0.0
 40
0.1318432082
 40
0.2733229662
 40
0.4180817175
 40
0.55892375
 40
0.6892828158
 40
0.804963762
 40
0.9062083476
 40
0.9534696026
 40
1.0
 40
1.0
 40
1.0
 40
1.0
 10
67.5493425423
 20
95.7437709403
 30
0.0
 10
67.5334988983
 20
95.5882231112
 30
0.0
 10
67.5428253269
 20
95.2608598535
 30
0.0
 10
67.6585378628
 20
94.7758276591
 30
0.0
 10
67.8670506779
 20
94.310963606
 30
0.0
 10
68.1515696429
 20
93.9041416554
 30
0.0
 10
68.4898000644
 20
93.5882431651
 30
0.0
 10
68.856519127
 20
93.3890049781
 30
0.0
 10
69.1748351707
 20
93.3386956775
 30
0.0
 10
69.4042680808
 20
93.3799972479
 30
0.0
 10
69.5074113739
 20
93.4246830231
 30
0.0
 10
69.5551886509
 20
93.4522909855
 30
0.0
  0
SPLINE
  5
323
100
AcDbEntity
  8
0
100
AcDbSpline
 62
7
  6
CONTINUOUS
 70
0
 71
3
 72
22
 73
18
 74
0
 42
0.0000001
 43
0.0000001
 44
0.0000000001
 40
0.0
 40
0.0
 40
0.0
 40
0.0
 40
0.1490039882
 40
0.2233908042
 40
0.2968775844
 40
0.3689330955
 40
0.4390768022
 40
0.5069015662
 40
0.5720933688
 40
0.6344373813
 40
0.6938356754
 40
0.7503215358
 40
0.8040638659
 40
0.8553842606
 40
0.9047432493
 40
0.952716702
 40
1.0
 40
1.0
 40
1.0
 40
1.0
 10
70.2352743126
 20
85.8576978213
 30
0.0
 10
69.6191125351
 20
87.5685575522
 30
0.0
 10
68.528851536
 20
90.0778022903
 30
0.0
 10
66.7775938732
 20
93.2515001661
 30
0.0
 10
65.3218053277
 20
95.5092343089
 30
0.0
 10
63.7387423378
 20
97.6151380449
 30
0.0
 10
62.0445415466
 20
99.5421305216
 30
0.0
 10
60.2555328212
 20
101.2632288413
 30
0.0
 10
58.3916630326
 20
102.7556594907
 30
0.0
 10
56.474326197
 20
103.999558665
 30
0.0
 10
54.5265056636
 20
104.9782975701
 30
0.0
 10
52.5729637212
 20
105.6797463922
 30
0.0
 10
50.6390628553
 20
106.0948578793
 30
0.0
 10
48.7513768355
 20
106.2186439449
 30
0.0
 10
46.9367500255
 20
106.0514364673
 30
0.0
 10
45.2233316818
 20
105.5945297506
 30
0.0
 10
44.1632722922
 20
105.1005273111
 30
0.0
 10
43.663359379
 20
104.8123191588
 30
0.0
  0
SPLINE
  5
324
100
AcDbEntity
  8
0
100
AcDbSpline
 62
7
  6
CONTINUOUS
 70
0
 71
3
 72
9
 73
5
 74
0
 42
0.0000001
 43
0.0000001
 44
0.0000000001
 40
0.0
 40
0.0
 40
0.0
 40
0.0
 40
0.2566978727
 40
1.0
 40
1.0
 40
1.0
 40
1.0
 10
78.408042226
 20
67.9650942968
 30
0.0
 10
78.408042226
 20
66.1583465443
 30
0.0
 10
78.5092012936
 20
59.1205706682
 30
0.0
 10
79.024598717
 20
52.0865552687
 30
0.0
 10
79.6739259431
 20
46.8953337016
 30
0.0
  0
SPLINE
  5
325
100
AcDbEntity
  8
0
100
AcDbSpline
 62
7
  6
CONTINUOUS
 70
0
 71
3
 72
9
 73
5
 74
0
 42
0.0000001
 43
0.0000001
 44
0.0000000001
 40
0.0
 40
0.0
 40
0.0
 40
0.0
 40
0.5105045483
 40
1.0
 40
1.0
 40
1.0
 40
1.0
 10
80.8758707809
 20
99.7637771896
 30
0.0
 10
80.0714520339
 20
94.3925518563
 30
0.0
 10
78.8477209143
 20
83.8146055729
 30
0.0
 10
78.408042226
 20
73.1727118404
 30
0.0
 10
78.408042226
 20
67.9650942968
 30
0.0
  0
SPLINE
  5
326
100
AcDbEntity
  8
0
100
AcDbSpline
 62
7
  6
CONTINUOUS
 70
0
 71
3
 72
18
 73
14
 74
0
 42
0.0000001
 43
0.0000001
 44
0.0000000001
 40
0.0
 40
0.0
 40
0.0
 40
0.0
 40
0.1330192448
 40
0.2742087923
 40
0.4177971932
 40
0.5571181666
 40
0.686094752
 40
0.7455667619
 40
0.8014259669
 40
0.8539553535
 40
0.9038174572
 40
0.9520671835
 40
1.0
 40
1.0
 40
1.0
 40
1.0
 10
61.2630025461
 20
110.1181004884
 30
0.0
 10
61.2103630065
 20
109.7574349881
 30
0.0
 10
61.1976011897
 20
108.9983034265
 30
0.0
 10
61.4194111206
 20
107.8680106031
 30
0.0
 10
61.8626901634
 20
106.7854925503
 30
0.0
 10
62.4918492052
 20
105.839537006
 30
0.0
 10
63.1478103071
 20
105.2112073751
 30
0.0
 10
63.7184661925
 20
104.8570409792
 30
0.0
 10
64.1439405558
 20
104.6768356452
 30
0.0
 10
64.5690746365
 20
104.5795019932
 30
0.0
 10
64.9847076657
 20
104.568333555
 30
0.0
 10
65.3808594719
 20
104.6441517267
 30
0.0
 10
65.6244057542
 20
104.7514352116
 30
0.0
 10
65.7381607224
 20
104.8170876959
 30
0.0
  0
SPLINE
  5
327
100
AcDbEntity
  8
0
100
AcDbSpline
 62
7
  6
CONTINUOUS
 70
0
 71
3
 72
18
 73
14
 74
0
 42
0.0000001
 43
0.0000001
 44
0.0000000001
 40
0.0
 40
0.0
 40
0.0
 40
0.0
 40
0.1330192448
 40
0.2742087923
 40
0.4177971932
 40
0.5571181666
 40
0.686094752
 40
0.7455667619
 40
0.8014259669
 40
0.8539553535
 40
0.9038174572
 40
0.9520671835
 40
1.0
 40
1.0
 40
1.0
 40
1.0
 10
43.5852594175
 20
120.3241193514
 30
0.0
 10
43.5326198778
 20
119.9634538511
 30
0.0
 10
43.519858061
 20
119.2043222895
 30
0.0
 10
43.7416679919
 20
118.0740294661
 30
0.0
 10
44.1849470348
 20
116.9915114133
 30
0.0
 10
44.8141060765
 20
116.045555869
 30
0.0
 10
45.4700671784
 20
115.4172262381
 30
0.0
 10
46.0407230638
 20
115.0630598422
 30
0.0
 10
46.4661974271
 20
114.8828545082
 30
0.0
 10
46.8913315078
 20
114.7855208563
 30
0.0
 10
47.306964537
 20
114.774352418
 30
0.0
 10
47.7031163432
 20
114.8501705898
 30
0.0
 10
47.9466626255
 20
114.9574540746
 30
0.0
 10
48.0604175937
 20
115.0231065589
 30
0.0
  0
SPLINE
  5
328
100
AcDbEntity
  8
0
100
AcDbSpline
 62
7
  6
CONTINUOUS
 70
0
 71
3
 72
11
 73
7
 74
0
 42
0.0000001
 43
0.0000001
 44
0.0000000001
 40
0.0
 40
0.0
 40
0.0
 40
0.0
 40
0.2321651106
 40
0.4888309937
 40
0.751443837
 40
1.0
 40
1.0
 40
1.0
 40
1.0
 10
48.4194826306
 20
117.8079334908
 30
0.0
 10
48.2024146359
 20
117.9332549208
 30
0.0
 10
47.7858492862
 20
118.2682881696
 30
0.0
 10
47.274974134
 20
118.9047289742
 30
0.0
 10
46.886564737
 20
119.6425297009
 30
0.0
 10
46.7296161349
 20
120.1771953623
 30
0.0
 10
46.6872245388
 20
120.4421688018
 30
0.0
  0
SPLINE
  5
329
100
AcDbEntity
  8
0
100
AcDbSpline
 62
7
  6
CONTINUOUS
 70
0
 71
3
 72
11
 73
7
 74
0
 42
0.0000001
 43
0.0000001
 44
0.0000000001
 40
0.0
 40
0.0
 40
0.0
 40
0.0
 40
0.2768976079
 40
0.5325118307
 40
0.7709552019
 40
1.0
 40
1.0
 40
1.0
 40
1.0
 10
46.6872245388
 20
121.2564043662
 30
0.0
 10
46.7036627282
 20
121.3401723614
 30
0.0
 10
46.7475741615
 20
121.4992982714
 30
0.0
 10
46.8523466826
 20
121.7144036683
 30
0.0
 10
46.9923694231
 20
121.8903571225
 30
0.0
 10
47.1083356234
 20
121.9789497511
 30
0.0
 10
47.1695055014
 20
122.0142262757
 30
0.0
  0
SPLINE
  5
32A
100
AcDbEntity
  8
0
100
AcDbSpline
 62
7
  6
CONTINUOUS
 70
0
 71
3
 72
9
 73
5
 74
0
 42
0.0000001
 43
0.0000001
 44
0.0000000001
 40
0.0
 40
0.0
 40
0.0
 40
0.0
 40
0.5065723552
 40
1.0
 40
1.0
 40
1.0
 40
1.0
 10
82.0596570046
 20
138.829402642
 30
0.0
 10
81.9412822791
 20
139.074765858
 30
0.0
 10
81.6689514967
 20
139.5412971403
 30
0.0
 10
81.3268078172
 20
139.9598459663
 30
0.0
 10
81.1410929983
 20
140.1493825404
 30
0.0
  0
SPLINE
  5
32B
100
AcDbEntity
  8
0
100
AcDbSpline
 62
7
  6
CONTINUOUS
 70
0
 71
3
 72
11
 73
7
 74
0
 42
0.0000001
 43
0.0000001
 44
0.0000000001
 40
0.0
 40
0.0
 40
0.0
 40
0.0
 40
0.2321651106
 40
0.4888309937
 40
0.751443837
 40
1.0
 40
1.0
 40
1.0
 40
1.0
 10
66.0972257593
 20
107.6019146277
 30
0.0
 10
65.8801577646
 20
107.7272360578
 30
0.0
 10
65.4635924148
 20
108.0622693066
 30
0.0
 10
64.9527172627
 20
108.6987101112
 30
0.0
 10
64.5643078657
 20
109.4365108379
 30
0.0
 10
64.4073592636
 20
109.9711764993
 30
0.0
 10
64.3649676674
 20
110.2361499388
 30
0.0
  0
SPLINE
  5
32C
100
AcDbEntity
  8
0
100
AcDbSpline
 62
7
  6
CONTINUOUS
 70
0
 71
3
 72
11
 73
7
 74
0
 42
0.0000001
 43
0.0000001
 44
0.0000000001
 40
0.0
 40
0.0
 40
0.0
 40
0.0
 40
0.2768976079
 40
0.5325118307
 40
0.7709552019
 40
1.0
 40
1.0
 40
1.0
 40
1.0
 10
64.3649676674
 20
111.0503855032
 30
0.0
 10
64.3814058569
 20
111.1341534984
 30
0.0
 10
64.4253172901
 20
111.2932794084
 30
0.0
 10
64.5300898113
 20
111.5083848053
 30
0.0
 10
64.6701125518
 20
111.6843382595
 30
0.0
 10
64.7860787521
 20
111.7729308881
 30
0.0
 10
64.8472486301
 20
111.8082074127
 30
0.0
  0
SPLINE
  5
32D
100
AcDbEntity
  8
0
100
AcDbSpline
 62
7
  6
CONTINUOUS
 70
0
 71
3
 72
16
 73
12
 74
0
 42
0.0000001
 43
0.0000001
 44
0.0000000001
 40
0.0
 40
0.0
 40
0.0
 40
0.0
 40
0.1287407954
 40
0.2704211541
 40
0.4176251582
 40
0.5620262225
 40
0.6957516539
 40
0.8130667234
 40
0.9124704488
 40
0.9571204215
 40
1.0
 40
1.0
 40
1.0
 40
1.0
 10
89.0426072048
 20
142.0372645655
 30
0.0
 10
89.0426072048
 20
142.1697453858
 30
0.0
 10
89.0055140188
 20
142.4483353762
 30
0.0
 10
88.8672223439
 20
142.8573754021
 30
0.0
 10
88.6539650184
 20
143.2513817444
 30
0.0
 10
88.3832748445
 20
143.5980502772
 30
0.0
 10
88.0763674068
 20
143.8694905113
 30
0.0
 10
87.7570831941
 20
144.0446403229
 30
0.0
 10
87.4860604542
 20
144.0975127751
 30
0.0
 10
87.2940447817
 20
144.0694694353
 30
0.0
 10
87.2098388727
 20
144.0343814688
 30
0.0
 10
87.1716243658
 20
144.0123204062
 30
0.0
  0
SPLINE
  5
32E
100
AcDbEntity
  8
0
100
AcDbSpline
 62
7
  6
CONTINUOUS
 70
0
 71
3
 72
16
 73
12
 74
0
 42
0.0000001
 43
0.0000001
 44
0.0000000001
 40
0.0
 40
0.0
 40
0.0
 40
0.0
 40
0.1287407954
 40
0.2704211541
 40
0.4176251582
 40
0.5620262225
 40
0.6957516539
 40
0.8130667234
 40
0.9124704488
 40
0.9571204215
 40
1.0
 40
1.0
 40
1.0
 40
1.0
 10
106.7203503335
 20
131.8312457025
 30
0.0
 10
106.7203503335
 20
131.9637265228
 30
0.0
 10
106.6832571475
 20
132.2423165132
 30
0.0
 10
106.5449654725
 20
132.6513565391
 30
0.0
 10
106.3317081471
 20
133.0453628814
 30
0.0
 10
106.0610179732
 20
133.3920314142
 30
0.0
 10
105.7541105354
 20
133.6634716483
 30
0.0
 10
105.4348263228
 20
133.8386214599
 30
0.0
 10
105.1638035829
 20
133.8914939121
 30
0.0
 10
104.9717879104
 20
133.8634505722
 30
0.0
 10
104.8875820014
 20
133.8283626058
 30
0.0
 10
104.8493674945
 20
133.8063015432
 30
0.0
  0
SPLINE
  5
32F
100
AcDbEntity
  8
0
100
AcDbSpline
 62
7
  6
CONTINUOUS
 70
0
 71
3
 72
16
 73
12
 74
0
 42
0.0000001
 43
0.0000001
 44
0.0000000001
 40
0.0
 40
0.0
 40
0.0
 40
0.0
 40
0.1287407954
 40
0.2704211541
 40
0.4176251582
 40
0.5620262225
 40
0.6957516539
 40
0.8130667234
 40
0.9124704488
 40
0.9571204215
 40
1.0
 40
1.0
 40
1.0
 40
1.0
 10
118.9533485786
 20
70.1446689433
 30
0.0
 10
118.9533485786
 20
70.2771497636
 30
0.0
 10
118.9162553926
 20
70.555739754
 30
0.0
 10
118.7779637176
 20
70.9647797799
 30
0.0
 10
118.5647063922
 20
71.3587861222
 30
0.0
 10
118.2940162182
 20
71.7054546551
 30
0.0
 10
117.9871087805
 20
71.9768948892
 30
0.0
 10
117.6678245678
 20
72.1520447007
 30
0.0
 10
117.3968018279
 20
72.2049171529
 30
0.0
 10
117.2047861555
 20
72.1768738131
 30
0.0
 10
117.1205802464
 20
72.1417858466
 30
0.0
 10
117.0823657395
 20
72.119724784
 30
0.0
  0
SPLINE
  5
330
100
AcDbEntity
  8
0
100
AcDbSpline
 62
7
  6
CONTINUOUS
 70
0
 71
3
 72
15
 73
11
 74
0
 42
0.0000001
 43
0.0000001
 44
0.0000000001
 40
0.0
 40
0.0
 40
0.0
 40
0.0
 40
0.1130351924
 40
0.2274420487
 40
0.3445246084
 40
0.4652866014
 40
0.5905942444
 40
0.7212273276
 40
0.857644127
 40
1.0
 40
1.0
 40
1.0
 40
1.0
 10
43.663359379
 20
104.8123191588
 30
0.0
 10
43.2329308714
 20
104.5641699281
 30
0.0
 10
42.4028226454
 20
103.9991411143
 30
0.0
 10
41.2900032023
 20
102.9639965253
 30
0.0
 10
40.3209981533
 20
101.7496043066
 30
0.0
 10
39.5022731436
 20
100.3739900966
 30
0.0
 10
38.8438639707
 20
98.8499796455
 30
0.0
 10
38.3568555223
 20
97.1914710168
 30
0.0
 10
38.0438650789
 20
95.4160958542
 30
0.0
 10
37.9551634177
 20
94.1916572057
 30
0.0
 10
37.9390514237
 20
93.5661513462
 30
0.0
  0
SPLINE
  5
331
100
AcDbEntity
  8
0
100
AcDbSpline
 62
7
  6
CONTINUOUS
 70
0
 71
3
 72
11
 73
7
 74
0
 42
0.0000001
 43
0.0000001
 44
0.0000000001
 40
0.0
 40
0.0
 40
0.0
 40
0.0
 40
0.2230514073
 40
0.460464422
 40
0.7189985642
 40
1.0
 40
1.0
 40
1.0
 40
1.0
 10
68.2413244722
 20
96.1577523345
 30
0.0
 10
68.1943510994
 20
96.130592068
 30
0.0
 10
68.1056783264
 20
96.0590915547
 30
0.0
 10
68.0039325808
 20
95.9145680767
 30
0.0
 10
67.9337530068
 20
95.7375359229
 30
0.0
 10
67.9098242403
 20
95.6076560427
 30
0.0
 10
67.9028973982
 20
95.5396504975
 30
0.0
  0
SPLINE
  5
332
100
AcDbEntity
  8
0
100
AcDbSpline
 62
7
  6
CONTINUOUS
 70
0
 71
3
 72
16
 73
12
 74
0
 42
0.0000001
 43
0.0000001
 44
0.0000000001
 40
0.0
 40
0.0
 40
0.0
 40
0.0
 40
0.0469585066
 40
0.0945879124
 40
0.1961828449
 40
0.3117575768
 40
0.4417741492
 40
0.5822643542
 40
0.7268103618
 40
0.8682356926
 40
1.0
 40
1.0
 40
1.0
 40
1.0
 10
68.2378676361
 20
96.7331350218
 30
0.0
 10
68.2861742238
 20
96.7610471389
 30
0.0
 10
68.3903021854
 20
96.8063159202
 30
0.0
 10
68.6213026289
 20
96.8488663801
 30
0.0
 10
68.9412629747
 20
96.7999891138
 30
0.0
 10
69.308942921
 20
96.6006640816
 30
0.0
 10
69.6458810275
 20
96.2833299667
 30
0.0
 10
69.9273913831
 20
95.8745537095
 30
0.0
 10
70.1323618856
 20
95.4079247584
 30
0.0
 10
70.2452949204
 20
94.921805242
 30
0.0
 10
70.2538960731
 20
94.5940948598
 30
0.0
 10
70.2380101483
 20
94.4383555027
 30
0.0
  0
SPLINE
  5
333
100
AcDbEntity
  8
0
100
AcDbSpline
 62
7
  6
CONTINUOUS
 70
0
 71
3
 72
11
 73
7
 74
0
 42
0.0000001
 43
0.0000001
 44
0.0000000001
 40
0.0
 40
0.0
 40
0.0
 40
0.0
 40
0.2221508142
 40
0.4591712907
 40
0.717933152
 40
1.0
 40
1.0
 40
1.0
 40
1.0
 10
69.5551886509
 20
93.4522909855
 30
0.0
 10
69.6203846064
 20
93.4899642812
 30
0.0
 10
69.7434930938
 20
93.589520656
 30
0.0
 10
69.8842396537
 20
93.791175979
 30
0.0
 10
69.9814056673
 20
94.038384678
 30
0.0
 10
70.0145385027
 20
94.2198138177
 30
0.0
 10
70.0242265738
 20
94.3149282352
 30
0.0
  0
SPLINE
  5
334
100
AcDbEntity
  8
0
100
AcDbSpline
 62
7
  6
CONTINUOUS
 70
0
 71
3
 72
11
 73
7
 74
0
 42
0.0000001
 43
0.0000001
 44
0.0000000001
 40
0.0
 40
0.0
 40
0.0
 40
0.0
 40
0.2234975566
 40
0.4618662526
 40
0.7203775621
 40
1.0
 40
1.0
 40
1.0
 40
1.0
 10
65.7381607224
 20
104.8170876959
 30
0.0
 10
65.894886101
 20
104.9075401009
 30
0.0
 10
66.1915744671
 20
105.1446966793
 30
0.0
 10
66.5390632091
 20
105.6198922504
 30
0.0
 10
66.7906268293
 20
106.2007378135
 30
0.0
 10
66.887184037
 20
106.6281521454
 30
0.0
 10
66.9198803473
 20
106.8521744522
 30
0.0
  0
SPLINE
  5
335
100
AcDbEntity
  8
0
100
AcDbSpline
 62
7
  6
CONTINUOUS
 70
0
 71
3
 72
11
 73
7
 74
0
 42
0.0000001
 43
0.0000001
 44
0.0000000001
 40
0.0
 40
0.0
 40
0.0
 40
0.0
 40
0.2234975566
 40
0.4618662526
 40
0.7203775621
 40
1.0
 40
1.0
 40
1.0
 40
1.0
 10
48.0604175937
 20
115.0231065589
 30
0.0
 10
48.2171429723
 20
115.1135589639
 30
0.0
 10
48.5138313384
 20
115.3507155423
 30
0.0
 10
48.8613200804
 20
115.8259111134
 30
0.0
 10
49.1128837007
 20
116.4067566765
 30
0.0
 10
49.2094409084
 20
116.8341710084
 30
0.0
 10
49.2421372186
 20
117.0581933152
 30
0.0
  0
SPLINE
  5
336
100
AcDbEntity
  8
0
100
AcDbSpline
 62
7
  6
CONTINUOUS
 70
0
 71
3
 72
11
 73
7
 74
0
 42
0.0000001
 43
0.0000001
 44
0.0000000001
 40
0.0
 40
0.0
 40
0.0
 40
0.0
 40
0.210297721
 40
0.4369404491
 40
0.6979497428
 40
1.0
 40
1.0
 40
1.0
 40
1.0
 10
73.9400598339
 20
48.8856411202
 30
0.0
 10
73.8561876146
 20
48.8372473289
 30
0.0
 10
73.70086676
 20
48.6993174926
 30
0.0
 10
73.5594504752
 20
48.4035685131
 30
0.0
 10
73.5057885135
 20
48.0401459628
 30
0.0
 10
73.523550448
 20
47.7797849738
 30
0.0
 10
73.5436237581
 20
47.6421610083
 30
0.0
  0
SPLINE
  5
337
100
AcDbEntity
  8
0
100
AcDbSpline
 62
7
  6
CONTINUOUS
 70
0
 71
3
 72
11
 73
7
 74
0
 42
0.0000001
 43
0.0000001
 44
0.0000000001
 40
0.0
 40
0.0
 40
0.0
 40
0.0
 40
0.2177821603
 40
0.4509071519
 40
0.7103304869
 40
1.0
 40
1.0
 40
1.0
 40
1.0
 10
47.1695055014
 20
122.0142262757
 30
0.0
 10
47.2519921357
 20
122.0617961235
 30
0.0
 10
47.4414186772
 20
122.1306428769
 30
0.0
 10
47.7561690017
 20
122.1385931874
 30
0.0
 10
48.0915637035
 20
122.0575592585
 30
0.0
 10
48.309798491
 20
121.9537703113
 30
0.0
 10
48.4194826306
 20
121.8904455764
 30
0.0
  0
SPLINE
  5
338
100
AcDbEntity
  8
0
100
AcDbSpline
 62
7
  6
CONTINUOUS
 70
0
 71
3
 72
11
 73
7
 74
0
 42
0.0000001
 43
0.0000001
 44
0.0000000001
 40
0.0
 40
0.0
 40
0.0
 40
0.0
 40
0.2177821603
 40
0.4509071519
 40
0.7103304869
 40
1.0
 40
1.0
 40
1.0
 40
1.0
 10
64.8472486301
 20
111.8082074127
 30
0.0
 10
64.9297352643
 20
111.8557772605
 30
0.0
 10
65.1191618059
 20
111.9246240139
 30
0.0
 10
65.4339121304
 20
111.9325743244
 30
0.0
 10
65.7693068322
 20
111.8515403955
 30
0.0
 10
65.9875416197
 20
111.7477514483
 30
0.0
 10
66.0972257593
 20
111.6844267134
 30
0.0
  0
SPLINE
  5
339
100
AcDbEntity
  8
0
100
AcDbSpline
 62
7
  6
CONTINUOUS
 70
0
 71
3
 72
9
 73
5
 74
0
 42
0.0000001
 43
0.0000001
 44
0.0000000001
 40
0.0
 40
0.0
 40
0.0
 40
0.0
 40
0.2529167058
 40
1.0
 40
1.0
 40
1.0
 40
1.0
 10
73.5812563115
 20
98.0780059952
 30
0.0
 10
73.4504992207
 20
97.0415576292
 30
0.0
 10
72.9610034298
 20
92.9401663433
 30
0.0
 10
72.5827274777
 20
88.8253876859
 30
0.0
 10
72.3670929716
 20
85.7471288921
 30
0.0
  0
SPLINE
  5
33A
100
AcDbEntity
  8
0
100
AcDbSpline
 62
7
  6
CONTINUOUS
 70
0
 71
3
 72
9
 73
5
 74
0
 42
0.0000001
 43
0.0000001
 44
0.0000000001
 40
0.0
 40
0.0
 40
0.0
 40
0.0
 40
0.2467797285
 40
1.0
 40
1.0
 40
1.0
 40
1.0
 10
70.9533832883
 20
85.0063184463
 30
0.0
 10
71.0327461417
 20
86.1441545643
 30
0.0
 10
71.3910732124
 20
90.7522751437
 30
0.0
 10
71.8941541079
 20
95.3489736474
 30
0.0
 10
72.348644273
 20
98.8005162687
 30
0.0
  0
SPLINE
  5
33B
100
AcDbEntity
  8
0
100
AcDbSpline
 62
7
  6
CONTINUOUS
 70
0
 71
3
 72
9
 73
5
 74
0
 42
0.0000001
 43
0.0000001
 44
0.0000000001
 40
0.0
 40
0.0
 40
0.0
 40
0.0
 40
0.2537422397
 40
1.0
 40
1.0
 40
1.0
 40
1.0
 10
76.4713841537
 20
99.221212033
 30
0.0
 10
76.2864421733
 20
97.8765156245
 30
0.0
 10
75.6029668596
 20
92.5709546137
 30
0.0
 10
75.1034764175
 20
87.241377752
 30
0.0
 10
74.8437305888
 20
83.2578469433
 30
0.0
  0
SPLINE
  5
33C
100
AcDbEntity
  8
0
100
AcDbSpline
 62
7
  6
CONTINUOUS
 70
0
 71
3
 72
9
 73
5
 74
0
 42
0.0000001
 43
0.0000001
 44
0.0000000001
 40
0.0
 40
0.0
 40
0.0
 40
0.0
 40
0.2462729699
 40
1.0
 40
1.0
 40
1.0
 40
1.0
 10
73.4252441478
 20
82.4388883033
 30
0.0
 10
73.510085889
 20
83.7526417015
 30
0.0
 10
73.9040773941
 20
89.0839085303
 30
0.0
 10
74.4925782761
 20
94.4005038876
 30
0.0
 10
75.0364986654
 20
98.3927854551
 30
0.0
  0
SPLINE
  5
33D
100
AcDbEntity
  8
0
100
AcDbSpline
 62
7
  6
CONTINUOUS
 70
0
 71
3
 72
20
 73
16
 74
0
 42
0.0000001
 43
0.0000001
 44
0.0000000001
 40
0.0
 40
0.0
 40
0.0
 40
0.0
 40
0.1329387625
 40
0.274025173
 40
0.4174996447
 40
0.4881163778
 40
0.5568169408
 40
0.6229542231
 40
0.6859531699
 40
0.7453645234
 40
0.8011606436
 40
0.8537152241
 40
0.9036436519
 40
0.9519589814
 40
1.0
 40
1.0
 40
1.0
 40
1.0
 10
44.2923691426
 20
119.9158785969
 30
0.0
 10
44.2528740038
 20
119.6452733809
 30
0.0
 10
44.2432836875
 20
119.0758004314
 30
0.0
 10
44.4076244189
 20
118.2275964659
 30
0.0
 10
44.6855998043
 20
117.5462259388
 30
0.0
 10
44.9830478242
 20
117.0452933883
 30
0.0
 10
45.2372214914
 20
116.7064948376
 30
0.0
 10
45.5169352951
 20
116.4096569665
 30
0.0
 10
45.8157508335
 20
116.1607096153
 30
0.0
 10
46.1282139909
 20
115.9663920897
 30
0.0
 10
46.4479112628
 20
115.8322430776
 30
0.0
 10
46.7671173506
 20
115.7595156477
 30
0.0
 10
47.0795004321
 20
115.7503991557
 30
0.0
 10
47.3773021214
 20
115.80834763
 30
0.0
 10
47.5602544228
 20
115.8893946854
 30
0.0
 10
47.645831889
 20
115.938823326
 30
0.0
  0
SPLINE
  5
33E
100
AcDbEntity
  8
0
100
AcDbSpline
 62
7
  6
CONTINUOUS
 70
0
 71
3
 72
9
 73
5
 74
0
 42
0.0000001
 43
0.0000001
 44
0.0000000001
 40
0.0
 40
0.0
 40
0.0
 40
0.0
 40
0.2539500768
 40
1.0
 40
1.0
 40
1.0
 40
1.0
 10
77.1017571049
 20
99.5851629083
 30
0.0
 10
76.9036352196
 20
98.1664520083
 30
0.0
 10
76.1738709542
 20
92.5730056261
 30
0.0
 10
75.6485438214
 20
86.9524961768
 30
0.0
 10
75.3828093094
 20
82.7525869675
 30
0.0
  0
SPLINE
  5
33F
100
AcDbEntity
  8
0
100
AcDbSpline
 62
7
  6
CONTINUOUS
 70
0
 71
3
 72
9
 73
5
 74
0
 42
0.0000001
 43
0.0000001
 44
0.0000000001
 40
0.0
 40
0.0
 40
0.0
 40
0.0
 40
0.2460365662
 40
1.0
 40
1.0
 40
1.0
 40
1.0
 10
75.1700700447
 20
82.629762629
 30
0.0
 10
75.2575696362
 20
84.0146986339
 30
0.0
 10
75.6689349251
 20
89.6400699013
 30
0.0
 10
76.2990603392
 20
95.2490673079
 30
0.0
 10
76.8863926498
 20
99.4608229244
 30
0.0
  0
SPLINE
  5
340
100
AcDbEntity
  8
0
100
AcDbSpline
 62
7
  6
CONTINUOUS
 70
0
 71
3
 72
16
 73
12
 74
0
 42
0.0000001
 43
0.0000001
 44
0.0000000001
 40
0.0
 40
0.0
 40
0.0
 40
0.0
 40
0.1317670312
 40
0.273179339
 40
0.4177313791
 40
0.5582316211
 40
0.6882504581
 40
0.8038268613
 40
0.9054308156
 40
0.9530501789
 40
1.0
 40
1.0
 40
1.0
 40
1.0
 10
70.0242265738
 20
94.3149282352
 30
0.0
 10
70.0400896413
 20
94.4706668149
 30
0.0
 10
70.0314306604
 20
94.7983502508
 30
0.0
 10
69.9184417877
 20
95.2844293325
 30
0.0
 10
69.7134140906
 20
95.7510149156
 30
0.0
 10
69.431860663
 20
96.1597622503
 30
0.0
 10
69.0949227431
 20
96.4770843095
 30
0.0
 10
68.7272515592
 20
96.6764367138
 30
0.0
 10
68.4073054602
 20
96.7252825489
 30
0.0
 10
68.1763166204
 20
96.682785533
 30
0.0
 10
68.0722170817
 20
96.6375143447
 30
0.0
 10
68.0239218359
 20
96.6096077306
 30
0.0
  0
SPLINE
  5
341
100
AcDbEntity
  8
0
100
AcDbSpline
 62
7
  6
CONTINUOUS
 70
0
 71
3
 72
16
 73
12
 74
0
 42
0.0000001
 43
0.0000001
 44
0.0000000001
 40
0.0
 40
0.0
 40
0.0
 40
0.0
 40
0.1318115735
 40
0.2733069206
 40
0.4180420552
 40
0.5588325601
 40
0.6891402126
 40
0.804791062
 40
0.9060927557
 40
0.9534100279
 40
1.0
 40
1.0
 40
1.0
 40
1.0
 10
67.9028973982
 20
95.5396504975
 30
0.0
 10
67.8915804097
 20
95.4285438825
 30
0.0
 10
67.8981444624
 20
95.1946739482
 30
0.0
 10
67.9806159918
 20
94.8481320728
 30
0.0
 10
68.1291302719
 20
94.5158649876
 30
0.0
 10
68.3320450486
 20
94.2250629143
 30
0.0
 10
68.573546043
 20
93.9993491494
 30
0.0
 10
68.8355887378
 20
93.8570538777
 30
0.0
 10
69.063081029
 20
93.821244076
 30
0.0
 10
69.2271714775
 20
93.8507200162
 30
0.0
 10
69.3008984651
 20
93.8828196998
 30
0.0
 10
69.3350717009
 20
93.9025795291
 30
0.0
  0
SPLINE
  5
342
100
AcDbEntity
  8
0
100
AcDbSpline
 62
7
  6
CONTINUOUS
 70
0
 71
3
 72
11
 73
7
 74
0
 42
0.0000001
 43
0.0000001
 44
0.0000000001
 40
0.0
 40
0.0
 40
0.0
 40
0.0
 40
0.2821055913
 40
0.5407960056
 40
0.777839886
 40
1.0
 40
1.0
 40
1.0
 40
1.0
 10
70.2380101483
 20
94.4383555027
 30
0.0
 10
70.2283054838
 20
94.3432147906
 30
0.0
 10
70.1951800674
 20
94.1617655673
 30
0.0
 10
70.0979170517
 20
93.9145478826
 30
0.0
 10
69.9571361355
 20
93.7129083559
 30
0.0
 10
69.834046498
 20
93.6132600018
 30
0.0
 10
69.7688236695
 20
93.5756037687
 30
0.0
  0
SPLINE
  5
343
100
AcDbEntity
  8
0
100
AcDbSpline
 62
7
  6
CONTINUOUS
 70
0
 71
3
 72
9
 73
5
 74
0
 42
0.0000001
 43
0.0000001
 44
0.0000000001
 40
0.0
 40
0.0
 40
0.0
 40
0.0
 40
0.4866886313
 40
1.0
 40
1.0
 40
1.0
 40
1.0
 10
81.9713941102
 20
37.1990039486
 30
0.0
 10
81.0443368392
 20
42.0480564549
 30
0.0
 10
79.6754343423
 20
52.1185882162
 30
0.0
 10
79.2565738962
 20
62.2682733762
 30
0.0
 10
79.2565738962
 20
67.4752053913
 30
0.0
  0
SPLINE
  5
344
100
AcDbEntity
  8
0
100
AcDbSpline
 62
7
  6
CONTINUOUS
 70
0
 71
3
 72
9
 73
5
 74
0
 42
0.0000001
 43
0.0000001
 44
0.0000000001
 40
0.0
 40
0.0
 40
0.0
 40
0.0
 40
0.4890459577
 40
1.0
 40
1.0
 40
1.0
 40
1.0
 10
79.2565738962
 20
67.4752053913
 30
0.0
 10
79.2565738962
 20
72.943761042
 30
0.0
 10
79.7417514911
 20
84.1294249111
 30
0.0
 10
81.0873717569
 20
95.2414628093
 30
0.0
 10
81.9713941102
 20
100.8861924847
 30
0.0
  0
SPLINE
  5
345
100
AcDbEntity
  8
0
100
AcDbSpline
 62
7
  6
CONTINUOUS
 70
0
 71
3
 72
20
 73
16
 74
0
 42
0.0000001
 43
0.0000001
 44
0.0000000001
 40
0.0
 40
0.0
 40
0.0
 40
0.0
 40
0.1329387625
 40
0.274025173
 40
0.4174996447
 40
0.4881163778
 40
0.5568169408
 40
0.6229542231
 40
0.6859531699
 40
0.7453645234
 40
0.8011606436
 40
0.8537152241
 40
0.9036436519
 40
0.9519589814
 40
1.0
 40
1.0
 40
1.0
 40
1.0
 10
61.9701122713
 20
109.7098597339
 30
0.0
 10
61.9306171325
 20
109.4392545179
 30
0.0
 10
61.9210268161
 20
108.8697815684
 30
0.0
 10
62.0853675476
 20
108.0215776029
 30
0.0
 10
62.3633429329
 20
107.3402070758
 30
0.0
 10
62.6607909529
 20
106.8392745253
 30
0.0
 10
62.9149646201
 20
106.5004759746
 30
0.0
 10
63.1946784238
 20
106.2036381035
 30
0.0
 10
63.4934939622
 20
105.9546907523
 30
0.0
 10
63.8059571196
 20
105.7603732267
 30
0.0
 10
64.1256543915
 20
105.6262242145
 30
0.0
 10
64.4448604792
 20
105.5534967847
 30
0.0
 10
64.7572435607
 20
105.5443802927
 30
0.0
 10
65.0550452501
 20
105.602328767
 30
0.0
 10
65.2379975515
 20
105.6833758224
 30
0.0
 10
65.3235750177
 20
105.7328044629
 30
0.0
  0
SPLINE
  5
346
100
AcDbEntity
  8
0
100
AcDbSpline
 62
7
  6
CONTINUOUS
 70
0
 71
3
 72
11
 73
7
 74
0
 42
0.0000001
 43
0.0000001
 44
0.0000000001
 40
0.0
 40
0.0
 40
0.0
 40
0.0
 40
0.2796095906
 40
0.5381169333
 40
0.7764922329
 40
1.0
 40
1.0
 40
1.0
 40
1.0
 10
67.1355795791
 20
106.9767077184
 30
0.0
 10
67.1028320278
 20
106.7526529752
 30
0.0
 10
67.0061665604
 20
106.3251793727
 30
0.0
 10
66.7544687783
 20
105.7442512575
 30
0.0
 10
66.4068453172
 20
105.2689830472
 30
0.0
 10
66.110074609
 20
105.0317784509
 30
0.0
 10
65.9533074925
 20
104.9413020234
 30
0.0
  0
SPLINE
  5
347
100
AcDbEntity
  8
0
100
AcDbSpline
 62
7
  6
CONTINUOUS
 70
0
 71
3
 72
11
 73
7
 74
0
 42
0.0000001
 43
0.0000001
 44
0.0000000001
 40
0.0
 40
0.0
 40
0.0
 40
0.0
 40
0.2796095906
 40
0.5381169333
 40
0.7764922329
 40
1.0
 40
1.0
 40
1.0
 40
1.0
 10
49.4578364504
 20
117.1827265814
 30
0.0
 10
49.4250888992
 20
116.9586718382
 30
0.0
 10
49.3284234317
 20
116.5311982357
 30
0.0
 10
49.0767256496
 20
115.9502701205
 30
0.0
 10
48.7291021885
 20
115.4750019102
 30
0.0
 10
48.4323314803
 20
115.2377973139
 30
0.0
 10
48.2755643639
 20
115.1473208864
 30
0.0
  0
SPLINE
  5
348
100
AcDbEntity
  8
0
100
AcDbSpline
 62
7
  6
CONTINUOUS
 70
0
 71
3
 72
9
 73
5
 74
0
 42
0.0000001
 43
0.0000001
 44
0.0000000001
 40
0.0
 40
0.0
 40
0.0
 40
0.0
 40
0.2553075681
 40
1.0
 40
1.0
 40
1.0
 40
1.0
 10
27.6375621941
 20
97.5217259438
 30
0.0
 10
27.6375621941
 20
96.0711785215
 30
0.0
 10
27.7032283347
 20
90.3899123401
 30
0.0
 10
28.0365586288
 20
84.7108592494
 30
0.0
 10
28.4524341196
 20
80.5003264493
 30
0.0
  0
SPLINE
  5
349
100
AcDbEntity
  8
0
100
AcDbSpline
 62
7
  6
CONTINUOUS
 70
0
 71
3
 72
9
 73
5
 74
0
 42
0.0000001
 43
0.0000001
 44
0.0000000001
 40
0.0
 40
0.0
 40
0.0
 40
0.0
 40
0.5104530537
 40
1.0
 40
1.0
 40
1.0
 40
1.0
 10
30.0741283514
 20
129.0881982793
 30
0.0
 10
29.2798089601
 20
123.7563296877
 30
0.0
 10
28.0715145051
 20
113.2553922626
 30
0.0
 10
27.6375621941
 20
102.6916551462
 30
0.0
 10
27.6375621941
 20
97.5217259438
 30
0.0
  0
SPLINE
  5
34A
100
AcDbEntity
  8
0
100
AcDbSpline
 62
7
  6
CONTINUOUS
 70
0
 71
3
 72
9
 73
5
 74
0
 42
0.0000001
 43
0.0000001
 44
0.0000000001
 40
0.0
 40
0.0
 40
0.0
 40
0.0
 40
0.4894954517
 40
1.0
 40
1.0
 40
1.0
 40
1.0
 10
27.4254310429
 20
97.3992526977
 30
0.0
 10
27.4254310429
 20
102.6068702413
 30
0.0
 10
27.8651097312
 20
113.2487639738
 30
0.0
 10
29.0888408508
 20
123.8267102573
 30
0.0
 10
29.8932595978
 20
129.1979355905
 30
0.0
  0
SPLINE
  5
34B
100
AcDbEntity
  8
0
100
AcDbSpline
 62
7
  6
CONTINUOUS
 70
0
 71
3
 72
9
 73
5
 74
0
 42
0.0000001
 43
0.0000001
 44
0.0000000001
 40
0.0
 40
0.0
 40
0.0
 40
0.0
 40
0.2447452256
 40
1.0
 40
1.0
 40
1.0
 40
1.0
 10
28.2390723876
 20
80.3771554053
 30
0.0
 10
28.1026050716
 20
81.7610397841
 30
0.0
 10
27.6190827623
 20
87.4225923328
 30
0.0
 10
27.4254310429
 20
93.1080358733
 30
0.0
 10
27.4254310429
 20
97.3992526977
 30
0.0
  0
SPLINE
  5
34C
100
AcDbEntity
  8
0
100
AcDbSpline
 62
7
  6
CONTINUOUS
 70
0
 71
3
 72
14
 73
10
 74
0
 42
0.0000001
 43
0.0000001
 44
0.0000000001
 40
0.0
 40
0.0
 40
0.0
 40
0.0
 40
0.1080380414
 40
0.2275276774
 40
0.3556933343
 40
0.4893165254
 40
0.7570322027
 40
0.8835266217
 40
1.0
 40
1.0
 40
1.0
 40
1.0
 10
73.5436237581
 20
47.6421610083
 30
0.0
 10
73.5663731751
 20
47.4861894728
 30
0.0
 10
73.6428765713
 20
47.161678573
 30
0.0
 10
73.8268311384
 20
46.6752916974
 30
0.0
 10
74.0806524869
 20
46.1790385758
 30
0.0
 10
74.4992562361
 20
45.5288739603
 30
0.0
 10
75.0040758399
 20
44.9397017156
 30
0.0
 10
75.5694715583
 20
44.4529505994
 30
0.0
 10
75.8635262472
 20
44.2528736723
 30
0.0
 10
76.0106895584
 20
44.1679108171
 30
0.0
  0
SPLINE
  5
34D
100
AcDbEntity
  8
0
100
AcDbSpline
 62
7
  6
CONTINUOUS
 70
0
 71
3
 72
10
 73
6
 74
0
 42
0.0000001
 43
0.0000001
 44
0.0000000001
 40
0.0
 40
0.0
 40
0.0
 40
0.0
 40
0.2281196229
 40
0.4753173508
 40
1.0
 40
1.0
 40
1.0
 40
1.0
 10
48.4194826306
 20
121.8904455764
 30
0.0
 10
48.54961577
 20
121.815314873
 30
0.0
 10
48.8062468005
 20
121.6328618236
 30
0.0
 10
49.2816085134
 20
121.1748519129
 30
0.0
 10
49.5756730265
 20
120.7514058455
 30
0.0
 10
49.7385592145
 20
120.4465849484
 30
0.0
  0
SPLINE
  5
34E
100
AcDbEntity
  8
0
100
AcDbSpline
 62
7
  6
CONTINUOUS
 70
0
 71
3
 72
11
 73
7
 74
0
 42
0.0000001
 43
0.0000001
 44
0.0000000001
 40
0.0
 40
0.0
 40
0.0
 40
0.0
 40
0.3079764708
 40
0.5746120098
 40
0.8014226812
 40
1.0
 40
1.0
 40
1.0
 40
1.0
 10
76.0106895584
 20
44.1679108171
 30
0.0
 10
76.1412770708
 20
44.0925177873
 30
0.0
 10
76.3947443105
 20
43.9674520171
 30
0.0
 10
76.7743504629
 20
43.8580008684
 30
0.0
 10
77.1174651656
 20
43.8451176419
 30
0.0
 10
77.32156339
 20
43.9104194715
 30
0.0
 10
77.405776212
 20
43.9590097933
 30
0.0
  0
SPLINE
  5
34F
100
AcDbEntity
  8
0
100
AcDbSpline
 62
7
  6
CONTINUOUS
 70
0
 71
3
 72
10
 73
6
 74
0
 42
0.0000001
 43
0.0000001
 44
0.0000000001
 40
0.0
 40
0.0
 40
0.0
 40
0.0
 40
0.5246830611
 40
0.771872663
 40
1.0
 40
1.0
 40
1.0
 40
1.0
 10
51.2960317939
 20
121.3412388056
 30
0.0
 10
51.1331447104
 20
121.6468370597
 30
0.0
 10
50.8387170149
 20
122.0713027712
 30
0.0
 10
50.3626338884
 20
122.5304535766
 30
0.0
 10
50.1055069024
 20
122.7133003506
 30
0.0
 10
49.9751110725
 20
122.7885827149
 30
0.0
  0
SPLINE
  5
350
100
AcDbEntity
  8
0
100
AcDbSpline
 62
7
  6
CONTINUOUS
 70
0
 71
3
 72
11
 73
7
 74
0
 42
0.0000001
 43
0.0000001
 44
0.0000000001
 40
0.0
 40
0.0
 40
0.0
 40
0.0
 40
0.289702329
 40
0.5490881649
 40
0.7822156415
 40
1.0
 40
1.0
 40
1.0
 40
1.0
 10
49.9751110725
 20
122.7885827149
 30
0.0
 10
49.8654140123
 20
122.8519149094
 30
0.0
 10
49.6471911872
 20
122.9557277855
 30
0.0
 10
49.3117783627
 20
123.0367239731
 30
0.0
 10
48.9970630081
 20
123.0287554374
 30
0.0
 10
48.8075875607
 20
122.9599933303
 30
0.0
 10
48.7251229059
 20
122.9123826091
 30
0.0
  0
SPLINE
  5
351
100
AcDbEntity
  8
0
100
AcDbSpline
 62
7
  6
CONTINUOUS
 70
0
 71
3
 72
10
 73
6
 74
0
 42
0.0000001
 43
0.0000001
 44
0.0000000001
 40
0.0
 40
0.0
 40
0.0
 40
0.0
 40
0.2281196229
 40
0.4753173508
 40
1.0
 40
1.0
 40
1.0
 40
1.0
 10
66.0972257593
 20
111.6844267134
 30
0.0
 10
66.2273588987
 20
111.60929601
 30
0.0
 10
66.4839899292
 20
111.4268429606
 30
0.0
 10
66.9593516421
 20
110.9688330499
 30
0.0
 10
67.2534161551
 20
110.5453869825
 30
0.0
 10
67.4163023432
 20
110.2405660853
 30
0.0
  0
SPLINE
  5
352
100
AcDbEntity
  8
0
100
AcDbSpline
 62
7
  6
CONTINUOUS
 70
0
 71
3
 72
10
 73
6
 74
0
 42
0.0000001
 43
0.0000001
 44
0.0000000001
 40
0.0
 40
0.0
 40
0.0
 40
0.0
 40
0.5246830611
 40
0.771872663
 40
1.0
 40
1.0
 40
1.0
 40
1.0
 10
68.9737749225
 20
111.1352199426
 30
0.0
 10
68.810887839
 20
111.4408181967
 30
0.0
 10
68.5164601436
 20
111.8652839082
 30
0.0
 10
68.040377017
 20
112.3244347136
 30
0.0
 10
67.783250031
 20
112.5072814876
 30
0.0
 10
67.6528542012
 20
112.5825638519
 30
0.0
  0
SPLINE
  5
353
100
AcDbEntity
  8
0
100
AcDbSpline
 62
7
  6
CONTINUOUS
 70
0
 71
3
 72
11
 73
7
 74
0
 42
0.0000001
 43
0.0000001
 44
0.0000000001
 40
0.0
 40
0.0
 40
0.0
 40
0.0
 40
0.289702329
 40
0.5490881649
 40
0.7822156415
 40
1.0
 40
1.0
 40
1.0
 40
1.0
 10
67.6528542012
 20
112.5825638519
 30
0.0
 10
67.543157141
 20
112.6458960464
 30
0.0
 10
67.3249343159
 20
112.7497089225
 30
0.0
 10
66.9895214914
 20
112.8307051101
 30
0.0
 10
66.6748061367
 20
112.8227365744
 30
0.0
 10
66.4853306894
 20
112.7539744673
 30
0.0
 10
66.4028660346
 20
112.7063637461
 30
0.0
  0
SPLINE
  5
354
100
AcDbEntity
  8
0
100
AcDbSpline
 62
7
  6
CONTINUOUS
 70
0
 71
3
 72
14
 73
10
 74
0
 42
0.0000001
 43
0.0000001
 44
0.0000000001
 40
0.0
 40
0.0
 40
0.0
 40
0.0
 40
0.1072276967
 40
0.2165065692
 40
0.3297939135
 40
0.4487350793
 40
0.5745827533
 40
0.7081875613
 40
1.0
 40
1.0
 40
1.0
 40
1.0
 10
67.9164917131
 20
62.2356881431
 30
0.0
 10
67.5949130646
 20
62.0500222376
 30
0.0
 10
66.9141599512
 20
61.7269155088
 30
0.0
 10
65.8140122857
 20
61.4047176226
 30
0.0
 10
64.6383568822
 20
61.2432809069
 30
0.0
 10
63.3949937181
 20
61.2421515859
 30
0.0
 10
62.0911346264
 20
61.3990605977
 30
0.0
 10
60.2282140921
 20
61.8282118682
 30
0.0
 10
58.8461865964
 20
62.3648460061
 30
0.0
 10
57.931408612
 20
62.7942390264
 30
0.0
  0
ENDSEC
  0
SECTION
  2
OBJECTS
  0
DICTIONARY
  5
C
100
AcDbDictionary
280
0
281
1
  3
ACAD_GROUP
350
D
  3
ACAD_MLINESTYLE
350
17
  3
ACAD_LAYOUT
350
1A
  3
ACAD_PLOTSETTINGS
350
19
  3
ACAD_PLOTSTYLENAME
350
E
  0
DICTIONARY
  5
D
102
{ACAD_REACTORS
330
C
102
}
100
AcDbDictionary
280
0
281
1
  0
ACDBDICTIONARYWDFLT
  5
E
102
{ACAD_REACTORS
330
C
102
}
100
AcDbDictionary
281
1
  3
Normal
350
F
100
AcDbDictionaryWithDefault
340
F
  0
DICTIONARY
  5
17
102
{ACAD_REACTORS
330
C
102
}
100
AcDbDictionary
280
0
281
1
  3
Standard
350
18
  0
DICTIONARY
  5
19
102
{ACAD_REACTORS
330
C
102
}
100
AcDbDictionary
281
1
  0
DICTIONARY
  5
1A
102
{ACAD_REACTORS
330
C
102
}
100
AcDbDictionary
281
1
  3
Model
350
355
  3
Layout1
350
356
  0
ACDBPLACEHOLDER
  5
F
102
{ACAD_REACTORS
330
E
102
}
  0
MLINESTYLE
  5
18
102
{ACAD_REACTORS
330
17
102
}
100
AcDbMlineStyle
  2
STANDARD
 70
0
  3

 62
256
 51
90.0
 52
90.0
 71
2
 49
0.5
 62
256
  6
BYLAYER
 49
-0.5
 62
256
  6
BYLAYER
  0
LAYOUT
  5
355
102
{ACAD_REACTORS
330
1A
102
}
100
AcDbPlotSettings
  1

  2
none_device
  4

  6

 40
0.0
 41
0.0
 42
0.0
 43
0.0
 44
210.0
 45
297.0
 46
0.0
 47
0.0
 48
0.0
 49
0.0
140
0.0
141
0.0
142
1.0
143
1.0
 70
1024
 72
1
 73
0
 74
0
  7

 75
0
147
1.0
148
0.0
149
0.0
100
AcDbLayout
  1
Model
 70
0
 71
0
 10
0.0
 20
0.0
 11
210.0
 21
297.0
 12
0.0
 22
0.0
 32
0.0
 14
0.0
 24
0.0
 34
0.0
 15
0.0
 25
0.0
 35
0.0
146
0.0
 13
0.0
 23
0.0
 33
0.0
 16
1.0
 26
0.0
 36
0.0
 17
0.0
 27
1.0
 37
0.0
 76
0
330
211
345
0
346
0
  0
LAYOUT
  5
356
102
{ACAD_REACTORS
330
1A
102
}
100
AcDbPlotSettings
  1

  2
none_device
  4

  6

 40
0.0
 41
0.0
 42
0.0
 43
0.0
 44
210.0
 45
297.0
 46
0.0
 47
0.0
 48
0.0
 49
0.0
140
0.0
141
0.0
142
1.0
143
1.0
 70
0
 72
1
 73
0
 74
0
  7

 75
0
147
1.0
148
0.0
149
0.0
100
AcDbLayout
  1
Layout1
 70
0
 71
1
 10
0.0
 20
0.0
 11
210.0
 21
297.0
 12
0.0
 22
0.0
 32
0.0
 14
0.0
 24
0.0
 34
0.0
 15
0.0
 25
0.0
 35
0.0
146
0.0
 13
0.0
 23
0.0
 33
0.0
 16
1.0
 26
0.0
 36
0.0
 17
0.0
 27
1.0
 37
0.0
 76
0
330
212
345
0
346
0
  0
ENDSEC
  0
EOF
