999
DXF file: C:\Users\SESA621925\Desktop\Projects\Drawing_creation_tool\Gen2D (3) (1)\CAD\G12ROTE_3D-CAD\drw0001_1.dxf
999
Pro/ENGINEER 2019471 by Parametric Technology Corporation
  0
SECTION
  2
HEADER
  9
$ACADVER
  1
AC1024
  9
$DWGCODEPAGE
  3
ANSI_1252
  9
$EXTMAX
 10
398.1925340677
 20
563.1580124672
 30
0.0
  9
$EXTMIN
 10
0.0
 20
0.0
 30
0.0
  9
$LIMMIN
 10
0.0
 20
0.0
  9
$LIMMAX
 10
398.1925340677
 20
563.1580124672
  9
$VIEWCTR
 10
199.0962670339
 20
281.5790062336
  9
$VIEWSIZE
 40
563.1580124672
  9
$CLAYER
  8
0
  9
$LTSCALE
 40
36.7095593312
  9
$CELTYPE
  6
BYLAYER
  9
$DIMSCALE
 40
1.0
  9
$DIMASZ
 40
4.7403873103
  9
$DIMEXO
 40
1.0
  9
$DIMDLI
 40
25.3629682652
  9
$DIMEXE
 40
1.0
  9
$DIMCEN
 40
6.0070187997
  9
$DIMLFAC
 40
1.0
  9
$DIMBLK
  1
_FILLED
  9
$DIMALT
 70
0
  9
$DIMALTF
 40
0.0393700787
  9
$DIMTXT
 40
6.6365422345
  9
$DIMTOL
 70
1
  9
$DIMLIM
 70
0
  9
$DIMTFAC
 40
1.0
  9
$DIMTP
 40
0.01
  9
$DIMTM
 40
0.01
  9
$DIMGAP
 40
0.625
  9
$DIMDSEP
 70
46
  9
$AUNITS
 70
0
  9
$PDMODE
 70
3
  9
$PDSIZE
 40
0.3125
  9
$HANDSEED
  5
3B5
  9
$TILEMODE
 70
1
  9
$MEASUREMENT
 70
1
  9
$INSUNITS
 70
4
  0
ENDSEC
  0
SECTION
  2
CLASSES
  0
CLASS
  1
ACDBDICTIONARYWDFLT
  2
AcDbDictionaryWithDefault
  3
AutoCAD 2000
 90
0
 91
1
280
0
281
0
  0
CLASS
  1
ACDBPLACEHOLDER
  2
AcDbPlaceHolder
  3
AutoCAD 2000
 90
0
 91
1
280
0
281
0
  0
CLASS
  1
LAYOUT
  2
AcDbLayout
  3
AutoCAD 2000
 90
0
 91
0
280
0
281
0
  0
ENDSEC
  0
SECTION
  2
TABLES
  0
TABLE
  2
VPORT
  5
8
100
AcDbSymbolTable
 70
2
  0
VPORT
  5
1F4
100
AcDbSymbolTableRecord
100
AcDbViewportTableRecord
  2
*ACTIVE
 70
0
 10
0.0
 20
0.0
 11
1.0
 21
1.0
 12
199.0962670339
 22
281.5790062336
 13
0.0
 23
0.0
 14
1.0
 24
1.0
 15
0.0
 25
0.0
 16
0.0
 26
0.0
 36
1.0
 17
0.0
 27
0.0
 37
0.0
 40
563.1580124672
 41
0.7070707071
 42
50.0
 43
0.0
 44
0.0
 50
0.0
 51
0.0
 71
0
 72
100
 73
1
 74
1
 75
0
 76
0
 77
0
 78
0
  0
ENDTAB
  0
TABLE
  2
LTYPE
  5
5
100
AcDbSymbolTable
 70
6
  0
LTYPE
  5
14
100
AcDbSymbolTableRecord
100
AcDbLinetypeTableRecord
  2
BYBLOCK
 70
0
  3

 72
65
 73
0
 40
0.0
  0
LTYPE
  5
15
100
AcDbSymbolTableRecord
100
AcDbLinetypeTableRecord
  2
BYLAYER
 70
0
  3

 72
65
 73
0
 40
0.0
  0
LTYPE
  5
16
100
AcDbSymbolTableRecord
100
AcDbLinetypeTableRecord
  2
CONTINUOUS
 70
64
  3
Solid line
 72
65
 73
0
 40
0.0
  0
LTYPE
  5
1F5
100
AcDbSymbolTableRecord
100
AcDbLinetypeTableRecord
  2
CENTER
 70
64
  3
____ _ ____ _ ____ _ ____ _ ____ _ ____ _ ____
 72
65
 73
4
 40
0.6
 49
0.375
 74
0
 49
-0.075
 74
0
 49
0.075
 74
0
 49
-0.075
 74
0
  0
LTYPE
  5
1F6
100
AcDbSymbolTableRecord
100
AcDbLinetypeTableRecord
  2
HIDDEN
 70
64
  3
- - - - - - - - - - - - - - - - - - - -
 72
65
 73
2
 40
0.2
 49
0.1
 74
0
 49
-0.1
 74
0
  0
LTYPE
  5
1F7
100
AcDbSymbolTableRecord
100
AcDbLinetypeTableRecord
  2
PHANTOM
 70
64
  3
_____ _ _ _____ _ _ _____ _ _ _____
 72
65
 73
6
 40
0.8
 49
0.45
 74
0
 49
-0.05
 74
0
 49
0.1
 74
0
 49
-0.05
 74
0
 49
0.1
 74
0
 49
-0.05
 74
0
  0
LTYPE
  5
1F8
100
AcDbSymbolTableRecord
100
AcDbLinetypeTableRecord
  2
DOT
 70
64
  3
. . . . . . . . . . . . . . . . . . . .
 72
65
 73
2
 40
0.2
 49
0.1
 74
0
 49
-0.1
 74
0
  0
LTYPE
  5
1F9
100
AcDbSymbolTableRecord
100
AcDbLinetypeTableRecord
  2
DASHED
 70
64
  3
- - - - - - - - - - - - - - - - - - - -
 72
65
 73
2
 40
0.2
 49
0.1
 74
0
 49
-0.1
 74
0
  0
ENDTAB
  0
TABLE
  2
LAYER
  5
2
100
AcDbSymbolTable
 70
36
  0
LAYER
  5
10
100
AcDbSymbolTableRecord
100
AcDbLayerTableRecord
  2
0
 70
0
 62
7
  6
CONTINUOUS
370
-3
390
F
  0
LAYER
  5
1FA
100
AcDbSymbolTableRecord
100
AcDbLayerTableRecord
  2
DEFAULT_1
 70
0
 62
7
  6
CENTER
370
-3
390
F
  0
LAYER
  5
1FB
100
AcDbSymbolTableRecord
100
AcDbLayerTableRecord
  2
DEFAULT_2
 70
0
 62
8
  6
HIDDEN
370
-3
390
F
  0
LAYER
  5
1FC
100
AcDbSymbolTableRecord
100
AcDbLayerTableRecord
  2
DEFAULT_3
 70
0
 62
7
  6
PHANTOM
370
-3
390
F
  0
LAYER
  5
1FD
100
AcDbSymbolTableRecord
100
AcDbLayerTableRecord
  2
00_COMPONENTS
 70
0
 62
7
  6
CONTINUOUS
370
-3
390
F
  0
LAYER
  5
1FE
100
AcDbSymbolTableRecord
100
AcDbLayerTableRecord
  2
01_1_DEFAULT_DATUMS
 70
0
 62
7
  6
CONTINUOUS
370
-3
390
F
  0
LAYER
  5
1FF
100
AcDbSymbolTableRecord
100
AcDbLayerTableRecord
  2
01_PLANES
 70
0
 62
7
  6
CONTINUOUS
370
-3
390
F
  0
LAYER
  5
200
100
AcDbSymbolTableRecord
100
AcDbLayerTableRecord
  2
02_COORD_SYS
 70
0
 62
7
  6
CONTINUOUS
370
-3
390
F
  0
LAYER
  5
201
100
AcDbSymbolTableRecord
100
AcDbLayerTableRecord
  2
03_AXES
 70
0
 62
7
  6
CONTINUOUS
370
-3
390
F
  0
LAYER
  5
202
100
AcDbSymbolTableRecord
100
AcDbLayerTableRecord
  2
04_POINTS
 70
0
 62
7
  6
CONTINUOUS
370
-3
390
F
  0
LAYER
  5
203
100
AcDbSymbolTableRecord
100
AcDbLayerTableRecord
  2
05_CURVES
 70
0
 62
7
  6
CONTINUOUS
370
-3
390
F
  0
LAYER
  5
204
100
AcDbSymbolTableRecord
100
AcDbLayerTableRecord
  2
06_SURFS
 70
0
 62
7
  6
CONTINUOUS
370
-3
390
F
  0
LAYER
  5
205
100
AcDbSymbolTableRecord
100
AcDbLayerTableRecord
  2
07_COSMETICS
 70
0
 62
7
  6
CONTINUOUS
370
-3
390
F
  0
LAYER
  5
206
100
AcDbSymbolTableRecord
100
AcDbLayerTableRecord
  2
10_NOTES
 70
0
 62
7
  6
CONTINUOUS
370
-3
390
F
  0
LAYER
  5
207
100
AcDbSymbolTableRecord
100
AcDbLayerTableRecord
  2
11_NOTES_PUB
 70
0
 62
7
  6
CONTINUOUS
370
-3
390
F
  0
LAYER
  5
208
100
AcDbSymbolTableRecord
100
AcDbLayerTableRecord
  2
13_REF_GTOL
 70
0
 62
7
  6
CONTINUOUS
370
-3
390
F
  0
LAYER
  5
209
100
AcDbSymbolTableRecord
100
AcDbLayerTableRecord
  2
16_MISC
 70
0
 62
7
  6
CONTINUOUS
370
-3
390
F
  0
LAYER
  5
20A
100
AcDbSymbolTableRecord
100
AcDbLayerTableRecord
  2
17_NO_PRINT
 70
0
 62
7
  6
CONTINUOUS
370
-3
390
F
  0
LAYER
  5
20B
100
AcDbSymbolTableRecord
100
AcDbLayerTableRecord
  2
18_DATUM_CAMS_JOINTS
 70
0
 62
7
  6
CONTINUOUS
370
-3
390
F
  0
LAYER
  5
20C
100
AcDbSymbolTableRecord
100
AcDbLayerTableRecord
  2
19_DATUM_FUNCTIONAL
 70
0
 62
7
  6
CONTINUOUS
370
-3
390
F
  0
LAYER
  5
20D
100
AcDbSymbolTableRecord
100
AcDbLayerTableRecord
  2
20_DATUM_KINEMATIC_SCHEME
 70
0
 62
7
  6
CONTINUOUS
370
-3
390
F
  0
LAYER
  5
20E
100
AcDbSymbolTableRecord
100
AcDbLayerTableRecord
  2
black
 70
0
 62
7
  6
CONTINUOUS
370
-3
390
F
  0
ENDTAB
  0
TABLE
  2
STYLE
  5
3
100
AcDbSymbolTable
 70
1
  0
STYLE
  5
11
100
AcDbSymbolTableRecord
100
AcDbTextStyleTableRecord
  2
STANDARD
 70
0
 40
0.0
 41
0.8
 50
0.0
 71
0
 42
0.2
  3
txt
  4

  0
STYLE
  5
20F
100
AcDbSymbolTableRecord
100
AcDbTextStyleTableRecord
  2
TEXTSTYLE_1
 70
0
 40
0.0
 41
0.8
 50
0.0
 71
0
 42
0.2
  3
gdt
  4

  0
ENDTAB
  0
TABLE
  2
VIEW
  5
6
100
AcDbSymbolTable
 70
0
  0
ENDTAB
  0
TABLE
  2
UCS
  5
7
100
AcDbSymbolTable
 70
0
  0
ENDTAB
  0
TABLE
  2
APPID
  5
9
100
AcDbSymbolTable
 70
1
  0
APPID
  5
210
100
AcDbSymbolTableRecord
100
AcDbRegAppTableRecord
  2
ACAD
 70
0
  0
ENDTAB
  0
TABLE
  2
BLOCK_RECORD
  5
1
100
AcDbSymbolTable
 70
0
  0
BLOCK_RECORD
  5
211
100
AcDbSymbolTableRecord
100
AcDbBlockTableRecord
  2
*Model_Space
  0
BLOCK_RECORD
  5
212
100
AcDbSymbolTableRecord
100
AcDbBlockTableRecord
  2
*Paper_Space
  0
BLOCK_RECORD
  5
213
100
AcDbSymbolTableRecord
100
AcDbBlockTableRecord
  2
_FILLED
  0
ENDTAB
  0
TABLE
  2
DIMSTYLE
  5
A
100
AcDbSymbolTable
 70
1
100
AcDbDimStyleTable
 71
0
  0
DIMSTYLE
105
214
100
AcDbSymbolTableRecord
100
AcDbDimStyleTableRecord
  2
STANDARD
 70
0
  3

  4

 40
1.0
 41
4.7403873103
 42
1.0
 43
0.38
 44
1.0
 45
0.0
 46
0.0
 47
0.01
 48
0.01
140
6.6365422345
141
0.09
142
0.0
143
25.4
144
1.0
145
0.0
146
1.0
147
0.625
 71
1
 72
0
 73
0
 74
0
 75
0
 76
0
 77
1
 78
8
 79
2
170
0
171
1
172
0
173
0
174
0
175
0
176
0
177
0
178
0
270
2
179
2
271
2
272
2
273
2
274
2
275
0
280
0
281
0
282
0
283
1
284
8
285
0
286
0
287
3
288
0
340
11
278
46
341
213
342
213
343
213
344
213
  0
ENDTAB
  0
ENDSEC
  0
SECTION
  2
BLOCKS
  0
BLOCK
  5
20
100
AcDbEntity
  8
0
100
AcDbBlockBegin
  2
*Model_Space
 70
0
 10
0.0
 20
0.0
 30
0.0
  3
*Model_Space
  1

  0
ENDBLK
  5
21
100
AcDbEntity
  8
0
100
AcDbBlockEnd
  0
BLOCK
  5
1C
100
AcDbEntity
  8
0
100
AcDbBlockBegin
  2
*Paper_Space
 70
0
 10
0.0
 20
0.0
 30
0.0
  3
*Paper_Space
  1

  0
ENDBLK
  5
1D
100
AcDbEntity
  8
0
100
AcDbBlockEnd
  0
BLOCK
  5
215
100
AcDbEntity
  8
0
100
AcDbBlockBegin
  2
_FILLED
 70
64
 10
0.0
 20
0.0
  3
_FILLED
  1

  0
SOLID
  5
216
100
AcDbEntity
  8
0
  6
BYBLOCK
 62
0
100
AcDbTrace
 10
0.0
 20
0.0
 11
-1.0
 21
0.25
 12
-1.0
 22
-0.25
 13
-1.0
 23
-0.25
  0
ENDBLK
  5
217
100
AcDbEntity
  8
0
  6
BYBLOCK
 62
0
100
AcDbBlockEnd
  0
ENDSEC
  0
SECTION
  2
ENTITIES
  0
LINE
  5
218
100
AcDbEntity
  8
0
100
AcDbLine
 62
7
  6
CONTINUOUS
 10
49.5497015872
 20
199.204772793
 11
50.3351340491
 21
197.9902990029
  0
LINE
  5
219
100
AcDbEntity
  8
0
100
AcDbLine
 62
7
  6
CONTINUOUS
 10
57.7248145564
 20
186.5640132748
 11
58.5102470421
 21
185.3495395037
  0
LINE
  5
21A
100
AcDbEntity
  8
0
100
AcDbLine
 62
7
  6
CONTINUOUS
 10
54.9346942652
 20
195.6621095501
 11
57.2186135298
 21
192.1306019096
  0
LINE
  5
21B
100
AcDbEntity
  8
0
100
AcDbLine
 62
7
  6
CONTINUOUS
 10
57.3246791054
 20
192.1918385327
 11
55.0407598408
 21
195.7233461732
  0
LINE
  5
21C
100
AcDbEntity
  8
0
100
AcDbLine
 62
7
  6
CONTINUOUS
 10
50.2499259305
 20
186.9928782161
 11
47.2521709593
 21
191.8457992167
  0
LINE
  5
21D
100
AcDbEntity
  8
0
100
AcDbLine
 62
7
  6
CONTINUOUS
 10
70.3285624282
 20
194.5961700792
 11
71.113994914
 21
193.3816963081
  0
LINE
  5
21E
100
AcDbEntity
  8
0
100
AcDbLine
 62
7
  6
CONTINUOUS
 10
70.9980570994
 20
203.1374204449
 11
68.7141378349
 21
206.6689280854
  0
LINE
  5
21F
100
AcDbEntity
  8
0
100
AcDbLine
 62
7
  6
CONTINUOUS
 10
76.2416241577
 20
199.5131158941
 11
75.456191672
 21
200.7275896652
  0
LINE
  5
220
100
AcDbEntity
  8
0
100
AcDbLine
 62
7
  6
CONTINUOUS
 10
68.0665119284
 20
212.1538742123
 11
67.2810794665
 21
213.3683480024
  0
LINE
  5
221
100
AcDbEntity
  8
0
100
AcDbLine
 62
7
  6
CONTINUOUS
 10
125.3370296879
 20
164.3741180133
 11
74.2370430421
 21
193.8760416361
  0
LINE
  5
222
100
AcDbEntity
  8
0
100
AcDbLine
 62
7
  6
CONTINUOUS
 10
91.6646373019
 20
191.4448314779
 11
85.8765400082
 21
193.5529938076
  0
LINE
  5
223
100
AcDbEntity
  8
0
100
AcDbLine
 62
7
  6
CONTINUOUS
 10
91.6648155611
 20
191.4441887716
 11
100.774005638
 21
190.2025970058
  0
LINE
  5
224
100
AcDbEntity
  8
0
100
AcDbLine
 62
7
  6
CONTINUOUS
 10
70.7220001115
 20
227.7184257104
 11
74.2013891296
 21
236.2279936214
  0
LINE
  5
225
100
AcDbEntity
  8
0
100
AcDbLine
 62
7
  6
CONTINUOUS
 10
68.7682516762
 20
266.4360838309
 11
125.3370296879
 21
233.7768234693
  0
LINE
  5
226
100
AcDbEntity
  8
0
100
AcDbLine
 62
7
  6
CONTINUOUS
 10
137.3539348747
 20
240.7147454999
 11
137.3539348747
 21
171.3120400439
  0
LINE
  5
227
100
AcDbEntity
  8
0
100
AcDbLine
 62
7
  6
CONTINUOUS
 10
80.7851568629
 20
273.3740058615
 11
137.3539348747
 21
240.7147454999
  0
LINE
  5
228
100
AcDbEntity
  8
0
100
AcDbLine
 62
7
  6
CONTINUOUS
 10
68.7682516762
 20
266.4360838309
 11
80.7851568629
 21
273.3740058615
  0
LINE
  5
229
100
AcDbEntity
  8
0
100
AcDbLine
 62
7
  6
CONTINUOUS
 10
301.4015505409
 20
400.1582886271
 11
268.5207635895
 21
381.1746707465
  0
LINE
  5
22A
100
AcDbEntity
  8
0
100
AcDbLine
 62
7
  6
CONTINUOUS
 10
47.1502294984
 20
197.2881082437
 11
49.5497015872
 21
199.204772793
  0
LINE
  5
22B
100
AcDbEntity
  8
0
100
AcDbLine
 62
7
  6
CONTINUOUS
 10
67.2810794665
 20
213.3683480024
 11
69.6805764913
 21
215.2850324703
  0
LINE
  5
22C
100
AcDbEntity
  8
0
100
AcDbLine
 62
7
  6
CONTINUOUS
 10
50.3351340491
 20
197.9902990029
 11
68.0665119284
 21
212.1538742123
  0
LINE
  5
22D
100
AcDbEntity
  8
0
100
AcDbLine
 62
7
  6
CONTINUOUS
 10
71.0109682529
 20
214.4567433209
 11
47.4325662362
 21
195.6226593915
  0
LINE
  5
22E
100
AcDbEntity
  8
0
100
AcDbLine
 62
7
  6
CONTINUOUS
 10
47.5032766199
 20
195.6634838069
 11
50.3667179907
 21
197.9507590457
  0
LINE
  5
22F
100
AcDbEntity
  8
0
100
AcDbLine
 62
7
  6
CONTINUOUS
 10
319.6631383684
 20
389.6151944958
 11
320.36976303
 21
390.0237152955
  0
LINE
  5
230
100
AcDbEntity
  8
0
100
AcDbLine
 62
7
  6
CONTINUOUS
 10
287.0828258998
 20
374.1327977537
 11
283.9004001115
 21
372.2954343357
  0
LINE
  5
231
100
AcDbEntity
  8
0
100
AcDbLine
 62
7
  6
CONTINUOUS
 10
318.1096267908
 20
390.7744474271
 11
317.8824192713
 21
390.6432698876
  0
LINE
  5
232
100
AcDbEntity
  8
0
100
AcDbLine
 62
7
  6
CONTINUOUS
 10
287.9541606714
 20
372.7869354626
 11
286.3985322295
 21
371.888798324
  0
LINE
  5
233
100
AcDbEntity
  8
0
100
AcDbLine
 62
7
  6
CONTINUOUS
 10
283.5214131454
 20
369.790420647
 11
285.8980230061
 21
371.1625487993
  0
LINE
  5
234
100
AcDbEntity
  8
0
100
AcDbLine
 62
7
  6
CONTINUOUS
 10
320.039541674
 20
390.2143643713
 11
326.4006346032
 21
393.8869211641
  0
LINE
  5
235
100
AcDbEntity
  8
0
100
AcDbLine
 62
7
  6
CONTINUOUS
 10
286.6214273058
 20
370.7238320241
 11
285.9162685416
 21
370.3167108519
  0
LINE
  5
236
100
AcDbEntity
  8
0
100
AcDbLine
 62
7
  6
CONTINUOUS
 10
287.8778744087
 20
370.6703733223
 11
287.295953344
 21
370.3344030444
  0
LINE
  5
237
100
AcDbEntity
  8
0
100
AcDbLine
 62
7
  6
CONTINUOUS
 10
288.0011060154
 20
369.9272851346
 11
287.295953344
 21
369.5201674801
  0
LINE
  5
238
100
AcDbEntity
  8
0
100
AcDbLine
 62
7
  6
CONTINUOUS
 10
291.3254842507
 20
371.6833532266
 11
288.1430584624
 21
369.8459898086
  0
LINE
  5
239
100
AcDbEntity
  8
0
100
AcDbLine
 62
7
  6
CONTINUOUS
 10
288.0565615663
 20
369.28736726
 11
287.295953344
 21
368.8482325194
  0
LINE
  5
23A
100
AcDbEntity
  8
0
100
AcDbLine
 62
7
  6
CONTINUOUS
 10
288.0323670814
 20
369.1311121176
 11
288.0010999229
 21
369.1130601229
  0
LINE
  5
23B
100
AcDbEntity
  8
0
100
AcDbLine
 62
7
  6
CONTINUOUS
 10
322.4324775283
 20
388.0163519569
 11
327.9506276641
 21
391.2022384061
  0
LINE
  5
23C
100
AcDbEntity
  8
0
100
AcDbLine
 62
7
  6
CONTINUOUS
 10
288.4711812214
 20
366.9327353653
 11
288.6868804532
 21
367.0572686315
  0
LINE
  5
23D
100
AcDbEntity
  8
0
100
AcDbLine
 62
7
  6
CONTINUOUS
 10
78.8752678644
 20
241.8551474958
 11
80.9449292446
 21
243.0500599181
  0
LINE
  5
23E
100
AcDbEntity
  8
0
100
AcDbLine
 62
7
  6
CONTINUOUS
 10
318.1418941081
 20
390.4934654098
 11
318.8494771209
 21
390.9014329177
  0
LINE
  5
23F
100
AcDbEntity
  8
0
100
AcDbLine
 62
7
  6
CONTINUOUS
 10
283.2528590307
 20
342.0827235425
 11
281.7926861542
 21
341.6002763606
  0
LINE
  5
240
100
AcDbEntity
  8
0
100
AcDbLine
 62
7
  6
CONTINUOUS
 10
281.8249340026
 20
340.9182933052
 11
283.1300707155
 21
341.3495158948
  0
LINE
  5
241
100
AcDbEntity
  8
0
100
AcDbLine
 62
7
  6
CONTINUOUS
 10
283.363670807
 20
339.7392570005
 11
284.8238436835
 21
340.2217041823
  0
LINE
  5
242
100
AcDbEntity
  8
0
100
AcDbLine
 62
7
  6
CONTINUOUS
 10
68.7141378349
 20
206.6689280854
 11
54.9346942652
 21
195.6621095501
  0
LINE
  5
243
100
AcDbEntity
  8
0
100
AcDbLine
 62
7
  6
CONTINUOUS
 10
55.0407598408
 20
195.7233461732
 11
68.7255910805
 21
206.6545897593
  0
LINE
  5
244
100
AcDbEntity
  8
0
100
AcDbLine
 62
7
  6
CONTINUOUS
 10
57.2186135298
 20
192.1306019096
 11
70.9980570994
 21
203.1374204449
  0
LINE
  5
245
100
AcDbEntity
  8
0
100
AcDbLine
 62
7
  6
CONTINUOUS
 10
54.7803623366
 20
184.261137852
 11
78.3587643562
 21
203.0952217836
  0
LINE
  5
246
100
AcDbEntity
  8
0
100
AcDbLine
 62
7
  6
CONTINUOUS
 10
75.456191672
 20
200.7275896652
 11
57.7248145564
 21
186.5640132748
  0
LINE
  5
247
100
AcDbEntity
  8
0
100
AcDbLine
 62
7
  6
CONTINUOUS
 10
78.617785941
 20
201.4111607393
 11
76.2416241577
 21
199.5131158941
  0
LINE
  5
248
100
AcDbEntity
  8
0
100
AcDbLine
 62
7
  6
CONTINUOUS
 10
58.5102470421
 20
185.3495395037
 11
56.1107748674
 21
183.4328746434
  0
LINE
  5
249
100
AcDbEntity
  8
0
100
AcDbLine
 62
7
  6
CONTINUOUS
 10
76.7916580766
 20
199.7588001735
 11
70.3285624283
 21
194.5961700792
  0
LINE
  5
24A
100
AcDbEntity
  8
0
100
AcDbLine
 62
7
  6
CONTINUOUS
 10
82.0225262587
 20
202.0952780449
 11
71.113994914
 21
193.3816963081
  0
LINE
  5
24B
100
AcDbEntity
  8
0
100
AcDbLine
 62
7
  6
CONTINUOUS
 10
69.6805764913
 20
215.2850324703
 11
69.8895388875
 21
215.4263889679
  0
LINE
  5
24C
100
AcDbEntity
  8
0
100
AcDbLine
 62
7
  6
CONTINUOUS
 10
60.9542513037
 20
206.4727004788
 11
49.5497015872
 21
199.2047727931
  0
LINE
  5
24D
100
AcDbEntity
  8
0
100
AcDbLine
 62
7
  6
CONTINUOUS
 10
281.6237011042
 20
353.0118718366
 11
286.2436852628
 21
355.6792050124
  0
LINE
  5
24E
100
AcDbEntity
  8
0
100
AcDbLine
 62
7
  6
CONTINUOUS
 10
304.7605690285
 20
363.9267788907
 11
301.5781432402
 21
362.0894154727
  0
LINE
  5
24F
100
AcDbEntity
  8
0
100
AcDbLine
 62
7
  6
CONTINUOUS
 10
335.7873699195
 20
380.5684285641
 11
335.5601624
 21
380.4372510246
  0
LINE
  5
250
100
AcDbEntity
  8
0
100
AcDbLine
 62
7
  6
CONTINUOUS
 10
336.5257827228
 20
380.6962439924
 11
335.8186788856
 21
380.2879998386
  0
LINE
  5
251
100
AcDbEntity
  8
0
100
AcDbLine
 62
7
  6
CONTINUOUS
 10
305.6319038001
 20
362.5809165995
 11
304.0762753582
 21
361.682779461
  0
LINE
  5
252
100
AcDbEntity
  8
0
100
AcDbLine
 62
7
  6
CONTINUOUS
 10
301.1991562741
 20
359.584401784
 11
303.5757661348
 21
360.9565299363
  0
LINE
  5
253
100
AcDbEntity
  8
0
100
AcDbLine
 62
7
  6
CONTINUOUS
 10
337.7172848026
 20
380.0083455083
 11
344.0783777319
 21
383.6809023011
  0
LINE
  5
254
100
AcDbEntity
  8
0
100
AcDbLine
 62
7
  6
CONTINUOUS
 10
304.2991704344
 20
360.5178131611
 11
303.5940116702
 21
360.1106919889
  0
LINE
  5
255
100
AcDbEntity
  8
0
100
AcDbLine
 62
7
  6
CONTINUOUS
 10
337.3418398483
 20
379.4086223409
 11
338.0489436855
 21
379.8168664948
  0
LINE
  5
256
100
AcDbEntity
  8
0
100
AcDbLine
 62
7
  6
CONTINUOUS
 10
305.5556175373
 20
360.4643544593
 11
304.9736964726
 21
360.1283841814
  0
LINE
  5
257
100
AcDbEntity
  8
0
100
AcDbLine
 62
7
  6
CONTINUOUS
 10
305.6788491441
 20
359.7212662716
 11
304.9736964726
 21
359.3141486171
  0
LINE
  5
258
100
AcDbEntity
  8
0
100
AcDbLine
 62
7
  6
CONTINUOUS
 10
309.0032273794
 20
361.4773343636
 11
305.820801591
 21
359.6399709456
  0
LINE
  5
259
100
AcDbEntity
  8
0
100
AcDbLine
 62
7
  6
CONTINUOUS
 10
305.734304695
 20
359.081348397
 11
304.9736964726
 21
358.6422136564
  0
LINE
  5
25A
100
AcDbEntity
  8
0
100
AcDbLine
 62
7
  6
CONTINUOUS
 10
305.7101102101
 20
358.9250932546
 11
305.6788430515
 21
358.9070412599
  0
LINE
  5
25B
100
AcDbEntity
  8
0
100
AcDbLine
 62
7
  6
CONTINUOUS
 10
340.110220657
 20
377.8103330939
 11
345.6283707928
 21
380.9962195431
  0
LINE
  5
25C
100
AcDbEntity
  8
0
100
AcDbLine
 62
7
  6
CONTINUOUS
 10
306.1489243501
 20
356.7267165023
 11
306.3646235819
 21
356.8512497685
  0
LINE
  5
25D
100
AcDbEntity
  8
0
100
AcDbLine
 62
7
  6
CONTINUOUS
 10
80.4383577766
 20
197.7765413451
 11
99.9837745671
 21
213.3891472915
  0
LINE
  5
25E
100
AcDbEntity
  8
0
100
AcDbLine
 62
7
  6
CONTINUOUS
 10
56.1107748674
 20
183.4328746434
 11
55.901809755
 21
183.2915162985
  0
LINE
  5
25F
100
AcDbEntity
  8
0
100
AcDbLine
 62
7
  6
CONTINUOUS
 10
269.9214349894
 20
333.7104859775
 11
279.3069057324
 21
339.6780911711
  0
LINE
  5
260
100
AcDbEntity
  8
0
100
AcDbLine
 62
7
  6
CONTINUOUS
 10
97.748356315
 20
231.5118520308
 11
69.8889918363
 21
215.4273364612
  0
LINE
  5
261
100
AcDbEntity
  8
0
100
AcDbLine
 62
7
  6
CONTINUOUS
 10
104.6132067386
 20
234.5953229549
 11
102.1307802884
 21
233.1621019308
  0
LINE
  5
262
100
AcDbEntity
  8
0
100
AcDbLine
 62
7
  6
CONTINUOUS
 10
312.2295647019
 20
351.8275013346
 11
312.0142002467
 21
351.7031613507
  0
LINE
  5
263
100
AcDbEntity
  8
0
100
AcDbLine
 62
7
  6
CONTINUOUS
 10
270.5821746638
 20
327.6061533233
 11
128.7173671263
 21
245.7009574111
  0
LINE
  5
264
100
AcDbEntity
  8
0
100
AcDbLine
 62
7
  6
CONTINUOUS
 10
312.3063014758
 20
351.0553097048
 11
310.8714159875
 21
350.2268831269
  0
LINE
  5
265
100
AcDbEntity
  8
0
100
AcDbLine
 62
7
  6
CONTINUOUS
 10
107.2545410912
 20
232.4763530354
 11
74.2888039231
 21
213.443689417
  0
LINE
  5
266
100
AcDbEntity
  8
0
100
AcDbLine
 62
7
  6
CONTINUOUS
 10
307.2529496277
 20
346.4841688059
 11
307.4669044039
 21
346.6076949162
  0
LINE
  5
267
100
AcDbEntity
  8
0
100
AcDbLine
 62
7
  6
CONTINUOUS
 10
47.4325662362
 20
195.6226593915
 11
47.5032766199
 21
195.6634838069
  0
LINE
  5
268
100
AcDbEntity
  8
0
100
AcDbLine
 62
7
  6
CONTINUOUS
 10
316.3308011077
 20
349.4597049584
 11
316.1154366526
 21
349.3353649745
  0
LINE
  5
269
100
AcDbEntity
  8
0
100
AcDbLine
 62
7
  6
CONTINUOUS
 10
315.7004281565
 20
349.0957540831
 11
314.2655426682
 21
348.2673275052
  0
LINE
  5
26A
100
AcDbEntity
  8
0
100
AcDbLine
 62
7
  6
CONTINUOUS
 10
321.200438113
 20
350.7607345348
 11
354.0812250643
 21
369.7443524154
  0
LINE
  5
26B
100
AcDbEntity
  8
0
100
AcDbLine
 62
7
  6
CONTINUOUS
 10
308.7842487117
 20
343.3268136136
 11
308.9978697999
 21
343.4501470702
  0
LINE
  5
26C
100
AcDbEntity
  8
0
100
AcDbLine
 62
7
  6
CONTINUOUS
 10
55.0407598408
 20
195.7233461732
 11
54.9346942652
 21
195.6621095501
  0
LINE
  5
26D
100
AcDbEntity
  8
0
100
AcDbLine
 62
7
  6
CONTINUOUS
 10
70.3285624283
 20
194.5961700792
 11
57.7248145564
 21
186.5640132748
  0
LINE
  5
26E
100
AcDbEntity
  8
0
100
AcDbLine
 62
7
  6
CONTINUOUS
 10
58.5102470421
 20
185.3495395037
 11
71.113994914
 21
193.3816963081
  0
LINE
  5
26F
100
AcDbEntity
  8
0
100
AcDbLine
 62
7
  6
CONTINUOUS
 10
111.1489388184
 20
225.6993483887
 11
78.5389525792
 21
206.8720764389
  0
LINE
  5
270
100
AcDbEntity
  8
0
100
AcDbLine
 62
7
  6
CONTINUOUS
 10
137.2697195482
 20
240.7633661413
 11
277.8525428601
 21
321.9284125338
  0
LINE
  5
271
100
AcDbEntity
  8
0
100
AcDbLine
 62
7
  6
CONTINUOUS
 10
125.337029688
 20
233.7768234693
 11
137.3539348747
 21
240.7147454999
  0
LINE
  5
272
100
AcDbEntity
  8
0
100
AcDbLine
 62
7
  6
CONTINUOUS
 10
111.8627572522
 20
222.28482111
 11
109.988810216
 21
221.2029037424
  0
LINE
  5
273
100
AcDbEntity
  8
0
100
AcDbLine
 62
7
  6
CONTINUOUS
 10
105.7125872655
 20
217.054258201
 11
78.617785941
 21
201.4111607393
  0
LINE
  5
274
100
AcDbEntity
  8
0
100
AcDbLine
 62
7
  6
CONTINUOUS
 10
311.5961369744
 20
335.6216709422
 11
310.1769633388
 21
334.8023155526
  0
LINE
  5
275
100
AcDbEntity
  8
0
100
AcDbLine
 62
7
  6
CONTINUOUS
 10
137.3539348747
 20
233.8971256009
 11
276.5705807874
 21
314.2734138125
  0
LINE
  5
276
100
AcDbEntity
  8
0
100
AcDbLine
 62
7
  6
CONTINUOUS
 10
314.0727745916
 20
333.1323889934
 11
312.6542881506
 21
332.3134303534
  0
LINE
  5
277
100
AcDbEntity
  8
0
100
AcDbLine
 62
7
  6
CONTINUOUS
 10
56.1107748674
 20
183.4328746434
 11
80.638123033
 21
197.5936611808
  0
LINE
  5
278
100
AcDbEntity
  8
0
100
AcDbLine
 62
7
  6
CONTINUOUS
 10
80.6528443773
 20
197.5801841533
 11
55.9023568131
 21
183.2905687931
  0
LINE
  5
279
100
AcDbEntity
  8
0
100
AcDbLine
 62
7
  6
CONTINUOUS
 10
314.6118533122
 20
332.6271290176
 11
314.3991140475
 21
332.5043046791
  0
LINE
  5
27A
100
AcDbEntity
  8
0
100
AcDbLine
 62
7
  6
CONTINUOUS
 10
354.0812250643
 20
352.9244026225
 11
347.2930282271
 21
349.0052587453
  0
LINE
  5
27B
100
AcDbEntity
  8
0
100
AcDbLine
 62
7
  6
CONTINUOUS
 10
283.056967619
 20
310.958940271
 11
290.6314828601
 21
314.9104051242
  0
LINE
  5
27C
100
AcDbEntity
  8
0
100
AcDbLine
 62
7
  6
CONTINUOUS
 10
289.1421836929
 20
311.0631411342
 11
288.9274192176
 21
310.9391475467
  0
LINE
  5
27D
100
AcDbEntity
  8
0
100
AcDbLine
 62
7
  6
CONTINUOUS
 10
290.5476924483
 20
306.1591043381
 11
290.3709508413
 21
306.0570631328
  0
LINE
  5
27E
100
AcDbEntity
  8
0
100
AcDbLine
 62
7
  6
CONTINUOUS
 10
305.623593659
 20
311.4425904216
 11
307.7840636243
 21
312.689930892
  0
LINE
  5
27F
100
AcDbEntity
  8
0
100
AcDbLine
 62
7
  6
CONTINUOUS
 10
82.0225262587
 20
202.0952780449
 11
76.2416241577
 21
199.5131158941
  0
LINE
  5
280
100
AcDbEntity
  8
0
100
AcDbLine
 62
7
  6
CONTINUOUS
 10
266.6522829096
 20
328.4122634354
 11
268.0838684805
 21
331.5255995726
  0
LINE
  5
281
100
AcDbEntity
  8
0
100
AcDbLine
 62
7
  6
CONTINUOUS
 10
295.062761772
 20
315.4464466651
 11
293.8426155416
 21
314.3332994684
  0
LINE
  5
282
100
AcDbEntity
  8
0
100
AcDbLine
 62
7
  6
CONTINUOUS
 10
294.7779584693
 20
314.3713128274
 11
293.5578122389
 21
313.2581656307
  0
LINE
  5
283
100
AcDbEntity
  8
0
100
AcDbLine
 62
7
  6
CONTINUOUS
 10
294.2541793785
 20
312.7143428138
 11
295.4743256089
 21
313.8274900105
  0
LINE
  5
284
100
AcDbEntity
  8
0
100
AcDbLine
 62
7
  6
CONTINUOUS
 10
299.0417198449
 20
305.3477705709
 11
298.8269553696
 21
305.2237769835
  0
LINE
  5
285
100
AcDbEntity
  8
0
100
AcDbLine
 62
7
  6
CONTINUOUS
 10
107.9842095913
 20
191.4366805145
 11
109.6203848986
 21
192.3813211299
  0
LINE
  5
286
100
AcDbEntity
  8
0
100
AcDbLine
 62
7
  6
CONTINUOUS
 10
299.7792817175
 20
300.874585072
 11
299.5633772682
 21
300.7499333241
  0
LINE
  5
287
100
AcDbEntity
  8
0
100
AcDbLine
 62
7
  6
CONTINUOUS
 10
311.8691453077
 20
301.0779245987
 11
311.6550952632
 21
300.9543434856
  0
LINE
  5
288
100
AcDbEntity
  8
0
100
AcDbLine
 62
7
  6
CONTINUOUS
 10
276.8339953217
 20
310.7769149615
 11
280.2460146542
 21
310.4600187267
  0
LINE
  5
289
100
AcDbEntity
  8
0
100
AcDbLine
 62
7
  6
CONTINUOUS
 10
347.2930282271
 20
318.2309846398
 11
347.4132638796
 21
318.3004023118
  0
LINE
  5
28A
100
AcDbEntity
  8
0
100
AcDbLine
 62
7
  6
CONTINUOUS
 10
347.2930282271
 20
317.5090985275
 11
349.0855176407
 21
318.5439865955
  0
LINE
  5
28B
100
AcDbEntity
  8
0
100
AcDbLine
 62
7
  6
CONTINUOUS
 10
349.835514283
 20
318.469700177
 11
347.3606508528
 21
317.0408456385
  0
LINE
  5
28C
100
AcDbEntity
  8
0
100
AcDbLine
 62
7
  6
CONTINUOUS
 10
350.0210133493
 20
318.362604664
 11
356.311375977
 21
321.9943255419
  0
LINE
  5
28D
100
AcDbEntity
  8
0
100
AcDbLine
 62
7
  6
CONTINUOUS
 10
347.6819026595
 20
316.8553750173
 11
347.2930282271
 21
316.6308595992
  0
LINE
  5
28E
100
AcDbEntity
  8
0
100
AcDbLine
 62
7
  6
CONTINUOUS
 10
315.1170055893
 20
298.014799009
 11
314.4127140446
 21
297.6081785232
  0
LINE
  5
28F
100
AcDbEntity
  8
0
100
AcDbLine
 62
7
  6
CONTINUOUS
 10
316.1263265209
 20
297.0038247206
 11
315.7929206455
 21
296.8113338977
  0
LINE
  5
290
100
AcDbEntity
  8
0
100
AcDbLine
 62
7
  6
CONTINUOUS
 10
316.4536983281
 20
296.5373010815
 11
315.7929206455
 21
296.1558031858
  0
LINE
  5
291
100
AcDbEntity
  8
0
100
AcDbLine
 62
7
  6
CONTINUOUS
 10
316.5324483766
 20
296.4250777367
 11
316.4972000199
 21
296.40472721
  0
LINE
  5
292
100
AcDbEntity
  8
0
100
AcDbLine
 62
7
  6
CONTINUOUS
 10
353.1210530409
 20
316.5728364035
 11
357.8613690378
 21
319.3096427839
  0
LINE
  5
293
100
AcDbEntity
  8
0
100
AcDbLine
 62
7
  6
CONTINUOUS
 10
347.2930282271
 20
312.0993494911
 11
354.0812250643
 21
316.0184933683
  0
LINE
  5
294
100
AcDbEntity
  8
0
100
AcDbLine
 62
7
  6
CONTINUOUS
 10
276.8337173534
 20
310.7778422444
 11
273.8247399396
 21
311.8148682323
  0
LINE
  5
295
100
AcDbEntity
  8
0
100
AcDbLine
 62
7
  6
CONTINUOUS
 10
354.0812250643
 20
306.0571638793
 11
321.200438113
 21
287.0735459987
  0
LINE
  5
296
100
AcDbEntity
  8
0
100
AcDbLine
 62
7
  6
CONTINUOUS
 10
125.3370296879
 20
164.3741180133
 11
137.3539348747
 21
171.3120400439
  0
LINE
  5
297
100
AcDbEntity
  8
0
100
AcDbLine
 62
7
  6
CONTINUOUS
 10
293.4383243448
 20
312.9672475428
 11
294.2541793785
 21
312.7143428138
  0
LINE
  5
298
100
AcDbEntity
  8
0
100
AcDbLine
 62
7
  6
CONTINUOUS
 10
293.5578122389
 20
313.2581656307
 11
293.5310745501
 21
313.2664539757
  0
LINE
  5
299
100
AcDbEntity
  8
0
100
AcDbLine
 62
7
  6
CONTINUOUS
 10
295.8786168057
 20
315.1935419361
 11
295.062761772
 21
315.4464466651
  0
LINE
  5
29A
100
AcDbEntity
  8
0
100
AcDbLine
 62
7
  6
CONTINUOUS
 10
321.200438113
 20
287.0735459987
 11
280.7203395538
 21
310.4442130835
  0
LINE
  5
29B
100
AcDbEntity
  8
0
100
AcDbLine
 62
7
  6
CONTINUOUS
 10
282.2364865704
 20
310.7533920242
 11
289.6638411161
 21
306.4653038874
  0
LINE
  5
29C
100
AcDbEntity
  8
0
100
AcDbLine
 62
7
  6
CONTINUOUS
 10
290.3709508413
 20
306.0570631328
 11
298.856267543
 21
301.1581740786
  0
LINE
  5
29D
100
AcDbEntity
  8
0
100
AcDbLine
 62
7
  6
CONTINUOUS
 10
299.5633772682
 20
300.7499333241
 11
312.8570401009
 21
293.0750071391
  0
LINE
  5
29E
100
AcDbEntity
  8
0
100
AcDbLine
 62
7
  6
CONTINUOUS
 10
298.8161696838
 20
301.3854047759
 11
290.4769802538
 21
306.199929119
  0
LINE
  5
29F
100
AcDbEntity
  8
0
100
AcDbLine
 62
7
  6
CONTINUOUS
 10
312.8096042812
 20
293.3516950227
 11
299.7792817175
 21
300.874585072
  0
LINE
  5
2A0
100
AcDbEntity
  8
0
100
AcDbLine
 62
7
  6
CONTINUOUS
 10
289.6151415858
 20
306.7427213581
 11
282.5376265829
 21
310.82883411
  0
LINE
  5
2A1
100
AcDbEntity
  8
0
100
AcDbLine
 62
7
  6
CONTINUOUS
 10
276.6530430705
 20
337.9906739879
 11
276.6530139787
 21
342.0248460607
  0
LINE
  5
2A2
100
AcDbEntity
  8
0
100
AcDbLine
 62
7
  6
CONTINUOUS
 10
288.7847698157
 20
367.7205711623
 11
288.7746139144
 21
367.6523427497
  0
LINE
  5
2A3
100
AcDbEntity
  8
0
100
AcDbLine
 62
7
  6
CONTINUOUS
 10
279.9811032538
 20
339.206869067
 11
280.3494681994
 21
341.40649201
  0
LINE
  5
2A4
100
AcDbEntity
  8
0
100
AcDbLine
 62
7
  6
CONTINUOUS
 10
276.5705807874
 20
314.2734138125
 11
277.8525428601
 21
321.9284125338
  0
LINE
  5
2A5
100
AcDbEntity
  8
0
100
AcDbLine
 62
7
  6
CONTINUOUS
 10
280.8000235978
 20
335.0151962411
 11
281.1882826426
 21
337.3336131076
  0
LINE
  5
2A6
100
AcDbEntity
  8
0
100
AcDbLine
 62
7
  6
CONTINUOUS
 10
283.1300707155
 20
341.3495158948
 11
283.2528590307
 21
342.0827235425
  0
LINE
  5
2A7
100
AcDbEntity
  8
black
100
AcDbLine
 62
7
  6
CONTINUOUS
 10
283.1298469124
 20
339.8456002415
 11
283.3082649188
 21
340.9109902715
  0
LINE
  5
2A8
100
AcDbEntity
  8
0
100
AcDbLine
 62
7
  6
CONTINUOUS
 10
284.6456494801
 20
340.6602298056
 11
284.7684377953
 21
341.3934374533
  0
LINE
  5
2A9
100
AcDbEntity
  8
0
100
AcDbLine
 62
7
  6
CONTINUOUS
 10
283.7744015639
 20
334.6127350263
 11
284.1488966055
 21
336.8489627013
  0
LINE
  5
2AA
100
AcDbEntity
  8
0
100
AcDbLine
 62
7
  6
CONTINUOUS
 10
285.8986966928
 20
338.2158655899
 11
286.2670616383
 21
340.4154885329
  0
LINE
  5
2AB
100
AcDbEntity
  8
0
100
AcDbLine
 62
7
  6
CONTINUOUS
 10
293.8426155416
 20
314.3332994684
 11
293.4383243448
 21
312.9672475428
  0
LINE
  5
2AC
100
AcDbEntity
  8
0
100
AcDbLine
 62
7
  6
CONTINUOUS
 10
295.0934617205
 20
315.4373608327
 11
294.7779584693
 21
314.3713128274
  0
LINE
  5
2AD
100
AcDbEntity
  8
0
100
AcDbLine
 62
7
  6
CONTINUOUS
 10
336.5257827228
 20
380.6962439924
 11
335.7873772558
 21
380.5684158504
  0
LINE
  5
2AE
100
AcDbEntity
  8
0
100
AcDbLine
 62
7
  6
CONTINUOUS
 10
298.2333568692
 20
304.8810506657
 11
289.7480401674
 21
309.77993972
  0
LINE
  5
2AF
100
AcDbEntity
  8
0
100
AcDbLine
 62
7
  6
CONTINUOUS
 10
288.9274192176
 20
310.9391475467
 11
298.8269553696
 21
305.2237769835
  0
LINE
  5
2B0
100
AcDbEntity
  8
0
100
AcDbLine
 62
7
  6
CONTINUOUS
 10
299.0417198449
 20
305.3477705709
 11
289.1421836929
 21
311.0631411342
  0
LINE
  5
2B1
100
AcDbEntity
  8
0
100
AcDbLine
 62
7
  6
CONTINUOUS
 10
316.4972000199
 20
295.7491964981
 11
315.7929206455
 21
296.1558031858
  0
LINE
  5
2B2
100
AcDbEntity
  8
0
100
AcDbLine
 62
7
  6
CONTINUOUS
 10
315.7929206455
 20
296.8113338977
 11
314.4127140446
 21
297.6081785232
  0
LINE
  5
2B3
100
AcDbEntity
  8
0
100
AcDbLine
 62
7
  6
CONTINUOUS
 10
316.4972000199
 20
296.40472721
 11
316.5644220947
 21
296.365917405
  0
LINE
  5
2B4
100
AcDbEntity
  8
0
100
AcDbLine
 62
7
  6
CONTINUOUS
 10
314.4127140446
 20
298.4214127231
 11
315.5201117117
 21
297.7820708457
  0
LINE
  5
2B5
100
AcDbEntity
  8
0
100
AcDbLine
 62
7
  6
CONTINUOUS
 10
311.6550952632
 20
300.9543434856
 11
318.9029699459
 21
296.7698757517
  0
LINE
  5
2B6
100
AcDbEntity
  8
0
100
AcDbLine
 62
7
  6
CONTINUOUS
 10
318.8868117489
 20
297.0263646483
 11
311.8691453077
 21
301.0779245987
  0
LINE
  5
2B7
100
AcDbEntity
  8
0
100
AcDbLine
 62
7
  6
CONTINUOUS
 10
290.1295422829
 20
314.6485533111
 11
290.438324417
 21
314.4702727654
  0
LINE
  5
2B8
100
AcDbEntity
  8
0
100
AcDbLine
 62
7
  6
CONTINUOUS
 10
277.8525428601
 20
321.9284125338
 11
270.5821746638
 21
327.6061533233
  0
LINE
  5
2B9
100
AcDbEntity
  8
0
100
AcDbLine
 62
7
  6
CONTINUOUS
 10
290.722888299
 20
313.3474375851
 11
292.8119897176
 21
311.7159691343
  0
LINE
  5
2BA
100
AcDbEntity
  8
0
100
AcDbLine
 62
7
  6
CONTINUOUS
 10
281.7926861542
 20
341.6002763606
 11
281.8480920424
 21
340.4285430897
  0
LINE
  5
2BB
100
AcDbEntity
  8
0
100
AcDbLine
 62
7
  6
CONTINUOUS
 10
284.6456494801
 20
340.6602298056
 11
284.6667366213
 21
340.2142753105
  0
LINE
  5
2BC
100
AcDbEntity
  8
0
100
AcDbLine
 62
7
  6
CONTINUOUS
 10
284.8238436835
 20
340.2217041823
 11
284.7684377953
 21
341.3934374533
  0
LINE
  5
2BD
100
AcDbEntity
  8
0
100
AcDbLine
 62
7
  6
CONTINUOUS
 10
287.0828258998
 20
372.2838731005
 11
287.0828258998
 21
374.1327977537
  0
LINE
  5
2BE
100
AcDbEntity
  8
0
100
AcDbLine
 62
7
  6
CONTINUOUS
 10
287.295953344
 20
368.8482325194
 11
287.295953344
 21
369.5201674801
  0
LINE
  5
2BF
100
AcDbEntity
  8
0
100
AcDbLine
 62
7
  6
CONTINUOUS
 10
287.295953344
 20
370.3344030444
 11
287.295953344
 21
371.0063380051
  0
LINE
  5
2C0
100
AcDbEntity
  8
0
100
AcDbLine
 62
7
  6
CONTINUOUS
 10
288.0010999229
 20
370.599230648
 11
288.0010999229
 21
369.9272956873
  0
LINE
  5
2C1
100
AcDbEntity
  8
0
100
AcDbLine
 62
7
  6
CONTINUOUS
 10
288.0010999229
 20
369.1130601229
 11
288.0010999229
 21
368.9272871
  0
LINE
  5
2C2
100
AcDbEntity
  8
0
100
AcDbLine
 62
7
  6
CONTINUOUS
 10
306.4625129444
 20
357.5145522993
 11
306.4523570431
 21
357.4463238867
  0
LINE
  5
2C3
100
AcDbEntity
  8
0
100
AcDbLine
 62
7
  6
CONTINUOUS
 10
295.4743256089
 20
313.8274900105
 11
295.8786168057
 21
315.1935419361
  0
LINE
  5
2C4
100
AcDbEntity
  8
0
100
AcDbLine
 62
7
  6
CONTINUOUS
 10
318.8491187
 20
390.9020650499
 11
318.109634089
 21
390.7744347794
  0
LINE
  5
2C5
100
AcDbEntity
  8
0
100
AcDbLine
 62
7
  6
CONTINUOUS
 10
281.8480920424
 20
340.4285430897
 11
283.363670807
 21
339.7392570005
  0
LINE
  5
2C6
100
AcDbEntity
  8
0
100
AcDbLine
 62
7
  6
CONTINUOUS
 10
283.1300707155
 20
341.3495158948
 11
284.6456494801
 21
340.6602298056
  0
LINE
  5
2C7
100
AcDbEntity
  8
0
100
AcDbLine
 62
7
  6
CONTINUOUS
 10
284.7684377953
 20
341.3934374533
 11
283.2528590307
 21
342.0827235425
  0
LINE
  5
2C8
100
AcDbEntity
  8
0
100
AcDbLine
 62
7
  6
CONTINUOUS
 10
289.204984823
 20
316.4360438394
 11
290.7647573018
 21
315.217950947
  0
LINE
  5
2C9
100
AcDbEntity
  8
0
100
AcDbLine
 62
7
  6
CONTINUOUS
 10
293.5578122389
 20
313.2581656307
 11
294.2541793785
 21
312.7143428138
  0
LINE
  5
2CA
100
AcDbEntity
  8
black
100
AcDbLine
 62
7
  6
CONTINUOUS
 10
294.0695350732
 20
314.540319606
 11
294.6584705753
 21
314.0803947395
  0
LINE
  5
2CB
100
AcDbEntity
  8
0
100
AcDbLine
 62
7
  6
CONTINUOUS
 10
294.7779584693
 20
314.3713128274
 11
295.4743256089
 21
313.8274900105
  0
LINE
  5
2CC
100
AcDbEntity
  8
0
100
AcDbLine
 62
7
  6
CONTINUOUS
 10
291.1130932685
 20
318.7523418313
 11
292.5405162576
 21
317.6376063034
  0
LINE
  5
2CD
100
AcDbEntity
  8
0
100
AcDbLine
 62
7
  6
CONTINUOUS
 10
294.4158500142
 20
318.0762887955
 11
296.5049514329
 21
316.4448203446
  0
LINE
  5
2CE
100
AcDbEntity
  8
0
100
AcDbLine
 62
7
  6
CONTINUOUS
 10
289.2047976948
 20
316.4361899759
 11
289.0870091728
 21
316.990709138
  0
LINE
  5
2CF
100
AcDbEntity
  8
0
100
AcDbLine
 62
7
  6
CONTINUOUS
 10
290.3709508413
 20
306.0570631328
 11
290.3492651735
 21
306.1771209734
  0
LINE
  5
2D0
100
AcDbEntity
  8
0
100
AcDbLine
 62
7
  6
CONTINUOUS
 10
289.8456253581
 20
309.7236001584
 11
290.4769802538
 21
306.199929119
  0
LINE
  5
2D1
100
AcDbEntity
  8
0
100
AcDbLine
 62
7
  6
CONTINUOUS
 10
304.7605690285
 20
362.0778542375
 11
304.7605690285
 21
363.9267788907
  0
LINE
  5
2D2
100
AcDbEntity
  8
0
100
AcDbLine
 62
7
  6
CONTINUOUS
 10
304.9736964726
 20
358.6422136564
 11
304.9736964726
 21
359.3141486171
  0
LINE
  5
2D3
100
AcDbEntity
  8
0
100
AcDbLine
 62
7
  6
CONTINUOUS
 10
304.9736964726
 20
360.1283841814
 11
304.9736964726
 21
360.8003191421
  0
LINE
  5
2D4
100
AcDbEntity
  8
0
100
AcDbLine
 62
7
  6
CONTINUOUS
 10
305.6788430515
 20
360.393211785
 11
305.6788430515
 21
359.7212768243
  0
LINE
  5
2D5
100
AcDbEntity
  8
0
100
AcDbLine
 62
7
  6
CONTINUOUS
 10
305.6788430515
 20
358.9070412599
 11
305.6788430515
 21
358.721268237
  0
LINE
  5
2D6
100
AcDbEntity
  8
0
100
AcDbLine
 62
7
  6
CONTINUOUS
 10
310.1769633388
 20
334.8023155526
 11
310.1824272911
 21
334.8808604964
  0
LINE
  5
2D7
100
AcDbEntity
  8
0
100
AcDbLine
 62
7
  6
CONTINUOUS
 10
310.1769633388
 20
334.8023155526
 11
310.1832810605
 21
334.8812706847
  0
LINE
  5
2D8
100
AcDbEntity
  8
0
100
AcDbLine
 62
7
  6
CONTINUOUS
 10
312.6542881506
 20
332.3134303534
 11
309.2601614699
 21
334.2729859751
  0
LINE
  5
2D9
100
AcDbEntity
  8
0
100
AcDbLine
 62
7
  6
CONTINUOUS
 10
310.1769633388
 20
334.8023155526
 11
311.8740266792
 21
333.8225377417
  0
LINE
  5
2DA
100
AcDbEntity
  8
0
100
AcDbLine
 62
7
  6
CONTINUOUS
 10
314.3991140475
 20
332.5043046791
 11
313.6919982128
 21
332.9125489609
  0
LINE
  5
2DB
100
AcDbEntity
  8
0
100
AcDbLine
 62
7
  6
CONTINUOUS
 10
311.9993597067
 20
335.3888754558
 11
311.5961369744
 21
335.6216709422
  0
LINE
  5
2DC
100
AcDbEntity
  8
0
100
AcDbLine
 62
7
  6
CONTINUOUS
 10
347.2930282271
 20
316.9982364547
 11
347.6111904651
 21
316.8145495565
  0
LINE
  5
2DD
100
AcDbEntity
  8
0
100
AcDbLine
 62
7
  6
CONTINUOUS
 10
347.3606508528
 20
317.0408456385
 11
347.6819026595
 21
316.8553750173
  0
LINE
  5
2DE
100
AcDbEntity
  8
0
100
AcDbLine
 62
7
  6
CONTINUOUS
 10
354.0812250643
 20
316.0184933683
 11
349.835514283
 21
318.469700177
  0
LINE
  5
2DF
100
AcDbEntity
  8
0
100
AcDbLine
 62
7
  6
CONTINUOUS
 10
298.8154216928
 20
301.384810816
 11
298.856267543
 21
301.1581740786
  0
LINE
  5
2E0
100
AcDbEntity
  8
0
100
AcDbLine
 62
7
  6
CONTINUOUS
 10
315.7929206455
 20
296.1558031858
 11
315.7929206455
 21
296.8113338977
  0
LINE
  5
2E1
100
AcDbEntity
  8
0
100
AcDbLine
 62
7
  6
CONTINUOUS
 10
316.4972000199
 20
296.40472721
 11
316.4972000199
 21
295.7491964981
  0
LINE
  5
2E2
100
AcDbEntity
  8
0
100
AcDbLine
 62
7
  6
CONTINUOUS
 10
313.2747516161
 20
347.6952805079
 11
311.5776882758
 21
348.6750583188
  0
LINE
  5
2E3
100
AcDbEntity
  8
0
100
AcDbLine
 62
7
  6
CONTINUOUS
 10
310.8714159875
 20
350.2268831269
 11
314.2655426682
 21
348.2673275052
  0
LINE
  5
2E4
100
AcDbEntity
  8
0
100
AcDbLine
 62
7
  6
CONTINUOUS
 10
315.7004281565
 20
349.0957540831
 11
312.3063014758
 21
351.0553097048
  0
LINE
  5
2E5
100
AcDbEntity
  8
0
100
AcDbLine
 62
7
  6
CONTINUOUS
 10
312.0142002467
 20
351.7031613507
 11
316.1154366526
 21
349.3353649745
  0
LINE
  5
2E6
100
AcDbEntity
  8
0
100
AcDbLine
 62
7
  6
CONTINUOUS
 10
316.3308011077
 20
349.4597049584
 11
312.2295647019
 21
351.8275013346
  0
LINE
  5
2E7
100
AcDbEntity
  8
0
100
AcDbLine
 62
7
  6
CONTINUOUS
 10
320.1049147837
 20
349.6383192397
 11
306.2809196571
 21
357.6194259906
  0
LINE
  5
2E8
100
AcDbEntity
  8
0
100
AcDbLine
 62
7
  6
CONTINUOUS
 10
300.6240418559
 20
360.8853520267
 11
288.6031765284
 21
367.8254448536
  0
LINE
  5
2E9
100
AcDbEntity
  8
0
100
AcDbLine
 62
7
  6
CONTINUOUS
 10
282.9462987272
 20
371.0913708897
 11
269.1223036006
 21
379.0724776406
  0
LINE
  5
2EA
100
AcDbEntity
  8
0
100
AcDbLine
 62
7
  6
CONTINUOUS
 10
305.6111993588
 20
358.2741595199
 11
304.9736964726
 21
358.6422136564
  0
LINE
  5
2EB
100
AcDbEntity
  8
0
100
AcDbLine
 62
7
  6
CONTINUOUS
 10
287.9334562301
 20
368.4801783829
 11
287.295953344
 21
368.8482325194
  0
LINE
  5
2EC
100
AcDbEntity
  8
0
100
AcDbLine
 62
7
  6
CONTINUOUS
 10
304.9736964726
 20
359.3141486171
 11
303.5940116702
 21
360.1106919889
  0
LINE
  5
2ED
100
AcDbEntity
  8
0
100
AcDbLine
 62
7
  6
CONTINUOUS
 10
288.0272355335
 20
369.0979710625
 11
288.0010999229
 21
369.1130601229
  0
LINE
  5
2EE
100
AcDbEntity
  8
0
100
AcDbLine
 62
7
  6
CONTINUOUS
 10
287.295953344
 20
369.5201674801
 11
285.9162685416
 21
370.3167108519
  0
LINE
  5
2EF
100
AcDbEntity
  8
0
100
AcDbLine
 62
7
  6
CONTINUOUS
 10
305.6788430515
 20
358.9070412599
 11
305.7049786621
 21
358.8919521995
  0
LINE
  5
2F0
100
AcDbEntity
  8
0
100
AcDbLine
 62
7
  6
CONTINUOUS
 10
287.295953344
 20
370.3344030444
 11
285.9162685416
 21
371.1309464163
  0
LINE
  5
2F1
100
AcDbEntity
  8
0
100
AcDbLine
 62
7
  6
CONTINUOUS
 10
303.5940116702
 20
360.9249275533
 11
304.9736964726
 21
360.1283841814
  0
LINE
  5
2F2
100
AcDbEntity
  8
0
100
AcDbLine
 62
7
  6
CONTINUOUS
 10
268.5207635895
 20
381.1746707465
 11
283.9004001115
 21
372.2954343357
  0
LINE
  5
2F3
100
AcDbEntity
  8
0
100
AcDbLine
 62
7
  6
CONTINUOUS
 10
288.0010999229
 20
369.9272956873
 11
301.5781432402
 21
362.0894154727
  0
LINE
  5
2F4
100
AcDbEntity
  8
0
100
AcDbLine
 62
7
  6
CONTINUOUS
 10
305.6788430515
 20
359.7212768243
 11
321.200438113
 21
350.7607345348
  0
LINE
  5
2F5
100
AcDbEntity
  8
0
100
AcDbLine
 62
7
  6
CONTINUOUS
 10
305.6788430515
 20
360.0501153726
 11
305.2584830805
 21
360.2928048247
  0
LINE
  5
2F6
100
AcDbEntity
  8
0
100
AcDbLine
 62
7
  6
CONTINUOUS
 10
288.0010999229
 20
370.2561342356
 11
287.5807399518
 21
370.4988236877
  0
LINE
  5
2F7
100
AcDbEntity
  8
0
100
AcDbLine
 62
7
  6
CONTINUOUS
 10
287.295953344
 20
371.0063380051
 11
288.0010999229
 21
370.599230648
  0
LINE
  5
2F8
100
AcDbEntity
  8
0
100
AcDbLine
 62
7
  6
CONTINUOUS
 10
304.9736964726
 20
360.8003191421
 11
305.6788430515
 21
360.393211785
  0
LINE
  5
2F9
100
AcDbEntity
  8
0
100
AcDbLine
 62
7
  6
CONTINUOUS
 10
309.0032273794
 20
361.4773343636
 11
304.7605690285
 21
363.9267788907
  0
LINE
  5
2FA
100
AcDbEntity
  8
0
100
AcDbLine
 62
7
  6
CONTINUOUS
 10
291.3254842507
 20
371.6833532266
 11
287.0828258998
 21
374.1327977537
  0
LINE
  5
2FB
100
AcDbEntity
  8
0
100
AcDbLine
 62
7
  6
CONTINUOUS
 10
347.2930282271
 20
349.0052587453
 11
347.2930282271
 21
312.0993494911
  0
LINE
  5
2FC
100
AcDbEntity
  8
0
100
AcDbLine
 62
7
  6
CONTINUOUS
 10
354.0812250643
 20
316.0184933683
 11
354.0812250643
 21
306.0571638793
  0
LINE
  5
2FD
100
AcDbEntity
  8
0
100
AcDbLine
 62
7
  6
CONTINUOUS
 10
354.0812250643
 20
352.9244026225
 11
354.0812250643
 21
369.7443524154
  0
LINE
  5
2FE
100
AcDbEntity
  8
0
100
AcDbLine
 62
7
  6
CONTINUOUS
 10
301.4015505409
 20
400.1582886271
 11
318.1418941081
 21
390.4934654098
  0
LINE
  5
2FF
100
AcDbEntity
  8
0
100
AcDbLine
 62
7
  6
CONTINUOUS
 10
319.6631383684
 20
389.6151944958
 11
335.8186788856
 21
380.2879998386
  0
LINE
  5
300
100
AcDbEntity
  8
0
100
AcDbLine
 62
7
  6
CONTINUOUS
 10
337.3418398483
 20
379.4086223409
 11
354.0812250643
 21
369.7443524154
  0
LINE
  5
301
100
AcDbEntity
  8
0
100
AcDbLine
 62
7
  6
CONTINUOUS
 10
318.8494771209
 20
390.9014329177
 11
320.36976303
 21
390.0237152955
  0
LINE
  5
302
100
AcDbEntity
  8
0
100
AcDbLine
 62
7
  6
CONTINUOUS
 10
336.5257827228
 20
380.6962439924
 11
338.0489436855
 21
379.8168664948
  0
ARC
  5
303
100
AcDbEntity
  8
0
100
AcDbCircle
 62
7
  6
CONTINUOUS
 10
546.3603584642
 20
321.9672350017
 40
243.4717919066
100
AcDbArc
 50
171.098780204
 51
171.6949916569
  0
ARC
  5
304
100
AcDbEntity
  8
0
100
AcDbCircle
 62
7
  6
CONTINUOUS
 10
528.6826153337
 20
332.173253865
 40
243.4717919048
100
AcDbArc
 50
171.098780204
 51
171.6949916569
  0
ARC
  5
305
100
AcDbEntity
  8
0
100
AcDbCircle
 62
7
  6
CONTINUOUS
 10
523.7679479216
 20
334.7243675672
 40
242.7921447465
100
AcDbArc
 50
171.0979457102
 51
171.6958261508
  0
ARC
  5
306
100
AcDbEntity
  8
0
100
AcDbCircle
 62
7
  6
CONTINUOUS
 10
541.4456910446
 20
324.5183487051
 40
242.7921447406
100
AcDbArc
 50
171.0979457102
 51
171.6958261508
  0
ARC
  5
307
100
AcDbEntity
  8
0
100
AcDbCircle
 62
7
  6
CONTINUOUS
 10
522.1001650429
 20
335.274159452
 40
241.8211000077
100
AcDbArc
 50
171.4823251202
 51
171.6961385795
  0
ARC
  5
308
100
AcDbEntity
  8
0
100
AcDbCircle
 62
7
  6
CONTINUOUS
 10
539.7779081502
 20
325.0681405921
 40
241.8210999861
100
AcDbArc
 50
171.4823251202
 51
171.6961385795
  0
ARC
  5
309
100
AcDbEntity
  8
0
100
AcDbCircle
 62
7
  6
CONTINUOUS
 10
545.4347859514
 20
321.802214556
 40
241.8210999861
100
AcDbArc
 50
171.4823251202
 51
171.6961385795
  0
ARC
  5
30A
100
AcDbEntity
  8
0
100
AcDbCircle
 62
7
  6
CONTINUOUS
 10
527.7570428164
 20
332.0082334199
 40
241.8210999797
100
AcDbArc
 50
171.4823251202
 51
171.6961385796
  0
ARC
  5
30B
100
AcDbEntity
  8
0
100
AcDbCircle
 62
7
  6
CONTINUOUS
 10
527.4459430583
 20
332.160348861
 40
241.2958453549
100
AcDbArc
 50
171.5417256401
 51
171.6845536561
  0
ARC
  5
30C
100
AcDbEntity
  8
0
100
AcDbCircle
 62
7
  6
CONTINUOUS
 10
545.1236861055
 20
321.9543300101
 40
241.2958452725
100
AcDbArc
 50
171.54172564
 51
171.6845536561
  0
ARC
  5
30D
100
AcDbEntity
  8
0
100
AcDbCircle
 62
7
  6
CONTINUOUS
 10
547.5876635537
 20
318.8518252296
 40
237.8530363467
100
AcDbArc
 50
172.0611517177
 51
172.276308349
  0
ARC
  5
30E
100
AcDbEntity
  8
0
100
AcDbCircle
 62
7
  6
CONTINUOUS
 10
295.049479911
 20
229.2996228083
 40
228.5925275556
100
AcDbArc
 50
184.0107331489
 51
184.3277496141
  0
ARC
  5
30F
100
AcDbEntity
  8
0
100
AcDbCircle
 62
7
  6
CONTINUOUS
 10
539.5346042682
 20
317.8428327318
 40
228.2207036191
100
AcDbArc
 50
172.4838775644
 51
175.9849417281
  0
ARC
  5
310
100
AcDbEntity
  8
0
100
AcDbCircle
 62
7
  6
CONTINUOUS
 10
293.4438405147
 20
229.1788668166
 40
226.9823538662
100
AcDbArc
 50
184.3279395784
 51
184.4838835353
  0
ARC
  5
311
100
AcDbEntity
  8
0
100
AcDbCircle
 62
7
  6
CONTINUOUS
 10
535.8796596364
 20
319.7627447735
 40
224.8435101951
100
AcDbArc
 50
172.7975755579
 51
175.955388532
  0
ARC
  5
312
100
AcDbEntity
  8
0
100
AcDbCircle
 62
7
  6
CONTINUOUS
 10
534.0317281041
 20
319.2065258773
 40
224.3974024809
100
AcDbArc
 50
172.4539518606
 51
175.9945831746
  0
ARC
  5
313
100
AcDbEntity
  8
0
100
AcDbCircle
 62
7
  6
CONTINUOUS
 10
427.0568821716
 20
346.1142779086
 40
160.150707523
100
AcDbArc
 50
185.2507567847
 51
185.5441538122
  0
ARC
  5
314
100
AcDbEntity
  8
0
100
AcDbCircle
 62
7
  6
CONTINUOUS
 10
457.3655143275
 20
319.1502388466
 40
146.842149371
100
AcDbArc
 50
187.1180832311
 51
190.228437899
  0
ARC
  5
315
100
AcDbEntity
  8
0
100
AcDbCircle
 62
7
  6
CONTINUOUS
 10
430.9602690776
 20
332.0210875923
 40
143.5889223981
100
AcDbArc
 50
188.4427721089
 51
190.2520525409
  0
ARC
  5
316
100
AcDbEntity
  8
0
100
AcDbCircle
 62
7
  6
CONTINUOUS
 10
440.7946053284
 20
326.4233174416
 40
143.3110575594
100
AcDbArc
 50
188.4566775157
 51
190.2692806717
  0
ARC
  5
317
100
AcDbEntity
  8
0
100
AcDbCircle
 62
7
  6
CONTINUOUS
 10
439.6009286151
 20
326.61978934
 40
143.0292386209
100
AcDbArc
 50
188.7421560408
 51
190.1620202989
  0
ARC
  5
318
100
AcDbEntity
  8
0
100
AcDbCircle
 62
7
  6
CONTINUOUS
 10
439.6438244465
 20
326.1055591904
 40
142.3567330503
100
AcDbArc
 50
188.4349412051
 51
190.2598834447
  0
ARC
  5
319
100
AcDbEntity
  8
0
100
AcDbCircle
 62
7
  6
CONTINUOUS
 10
430.0645150018
 20
331.3438572204
 40
141.963782874
100
AcDbArc
 50
188.7368948002
 51
190.211120052
  0
ARC
  5
31A
100
AcDbEntity
  8
0
100
AcDbCircle
 62
7
  6
CONTINUOUS
 10
33.5586207134
 20
182.4415218697
 40
51.1867390182
100
AcDbArc
 50
28.5080929295
 51
37.2755438569
  0
ARC
  5
31B
100
AcDbEntity
  8
0
100
AcDbCircle
 62
7
  6
CONTINUOUS
 10
91.4454443142
 20
215.7009049145
 40
50.2117668661
100
AcDbArc
 50
214.8715825907
 51
217.2970246692
  0
ARC
  5
31C
100
AcDbEntity
  8
0
100
AcDbCircle
 62
7
  6
CONTINUOUS
 10
100.7276057552
 20
222.7414488841
 40
31.1557745888
100
AcDbArc
 50
192.5968262835
 51
193.0985546295
  0
ARC
  5
31D
100
AcDbEntity
  8
0
100
AcDbCircle
 62
7
  6
CONTINUOUS
 10
287.5002805303
 20
323.2660350595
 40
24.3108703346
100
AcDbArc
 50
355.8005716422
 51
359.5843198571
  0
ARC
  5
31E
100
AcDbEntity
  8
0
100
AcDbCircle
 62
7
  6
CONTINUOUS
 10
280.0103147278
 20
328.2452987467
 40
12.5393866992
100
AcDbArc
 50
59.9975690894
 51
61.1633597013
  0
ARC
  5
31F
100
AcDbEntity
  8
0
100
AcDbCircle
 62
7
  6
CONTINUOUS
 10
279.3093731857
 20
321.3048628615
 40
10.9608941199
100
AcDbArc
 50
235.6142191057
 51
239.9747291487
  0
ARC
  5
320
100
AcDbEntity
  8
0
100
AcDbCircle
 62
7
  6
CONTINUOUS
 10
287.8631546871
 20
346.0638887202
 40
9.9530911319
100
AcDbArc
 50
119.9614922776
 51
131.6204304704
  0
ARC
  5
321
100
AcDbEntity
  8
0
100
AcDbCircle
 62
7
  6
CONTINUOUS
 10
301.5662867063
 20
318.4580545041
 40
8.1042258126
100
AcDbArc
 50
300.0424110671
 51
310.2927265341
  0
ARC
  5
322
100
AcDbEntity
  8
0
100
AcDbCircle
 62
7
  6
CONTINUOUS
 10
303.643273429
 20
318.1780919107
 40
7.006053593
100
AcDbArc
 50
289.9219499516
 51
299.9927808554
  0
ARC
  5
323
100
AcDbEntity
  8
0
100
AcDbCircle
 62
7
  6
CONTINUOUS
 10
281.7658427895
 20
335.8010864553
 40
4.5912387506
100
AcDbArc
 50
112.5016070046
 51
115.8939695086
  0
ARC
  5
324
100
AcDbEntity
  8
0
100
AcDbCircle
 62
7
  6
CONTINUOUS
 10
281.750633678
 20
335.8331451462
 40
4.5557567161
100
AcDbArc
 50
115.8979699173
 51
122.4387880311
  0
ARC
  5
325
100
AcDbEntity
  8
0
100
AcDbCircle
 62
7
  6
CONTINUOUS
 10
288.7435358652
 20
369.575243321
 40
2.1866904415
100
AcDbArc
 50
239.9496416903
 51
244.7868849723
  0
ARC
  5
326
100
AcDbEntity
  8
0
100
AcDbCircle
 62
7
  6
CONTINUOUS
 10
306.4212789938
 20
359.3692244579
 40
2.1866904415
100
AcDbArc
 50
239.9496416902
 51
244.7868849724
  0
ARC
  5
327
100
AcDbEntity
  8
0
100
AcDbCircle
 62
7
  6
CONTINUOUS
 10
315.7733026899
 20
298.1758683832
 40
1.3814413115
100
AcDbArc
 50
160.2614711261
 51
161.0936172351
  0
ARC
  5
328
100
AcDbEntity
  8
0
100
AcDbCircle
 62
7
  6
CONTINUOUS
 10
346.6868289398
 20
315.8749250099
 40
1.3466279674
100
AcDbArc
 50
59.9750424338
 51
63.2520181663
  0
ARC
  5
329
100
AcDbEntity
  8
0
100
AcDbCircle
 62
7
  6
CONTINUOUS
 10
316.9362164993
 20
295.7907492487
 40
1.0582725788
100
AcDbArc
 50
270.9978945102
 51
272.8637887009
  0
SPLINE
  5
32A
100
AcDbEntity
  8
0
100
AcDbSpline
 62
7
  6
CONTINUOUS
 70
0
 71
3
 72
11
 73
7
 74
0
 42
0.0000001
 43
0.0000001
 44
0.0000000001
 40
0.0
 40
0.0
 40
0.0
 40
0.0
 40
0.3049422049
 40
0.5706402267
 40
0.7986431653
 40
1.0
 40
1.0
 40
1.0
 40
1.0
 10
314.5806024859
 20
298.5609201252
 30
0.0
 10
314.4498766405
 20
298.6363930205
 30
0.0
 10
314.1949246317
 20
298.7612310949
 30
0.0
 10
313.8115565187
 20
298.8686780476
 30
0.0
 10
313.4629578865
 20
298.8781245117
 30
0.0
 10
313.2554364281
 20
298.8099965823
 30
0.0
 10
313.1691038367
 20
298.7601831703
 30
0.0
  0
SPLINE
  5
32B
100
AcDbEntity
  8
0
100
AcDbSpline
 62
7
  6
CONTINUOUS
 70
0
 71
3
 72
11
 73
7
 74
0
 42
0.0000001
 43
0.0000001
 44
0.0000000001
 40
0.0
 40
0.0
 40
0.0
 40
0.0
 40
0.2277752587
 40
0.4899551876
 40
0.7576738594
 40
1.0
 40
1.0
 40
1.0
 40
1.0
 10
317.0149688524
 20
295.0674653852
 30
0.0
 10
316.9670993815
 20
295.3956622007
 30
0.0
 10
316.7451740475
 20
296.083751829
 30
0.0
 10
316.1977003579
 20
297.0477671391
 30
0.0
 10
315.4727295528
 20
297.9147829376
 30
0.0
 10
314.8861876727
 20
298.3844944251
 30
0.0
 10
314.5806024859
 20
298.5609201252
 30
0.0
  0
SPLINE
  5
32C
100
AcDbEntity
  8
0
100
AcDbSpline
 62
7
  6
CONTINUOUS
 70
0
 71
3
 72
9
 73
5
 74
0
 42
0.0000001
 43
0.0000001
 44
0.0000000001
 40
0.0
 40
0.0
 40
0.0
 40
0.0
 40
0.5109540423
 40
1.0
 40
1.0
 40
1.0
 40
1.0
 10
268.5207635895
 20
381.1746707465
 30
0.0
 10
267.6367412362
 20
375.5299410712
 30
0.0
 10
266.2911209704
 20
364.417903173
 30
0.0
 10
265.8059433755
 20
353.2322393039
 30
0.0
 10
265.8059433755
 20
347.7636836532
 30
0.0
  0
SPLINE
  5
32D
100
AcDbEntity
  8
0
100
AcDbSpline
 62
7
  6
CONTINUOUS
 70
0
 71
3
 72
9
 73
5
 74
0
 42
0.0000001
 43
0.0000001
 44
0.0000000001
 40
0.0
 40
0.0
 40
0.0
 40
0.0
 40
0.2559388396
 40
1.0
 40
1.0
 40
1.0
 40
1.0
 10
265.8059433755
 20
347.7636836532
 30
0.0
 10
265.8059433755
 20
346.1461935772
 30
0.0
 10
265.8873046095
 20
339.8268024213
 30
0.0
 10
266.300783148
 20
333.5103018969
 30
0.0
 10
266.8190826986
 20
328.8366126977
 30
0.0
  0
SPLINE
  5
32E
100
AcDbEntity
  8
0
100
AcDbSpline
 62
7
  6
CONTINUOUS
 70
0
 71
3
 72
11
 73
7
 74
0
 42
0.0000001
 43
0.0000001
 44
0.0000000001
 40
0.0
 40
0.0
 40
0.0
 40
0.0
 40
0.2895153569
 40
0.5491498804
 40
0.7823144838
 40
1.0
 40
1.0
 40
1.0
 40
1.0
 10
349.835514283
 20
318.469700177
 30
0.0
 10
349.7697394619
 20
318.5076744286
 30
0.0
 10
349.6387627502
 20
318.5698880233
 30
0.0
 10
349.437525556
 20
318.6186165051
 30
0.0
 10
349.2486350736
 20
318.6138053395
 30
0.0
 10
349.1349870121
 20
318.572516157
 30
0.0
 10
349.0855312556
 20
318.54396331
 30
0.0
  0
SPLINE
  5
32F
100
AcDbEntity
  8
0
100
AcDbSpline
 62
7
  6
CONTINUOUS
 70
0
 71
3
 72
10
 73
6
 74
0
 42
0.0000001
 43
0.0000001
 44
0.0000000001
 40
0.0
 40
0.0
 40
0.0
 40
0.0
 40
0.5366605328
 40
0.7738686434
 40
1.0
 40
1.0
 40
1.0
 40
1.0
 10
348.5395702244
 20
318.2977297973
 30
0.0
 10
348.3476717654
 20
318.3775890151
 30
0.0
 10
348.046875433
 20
318.4548198924
 30
0.0
 10
347.6583553246
 20
318.4118173533
 30
0.0
 10
347.4891193455
 20
318.3441811046
 30
0.0
 10
347.4132708654
 20
318.300390212
 30
0.0
  0
SPLINE
  5
330
100
AcDbEntity
  8
0
100
AcDbSpline
 62
7
  6
CONTINUOUS
 70
0
 71
3
 72
9
 73
5
 74
0
 42
0.0000001
 43
0.0000001
 44
0.0000000001
 40
0.0
 40
0.0
 40
0.0
 40
0.0
 40
0.2263492019
 40
1.0
 40
1.0
 40
1.0
 40
1.0
 10
316.9546470193
 20
294.7326371719
 30
0.0
 10
316.890468976
 20
294.731513629
 30
0.0
 10
316.6063665546
 20
294.7520415204
 30
0.0
 10
316.3350596812
 20
294.8636979175
 30
0.0
 10
316.1450603327
 20
294.9733916109
 30
0.0
  0
SPLINE
  5
331
100
AcDbEntity
  8
0
100
AcDbSpline
 62
7
  6
CONTINUOUS
 70
0
 71
3
 72
11
 73
7
 74
0
 42
0.0000001
 43
0.0000001
 44
0.0000000001
 40
0.0
 40
0.0
 40
0.0
 40
0.0
 40
0.2074096421
 40
0.4328546368
 40
0.6948486342
 40
1.0
 40
1.0
 40
1.0
 40
1.0
 10
316.6348202148
 20
293.8335518434
 30
0.0
 10
316.7165934054
 20
293.8807345118
 30
0.0
 10
316.8678892827
 20
294.0172047346
 30
0.0
 10
317.0030859223
 20
294.3101113067
 30
0.0
 10
317.0532596012
 20
294.6709022216
 30
0.0
 10
317.0350160143
 20
294.9300204841
 30
0.0
 10
317.0149688524
 20
295.0674653852
 30
0.0
  0
SPLINE
  5
332
100
AcDbEntity
  8
0
100
AcDbSpline
 62
7
  6
CONTINUOUS
 70
0
 71
3
 72
9
 73
5
 74
0
 42
0.0000001
 43
0.0000001
 44
0.0000000001
 40
0.0
 40
0.0
 40
0.0
 40
0.0
 40
0.2537690015
 40
1.0
 40
1.0
 40
1.0
 40
1.0
 10
338.966496304
 20
378.497818445
 30
0.0
 10
338.9072984123
 20
378.6205295028
 30
0.0
 10
338.6548539183
 20
379.0944484299
 30
0.0
 10
338.329208463
 20
379.5305761813
 30
0.0
 10
338.0489436855
 20
379.8168664948
 30
0.0
  0
SPLINE
  5
333
100
AcDbEntity
  8
0
100
AcDbSpline
 62
7
  6
CONTINUOUS
 70
0
 71
3
 72
9
 73
5
 74
0
 42
0.0000001
 43
0.0000001
 44
0.0000000001
 40
0.0
 40
0.0
 40
0.0
 40
0.0
 40
0.458190725
 40
1.0
 40
1.0
 40
1.0
 40
1.0
 10
308.5641157037
 20
343.7771215792
 30
0.0
 10
308.6595510695
 20
343.8323047216
 30
0.0
 10
308.8277870827
 20
344.0238266329
 30
0.0
 10
308.8865060075
 20
344.2639019427
 30
0.0
 10
308.899715714
 20
344.3935906625
 30
0.0
  0
SPLINE
  5
334
100
AcDbEntity
  8
0
100
AcDbSpline
 62
7
  6
CONTINUOUS
 70
0
 71
3
 72
10
 73
6
 74
0
 42
0.0000001
 43
0.0000001
 44
0.0000000001
 40
0.0
 40
0.0
 40
0.0
 40
0.0
 40
0.2238179192
 40
0.461938496
 40
1.0
 40
1.0
 40
1.0
 40
1.0
 10
307.2529658387
 20
346.4841497807
 30
0.0
 10
307.1870852328
 20
346.4460817552
 30
0.0
 10
307.0626791171
 20
346.3458653256
 30
0.0
 10
306.8650792394
 20
346.0653217876
 30
0.0
 10
306.7969220654
 20
345.8002888
 30
0.0
 10
306.7783865451
 20
345.6183129904
 30
0.0
  0
SPLINE
  5
335
100
AcDbEntity
  8
0
100
AcDbSpline
 62
7
  6
CONTINUOUS
 70
0
 71
3
 72
11
 73
7
 74
0
 42
0.0000001
 43
0.0000001
 44
0.0000000001
 40
0.0
 40
0.0
 40
0.0
 40
0.0
 40
0.2237505569
 40
0.4622364857
 40
0.7207998692
 40
1.0
 40
1.0
 40
1.0
 40
1.0
 10
304.5526190205
 20
355.607346513
 30
0.0
 10
304.6704546138
 20
355.6754071071
 30
0.0
 10
304.8940552225
 20
355.8529207961
 30
0.0
 10
305.1553385581
 20
356.2101425206
 30
0.0
 10
305.3443348114
 20
356.6461916798
 30
0.0
 10
305.4172916711
 20
356.9669355855
 30
0.0
 10
305.441814625
 20
357.1349572568
 30
0.0
  0
SPLINE
  5
336
100
AcDbEntity
  8
0
100
AcDbSpline
 62
7
  6
CONTINUOUS
 70
0
 71
3
 72
11
 73
7
 74
0
 42
0.0000001
 43
0.0000001
 44
0.0000000001
 40
0.0
 40
0.0
 40
0.0
 40
0.0
 40
0.2177239861
 40
0.4508730345
 40
0.7104683317
 40
1.0
 40
1.0
 40
1.0
 40
1.0
 10
357.8613352724
 20
319.3097014917
 30
0.0
 10
357.9124508752
 20
319.3392102987
 30
0.0
 10
358.0081707518
 20
319.4195362309
 30
0.0
 10
358.1100313619
 20
319.586121206
 30
0.0
 10
358.1704064372
 20
319.7913684752
 30
0.0
 10
358.1823925814
 20
319.9407231585
 30
0.0
 10
358.1823925814
 20
320.0192109934
 30
0.0
  0
SPLINE
  5
337
100
AcDbEntity
  8
0
100
AcDbSpline
 62
7
  6
CONTINUOUS
 70
0
 71
3
 72
11
 73
7
 74
0
 42
0.0000001
 43
0.0000001
 44
0.0000000001
 40
0.0
 40
0.0
 40
0.0
 40
0.0
 40
0.2177239861
 40
0.4508730345
 40
0.7104683317
 40
1.0
 40
1.0
 40
1.0
 40
1.0
 10
345.6283370274
 20
380.9962782509
 30
0.0
 10
345.6794526301
 20
381.0257870579
 30
0.0
 10
345.7751725067
 20
381.1061129901
 30
0.0
 10
345.8770331168
 20
381.2726979652
 30
0.0
 10
345.9374081921
 20
381.4779452344
 30
0.0
 10
345.9493943363
 20
381.6272999176
 30
0.0
 10
345.9493943363
 20
381.7057877526
 30
0.0
  0
SPLINE
  5
338
100
AcDbEntity
  8
0
100
AcDbSpline
 62
7
  6
CONTINUOUS
 70
0
 71
3
 72
11
 73
7
 74
0
 42
0.0000001
 43
0.0000001
 44
0.0000000001
 40
0.0
 40
0.0
 40
0.0
 40
0.0
 40
0.2177239861
 40
0.4508730345
 40
0.7104683317
 40
1.0
 40
1.0
 40
1.0
 40
1.0
 10
327.9505938987
 20
391.2022971139
 30
0.0
 10
328.0017095014
 20
391.2318059209
 30
0.0
 10
328.097429378
 20
391.3121318531
 30
0.0
 10
328.1992899882
 20
391.4787168282
 30
0.0
 10
328.2596650635
 20
391.6839640974
 30
0.0
 10
328.2716512076
 20
391.8333187806
 30
0.0
 10
328.2716512076
 20
391.9118066156
 30
0.0
  0
SPLINE
  5
339
100
AcDbEntity
  8
0
100
AcDbSpline
 62
7
  6
CONTINUOUS
 70
0
 71
3
 72
11
 73
7
 74
0
 42
0.0000001
 43
0.0000001
 44
0.0000000001
 40
0.0
 40
0.0
 40
0.0
 40
0.0
 40
0.2237505569
 40
0.4622364857
 40
0.7207998692
 40
1.0
 40
1.0
 40
1.0
 40
1.0
 10
286.8748758918
 20
365.8133653761
 30
0.0
 10
286.9927114852
 20
365.8814259701
 30
0.0
 10
287.2163120938
 20
366.0589396591
 30
0.0
 10
287.4775954294
 20
366.4161613836
 30
0.0
 10
287.6665916828
 20
366.8522105429
 30
0.0
 10
287.7395485424
 20
367.1729544485
 30
0.0
 10
287.7640714963
 20
367.3409761198
 30
0.0
  0
SPLINE
  5
33A
100
AcDbEntity
  8
0
100
AcDbSpline
 62
7
  6
CONTINUOUS
 70
0
 71
3
 72
11
 73
7
 74
0
 42
0.0000001
 43
0.0000001
 44
0.0000000001
 40
0.0
 40
0.0
 40
0.0
 40
0.0
 40
0.2321702816
 40
0.4888429817
 40
0.7514563991
 40
1.0
 40
1.0
 40
1.0
 40
1.0
 10
316.1450603327
 20
294.9733916109
 30
0.0
 10
315.9279503197
 20
295.0987372997
 30
0.0
 10
315.5113110574
 20
295.433849127
 30
0.0
 10
315.0003753117
 20
296.0704397565
 30
0.0
 10
314.6119650118
 20
296.8083968225
 30
0.0
 10
314.4550627003
 20
297.3431654049
 30
0.0
 10
314.4127140446
 20
297.6081785232
 30
0.0
  0
SPLINE
  5
33B
100
AcDbEntity
  8
0
100
AcDbSpline
 62
7
  6
CONTINUOUS
 70
0
 71
3
 72
9
 73
5
 74
0
 42
0.0000001
 43
0.0000001
 44
0.0000000001
 40
0.0
 40
0.0
 40
0.0
 40
0.0
 40
0.2561687455
 40
1.0
 40
1.0
 40
1.0
 40
1.0
 10
314.4127140446
 20
298.4214127231
 30
0.0
 10
314.4161486904
 20
298.4389404523
 30
0.0
 10
314.4306456462
 20
298.5071421565
 30
0.0
 10
314.4495852634
 20
298.574422514
 30
0.0
 10
314.4663911478
 20
298.6234868793
 30
0.0
  0
SPLINE
  5
33C
100
AcDbEntity
  8
0
100
AcDbSpline
 62
7
  6
CONTINUOUS
 70
0
 71
3
 72
12
 73
8
 74
0
 42
0.0000001
 43
0.0000001
 44
0.0000000001
 40
0.0
 40
0.0
 40
0.0
 40
0.0
 40
0.2939270872
 40
0.5541074697
 40
0.7853880381
 40
0.8938761181
 40
1.0
 40
1.0
 40
1.0
 40
1.0
 10
311.7455852945
 20
321.4859589879
 30
0.0
 10
311.6672107691
 20
320.4262727906
 30
0.0
 10
311.3818806334
 20
318.433022852
 30
0.0
 10
310.4663380173
 20
315.7252941683
 30
0.0
 10
309.281268038
 20
313.8720207335
 30
0.0
 10
308.1185516271
 20
312.7468832874
 30
0.0
 10
307.477785426
 20
312.3020571181
 30
0.0
 10
307.1455357159
 20
312.1102301932
 30
0.0
  0
SPLINE
  5
33D
100
AcDbEntity
  8
0
100
AcDbSpline
 62
7
  6
CONTINUOUS
 70
0
 71
3
 72
9
 73
5
 74
0
 42
0.0000001
 43
0.0000001
 44
0.0000000001
 40
0.0
 40
0.0
 40
0.0
 40
0.0
 40
0.2537111297
 40
1.0
 40
1.0
 40
1.0
 40
1.0
 10
310.8714159875
 20
350.2268831269
 30
0.0
 10
310.6883280413
 20
348.8830492731
 30
0.0
 10
310.0116542561
 20
343.5803507006
 30
0.0
 10
309.5172595154
 20
338.2540856819
 30
0.0
 10
309.2601614699
 20
334.2729859751
 30
0.0
  0
SPLINE
  5
33E
100
AcDbEntity
  8
0
100
AcDbSpline
 62
7
  6
CONTINUOUS
 70
0
 71
3
 72
13
 73
9
 74
0
 42
0.0000001
 43
0.0000001
 44
0.0000000001
 40
0.0
 40
0.0
 40
0.0
 40
0.0
 40
0.272660273
 40
0.5574292868
 40
0.6879421514
 40
0.8039161265
 40
0.9058233209
 40
1.0
 40
1.0
 40
1.0
 40
1.0
 10
308.899715714
 20
344.3935906625
 30
0.0
 10
308.9230753493
 20
344.6229281734
 30
0.0
 10
308.8502421513
 20
345.1040694915
 30
0.0
 10
308.5645308045
 20
345.6266538444
 30
0.0
 10
308.2348918716
 20
345.9373636199
 30
0.0
 10
307.9719593347
 20
346.0794089114
 30
0.0
 10
307.7047974369
 20
346.1214924671
 30
0.0
 10
307.5392983659
 20
346.0721500325
 30
0.0
 10
307.470368475
 20
346.0322943846
 30
0.0
  0
SPLINE
  5
33F
100
AcDbEntity
  8
0
100
AcDbSpline
 62
7
  6
CONTINUOUS
 70
0
 71
3
 72
13
 73
9
 74
0
 42
0.0000001
 43
0.0000001
 44
0.0000000001
 40
0.0
 40
0.0
 40
0.0
 40
0.0
 40
0.2727481234
 40
0.5580003977
 40
0.688812814
 40
0.8048960644
 40
0.906492749
 40
1.0
 40
1.0
 40
1.0
 40
1.0
 10
306.7783865451
 20
345.6183129904
 30
0.0
 10
306.7457238997
 20
345.2976415852
 30
0.0
 10
306.850305114
 20
344.6240681511
 30
0.0
 10
307.2558208322
 20
343.8960427702
 30
0.0
 10
307.7186446737
 20
343.4626685113
 30
0.0
 10
308.0859576124
 20
343.2638270722
 30
0.0
 10
308.4580277135
 20
343.2036364364
 30
0.0
 10
308.6885524274
 20
343.2715444915
 30
0.0
 10
308.7842326537
 20
343.3268330356
 30
0.0
  0
SPLINE
  5
340
100
AcDbEntity
  8
0
100
AcDbSpline
 62
7
  6
CONTINUOUS
 70
0
 71
3
 72
10
 73
6
 74
0
 42
0.0000001
 43
0.0000001
 44
0.0000000001
 40
0.0
 40
0.0
 40
0.0
 40
0.0
 40
0.2323637084
 40
0.478160292
 40
1.0
 40
1.0
 40
1.0
 40
1.0
 10
311.8105110684
 20
323.0896615554
 30
0.0
 10
311.8178503141
 20
323.940057881
 30
0.0
 10
311.7479302839
 20
325.6914826671
 30
0.0
 10
311.3056932564
 20
329.3271489065
 30
0.0
 10
310.6455644844
 20
332.071290247
 30
0.0
 10
310.0796194019
 20
333.8953934971
 30
0.0
  0
SPLINE
  5
341
100
AcDbEntity
  8
0
100
AcDbSpline
 62
7
  6
CONTINUOUS
 70
0
 71
3
 72
15
 73
11
 74
0
 42
0.0000001
 43
0.0000001
 44
0.0000000001
 40
0.0
 40
0.0
 40
0.0
 40
0.0
 40
0.143698339
 40
0.2869379542
 40
0.4263798726
 40
0.5592231816
 40
0.6834207423
 40
0.7979243134
 40
0.9029198934
 40
1.0
 40
1.0
 40
1.0
 40
1.0
 10
309.4643183154
 20
335.7322398714
 30
0.0
 10
308.9326717615
 20
337.2084312118
 30
0.0
 10
307.7059954599
 20
340.099126234
 30
0.0
 10
305.4325335314
 20
344.172626628
 30
0.0
 10
302.7557895474
 20
347.8509744965
 30
0.0
 10
299.7560707561
 20
350.9927013955
 30
0.0
 10
296.5212615831
 20
353.4719418437
 30
0.0
 10
293.1568314515
 20
355.1898424711
 30
0.0
 10
289.7852162254
 20
356.0764650259
 30
0.0
 10
287.5464414516
 20
356.0820583622
 30
0.0
 10
286.4975942806
 20
355.928730408
 30
0.0
  0
SPLINE
  5
342
100
AcDbEntity
  8
0
100
AcDbSpline
 62
7
  6
CONTINUOUS
 70
0
 71
3
 72
9
 73
5
 74
0
 42
0.0000001
 43
0.0000001
 44
0.0000000001
 40
0.0
 40
0.0
 40
0.0
 40
0.0
 40
0.5043670136
 40
1.0
 40
1.0
 40
1.0
 40
1.0
 10
286.4975942806
 20
355.928730408
 30
0.0
 10
285.860397919
 20
355.8355805028
 30
0.0
 10
284.6105078623
 20
355.5361894849
 30
0.0
 10
283.4406372176
 20
355.0029271809
 30
0.0
 10
282.8924033818
 20
354.6868612089
 30
0.0
  0
SPLINE
  5
343
100
AcDbEntity
  8
0
100
AcDbSpline
 62
7
  6
CONTINUOUS
 70
0
 71
3
 72
9
 73
5
 74
0
 42
0.0000001
 43
0.0000001
 44
0.0000000001
 40
0.0
 40
0.0
 40
0.0
 40
0.0
 40
0.2566978727
 40
1.0
 40
1.0
 40
1.0
 40
1.0
 10
317.6370862288
 20
317.8396363469
 30
0.0
 10
317.6370862288
 20
316.0328885944
 30
0.0
 10
317.7382452964
 20
308.9951127183
 30
0.0
 10
318.2536427198
 20
301.9610973188
 30
0.0
 10
318.9029699459
 20
296.7698757517
 30
0.0
  0
SPLINE
  5
344
100
AcDbEntity
  8
0
100
AcDbSpline
 62
7
  6
CONTINUOUS
 70
0
 71
3
 72
9
 73
5
 74
0
 42
0.0000001
 43
0.0000001
 44
0.0000000001
 40
0.0
 40
0.0
 40
0.0
 40
0.0
 40
0.5105045483
 40
1.0
 40
1.0
 40
1.0
 40
1.0
 10
320.1049147837
 20
349.6383192397
 30
0.0
 10
319.3004960367
 20
344.2670939064
 30
0.0
 10
318.0767649171
 20
333.689147623
 30
0.0
 10
317.6370862288
 20
323.0472538905
 30
0.0
 10
317.6370862288
 20
317.8396363469
 30
0.0
  0
SPLINE
  5
345
100
AcDbEntity
  8
0
100
AcDbSpline
 62
7
  6
CONTINUOUS
 70
0
 71
3
 72
15
 73
11
 74
0
 42
0.0000001
 43
0.0000001
 44
0.0000000001
 40
0.0
 40
0.0
 40
0.0
 40
0.0
 40
0.2732887839
 40
0.4172265782
 40
0.5568865611
 40
0.6861769849
 40
0.8014403221
 40
0.9035834164
 40
0.9519505487
 40
1.0
 40
1.0
 40
1.0
 40
1.0
 10
300.4920465489
 20
359.9926425385
 30
0.0
 10
300.3841608379
 20
359.2534519181
 30
0.0
 10
300.5122502699
 20
358.0732106789
 30
0.0
 10
301.0914453717
 20
356.6610302034
 30
0.0
 10
301.7212146921
 20
355.7135166371
 30
0.0
 10
302.4870538494
 20
354.980509276
 30
0.0
 10
303.332652745
 20
354.5220292749
 30
0.0
 10
304.0728212344
 20
354.4155191298
 30
0.0
 10
304.609862893
 20
354.5187598313
 30
0.0
 10
304.853449757
 20
354.6259772617
 30
0.0
 10
304.9672047252
 20
354.691629746
 30
0.0
  0
SPLINE
  5
346
100
AcDbEntity
  8
0
100
AcDbSpline
 62
7
  6
CONTINUOUS
 70
0
 71
3
 72
15
 73
11
 74
0
 42
0.0000001
 43
0.0000001
 44
0.0000000001
 40
0.0
 40
0.0
 40
0.0
 40
0.0
 40
0.2732887839
 40
0.4172265782
 40
0.5568865611
 40
0.6861769849
 40
0.8014403221
 40
0.9035834164
 40
0.9519505487
 40
1.0
 40
1.0
 40
1.0
 40
1.0
 10
282.8143034203
 20
370.1986614015
 30
0.0
 10
282.7064177092
 20
369.4594707812
 30
0.0
 10
282.8345071412
 20
368.2792295419
 30
0.0
 10
283.413702243
 20
366.8670490664
 30
0.0
 10
284.0434715635
 20
365.9195355001
 30
0.0
 10
284.8093107207
 20
365.186528139
 30
0.0
 10
285.6549096164
 20
364.7280481379
 30
0.0
 10
286.3950781058
 20
364.6215379928
 30
0.0
 10
286.9321197643
 20
364.7247786943
 30
0.0
 10
287.1757066283
 20
364.8319961247
 30
0.0
 10
287.2894615965
 20
364.897648609
 30
0.0
  0
SPLINE
  5
347
100
AcDbEntity
  8
0
100
AcDbSpline
 62
7
  6
CONTINUOUS
 70
0
 71
3
 72
11
 73
7
 74
0
 42
0.0000001
 43
0.0000001
 44
0.0000000001
 40
0.0
 40
0.0
 40
0.0
 40
0.0
 40
0.2321651106
 40
0.4888309937
 40
0.751443837
 40
1.0
 40
1.0
 40
1.0
 40
1.0
 10
287.6485266334
 20
367.6824755409
 30
0.0
 10
287.4314586387
 20
367.8077969709
 30
0.0
 10
287.0148932889
 20
368.1428302197
 30
0.0
 10
286.5040181368
 20
368.7792710243
 30
0.0
 10
286.1156087398
 20
369.517071751
 30
0.0
 10
285.9586601377
 20
370.0517374124
 30
0.0
 10
285.9162685416
 20
370.3167108519
 30
0.0
  0
SPLINE
  5
348
100
AcDbEntity
  8
0
100
AcDbSpline
 62
7
  6
CONTINUOUS
 70
0
 71
3
 72
9
 73
5
 74
0
 42
0.0000001
 43
0.0000001
 44
0.0000000001
 40
0.0
 40
0.0
 40
0.0
 40
0.0
 40
0.533270657
 40
1.0
 40
1.0
 40
1.0
 40
1.0
 10
285.9162685416
 20
371.1309464163
 30
0.0
 10
285.9477456764
 20
371.2913519457
 30
0.0
 10
286.0495178212
 20
371.5888682851
 30
0.0
 10
286.2746142059
 20
371.817295131
 30
0.0
 10
286.3985495042
 20
371.8887683258
 30
0.0
  0
SPLINE
  5
349
100
AcDbEntity
  8
0
100
AcDbSpline
 62
7
  6
CONTINUOUS
 70
0
 71
3
 72
9
 73
5
 74
0
 42
0.0000001
 43
0.0000001
 44
0.0000000001
 40
0.0
 40
0.0
 40
0.0
 40
0.0
 40
0.2537836121
 40
1.0
 40
1.0
 40
1.0
 40
1.0
 10
321.2887010074
 20
388.7039446921
 30
0.0
 10
321.2294469377
 20
388.8267645681
 30
0.0
 10
320.9767629674
 20
389.3010658539
 30
0.0
 10
320.6507611068
 20
389.7375256272
 30
0.0
 10
320.3701370011
 20
390.0239245905
 30
0.0
  0
SPLINE
  5
34A
100
AcDbEntity
  8
0
100
AcDbSpline
 62
7
  6
CONTINUOUS
 70
0
 71
3
 72
11
 73
7
 74
0
 42
0.0000001
 43
0.0000001
 44
0.0000000001
 40
0.0
 40
0.0
 40
0.0
 40
0.0
 40
0.2321651106
 40
0.4888309937
 40
0.751443837
 40
1.0
 40
1.0
 40
1.0
 40
1.0
 10
305.3262697621
 20
357.4764566778
 30
0.0
 10
305.1092017674
 20
357.6017781079
 30
0.0
 10
304.6926364176
 20
357.9368113567
 30
0.0
 10
304.1817612655
 20
358.5732521613
 30
0.0
 10
303.7933518685
 20
359.311052888
 30
0.0
 10
303.6364032664
 20
359.8457185494
 30
0.0
 10
303.5940116702
 20
360.1106919889
 30
0.0
  0
SPLINE
  5
34B
100
AcDbEntity
  8
0
100
AcDbSpline
 62
7
  6
CONTINUOUS
 70
0
 71
3
 72
9
 73
5
 74
0
 42
0.0000001
 43
0.0000001
 44
0.0000000001
 40
0.0
 40
0.0
 40
0.0
 40
0.0
 40
0.533270657
 40
1.0
 40
1.0
 40
1.0
 40
1.0
 10
303.5940116702
 20
360.9249275533
 30
0.0
 10
303.6254888051
 20
361.0853330827
 30
0.0
 10
303.7272609499
 20
361.3828494221
 30
0.0
 10
303.9523573346
 20
361.611276268
 30
0.0
 10
304.0762926329
 20
361.6827494628
 30
0.0
  0
SPLINE
  5
34C
100
AcDbEntity
  8
0
100
AcDbSpline
 62
7
  6
CONTINUOUS
 70
0
 71
3
 72
15
 73
11
 74
0
 42
0.0000001
 43
0.0000001
 44
0.0000000001
 40
0.0
 40
0.0
 40
0.0
 40
0.0
 40
0.1288248732
 40
0.2705977602
 40
0.4178979
 40
0.5623932695
 40
0.696206034
 40
0.8135977194
 40
0.9130663632
 40
1.0
 40
1.0
 40
1.0
 40
1.0
 10
328.2716512076
 20
391.9118066156
 30
0.0
 10
328.2716512076
 20
392.0442874359
 30
0.0
 10
328.2345588462
 20
392.3228780603
 30
0.0
 10
328.0962630952
 20
392.7319149522
 30
0.0
 10
327.8830214798
 20
393.1259333737
 30
0.0
 10
327.612274836
 20
393.4725584875
 30
0.0
 10
327.3055545117
 20
393.7441425912
 30
0.0
 10
326.9856939066
 20
393.9188492206
 30
0.0
 10
326.6725974325
 20
393.9815808116
 30
0.0
 10
326.4780935204
 20
393.9315596475
 30
0.0
 10
326.4006683686
 20
393.8868624563
 30
0.0
  0
SPLINE
  5
34D
100
AcDbEntity
  8
0
100
AcDbSpline
 62
7
  6
CONTINUOUS
 70
0
 71
3
 72
15
 73
11
 74
0
 42
0.0000001
 43
0.0000001
 44
0.0000000001
 40
0.0
 40
0.0
 40
0.0
 40
0.0
 40
0.1288248732
 40
0.2705977602
 40
0.4178979
 40
0.5623932695
 40
0.696206034
 40
0.8135977194
 40
0.9130663632
 40
1.0
 40
1.0
 40
1.0
 40
1.0
 10
345.9493943363
 20
381.7057877526
 30
0.0
 10
345.9493943363
 20
381.8382685729
 30
0.0
 10
345.9123019748
 20
382.1168591973
 30
0.0
 10
345.7740062238
 20
382.5258960892
 30
0.0
 10
345.5607646084
 20
382.9199145107
 30
0.0
 10
345.2900179647
 20
383.2665396245
 30
0.0
 10
344.9832976404
 20
383.5381237282
 30
0.0
 10
344.6634370352
 20
383.7128303576
 30
0.0
 10
344.3503405612
 20
383.7755619485
 30
0.0
 10
344.1558366491
 20
383.7255407845
 30
0.0
 10
344.0784114973
 20
383.6808435933
 30
0.0
  0
SPLINE
  5
34E
100
AcDbEntity
  8
0
100
AcDbSpline
 62
7
  6
CONTINUOUS
 70
0
 71
3
 72
15
 73
11
 74
0
 42
0.0000001
 43
0.0000001
 44
0.0000000001
 40
0.0
 40
0.0
 40
0.0
 40
0.0
 40
0.1288248732
 40
0.2705977602
 40
0.4178979
 40
0.5623932695
 40
0.696206034
 40
0.8135977194
 40
0.9130663632
 40
1.0
 40
1.0
 40
1.0
 40
1.0
 10
358.1823925814
 20
320.0192109934
 30
0.0
 10
358.1823925814
 20
320.1516918137
 30
0.0
 10
358.1453002199
 20
320.4302824381
 30
0.0
 10
358.0070044689
 20
320.83931933
 30
0.0
 10
357.7937628535
 20
321.2333377515
 30
0.0
 10
357.5230162097
 20
321.5799628653
 30
0.0
 10
357.2162958854
 20
321.851546969
 30
0.0
 10
356.8964352803
 20
322.0262535984
 30
0.0
 10
356.5833388062
 20
322.0889851894
 30
0.0
 10
356.3888348942
 20
322.0389640253
 30
0.0
 10
356.3114097423
 20
321.9942668341
 30
0.0
  0
SPLINE
  5
34F
100
AcDbEntity
  8
0
100
AcDbSpline
 62
7
  6
CONTINUOUS
 70
0
 71
3
 72
9
 73
5
 74
0
 42
0.0000001
 43
0.0000001
 44
0.0000000001
 40
0.0
 40
0.0
 40
0.0
 40
0.0
 40
0.4903189139
 40
1.0
 40
1.0
 40
1.0
 40
1.0
 10
281.2523830253
 20
353.5044344741
 30
0.0
 10
280.7419643883
 20
353.0510535177
 30
0.0
 10
279.7953523084
 20
352.0159003455
 30
0.0
 10
279.0610180441
 20
350.8232450392
 30
0.0
 10
278.7407792891
 20
350.1899476873
 30
0.0
  0
SPLINE
  5
350
100
AcDbEntity
  8
0
100
AcDbSpline
 62
7
  6
CONTINUOUS
 70
0
 71
3
 72
9
 73
5
 74
0
 42
0.0000001
 43
0.0000001
 44
0.0000000001
 40
0.0
 40
0.0
 40
0.0
 40
0.0
 40
0.4593351189
 40
1.0
 40
1.0
 40
1.0
 40
1.0
 10
307.470368475
 20
346.0322943846
 30
0.0
 10
307.3743091454
 20
345.9767523437
 30
0.0
 10
307.2048236607
 20
345.7851464659
 30
0.0
 10
307.1451762208
 20
345.5441278231
 30
0.0
 10
307.131941401
 20
345.4141925476
 30
0.0
  0
SPLINE
  5
351
100
AcDbEntity
  8
0
100
AcDbSpline
 62
7
  6
CONTINUOUS
 70
0
 71
3
 72
13
 73
9
 74
0
 42
0.0000001
 43
0.0000001
 44
0.0000000001
 40
0.0
 40
0.0
 40
0.0
 40
0.0
 40
0.0943084933
 40
0.196251463
 40
0.3122221231
 40
0.4426840977
 40
0.7273499695
 40
1.0
 40
1.0
 40
1.0
 40
1.0
 10
307.4669116389
 20
346.6076770719
 30
0.0
 10
307.5635963172
 20
346.6635426214
 30
0.0
 10
307.7954974461
 20
346.7327728234
 30
0.0
 10
308.1699211366
 20
346.6742681725
 30
0.0
 10
308.5381805855
 20
346.4753182329
 30
0.0
 10
308.9993278501
 20
346.0399125785
 30
0.0
 10
309.3985441739
 20
345.3077384843
 30
0.0
 10
309.4998134829
 20
344.6340571541
 30
0.0
 10
309.4670541511
 20
344.3128975528
 30
0.0
  0
SPLINE
  5
352
100
AcDbEntity
  8
0
100
AcDbSpline
 62
7
  6
CONTINUOUS
 70
0
 71
3
 72
10
 73
6
 74
0
 42
0.0000001
 43
0.0000001
 44
0.0000000001
 40
0.0
 40
0.0
 40
0.0
 40
0.0
 40
0.2227305109
 40
0.4603694861
 40
1.0
 40
1.0
 40
1.0
 40
1.0
 10
308.7842326537
 20
343.3268330356
 30
0.0
 10
308.8494286092
 20
343.3645063313
 30
0.0
 10
308.9725699805
 20
343.4641055584
 30
0.0
 10
309.1678799917
 20
343.7439659478
 30
0.0
 10
309.2347842778
 20
344.0079776519
 30
0.0
 10
309.2532705766
 20
344.1894702853
 30
0.0
  0
SPLINE
  5
353
100
AcDbEntity
  8
0
100
AcDbSpline
 62
7
  6
CONTINUOUS
 70
0
 71
3
 72
11
 73
7
 74
0
 42
0.0000001
 43
0.0000001
 44
0.0000000001
 40
0.0
 40
0.0
 40
0.0
 40
0.0
 40
0.2234975566
 40
0.4618662526
 40
0.7203775621
 40
1.0
 40
1.0
 40
1.0
 40
1.0
 10
304.9672047252
 20
354.691629746
 30
0.0
 10
305.1239301038
 20
354.782082151
 30
0.0
 10
305.4206184699
 20
355.0192387294
 30
0.0
 10
305.7681072119
 20
355.4944343005
 30
0.0
 10
306.0196708321
 20
356.0752798636
 30
0.0
 10
306.1162280398
 20
356.5026941955
 30
0.0
 10
306.1489243501
 20
356.7267165023
 30
0.0
  0
SPLINE
  5
354
100
AcDbEntity
  8
0
100
AcDbSpline
 62
7
  6
CONTINUOUS
 70
0
 71
3
 72
11
 73
7
 74
0
 42
0.0000001
 43
0.0000001
 44
0.0000000001
 40
0.0
 40
0.0
 40
0.0
 40
0.0
 40
0.2234975566
 40
0.4618662526
 40
0.7203775621
 40
1.0
 40
1.0
 40
1.0
 40
1.0
 10
287.2894615965
 20
364.897648609
 30
0.0
 10
287.4461869751
 20
364.988101014
 30
0.0
 10
287.7428753412
 20
365.2252575924
 30
0.0
 10
288.0903640832
 20
365.7004531635
 30
0.0
 10
288.3419277035
 20
366.2812987266
 30
0.0
 10
288.4384849112
 20
366.7087130585
 30
0.0
 10
288.4711812214
 20
366.9327353653
 30
0.0
  0
SPLINE
  5
355
100
AcDbEntity
  8
0
100
AcDbSpline
 62
7
  6
CONTINUOUS
 70
0
 71
3
 72
11
 73
7
 74
0
 42
0.0000001
 43
0.0000001
 44
0.0000000001
 40
0.0
 40
0.0
 40
0.0
 40
0.0
 40
0.210297721
 40
0.4369404491
 40
0.6979497428
 40
1.0
 40
1.0
 40
1.0
 40
1.0
 10
313.1691038367
 20
298.7601831703
 30
0.0
 10
313.0852316174
 20
298.711789379
 30
0.0
 10
312.9299107628
 20
298.5738595427
 30
0.0
 10
312.788494478
 20
298.2781105632
 30
0.0
 10
312.7348325163
 20
297.9146880129
 30
0.0
 10
312.7525944508
 20
297.6543270239
 30
0.0
 10
312.7726677609
 20
297.5167030584
 30
0.0
  0
SPLINE
  5
356
100
AcDbEntity
  8
0
100
AcDbSpline
 62
7
  6
CONTINUOUS
 70
0
 71
3
 72
11
 73
7
 74
0
 42
0.0000001
 43
0.0000001
 44
0.0000000001
 40
0.0
 40
0.0
 40
0.0
 40
0.0
 40
0.2177821603
 40
0.4509071519
 40
0.7103304869
 40
1.0
 40
1.0
 40
1.0
 40
1.0
 10
286.3985495042
 20
371.8887683258
 30
0.0
 10
286.4810361385
 20
371.9363381736
 30
0.0
 10
286.67046268
 20
372.005184927
 30
0.0
 10
286.9852130045
 20
372.0131352375
 30
0.0
 10
287.3206077063
 20
371.9321013086
 30
0.0
 10
287.5388424938
 20
371.8283123614
 30
0.0
 10
287.6485266334
 20
371.7649876265
 30
0.0
  0
SPLINE
  5
357
100
AcDbEntity
  8
0
100
AcDbSpline
 62
7
  6
CONTINUOUS
 70
0
 71
3
 72
11
 73
7
 74
0
 42
0.0000001
 43
0.0000001
 44
0.0000000001
 40
0.0
 40
0.0
 40
0.0
 40
0.0
 40
0.2177821603
 40
0.4509071519
 40
0.7103304869
 40
1.0
 40
1.0
 40
1.0
 40
1.0
 10
304.0762926329
 20
361.6827494628
 30
0.0
 10
304.1587792671
 20
361.7303193106
 30
0.0
 10
304.3482058087
 20
361.799166064
 30
0.0
 10
304.6629561331
 20
361.8071163745
 30
0.0
 10
304.998350835
 20
361.7260824456
 30
0.0
 10
305.2165856225
 20
361.6222934984
 30
0.0
 10
305.3262697621
 20
361.5589687635
 30
0.0
  0
SPLINE
  5
358
100
AcDbEntity
  8
0
100
AcDbSpline
 62
7
  6
CONTINUOUS
 70
0
 71
3
 72
9
 73
5
 74
0
 42
0.0000001
 43
0.0000001
 44
0.0000000001
 40
0.0
 40
0.0
 40
0.0
 40
0.0
 40
0.2529403117
 40
1.0
 40
1.0
 40
1.0
 40
1.0
 10
283.9316526097
 20
354.5729144942
 30
0.0
 10
283.9993130527
 20
354.658442101
 30
0.0
 10
284.2726395208
 20
354.9919104486
 30
0.0
 10
284.5695700281
 20
355.3061221294
 30
0.0
 10
284.8035998449
 20
355.5274226841
 30
0.0
  0
SPLINE
  5
359
100
AcDbEntity
  8
0
100
AcDbSpline
 62
7
  6
CONTINUOUS
 70
0
 71
3
 72
9
 73
5
 74
0
 42
0.0000001
 43
0.0000001
 44
0.0000000001
 40
0.0
 40
0.0
 40
0.0
 40
0.0
 40
0.2537422397
 40
1.0
 40
1.0
 40
1.0
 40
1.0
 10
315.7004281565
 20
349.0957540831
 30
0.0
 10
315.5154861761
 20
347.7510576746
 30
0.0
 10
314.8320108624
 20
342.4454966638
 30
0.0
 10
314.3325204203
 20
337.1159198021
 30
0.0
 10
314.0727745916
 20
333.1323889934
 30
0.0
  0
SPLINE
  5
35A
100
AcDbEntity
  8
0
100
AcDbSpline
 62
7
  6
CONTINUOUS
 70
0
 71
3
 72
9
 73
5
 74
0
 42
0.0000001
 43
0.0000001
 44
0.0000000001
 40
0.0
 40
0.0
 40
0.0
 40
0.0
 40
0.2462729699
 40
1.0
 40
1.0
 40
1.0
 40
1.0
 10
312.6542881506
 20
332.3134303534
 30
0.0
 10
312.7391298918
 20
333.6271837516
 30
0.0
 10
313.1331213968
 20
338.9584505804
 30
0.0
 10
313.7216222789
 20
344.2750459377
 30
0.0
 10
314.2655426682
 20
348.2673275052
 30
0.0
  0
SPLINE
  5
35B
100
AcDbEntity
  8
0
100
AcDbSpline
 62
7
  6
CONTINUOUS
 70
0
 71
3
 72
14
 73
10
 74
0
 42
0.0000001
 43
0.0000001
 44
0.0000000001
 40
0.0
 40
0.0
 40
0.0
 40
0.0
 40
0.27340454
 40
0.4173746869
 40
0.5569722267
 40
0.6863122565
 40
0.8015568272
 40
0.9039038622
 40
1.0
 40
1.0
 40
1.0
 40
1.0
 10
283.5214131454
 20
369.790420647
 30
0.0
 10
283.4404663014
 20
369.2358045885
 30
0.0
 10
283.5351988376
 20
368.3504938948
 30
0.0
 10
283.9675166033
 20
367.2902572721
 30
0.0
 10
284.4384829286
 20
366.5788210198
 30
0.0
 10
285.0115659701
 20
366.0274984456
 30
0.0
 10
285.6475379184
 20
365.6853489577
 30
0.0
 10
286.300393116
 20
365.5884273135
 30
0.0
 10
286.7042851977
 20
365.714833993
 30
0.0
 10
286.8748758918
 20
365.8133653761
 30
0.0
  0
SPLINE
  5
35C
100
AcDbEntity
  8
0
100
AcDbSpline
 62
7
  6
CONTINUOUS
 70
0
 71
3
 72
9
 73
5
 74
0
 42
0.0000001
 43
0.0000001
 44
0.0000000001
 40
0.0
 40
0.0
 40
0.0
 40
0.0
 40
0.2539500768
 40
1.0
 40
1.0
 40
1.0
 40
1.0
 10
316.3308011077
 20
349.4597049584
 30
0.0
 10
316.1326792224
 20
348.0409940584
 30
0.0
 10
315.402914957
 20
342.4475476762
 30
0.0
 10
314.8775878242
 20
336.8270382269
 30
0.0
 10
314.6118533122
 20
332.6271290176
 30
0.0
  0
SPLINE
  5
35D
100
AcDbEntity
  8
0
100
AcDbSpline
 62
7
  6
CONTINUOUS
 70
0
 71
3
 72
9
 73
5
 74
0
 42
0.0000001
 43
0.0000001
 44
0.0000000001
 40
0.0
 40
0.0
 40
0.0
 40
0.0
 40
0.2460365662
 40
1.0
 40
1.0
 40
1.0
 40
1.0
 10
314.3991140475
 20
332.5043046791
 30
0.0
 10
314.486613639
 20
333.889240684
 30
0.0
 10
314.8979789279
 20
339.5146119514
 30
0.0
 10
315.528104342
 20
345.123609358
 30
0.0
 10
316.1154366526
 20
349.3353649745
 30
0.0
  0
SPLINE
  5
35E
100
AcDbEntity
  8
0
100
AcDbSpline
 62
7
  6
CONTINUOUS
 70
0
 71
3
 72
13
 73
9
 74
0
 42
0.0000001
 43
0.0000001
 44
0.0000000001
 40
0.0
 40
0.0
 40
0.0
 40
0.0
 40
0.2726400608
 40
0.5573224084
 40
0.6877866458
 40
0.8037589747
 40
0.9057109897
 40
1.0
 40
1.0
 40
1.0
 40
1.0
 10
309.2532705766
 20
344.1894702853
 30
0.0
 10
309.2859809031
 20
344.5106099244
 30
0.0
 10
309.1846142188
 20
345.1842579738
 30
0.0
 10
308.7853091305
 20
345.9163477161
 30
0.0
 10
308.3241601529
 20
346.3517399697
 30
0.0
 10
307.9559102616
 20
346.5507107591
 30
0.0
 10
307.5815125356
 20
346.6091975401
 30
0.0
 10
307.3496257323
 20
346.5400031117
 30
0.0
 10
307.2529658387
 20
346.4841497807
 30
0.0
  0
SPLINE
  5
35F
100
AcDbEntity
  8
0
100
AcDbSpline
 62
7
  6
CONTINUOUS
 70
0
 71
3
 72
13
 73
9
 74
0
 42
0.0000001
 43
0.0000001
 44
0.0000000001
 40
0.0
 40
0.0
 40
0.0
 40
0.0
 40
0.2727376676
 40
0.5579133607
 40
0.6886744585
 40
0.8047277504
 40
0.9063819543
 40
1.0
 40
1.0
 40
1.0
 40
1.0
 10
307.131941401
 20
345.4141925476
 30
0.0
 10
307.108606078
 20
345.1850937252
 30
0.0
 10
307.1830774437
 20
344.703990114
 30
0.0
 10
307.4719610775
 20
344.1834817974
 30
0.0
 10
307.8024512871
 20
343.8737996643
 30
0.0
 10
308.0649066525
 20
343.7318205139
 30
0.0
 10
308.3308811781
 20
343.6888672191
 30
0.0
 10
308.4956860115
 20
343.7375538004
 30
0.0
 10
308.5641157037
 20
343.7771215792
 30
0.0
  0
SPLINE
  5
360
100
AcDbEntity
  8
0
100
AcDbSpline
 62
7
  6
CONTINUOUS
 70
0
 71
3
 72
10
 73
6
 74
0
 42
0.0000001
 43
0.0000001
 44
0.0000000001
 40
0.0
 40
0.0
 40
0.0
 40
0.0
 40
0.5395959841
 40
0.7772593228
 40
1.0
 40
1.0
 40
1.0
 40
1.0
 10
309.4670541511
 20
344.3128975528
 30
0.0
 10
309.4485399877
 20
344.1313919789
 30
0.0
 10
309.3815934117
 20
343.8673429666
 30
0.0
 10
309.1862108137
 20
343.5874937414
 30
0.0
 10
309.0630905008
 20
343.4878020519
 30
0.0
 10
308.9978676723
 20
343.4501458188
 30
0.0
  0
SPLINE
  5
361
100
AcDbEntity
  8
0
100
AcDbSpline
 62
7
  6
CONTINUOUS
 70
0
 71
3
 72
9
 73
5
 74
0
 42
0.0000001
 43
0.0000001
 44
0.0000000001
 40
0.0
 40
0.0
 40
0.0
 40
0.0
 40
0.4866886313
 40
1.0
 40
1.0
 40
1.0
 40
1.0
 10
321.200438113
 20
287.0735459987
 30
0.0
 10
320.273380842
 20
291.922598505
 30
0.0
 10
318.9044783451
 20
301.9931302663
 30
0.0
 10
318.485617899
 20
312.1428154263
 30
0.0
 10
318.485617899
 20
317.3497474414
 30
0.0
  0
SPLINE
  5
362
100
AcDbEntity
  8
0
100
AcDbSpline
 62
7
  6
CONTINUOUS
 70
0
 71
3
 72
9
 73
5
 74
0
 42
0.0000001
 43
0.0000001
 44
0.0000000001
 40
0.0
 40
0.0
 40
0.0
 40
0.0
 40
0.4890459577
 40
1.0
 40
1.0
 40
1.0
 40
1.0
 10
318.485617899
 20
317.3497474414
 30
0.0
 10
318.485617899
 20
322.8183030921
 30
0.0
 10
318.9707954939
 20
334.0039669612
 30
0.0
 10
320.3164157597
 20
345.1160048594
 30
0.0
 10
321.200438113
 20
350.7607345348
 30
0.0
  0
SPLINE
  5
363
100
AcDbEntity
  8
0
100
AcDbSpline
 62
7
  6
CONTINUOUS
 70
0
 71
3
 72
14
 73
10
 74
0
 42
0.0000001
 43
0.0000001
 44
0.0000000001
 40
0.0
 40
0.0
 40
0.0
 40
0.0
 40
0.27340454
 40
0.4173746869
 40
0.5569722267
 40
0.6863122565
 40
0.8015568272
 40
0.9039038622
 40
1.0
 40
1.0
 40
1.0
 40
1.0
 10
301.1991562741
 20
359.584401784
 30
0.0
 10
301.1182094301
 20
359.0297857255
 30
0.0
 10
301.2129419663
 20
358.1444750318
 30
0.0
 10
301.6452597319
 20
357.084238409
 30
0.0
 10
302.1162260572
 20
356.3728021568
 30
0.0
 10
302.6893090988
 20
355.8214795826
 30
0.0
 10
303.3252810471
 20
355.4793300947
 30
0.0
 10
303.9781362447
 20
355.3824084505
 30
0.0
 10
304.3820283263
 20
355.50881513
 30
0.0
 10
304.5526190205
 20
355.607346513
 30
0.0
  0
SPLINE
  5
364
100
AcDbEntity
  8
0
100
AcDbSpline
 62
7
  6
CONTINUOUS
 70
0
 71
3
 72
11
 73
7
 74
0
 42
0.0000001
 43
0.0000001
 44
0.0000000001
 40
0.0
 40
0.0
 40
0.0
 40
0.0
 40
0.2796095906
 40
0.5381169333
 40
0.7764922329
 40
1.0
 40
1.0
 40
1.0
 40
1.0
 10
306.3646235819
 20
356.8512497685
 30
0.0
 10
306.3318760306
 20
356.6271950253
 30
0.0
 10
306.2352105632
 20
356.1997214228
 30
0.0
 10
305.9835127811
 20
355.6187933076
 30
0.0
 10
305.63588932
 20
355.1435250973
 30
0.0
 10
305.3391186118
 20
354.906320501
 30
0.0
 10
305.1823514953
 20
354.8158440735
 30
0.0
  0
SPLINE
  5
365
100
AcDbEntity
  8
0
100
AcDbSpline
 62
7
  6
CONTINUOUS
 70
0
 71
3
 72
11
 73
7
 74
0
 42
0.0000001
 43
0.0000001
 44
0.0000000001
 40
0.0
 40
0.0
 40
0.0
 40
0.0
 40
0.2796095906
 40
0.5381169333
 40
0.7764922329
 40
1.0
 40
1.0
 40
1.0
 40
1.0
 10
288.6868804532
 20
367.0572686315
 30
0.0
 10
288.654132902
 20
366.8332138883
 30
0.0
 10
288.5574674345
 20
366.4057402858
 30
0.0
 10
288.3057696524
 20
365.8248121706
 30
0.0
 10
287.9581461913
 20
365.3495439603
 30
0.0
 10
287.6613754831
 20
365.112339364
 30
0.0
 10
287.5046083666
 20
365.0218629365
 30
0.0
  0
SPLINE
  5
366
100
AcDbEntity
  8
0
100
AcDbSpline
 62
7
  6
CONTINUOUS
 70
0
 71
3
 72
9
 73
5
 74
0
 42
0.0000001
 43
0.0000001
 44
0.0000000001
 40
0.0
 40
0.0
 40
0.0
 40
0.0
 40
0.254942491
 40
1.0
 40
1.0
 40
1.0
 40
1.0
 10
266.8666061969
 20
347.3962679939
 30
0.0
 10
266.8666061969
 20
346.0402187546
 30
0.0
 10
266.9240801655
 20
340.7214192771
 30
0.0
 10
267.2155253605
 20
335.4044818211
 30
0.0
 10
267.5782120358
 20
331.4581224831
 30
0.0
  0
SPLINE
  5
367
100
AcDbEntity
  8
0
100
AcDbSpline
 62
7
  6
CONTINUOUS
 70
0
 71
3
 72
9
 73
5
 74
0
 42
0.0000001
 43
0.0000001
 44
0.0000000001
 40
0.0
 40
0.0
 40
0.0
 40
0.0
 40
0.5104530537
 40
1.0
 40
1.0
 40
1.0
 40
1.0
 10
269.3031723541
 20
378.9627403294
 30
0.0
 10
268.5088529629
 20
373.6308717378
 30
0.0
 10
267.3005585079
 20
363.1299343127
 30
0.0
 10
266.8666061969
 20
352.5661971963
 30
0.0
 10
266.8666061969
 20
347.3962679939
 30
0.0
  0
SPLINE
  5
368
100
AcDbEntity
  8
0
100
AcDbSpline
 62
7
  6
CONTINUOUS
 70
0
 71
3
 72
9
 73
5
 74
0
 42
0.0000001
 43
0.0000001
 44
0.0000000001
 40
0.0
 40
0.0
 40
0.0
 40
0.0
 40
0.4894954517
 40
1.0
 40
1.0
 40
1.0
 40
1.0
 10
266.6544750457
 20
347.2737947478
 30
0.0
 10
266.6544750457
 20
352.4814122914
 30
0.0
 10
267.094153734
 20
363.1233060239
 30
0.0
 10
268.3178848536
 20
373.7012523074
 30
0.0
 10
269.1223036006
 20
379.0724776406
 30
0.0
  0
SPLINE
  5
369
100
AcDbEntity
  8
0
100
AcDbSpline
 62
7
  6
CONTINUOUS
 70
0
 71
3
 72
9
 73
5
 74
0
 42
0.0000001
 43
0.0000001
 44
0.0000000001
 40
0.0
 40
0.0
 40
0.0
 40
0.0
 40
0.2447410288
 40
1.0
 40
1.0
 40
1.0
 40
1.0
 10
267.469371214
 20
330.2389777967
 30
0.0
 10
267.3326928348
 20
331.6238645943
 30
0.0
 10
266.8484177496
 20
337.2896274261
 30
0.0
 10
266.6544750457
 20
342.9793380771
 30
0.0
 10
266.6544750457
 20
347.2737947478
 30
0.0
  0
SPLINE
  5
36A
100
AcDbEntity
  8
0
100
AcDbSpline
 62
7
  6
CONTINUOUS
 70
0
 71
3
 72
11
 73
7
 74
0
 42
0.0000001
 43
0.0000001
 44
0.0000000001
 40
0.0
 40
0.0
 40
0.0
 40
0.0
 40
0.2273061146
 40
0.4890905476
 40
0.757140313
 40
1.0
 40
1.0
 40
1.0
 40
1.0
 10
312.7726677609
 20
297.5167030584
 30
0.0
 10
312.8204716314
 20
297.1889565024
 30
0.0
 10
313.0465735774
 20
296.5022724638
 30
0.0
 10
313.6067111963
 20
295.5454324181
 30
0.0
 10
314.3432030544
 20
294.6865165344
 30
0.0
 10
314.9332644689
 20
294.2193888773
 30
0.0
 10
315.2397335612
 20
294.0424528672
 30
0.0
  0
SPLINE
  5
36B
100
AcDbEntity
  8
0
100
AcDbSpline
 62
7
  6
CONTINUOUS
 70
0
 71
3
 72
9
 73
5
 74
0
 42
0.0000001
 43
0.0000001
 44
0.0000000001
 40
0.0
 40
0.0
 40
0.0
 40
0.0
 40
0.4745996447
 40
1.0
 40
1.0
 40
1.0
 40
1.0
 10
287.6485266334
 20
371.7649876265
 30
0.0
 10
287.9188969512
 20
371.6088927821
 30
0.0
 10
288.4259073597
 20
371.1714125365
 30
0.0
 10
288.8047170293
 20
370.6259478956
 30
0.0
 10
288.9676032173
 20
370.3211269985
 30
0.0
  0
SPLINE
  5
36C
100
AcDbEntity
  8
0
100
AcDbSpline
 62
7
  6
CONTINUOUS
 70
0
 71
3
 72
11
 73
7
 74
0
 42
0.0000001
 43
0.0000001
 44
0.0000000001
 40
0.0
 40
0.0
 40
0.0
 40
0.0
 40
0.3079764708
 40
0.5746120098
 40
0.8014226812
 40
1.0
 40
1.0
 40
1.0
 40
1.0
 10
315.2397335612
 20
294.0424528672
 30
0.0
 10
315.3703210736
 20
293.9670598374
 30
0.0
 10
315.6237883133
 20
293.8419940672
 30
0.0
 10
316.0033944657
 20
293.7325429185
 30
0.0
 10
316.3465091684
 20
293.719659692
 30
0.0
 10
316.5506073928
 20
293.7849615216
 30
0.0
 10
316.6348202148
 20
293.8335518434
 30
0.0
  0
SPLINE
  5
36D
100
AcDbEntity
  8
0
100
AcDbSpline
 62
7
  6
CONTINUOUS
 70
0
 71
3
 72
9
 73
5
 74
0
 42
0.0000001
 43
0.0000001
 44
0.0000000001
 40
0.0
 40
0.0
 40
0.0
 40
0.0
 40
0.5254035693
 40
1.0
 40
1.0
 40
1.0
 40
1.0
 10
290.5250757966
 20
371.2157808557
 30
0.0
 10
290.3621887132
 20
371.5213791098
 30
0.0
 10
289.9829336822
 20
372.0681686596
 30
0.0
 10
289.4750587301
 20
372.5067220053
 30
0.0
 10
289.2041550753
 20
372.663124765
 30
0.0
  0
SPLINE
  5
36E
100
AcDbEntity
  8
0
100
AcDbSpline
 62
7
  6
CONTINUOUS
 70
0
 71
3
 72
11
 73
7
 74
0
 42
0.0000001
 43
0.0000001
 44
0.0000000001
 40
0.0
 40
0.0
 40
0.0
 40
0.0
 40
0.289702329
 40
0.5490881649
 40
0.7822156415
 40
1.0
 40
1.0
 40
1.0
 40
1.0
 10
289.2041550753
 20
372.663124765
 30
0.0
 10
289.0944580151
 20
372.7264569595
 30
0.0
 10
288.87623519
 20
372.8302698356
 30
0.0
 10
288.5408223655
 20
372.9112660232
 30
0.0
 10
288.2261070109
 20
372.9032974875
 30
0.0
 10
288.0366315635
 20
372.8345353804
 30
0.0
 10
287.9541669087
 20
372.7869246592
 30
0.0
  0
SPLINE
  5
36F
100
AcDbEntity
  8
0
100
AcDbSpline
 62
7
  6
CONTINUOUS
 70
0
 71
3
 72
9
 73
5
 74
0
 42
0.0000001
 43
0.0000001
 44
0.0000000001
 40
0.0
 40
0.0
 40
0.0
 40
0.0
 40
0.4745996447
 40
1.0
 40
1.0
 40
1.0
 40
1.0
 10
305.3262697621
 20
361.5589687635
 30
0.0
 10
305.5966400798
 20
361.4028739191
 30
0.0
 10
306.1036504884
 20
360.9653936735
 30
0.0
 10
306.4824601579
 20
360.4199290326
 30
0.0
 10
306.645346346
 20
360.1151081354
 30
0.0
  0
SPLINE
  5
370
100
AcDbEntity
  8
0
100
AcDbSpline
 62
7
  6
CONTINUOUS
 70
0
 71
3
 72
9
 73
5
 74
0
 42
0.0000001
 43
0.0000001
 44
0.0000000001
 40
0.0
 40
0.0
 40
0.0
 40
0.0
 40
0.5254035693
 40
1.0
 40
1.0
 40
1.0
 40
1.0
 10
308.2028189253
 20
361.0097619927
 30
0.0
 10
308.0399318418
 20
361.3153602468
 30
0.0
 10
307.6606768109
 20
361.8621497966
 30
0.0
 10
307.1528018588
 20
362.3007031423
 30
0.0
 10
306.881898204
 20
362.457105902
 30
0.0
  0
SPLINE
  5
371
100
AcDbEntity
  8
0
100
AcDbSpline
 62
7
  6
CONTINUOUS
 70
0
 71
3
 72
11
 73
7
 74
0
 42
0.0000001
 43
0.0000001
 44
0.0000000001
 40
0.0
 40
0.0
 40
0.0
 40
0.0
 40
0.289702329
 40
0.5490881649
 40
0.7822156415
 40
1.0
 40
1.0
 40
1.0
 40
1.0
 10
306.881898204
 20
362.457105902
 30
0.0
 10
306.7722011438
 20
362.5204380965
 30
0.0
 10
306.5539783187
 20
362.6242509726
 30
0.0
 10
306.2185654942
 20
362.7052471602
 30
0.0
 10
305.9038501395
 20
362.6972786245
 30
0.0
 10
305.7143746922
 20
362.6285165174
 30
0.0
 10
305.6319100374
 20
362.5809057962
 30
0.0
  0
SPLINE
  5
372
100
AcDbEntity
  8
0
100
AcDbSpline
 62
7
  6
CONTINUOUS
 70
0
 71
3
 72
10
 73
6
 74
0
 42
0.0000001
 43
0.0000001
 44
0.0000000001
 40
0.0
 40
0.0
 40
0.0
 40
0.0
 40
0.4307533095
 40
0.6955294038
 40
1.0
 40
1.0
 40
1.0
 40
1.0
 10
296.50492865
 20
316.4447911441
 30
0.0
 10
296.642824559
 20
316.3372358421
 30
0.0
 10
296.7866276901
 20
316.0631998268
 30
0.0
 10
296.821630936
 20
315.6589696078
 30
0.0
 10
296.800198701
 20
315.4270412252
 30
0.0
 10
296.7797820869
 20
315.3051272011
 30
0.0
  0
SPLINE
  5
373
100
AcDbEntity
  8
0
100
AcDbSpline
 62
7
  6
CONTINUOUS
 70
0
 71
3
 72
11
 73
7
 74
0
 42
0.0000001
 43
0.0000001
 44
0.0000000001
 40
0.0
 40
0.0
 40
0.0
 40
0.0
 40
0.1959115354
 40
0.4196243759
 40
0.6866076095
 40
1.0
 40
1.0
 40
1.0
 40
1.0
 10
294.4158275062
 20
318.0762599393
 30
0.0
 10
294.3349699438
 20
318.1393180887
 30
0.0
 10
294.1264870009
 20
318.23198358
 30
0.0
 10
293.7606611346
 20
318.236277231
 30
0.0
 10
293.3507939987
 20
318.1264697113
 30
0.0
 10
293.0766843982
 20
317.99177414
 30
0.0
 10
292.9347116961
 20
317.9096221313
 30
0.0
  0
SPLINE
  5
374
100
AcDbEntity
  8
0
100
AcDbSpline
 62
7
  6
CONTINUOUS
 70
0
 71
3
 72
11
 73
7
 74
0
 42
0.0000001
 43
0.0000001
 44
0.0000000001
 40
0.0
 40
0.0
 40
0.0
 40
0.0
 40
0.2361321211
 40
0.4971542194
 40
0.7595853486
 40
1.0
 40
1.0
 40
1.0
 40
1.0
 10
292.9347116961
 20
317.9096221313
 30
0.0
 10
292.6697456464
 20
317.7563004511
 30
0.0
 10
292.1522871555
 20
317.3631369111
 30
0.0
 10
291.4784624566
 20
316.639936717
 30
0.0
 10
290.9213960046
 20
315.8166296798
 30
0.0
 10
290.6494207159
 20
315.2186240548
 30
0.0
 10
290.5550083503
 20
314.9215871559
 30
0.0
  0
SPLINE
  5
375
100
AcDbEntity
  8
0
100
AcDbSpline
 62
7
  6
CONTINUOUS
 70
0
 71
3
 72
9
 73
5
 74
0
 42
0.0000001
 43
0.0000001
 44
0.0000000001
 40
0.0
 40
0.0
 40
0.0
 40
0.0
 40
0.261480501
 40
1.0
 40
1.0
 40
1.0
 40
1.0
 10
290.5550083503
 20
314.9215871559
 30
0.0
 10
290.5431900324
 20
314.8844047752
 30
0.0
 10
290.500207591
 20
314.7415262952
 30
0.0
 10
290.4662581207
 20
314.5958114935
 30
0.0
 10
290.4480576449
 20
314.4871307287
 30
0.0
  0
SPLINE
  5
376
100
AcDbEntity
  8
0
100
AcDbSpline
 62
7
  6
CONTINUOUS
 70
0
 71
3
 72
9
 73
5
 74
0
 42
0.0000001
 43
0.0000001
 44
0.0000000001
 40
0.0
 40
0.0
 40
0.0
 40
0.0
 40
0.2728966727
 40
1.0
 40
1.0
 40
1.0
 40
1.0
 10
266.0479382897
 20
325.1213178225
 30
0.0
 10
266.0431506801
 20
325.4269684366
 30
0.0
 10
266.073087895
 20
326.5452781651
 30
0.0
 10
266.3119772448
 20
327.6722731174
 30
0.0
 10
266.6523144359
 20
328.4122299257
 30
0.0
  0
SPLINE
  5
377
100
AcDbEntity
  8
0
100
AcDbSpline
 62
7
  6
CONTINUOUS
 70
0
 71
3
 72
13
 73
9
 74
0
 42
0.0000001
 43
0.0000001
 44
0.0000000001
 40
0.0
 40
0.0
 40
0.0
 40
0.0
 40
0.0965722478
 40
0.2014305974
 40
0.3189798809
 40
0.4490657892
 40
0.7295004997
 40
1.0
 40
1.0
 40
1.0
 40
1.0
 10
280.3496450854
 20
341.4064624554
 30
0.0
 10
280.380977862
 20
341.5937833404
 30
0.0
 10
280.5345955857
 20
341.9735060351
 30
0.0
 10
280.9835773087
 20
342.4289797369
 30
0.0
 10
281.6042687061
 20
342.7567978759
 30
0.0
 10
282.6205722407
 20
343.0064599845
 30
0.0
 10
283.9887795688
 20
342.9182838233
 30
0.0
 10
285.0103035663
 20
342.4631508053
 30
0.0
 10
285.4295764305
 20
342.1357227331
 30
0.0
  0
SPLINE
  5
378
100
AcDbEntity
  8
0
100
AcDbSpline
 62
7
  6
CONTINUOUS
 70
0
 71
3
 72
10
 73
6
 74
0
 42
0.0000001
 43
0.0000001
 44
0.0000000001
 40
0.0
 40
0.0
 40
0.0
 40
0.0
 40
0.2246548756
 40
0.4619333785
 40
1.0
 40
1.0
 40
1.0
 40
1.0
 10
279.9812940992
 20
339.2068370189
 30
0.0
 10
279.9566254541
 20
339.0594129218
 30
0.0
 10
279.95772718
 20
338.7453455677
 30
0.0
 10
280.1721032095
 20
338.1065215139
 30
0.0
 10
280.5364322753
 20
337.7069826738
 30
0.0
 10
280.8185884617
 20
337.4866348668
 30
0.0
  0
SPLINE
  5
379
100
AcDbEntity
  8
0
100
AcDbSpline
 62
7
  6
CONTINUOUS
 70
0
 71
3
 72
9
 73
5
 74
0
 42
0.0000001
 43
0.0000001
 44
0.0000000001
 40
0.0
 40
0.0
 40
0.0
 40
0.0
 40
0.257955284
 40
1.0
 40
1.0
 40
1.0
 40
1.0
 10
122.2260682335
 20
249.8322651724
 30
0.0
 10
121.9601447269
 20
250.0435566881
 30
0.0
 10
120.9155136973
 20
250.8450635605
 30
0.0
 10
119.8151455022
 20
251.5751006518
 30
0.0
 10
118.9689995898
 20
252.0636121705
 30
0.0
  0
SPLINE
  5
37A
100
AcDbEntity
  8
0
100
AcDbSpline
 62
7
  6
CONTINUOUS
 70
0
 71
3
 72
9
 73
5
 74
0
 42
0.0000001
 43
0.0000001
 44
0.0000000001
 40
0.0
 40
0.0
 40
0.0
 40
0.0
 40
0.2592608734
 40
1.0
 40
1.0
 40
1.0
 40
1.0
 10
118.9689995898
 20
252.0636121705
 30
0.0
 10
118.6995063831
 20
252.219200626
 30
0.0
 10
117.6482487373
 20
252.7983795146
 30
0.0
 10
116.5485266479
 20
253.2918408743
 30
0.0
 10
115.712031268
 20
253.5930828527
 30
0.0
  0
SPLINE
  5
37B
100
AcDbEntity
  8
0
100
AcDbSpline
 62
7
  6
CONTINUOUS
 70
0
 71
3
 72
9
 73
5
 74
0
 42
0.0000001
 43
0.0000001
 44
0.0000000001
 40
0.0
 40
0.0
 40
0.0
 40
0.0
 40
0.5192674285
 40
1.0
 40
1.0
 40
1.0
 40
1.0
 10
74.2014418568
 20
236.2279399228
 30
0.0
 10
74.6874058573
 20
237.416369935
 30
0.0
 10
75.9270223969
 20
239.6055147234
 30
0.0
 10
77.8459281449
 20
241.260680666
 30
0.0
 10
78.8752990605
 20
241.8550934656
 30
0.0
  0
SPLINE
  5
37C
100
AcDbEntity
  8
0
100
AcDbSpline
 62
7
  6
CONTINUOUS
 70
0
 71
3
 72
11
 73
7
 74
0
 42
0.0000001
 43
0.0000001
 44
0.0000000001
 40
0.0
 40
0.0
 40
0.0
 40
0.0
 40
0.2179021609
 40
0.4510312862
 40
0.7104362311
 40
1.0
 40
1.0
 40
1.0
 40
1.0
 10
55.9022775081
 20
183.2907056302
 30
0.0
 10
55.737170051
 20
183.1955546056
 30
0.0
 10
55.358265346
 20
183.0576156069
 30
0.0
 10
54.7285569066
 20
183.0418345593
 30
0.0
 10
54.0579049228
 20
183.2041701522
 30
0.0
 10
53.62144805
 20
183.4115982248
 30
0.0
 10
53.4021403141
 20
183.5382127407
 30
0.0
  0
SPLINE
  5
37D
100
AcDbEntity
  8
0
100
AcDbSpline
 62
7
  6
CONTINUOUS
 70
0
 71
3
 72
9
 73
5
 74
0
 42
0.0000001
 43
0.0000001
 44
0.0000000001
 40
0.0
 40
0.0
 40
0.0
 40
0.0
 40
0.4807309091
 40
1.0
 40
1.0
 40
1.0
 40
1.0
 10
107.9841802012
 20
191.4367314166
 30
0.0
 10
106.9548152303
 20
190.8423153431
 30
0.0
 10
104.5618264713
 20
190.0082469344
 30
0.0
 10
102.0462045177
 20
190.0292423708
 30
0.0
 10
100.7740063494
 20
190.202594445
 30
0.0
  0
SPLINE
  5
37E
100
AcDbEntity
  8
0
100
AcDbSpline
 62
7
  6
CONTINUOUS
 70
0
 71
3
 72
9
 73
5
 74
0
 42
0.0000001
 43
0.0000001
 44
0.0000000001
 40
0.0
 40
0.0
 40
0.0
 40
0.0
 40
0.5165101084
 40
1.0
 40
1.0
 40
1.0
 40
1.0
 10
268.0839133775
 20
331.5255519091
 30
0.0
 10
268.2913884659
 20
331.9768558322
 30
0.0
 10
268.7980760137
 20
332.8093077125
 30
0.0
 10
269.5290726586
 20
333.461012366
 30
0.0
 10
269.9214601104
 20
333.7104438622
 30
0.0
  0
SPLINE
  5
37F
100
AcDbEntity
  8
0
100
AcDbSpline
 62
7
  6
CONTINUOUS
 70
0
 71
3
 72
9
 73
5
 74
0
 42
0.0000001
 43
0.0000001
 44
0.0000000001
 40
0.0
 40
0.0
 40
0.0
 40
0.0
 40
0.4835428074
 40
1.0
 40
1.0
 40
1.0
 40
1.0
 10
283.0569585686
 20
310.9589564743
 30
0.0
 10
282.6447175961
 20
310.743819507
 30
0.0
 10
281.7147589059
 20
310.4368566354
 30
0.0
 10
280.7405383746
 20
310.4140811147
 30
0.0
 10
280.2460137473
 20
310.4600217464
 30
0.0
  0
SPLINE
  5
380
100
AcDbEntity
  8
0
100
AcDbSpline
 62
7
  6
CONTINUOUS
 70
0
 71
3
 72
11
 73
7
 74
0
 42
0.0000001
 43
0.0000001
 44
0.0000000001
 40
0.0
 40
0.0
 40
0.0
 40
0.0
 40
0.2897987679
 40
0.5490485402
 40
0.7822277403
 40
1.0
 40
1.0
 40
1.0
 40
1.0
 10
276.6530302271
 20
342.024836681
 30
0.0
 10
276.6529699225
 20
343.241310125
 30
0.0
 10
276.8367373903
 20
345.5539885958
 30
0.0
 10
277.7742993483
 20
348.7312093435
 30
0.0
 10
279.3503202757
 20
351.309764527
 30
0.0
 10
280.8320780614
 20
352.5547402498
 30
0.0
 10
281.6237063201
 20
353.0118628027
 30
0.0
  0
SPLINE
  5
381
100
AcDbEntity
  8
0
100
AcDbSpline
 62
7
  6
CONTINUOUS
 70
0
 71
3
 72
9
 73
5
 74
0
 42
0.0000001
 43
0.0000001
 44
0.0000000001
 40
0.0
 40
0.0
 40
0.0
 40
0.0
 40
0.2566591786
 40
1.0
 40
1.0
 40
1.0
 40
1.0
 10
68.7682516762
 20
266.4360838309
 30
0.0
 10
68.3826594638
 20
263.3683822107
 30
0.0
 10
67.0533176593
 20
251.3953338536
 30
0.0
 10
66.4309489675
 20
239.3399381295
 30
0.0
 10
66.4309489675
 20
230.3852968099
 30
0.0
  0
SPLINE
  5
382
100
AcDbEntity
  8
0
100
AcDbSpline
 62
7
  6
CONTINUOUS
 70
0
 71
3
 72
9
 73
5
 74
0
 42
0.0000001
 43
0.0000001
 44
0.0000000001
 40
0.0
 40
0.0
 40
0.0
 40
0.0
 40
0.2537723752
 40
1.0
 40
1.0
 40
1.0
 40
1.0
 10
66.4309489675
 20
230.3852968099
 30
0.0
 10
66.4309489675
 20
228.9399626149
 30
0.0
 10
66.4786159511
 20
223.2447067958
 30
0.0
 10
66.7195013388
 20
217.5507488486
 30
0.0
 10
67.0167833736
 20
213.3110967929
 30
0.0
  0
SPLINE
  5
383
100
AcDbEntity
  8
0
100
AcDbSpline
 62
7
  6
CONTINUOUS
 70
0
 71
3
 72
11
 73
7
 74
0
 42
0.0000001
 43
0.0000001
 44
0.0000000001
 40
0.0
 40
0.0
 40
0.0
 40
0.0
 40
0.2215666772
 40
0.4563906159
 40
0.7141758686
 40
1.0
 40
1.0
 40
1.0
 40
1.0
 10
305.6235936596
 20
311.4425904206
 30
0.0
 10
304.9016519191
 20
311.0257699888
 30
0.0
 10
303.2671142784
 20
310.4022964417
 30
0.0
 10
300.5538290032
 20
310.2221750382
 30
0.0
 10
297.6498102704
 20
310.7576816555
 30
0.0
 10
295.7418777158
 20
311.5298509418
 30
0.0
 10
294.7793982768
 20
312.009545425
 30
0.0
  0
SPLINE
  5
384
100
AcDbEntity
  8
0
100
AcDbSpline
 62
7
  6
CONTINUOUS
 70
0
 71
3
 72
9
 73
5
 74
0
 42
0.0000001
 43
0.0000001
 44
0.0000000001
 40
0.0
 40
0.0
 40
0.0
 40
0.0
 40
0.2369451614
 40
1.0
 40
1.0
 40
1.0
 40
1.0
 10
85.8765400082
 20
193.5529938076
 30
0.0
 10
85.4048188693
 20
193.8253359729
 30
0.0
 10
83.4575979637
 20
195.0499313274
 30
0.0
 10
81.6860514977
 20
196.5435735895
 30
0.0
 10
80.4383577766
 20
197.7765413451
 30
0.0
  0
SPLINE
  5
385
100
AcDbEntity
  8
0
100
AcDbSpline
 62
7
  6
CONTINUOUS
 70
0
 71
3
 72
9
 73
5
 74
0
 42
0.0000001
 43
0.0000001
 44
0.0000000001
 40
0.0
 40
0.0
 40
0.0
 40
0.0
 40
0.2316778408
 40
1.0
 40
1.0
 40
1.0
 40
1.0
 10
53.4021403141
 20
183.5382127407
 30
0.0
 10
53.2293038171
 20
183.6379976813
 30
0.0
 10
52.5107995918
 20
184.1160705037
 30
0.0
 10
51.9027738831
 20
184.7487170047
 30
0.0
 10
51.501735307
 20
185.2752308453
 30
0.0
  0
SPLINE
  5
386
100
AcDbEntity
  8
0
100
AcDbSpline
 62
7
  6
CONTINUOUS
 70
0
 71
3
 72
13
 73
9
 74
0
 42
0.0000001
 43
0.0000001
 44
0.0000000001
 40
0.0
 40
0.0
 40
0.0
 40
0.0
 40
0.305826577
 40
0.5835014577
 40
0.7048252055
 40
0.8129502588
 40
0.9098154336
 40
1.0
 40
1.0
 40
1.0
 40
1.0
 10
47.2521709593
 20
191.8457992167
 30
0.0
 10
46.9333872169
 20
192.3618628486
 30
0.0
 10
46.4356617953
 20
193.4186809436
 30
0.0
 10
46.1567560054
 20
194.8106326853
 30
0.0
 10
46.2186323909
 20
195.8202647582
 30
0.0
 10
46.3948697187
 20
196.4495057405
 30
0.0
 10
46.7017121036
 20
196.9581184865
 30
0.0
 10
46.9941314509
 20
197.2007614238
 30
0.0
 10
47.1502294984
 20
197.2881082437
 30
0.0
  0
SPLINE
  5
387
100
AcDbEntity
  8
0
100
AcDbSpline
 62
7
  6
CONTINUOUS
 70
0
 71
3
 72
9
 73
5
 74
0
 42
0.0000001
 43
0.0000001
 44
0.0000000001
 40
0.0
 40
0.0
 40
0.0
 40
0.0
 40
0.5037201077
 40
1.0
 40
1.0
 40
1.0
 40
1.0
 10
78.3587643562
 20
203.0952217836
 30
0.0
 10
77.4179700424
 20
205.1700706447
 30
0.0
 10
75.2388188309
 20
209.1538037549
 30
0.0
 10
72.5026745315
 20
212.7796280691
 30
0.0
 10
71.0109682529
 20
214.4567433209
 30
0.0
  0
SPLINE
  5
388
100
AcDbEntity
  8
0
100
AcDbSpline
 62
7
  6
CONTINUOUS
 70
0
 71
3
 72
9
 73
5
 74
0
 42
0.0000001
 43
0.0000001
 44
0.0000000001
 40
0.0
 40
0.0
 40
0.0
 40
0.0
 40
0.541752458
 40
1.0
 40
1.0
 40
1.0
 40
1.0
 10
70.3217866834
 20
215.9467114498
 30
0.0
 10
69.8528242361
 20
218.0453794126
 30
0.0
 10
69.37026043
 20
222.0218377045
 30
0.0
 10
70.0334862321
 20
226.0347748071
 30
0.0
 10
70.7220517304
 20
227.718373041
 30
0.0
  0
SPLINE
  5
389
100
AcDbEntity
  8
0
100
AcDbSpline
 62
7
  6
CONTINUOUS
 70
0
 71
3
 72
15
 73
11
 74
0
 42
0.0000001
 43
0.0000001
 44
0.0000000001
 40
0.0
 40
0.0
 40
0.0
 40
0.0
 40
0.1259243447
 40
0.2702125332
 40
0.4233553571
 40
0.5746303475
 40
0.7134768807
 40
0.8315168457
 40
0.9251093015
 40
1.0
 40
1.0
 40
1.0
 40
1.0
 10
296.7797820869
 20
315.3051272011
 30
0.0
 10
296.7388653634
 20
315.0608005763
 30
0.0
 10
296.5800548449
 20
314.54840903
 30
0.0
 10
296.199183835
 20
313.8046878575
 30
0.0
 10
295.685901274
 20
313.0827299491
 30
0.0
 10
295.0855448529
 20
312.4464500787
 30
0.0
 10
294.4497505687
 20
311.9493584848
 30
0.0
 10
293.8307964317
 20
311.6346776202
 30
0.0
 10
293.2664598121
 20
311.5196207553
 30
0.0
 10
292.9281850251
 20
311.62538672
 30
0.0
 10
292.8120125005
 20
311.7159983348
 30
0.0
  0
SPLINE
  5
38A
100
AcDbEntity
  8
0
100
AcDbSpline
 62
7
  6
CONTINUOUS
 70
0
 71
3
 72
10
 73
6
 74
0
 42
0.0000001
 43
0.0000001
 44
0.0000000001
 40
0.0
 40
0.0
 40
0.0
 40
0.0
 40
0.3044904201
 40
0.5692655164
 40
1.0
 40
1.0
 40
1.0
 40
1.0
 10
290.4480576449
 20
314.4871307287
 30
0.0
 10
290.4276396541
 20
314.3652084837
 30
0.0
 10
290.4062040639
 20
314.1332713387
 30
0.0
 10
290.4412165755
 20
313.729042825
 30
0.0
 10
290.5850134152
 20
313.4550080746
 30
0.0
 10
290.7229108069
 20
313.3474664413
 30
0.0
  0
SPLINE
  5
38B
100
AcDbEntity
  8
0
100
AcDbSpline
 62
7
  6
CONTINUOUS
 70
0
 71
3
 72
10
 73
6
 74
0
 42
0.0000001
 43
0.0000001
 44
0.0000000001
 40
0.0
 40
0.0
 40
0.0
 40
0.0
 40
0.5380769373
 40
0.7753450828
 40
1.0
 40
1.0
 40
1.0
 40
1.0
 10
285.4295764305
 20
342.1357227331
 30
0.0
 10
285.7117387188
 20
341.9153701608
 30
0.0
 10
286.0760697925
 20
341.5158303353
 30
0.0
 10
286.2904436368
 20
340.8770030418
 30
0.0
 10
286.2915443946
 20
340.5629440908
 30
0.0
 10
286.2668847523
 20
340.4155180875
 30
0.0
  0
SPLINE
  5
38C
100
AcDbEntity
  8
0
100
AcDbSpline
 62
7
  6
CONTINUOUS
 70
0
 71
3
 72
13
 73
9
 74
0
 42
0.0000001
 43
0.0000001
 44
0.0000000001
 40
0.0
 40
0.0
 40
0.0
 40
0.0
 40
0.2704876744
 40
0.5509108824
 40
0.6810030327
 40
0.7985584821
 40
0.9034208117
 40
1.0
 40
1.0
 40
1.0
 40
1.0
 10
280.8185884617
 20
337.4866348668
 30
0.0
 10
281.2378431871
 20
337.1592209599
 30
0.0
 10
282.2593145216
 20
336.704087133
 30
0.0
 10
283.6274837412
 20
336.6159002765
 30
0.0
 10
284.6437993458
 20
336.8655231182
 30
0.0
 10
285.2645314561
 20
337.1933282022
 30
0.0
 10
285.7135662889
 20
337.6488112064
 30
0.0
 10
285.8671592822
 20
338.028565133
 30
0.0
 10
285.8985058474
 20
338.215897638
 30
0.0
  0
SPLINE
  5
38D
100
AcDbEntity
  8
0
100
AcDbSpline
 62
7
  6
CONTINUOUS
 70
0
 71
3
 72
9
 73
5
 74
0
 42
0.0000001
 43
0.0000001
 44
0.0000000001
 40
0.0
 40
0.0
 40
0.0
 40
0.0
 40
0.2644885155
 40
1.0
 40
1.0
 40
1.0
 40
1.0
 10
104.6132530109
 20
234.5956318493
 30
0.0
 10
103.9798857552
 20
235.3612782471
 30
0.0
 10
101.4817465582
 20
238.165023359
 30
0.0
 10
98.5304809893
 20
240.5950524237
 30
0.0
 10
96.1374494642
 20
241.9767268529
 30
0.0
  0
SPLINE
  5
38E
100
AcDbEntity
  8
0
100
AcDbSpline
 62
7
  6
CONTINUOUS
 70
0
 71
3
 72
11
 73
7
 74
0
 42
0.0000001
 43
0.0000001
 44
0.0000000001
 40
0.0
 40
0.0
 40
0.0
 40
0.0
 40
0.2803250598
 40
0.536510655
 40
0.7735117431
 40
1.0
 40
1.0
 40
1.0
 40
1.0
 10
96.1374494642
 20
241.9767268529
 30
0.0
 10
94.8494376342
 20
242.7203915273
 30
0.0
 10
92.2447640739
 20
243.9255393126
 30
0.0
 10
88.188430189
 20
244.7775453788
 30
0.0
 10
84.3266681571
 20
244.5454095187
 30
0.0
 10
81.9855927472
 20
243.6508710144
 30
0.0
 10
80.9449872601
 20
243.0499554907
 30
0.0
  0
SPLINE
  5
38F
100
AcDbEntity
  8
0
100
AcDbSpline
 62
7
  6
CONTINUOUS
 70
0
 71
3
 72
15
 73
11
 74
0
 42
0.0000001
 43
0.0000001
 44
0.0000000001
 40
0.0
 40
0.0
 40
0.0
 40
0.0
 40
0.1234671405
 40
0.2389216109
 40
0.3505057164
 40
0.463143593
 40
0.5815380309
 40
0.7092670473
 40
0.8485579554
 40
1.0
 40
1.0
 40
1.0
 40
1.0
 10
70.7220517304
 20
227.718373041
 30
0.0
 10
71.0010883254
 20
228.4006400436
 30
0.0
 10
71.6674939196
 20
229.6759064758
 30
0.0
 10
73.0478908367
 20
231.2757029792
 30
0.0
 10
74.7401022445
 20
232.436005987
 30
0.0
 10
76.693289309
 20
233.1168473067
 30
0.0
 10
78.8462272388
 20
233.3051936547
 30
0.0
 10
81.143286143
 20
233.0092774181
 30
0.0
 10
83.5333431795
 20
232.2447891762
 30
0.0
 10
85.0935289929
 20
231.4692650292
 30
0.0
 10
85.8765400082
 20
231.0172036357
 30
0.0
  0
SPLINE
  5
390
100
AcDbEntity
  8
0
100
AcDbSpline
 62
7
  6
CONTINUOUS
 70
0
 71
3
 72
9
 73
5
 74
0
 42
0.0000001
 43
0.0000001
 44
0.0000000001
 40
0.0
 40
0.0
 40
0.0
 40
0.0
 40
0.2382380474
 40
1.0
 40
1.0
 40
1.0
 40
1.0
 10
85.8765400082
 20
231.0172036357
 30
0.0
 10
86.2881628538
 20
230.7795584512
 30
0.0
 10
87.9829082135
 20
229.7251022972
 30
0.0
 10
89.5447469185
 20
228.4635281356
 30
0.0
 10
90.6557960617
 20
227.4265926247
 30
0.0
  0
SPLINE
  5
391
100
AcDbEntity
  8
0
100
AcDbSpline
 62
7
  6
CONTINUOUS
 70
0
 71
3
 72
15
 73
11
 74
0
 42
0.0000001
 43
0.0000001
 44
0.0000000001
 40
0.0
 40
0.0
 40
0.0
 40
0.0
 40
0.1259243447
 40
0.2702125332
 40
0.4233553571
 40
0.5746303475
 40
0.7134768807
 40
0.8315168457
 40
0.9251093015
 40
1.0
 40
1.0
 40
1.0
 40
1.0
 10
292.5371590636
 20
312.8556622778
 30
0.0
 10
292.5780757871
 20
313.0999889026
 30
0.0
 10
292.7368863056
 20
313.6123804489
 30
0.0
 10
293.1177573155
 20
314.3561016214
 30
0.0
 10
293.6310398765
 20
315.0780595298
 30
0.0
 10
294.2313962976
 20
315.7143394002
 30
0.0
 10
294.8671905818
 20
316.2114309941
 30
0.0
 10
295.4861447188
 20
316.5261118587
 30
0.0
 10
296.0504813384
 20
316.6411687236
 30
0.0
 10
296.3887561254
 20
316.5354027589
 30
0.0
 10
296.50492865
 20
316.4447911441
 30
0.0
  0
SPLINE
  5
392
100
AcDbEntity
  8
0
100
AcDbSpline
 62
7
  6
CONTINUOUS
 70
0
 71
3
 72
9
 73
5
 74
0
 42
0.0000001
 43
0.0000001
 44
0.0000000001
 40
0.0
 40
0.0
 40
0.0
 40
0.0
 40
0.242276771
 40
1.0
 40
1.0
 40
1.0
 40
1.0
 10
125.337029688
 20
164.3741180133
 30
0.0
 10
124.9440494037
 20
167.0468259546
 30
0.0
 10
123.5433194406
 20
178.1105307082
 30
0.0
 10
122.9997269792
 20
189.2772401391
 30
0.0
 10
122.9997269792
 20
197.7260364483
 30
0.0
  0
SPLINE
  5
393
100
AcDbEntity
  8
0
100
AcDbSpline
 62
7
  6
CONTINUOUS
 70
0
 71
3
 72
9
 73
5
 74
0
 42
0.0000001
 43
0.0000001
 44
0.0000000001
 40
0.0
 40
0.0
 40
0.0
 40
0.0
 40
0.4962798923
 40
1.0
 40
1.0
 40
1.0
 40
1.0
 10
54.8510727203
 20
184.3019622674
 30
0.0
 10
53.359366442
 20
185.9790775197
 30
0.0
 10
50.6232221435
 20
189.6049018348
 30
0.0
 10
48.4440709331
 20
193.5886349456
 30
0.0
 10
47.5032766199
 20
195.6634838069
 30
0.0
  0
SPLINE
  5
394
100
AcDbEntity
  8
0
100
AcDbSpline
 62
7
  6
CONTINUOUS
 70
0
 71
3
 72
9
 73
5
 74
0
 42
0.0000001
 43
0.0000001
 44
0.0000000001
 40
0.0
 40
0.0
 40
0.0
 40
0.0
 40
0.2433242173
 40
1.0
 40
1.0
 40
1.0
 40
1.0
 10
122.9997269792
 20
197.7260364483
 30
0.0
 10
122.9997269792
 20
200.6572752187
 30
0.0
 10
123.2041717071
 20
212.7034933674
 30
0.0
 10
124.2002221661
 20
224.7325892627
 30
0.0
 10
125.337029688
 20
233.7768234693
 30
0.0
  0
SPLINE
  5
395
100
AcDbEntity
  8
0
100
AcDbSpline
 62
7
  6
CONTINUOUS
 70
0
 71
3
 72
9
 73
5
 74
0
 42
0.0000001
 43
0.0000001
 44
0.0000000001
 40
0.0
 40
0.0
 40
0.0
 40
0.0
 40
0.5487753622
 40
1.0
 40
1.0
 40
1.0
 40
1.0
 10
281.226391781
 20
334.2006138734
 30
0.0
 10
281.0866264479
 20
334.3054520813
 30
0.0
 10
280.8516140377
 20
334.5368104836
 30
0.0
 10
280.7762559231
 20
334.8735536462
 30
0.0
 10
280.8001095694
 20
335.0152171013
 30
0.0
  0
SPLINE
  5
396
100
AcDbEntity
  8
0
100
AcDbSpline
 62
7
  6
CONTINUOUS
 70
0
 71
3
 72
11
 73
7
 74
0
 42
0.0000001
 43
0.0000001
 44
0.0000000001
 40
0.0
 40
0.0
 40
0.0
 40
0.0
 40
0.2179021609
 40
0.4510312862
 40
0.7104362311
 40
1.0
 40
1.0
 40
1.0
 40
1.0
 10
69.8890711403
 20
215.4271996258
 30
0.0
 10
70.0541765161
 20
215.522349451
 30
0.0
 10
70.4330764448
 20
215.6602867107
 30
0.0
 10
71.0627769462
 20
215.6760675596
 30
0.0
 10
71.7334204762
 20
215.513734013
 30
0.0
 10
72.1698718472
 20
215.3063085551
 30
0.0
 10
72.3891768186
 20
215.1796956352
 30
0.0
  0
SPLINE
  5
397
100
AcDbEntity
  8
0
100
AcDbSpline
 62
7
  6
CONTINUOUS
 70
0
 71
3
 72
14
 73
10
 74
0
 42
0.0000001
 43
0.0000001
 44
0.0000000001
 40
0.0
 40
0.0
 40
0.0
 40
0.0
 40
0.1230131999
 40
0.2575964188
 40
0.3985458391
 40
0.5396993302
 40
0.6748856493
 40
0.7987840421
 40
1.0
 40
1.0
 40
1.0
 40
1.0
 10
286.2804688089
 20
339.1044601595
 30
0.0
 10
287.1606853998
 20
338.5962783705
 30
0.0
 10
288.8816433462
 20
337.3154853502
 30
0.0
 10
291.1479577673
 20
334.9088866115
 30
0.0
 10
293.1047394981
 20
332.0595969951
 30
0.0
 10
294.6259013119
 20
328.9539954244
 30
0.0
 10
295.6136794958
 20
325.7741866073
 30
0.0
 10
296.1097320107
 20
322.0173266983
 30
0.0
 10
295.6341765385
 20
319.1660193162
 30
0.0
 10
294.7252141197
 20
317.7739834893
 30
0.0
  0
SPLINE
  5
398
100
AcDbEntity
  8
0
100
AcDbSpline
 62
7
  6
CONTINUOUS
 70
0
 71
3
 72
9
 73
5
 74
0
 42
0.0000001
 43
0.0000001
 44
0.0000000001
 40
0.0
 40
0.0
 40
0.0
 40
0.0
 40
0.5001318066
 40
1.0
 40
1.0
 40
1.0
 40
1.0
 10
97.74833471
 20
231.5118898695
 30
0.0
 10
98.4272096133
 20
231.903857483
 30
0.0
 10
99.8375806128
 20
232.599112391
 30
0.0
 10
101.3562493084
 20
233.0439330881
 30
0.0
 10
102.1307802884
 20
233.1621019308
 30
0.0
  0
SPLINE
  5
399
100
AcDbEntity
  8
0
100
AcDbSpline
 62
7
  6
CONTINUOUS
 70
0
 71
3
 72
9
 73
5
 74
0
 42
0.0000001
 43
0.0000001
 44
0.0000000001
 40
0.0
 40
0.0
 40
0.0
 40
0.0
 40
0.2476193947
 40
1.0
 40
1.0
 40
1.0
 40
1.0
 10
107.2547633441
 20
232.4764812545
 30
0.0
 10
107.620642773
 20
231.9446459562
 30
0.0
 10
109.0517126962
 20
229.7651200452
 30
0.0
 10
110.306542353
 20
227.4706712071
 30
0.0
 10
111.1489388184
 20
225.6993483887
 30
0.0
  0
SPLINE
  5
39A
100
AcDbEntity
  8
0
100
AcDbSpline
 62
7
  6
CONTINUOUS
 70
0
 71
3
 72
9
 73
5
 74
0
 42
0.0000001
 43
0.0000001
 44
0.0000000001
 40
0.0
 40
0.0
 40
0.0
 40
0.0
 40
0.5209962776
 40
1.0
 40
1.0
 40
1.0
 40
1.0
 10
111.1490248223
 20
225.6993980428
 30
0.0
 10
111.4077995108
 20
225.1465428319
 30
0.0
 10
111.7894591808
 20
224.0278338772
 30
0.0
 10
111.9002216407
 20
222.8447895784
 30
0.0
 10
111.8627572522
 20
222.28482111
 30
0.0
  0
SPLINE
  5
39B
100
AcDbEntity
  8
0
100
AcDbSpline
 62
7
  6
CONTINUOUS
 70
0
 71
3
 72
10
 73
6
 74
0
 42
0.0000001
 43
0.0000001
 44
0.0000000001
 40
0.0
 40
0.0
 40
0.0
 40
0.0
 40
0.5380769373
 40
0.7753450828
 40
1.0
 40
1.0
 40
1.0
 40
1.0
 10
281.1869534072
 20
339.6862578099
 30
0.0
 10
280.9047911189
 20
339.9066103822
 30
0.0
 10
280.5404600452
 20
340.3061502076
 30
0.0
 10
280.3260862009
 20
340.9449775012
 30
0.0
 10
280.3249854431
 20
341.2590364521
 30
0.0
 10
280.3496450854
 20
341.4064624554
 30
0.0
  0
SPLINE
  5
39C
100
AcDbEntity
  8
0
100
AcDbSpline
 62
7
  6
CONTINUOUS
 70
0
 71
3
 72
9
 73
5
 74
0
 42
0.0000001
 43
0.0000001
 44
0.0000000001
 40
0.0
 40
0.0
 40
0.0
 40
0.0
 40
0.4999721695
 40
1.0
 40
1.0
 40
1.0
 40
1.0
 10
109.988810216
 20
221.2029037424
 30
0.0
 10
109.4802721585
 20
220.3426634727
 30
0.0
 10
108.154837389
 20
218.8043101401
 30
0.0
 10
106.5545907279
 20
217.5926602898
 30
0.0
 10
105.7125872655
 20
217.054258201
 30
0.0
  0
SPLINE
  5
39D
100
AcDbEntity
  8
0
100
AcDbSpline
 62
7
  6
CONTINUOUS
 70
0
 71
3
 72
17
 73
13
 74
0
 42
0.0000001
 43
0.0000001
 44
0.0000000001
 40
0.0
 40
0.0
 40
0.0
 40
0.0
 40
0.1291975742
 40
0.2713959554
 40
0.4190745087
 40
0.5636364129
 40
0.697077152
 40
0.8136808204
 40
0.8652451149
 40
0.9127149583
 40
0.957120643
 40
1.0
 40
1.0
 40
1.0
 40
1.0
 10
276.6514322943
 20
333.1568901873
 30
0.0
 10
277.6348458372
 20
332.589128958
 30
0.0
 10
279.5424458929
 20
331.117036693
 30
0.0
 10
281.9775790895
 20
328.3300156719
 30
0.0
 10
283.9730965617
 20
325.0529175096
 30
0.0
 10
285.3604297097
 20
321.5569380635
 30
0.0
 10
286.0265794827
 20
318.1317695814
 30
0.0
 10
285.9248457087
 20
315.44437356
 30
0.0
 10
285.3878069687
 20
313.6168849292
 30
0.0
 10
284.8021821293
 20
312.4898400426
 30
0.0
 10
284.0276141412
 20
311.5794002591
 30
0.0
 10
283.3910717905
 20
311.1333207663
 30
0.0
 10
283.0569585686
 20
310.9589564743
 30
0.0
  0
SPLINE
  5
39E
100
AcDbEntity
  8
0
100
AcDbSpline
 62
7
  6
CONTINUOUS
 70
0
 71
3
 72
8
 73
4
 74
0
 42
0.0000001
 43
0.0000001
 44
0.0000000001
 40
0.0
 40
0.0
 40
0.0
 40
0.0
 40
1.0
 40
1.0
 40
1.0
 40
1.0
 10
99.9837745671
 20
213.3891472915
 30
0.0
 10
101.893038729
 20
214.6113823187
 30
0.0
 10
103.8026898651
 20
215.8330129261
 30
0.0
 10
105.7125872655
 20
217.054258201
 30
0.0
  0
SPLINE
  5
39F
100
AcDbEntity
  8
0
100
AcDbSpline
 62
7
  6
CONTINUOUS
 70
0
 71
3
 72
14
 73
10
 74
0
 42
0.0000001
 43
0.0000001
 44
0.0000000001
 40
0.0
 40
0.0
 40
0.0
 40
0.0
 40
0.3072892609
 40
0.4494936974
 40
0.5809306239
 40
0.7005060955
 40
0.8085020496
 40
0.9069858849
 40
1.0
 40
1.0
 40
1.0
 40
1.0
 10
109.988810216
 20
221.2029037424
 30
0.0
 10
111.3892727967
 20
218.2040749469
 30
0.0
 10
113.0169237233
 20
213.5877919878
 30
0.0
 10
113.9953975325
 20
207.3939148141
 30
0.0
 10
114.0750361181
 20
203.1430589798
 30
0.0
 10
113.5122657867
 20
199.2965174903
 30
0.0
 10
112.3099935672
 20
195.9654605781
 30
0.0
 10
110.483520049
 20
193.2605913988
 30
0.0
 10
108.851747893
 20
191.937716194
 30
0.0
 10
107.9841802012
 20
191.4367314166
 30
0.0
  0
SPLINE
  5
3A0
100
AcDbEntity
  8
0
100
AcDbSpline
 62
7
  6
CONTINUOUS
 70
0
 71
3
 72
11
 73
7
 74
0
 42
0.0000001
 43
0.0000001
 44
0.0000000001
 40
0.0
 40
0.0
 40
0.0
 40
0.0
 40
0.217772569
 40
0.4509556873
 40
0.7101951718
 40
1.0
 40
1.0
 40
1.0
 40
1.0
 10
78.8752990605
 20
241.8550934656
 30
0.0
 10
79.8354069684
 20
242.4095101689
 30
0.0
 10
82.0417406821
 20
243.2107369345
 30
0.0
 10
85.7057333472
 20
243.3024845012
 30
0.0
 10
89.6115142505
 20
242.3607157285
 30
0.0
 10
92.1519937893
 20
241.1512313855
 30
0.0
 10
93.4297387279
 20
240.41354169
 30
0.0
  0
SPLINE
  5
3A1
100
AcDbEntity
  8
0
100
AcDbSpline
 62
7
  6
CONTINUOUS
 70
0
 71
3
 72
11
 73
7
 74
0
 42
0.0000001
 43
0.0000001
 44
0.0000000001
 40
0.0
 40
0.0
 40
0.0
 40
0.0
 40
0.2177730634
 40
0.4509542719
 40
0.7101995683
 40
1.0
 40
1.0
 40
1.0
 40
1.0
 10
281.6237063201
 20
353.0118628027
 30
0.0
 10
282.415306294
 20
353.4689690227
 30
0.0
 10
284.234398674
 20
354.129544212
 30
0.0
 10
287.2553287305
 20
354.2052169427
 30
0.0
 10
290.4755790977
 20
353.428681257
 30
0.0
 10
292.5701799977
 20
352.4314950584
 30
0.0
 10
293.6236473816
 20
351.8232891402
 30
0.0
  0
SPLINE
  5
3A2
100
AcDbEntity
  8
0
100
AcDbSpline
 62
7
  6
CONTINUOUS
 70
0
 71
3
 72
15
 73
11
 74
0
 42
0.0000001
 43
0.0000001
 44
0.0000000001
 40
0.0
 40
0.0
 40
0.0
 40
0.0
 40
0.1643870799
 40
0.3177976969
 40
0.4569663032
 40
0.5805722405
 40
0.6901859757
 40
0.7910467191
 40
0.8914874519
 40
1.0
 40
1.0
 40
1.0
 40
1.0
 10
99.9837745671
 20
213.3891472915
 30
0.0
 10
100.5443574769
 20
211.9254009443
 30
0.0
 10
101.4510679959
 20
209.0227122865
 30
0.0
 10
102.1467776861
 20
204.7046935509
 30
0.0
 10
102.1120257874
 20
200.7134686446
 30
0.0
 10
101.3350382325
 20
197.2150783396
 30
0.0
 10
99.8134246627
 20
194.3592454254
 30
0.0
 10
97.5626313548
 20
192.324297294
 30
0.0
 10
94.7209184626
 20
191.2945280611
 30
0.0
 10
92.6899910508
 20
191.3044509589
 30
0.0
 10
91.6648122417
 20
191.4442015796
 30
0.0
  0
SPLINE
  5
3A3
100
AcDbEntity
  8
0
100
AcDbSpline
 62
7
  6
CONTINUOUS
 70
0
 71
3
 72
13
 73
9
 74
0
 42
0.0000001
 43
0.0000001
 44
0.0000000001
 40
0.0
 40
0.0
 40
0.0
 40
0.0
 40
0.0965722478
 40
0.2014305974
 40
0.3189798809
 40
0.4490657892
 40
0.7295004997
 40
1.0
 40
1.0
 40
1.0
 40
1.0
 10
286.2668847523
 20
340.4155180875
 30
0.0
 10
286.2355519757
 20
340.2281972026
 30
0.0
 10
286.0819342519
 20
339.8484745078
 30
0.0
 10
285.632952529
 20
339.3930008061
 30
0.0
 10
285.0122611315
 20
339.065182667
 30
0.0
 10
283.995957597
 20
338.8155205585
 30
0.0
 10
282.6277502689
 20
338.9036967197
 30
0.0
 10
281.6062262714
 20
339.3588297377
 30
0.0
 10
281.1869534072
 20
339.6862578099
 30
0.0
  0
SPLINE
  5
3A4
100
AcDbEntity
  8
0
100
AcDbSpline
 62
7
  6
CONTINUOUS
 70
0
 71
3
 72
12
 73
8
 74
0
 42
0.0000001
 43
0.0000001
 44
0.0000000001
 40
0.0
 40
0.0
 40
0.0
 40
0.0
 40
0.1020757289
 40
0.2104423099
 40
0.4556508859
 40
0.7327757452
 40
1.0
 40
1.0
 40
1.0
 40
1.0
 10
283.7743205119
 20
334.6127773379
 30
0.0
 10
283.7574772222
 20
334.5126505023
 30
0.0
 10
283.6804910567
 20
334.3113494389
 30
0.0
 10
283.3682221703
 20
333.9707569059
 30
0.0
 10
282.7449479127
 20
333.749105333
 30
0.0
 10
281.9486444837
 20
333.8158065589
 30
0.0
 10
281.439025496
 20
334.0411169717
 30
0.0
 10
281.226391781
 20
334.2006138734
 30
0.0
  0
SPLINE
  5
3A5
100
AcDbEntity
  8
0
100
AcDbSpline
 62
7
  6
CONTINUOUS
 70
0
 71
3
 72
14
 73
10
 74
0
 42
0.0000001
 43
0.0000001
 44
0.0000000001
 40
0.0
 40
0.0
 40
0.0
 40
0.0
 40
0.0882438676
 40
0.1834266224
 40
0.2901205758
 40
0.4102406422
 40
0.543541012
 40
0.6882325461
 40
1.0
 40
1.0
 40
1.0
 40
1.0
 10
109.6202796583
 20
192.3814922628
 30
0.0
 10
110.4390029349
 20
192.8541064236
 30
0.0
 10
111.9818665469
 20
194.1353023737
 30
0.0
 10
113.681359578
 20
196.7816479976
 30
0.0
 10
114.8051510354
 20
200.0704356523
 30
0.0
 10
115.3565270192
 20
203.9058861263
 30
0.0
 10
115.3365813889
 20
208.1839237064
 30
0.0
 10
114.5342025842
 20
214.4612066777
 30
0.0
 10
113.1194248484
 20
219.1904337879
 30
0.0
 10
111.8627290137
 20
222.284903399
 30
0.0
  0
SPLINE
  5
3A6
100
AcDbEntity
  8
0
100
AcDbSpline
 62
7
  6
CONTINUOUS
 70
0
 71
3
 72
18
 73
14
 74
0
 42
0.0000001
 43
0.0000001
 44
0.0000000001
 40
0.0
 40
0.0
 40
0.0
 40
0.0
 40
0.1353841348
 40
0.2850674079
 40
0.438192471
 40
0.583028326
 40
0.7099606636
 40
0.7653967083
 40
0.8156853208
 40
0.8620598907
 40
0.9065792677
 40
0.9517797008
 40
1.0
 40
1.0
 40
1.0
 40
1.0
 10
273.8247399396
 20
329.7779214091
 30
0.0
 10
274.781433705
 20
329.2255865016
 30
0.0
 10
276.6171255119
 20
327.7481873263
 30
0.0
 10
278.8675110866
 20
324.9431427541
 30
0.0
 10
280.5767878199
 20
321.687364162
 30
0.0
 10
281.5566791592
 20
318.3381556418
 30
0.0
 10
281.6838015136
 20
315.6286065427
 30
0.0
 10
281.274766468
 20
313.7635752693
 30
0.0
 10
280.7572164806
 20
312.6233245783
 30
0.0
 10
280.0231202183
 20
311.7166324004
 30
0.0
 10
279.09
 20
311.0834564481
 30
0.0
 10
277.9973905931
 20
310.7541073449
 30
0.0
 10
277.2257660638
 20
310.7405377693
 30
0.0
 10
276.8339913984
 20
310.7769297752
 30
0.0
  0
SPLINE
  5
3A7
100
AcDbEntity
  8
0
100
AcDbSpline
 62
7
  6
CONTINUOUS
 70
0
 71
3
 72
10
 73
6
 74
0
 42
0.0000001
 43
0.0000001
 44
0.0000000001
 40
0.0
 40
0.0
 40
0.0
 40
0.0
 40
0.2284156349
 40
0.4750980246
 40
1.0
 40
1.0
 40
1.0
 40
1.0
 10
293.6236473816
 20
351.8232891402
 30
0.0
 10
294.8071556259
 20
351.1400057947
 30
0.0
 10
297.1441770359
 20
349.4962481389
 30
0.0
 10
301.5062802085
 20
345.3840464202
 30
0.0
 10
304.2438304398
 20
341.5941889872
 30
0.0
 10
305.791787398
 20
338.8617548659
 30
0.0
  0
SPLINE
  5
3A8
100
AcDbEntity
  8
0
100
AcDbSpline
 62
7
  6
CONTINUOUS
 70
0
 71
3
 72
14
 73
10
 74
0
 42
0.0000001
 43
0.0000001
 44
0.0000000001
 40
0.0
 40
0.0
 40
0.0
 40
0.0
 40
0.3009586471
 40
0.4432416905
 40
0.5763198213
 40
0.6983931729
 40
0.8087878076
 40
0.9083821743
 40
1.0
 40
1.0
 40
1.0
 40
1.0
 10
305.791787398
 20
338.8617548659
 30
0.0
 10
307.1977260898
 20
336.3800095995
 30
0.0
 10
308.9093011119
 20
332.4957657136
 30
0.0
 10
310.2266877092
 20
327.1847367091
 30
0.0
 10
310.662685422
 20
323.4310044697
 30
0.0
 10
310.548924906
 20
319.9535162081
 30
0.0
 10
309.8815969328
 20
316.8563807913
 30
0.0
 10
308.6688114778
 20
314.2378814946
 30
0.0
 10
307.4697404878
 20
312.837830766
 30
0.0
 10
306.8072324584
 20
312.2765527736
 30
0.0
  0
SPLINE
  5
3A9
100
AcDbEntity
  8
0
100
AcDbSpline
 62
7
  6
CONTINUOUS
 70
0
 71
3
 72
9
 73
5
 74
0
 42
0.0000001
 43
0.0000001
 44
0.0000000001
 40
0.0
 40
0.0
 40
0.0
 40
0.0
 40
0.2316778842
 40
1.0
 40
1.0
 40
1.0
 40
1.0
 10
72.3891768186
 20
215.1796956352
 30
0.0
 10
72.5620103542
 20
215.0799124043
 30
0.0
 10
73.2805022588
 20
214.6018480763
 30
0.0
 10
73.888518053
 20
213.9692132862
 30
0.0
 10
74.2895504374
 20
213.4427091878
 30
0.0
  0
SPLINE
  5
3AA
100
AcDbEntity
  8
0
100
AcDbSpline
 62
7
  6
CONTINUOUS
 70
0
 71
3
 72
13
 73
9
 74
0
 42
0.0000001
 43
0.0000001
 44
0.0000000001
 40
0.0
 40
0.0
 40
0.0
 40
0.0
 40
0.153522002
 40
0.3030928047
 40
0.5128947596
 40
0.6993701155
 40
0.859974952
 40
1.0
 40
1.0
 40
1.0
 40
1.0
 10
78.5389525792
 20
206.8720764389
 30
0.0
 10
78.6802467492
 20
206.6088311227
 30
0.0
 10
78.9327086619
 20
206.0742859444
 30
0.0
 10
79.2621350273
 20
205.1304112193
 30
0.0
 10
79.4697574087
 20
204.0822345748
 30
0.0
 10
79.4604413848
 20
202.9890176173
 30
0.0
 10
79.1991596429
 20
202.0623563863
 30
0.0
 10
78.8306998154
 20
201.5812333685
 30
0.0
 10
78.617785941
 20
201.4111607393
 30
0.0
  0
SPLINE
  5
3AB
100
AcDbEntity
  8
0
100
AcDbSpline
 62
7
  6
CONTINUOUS
 70
0
 71
3
 72
9
 73
5
 74
0
 42
0.0000001
 43
0.0000001
 44
0.0000000001
 40
0.0
 40
0.0
 40
0.0
 40
0.0
 40
0.5037201077
 40
1.0
 40
1.0
 40
1.0
 40
1.0
 10
47.4325662362
 20
195.6226593915
 30
0.0
 10
48.3733605494
 20
193.5478105303
 30
0.0
 10
50.5525117598
 20
189.5640774194
 30
0.0
 10
53.2886560583
 20
185.9382531043
 30
0.0
 10
54.7803623366
 20
184.261137852
 30
0.0
  0
SPLINE
  5
3AC
100
AcDbEntity
  8
0
100
AcDbSpline
 62
7
  6
CONTINUOUS
 70
0
 71
3
 72
12
 73
8
 74
0
 42
0.0000001
 43
0.0000001
 44
0.0000000001
 40
0.0
 40
0.0
 40
0.0
 40
0.0
 40
0.2354723827
 40
0.3473586254
 40
0.4609317537
 40
0.7082106136
 40
1.0
 40
1.0
 40
1.0
 40
1.0
 10
266.6523144359
 20
328.4122299257
 30
0.0
 10
266.9252901125
 20
329.0057301826
 30
0.0
 10
267.5109866867
 20
329.8270563409
 30
0.0
 10
268.6049690418
 20
330.5130559377
 30
0.0
 10
269.8693306031
 20
330.9109346168
 30
0.0
 10
271.7340050707
 20
330.7925412432
 30
0.0
 10
273.1236825429
 20
330.1826679292
 30
0.0
 10
273.8247399396
 20
329.7779214091
 30
0.0
  0
SPLINE
  5
3AD
100
AcDbEntity
  8
0
100
AcDbSpline
 62
7
  6
CONTINUOUS
 70
0
 71
3
 72
11
 73
7
 74
0
 42
0.0000001
 43
0.0000001
 44
0.0000000001
 40
0.0
 40
0.0
 40
0.0
 40
0.0
 40
0.217918805
 40
0.4504206717
 40
0.7094401404
 40
1.0
 40
1.0
 40
1.0
 40
1.0
 10
269.9214601104
 20
333.7104438622
 30
0.0
 10
270.3554366165
 20
333.9863125444
 30
0.0
 10
271.3638718665
 20
334.3963794485
 30
0.0
 10
273.061417307
 20
334.4769421886
 30
0.0
 10
274.877128632
 20
334.0583930792
 30
0.0
 10
276.0576368484
 20
333.4997103921
 30
0.0
 10
276.6514322943
 20
333.1568901873
 30
0.0
  0
SPLINE
  5
3AE
100
AcDbEntity
  8
0
100
AcDbSpline
 62
7
  6
CONTINUOUS
 70
0
 71
3
 72
10
 73
6
 74
0
 42
0.0000001
 43
0.0000001
 44
0.0000000001
 40
0.0
 40
0.0
 40
0.0
 40
0.0
 40
0.4307533095
 40
0.6955294038
 40
1.0
 40
1.0
 40
1.0
 40
1.0
 10
292.8120125005
 20
311.7159983348
 30
0.0
 10
292.6741165915
 20
311.8235536368
 30
0.0
 10
292.5303134604
 20
312.0975896522
 30
0.0
 10
292.4953102145
 20
312.5018198711
 30
0.0
 10
292.5167424495
 20
312.7337482537
 30
0.0
 10
292.5371590636
 20
312.8556622778
 30
0.0
  0
SPLINE
  5
3AF
100
AcDbEntity
  8
0
100
AcDbSpline
 62
7
  6
CONTINUOUS
 70
0
 71
3
 72
9
 73
5
 74
0
 42
0.0000001
 43
0.0000001
 44
0.0000000001
 40
0.0
 40
0.0
 40
0.0
 40
0.0
 40
0.4796352089
 40
1.0
 40
1.0
 40
1.0
 40
1.0
 10
93.4297387279
 20
240.41354169
 30
0.0
 10
95.0028231921
 20
239.5053414973
 30
0.0
 10
98.0997425608
 20
237.2885367808
 30
0.0
 10
100.8156314519
 20
234.629738705
 30
0.0
 10
102.1307802884
 20
233.1621019308
 30
0.0
  0
SPLINE
  5
3B0
100
AcDbEntity
  8
0
100
AcDbSpline
 62
7
  6
CONTINUOUS
 70
0
 71
3
 72
13
 73
9
 74
0
 42
0.0000001
 43
0.0000001
 44
0.0000000001
 40
0.0
 40
0.0
 40
0.0
 40
0.0
 40
0.2653470321
 40
0.5632367452
 40
0.6999211568
 40
0.8184053287
 40
0.9167256689
 40
1.0
 40
1.0
 40
1.0
 40
1.0
 10
289.0870091728
 20
316.990709138
 30
0.0
 10
289.1322251791
 20
317.2529671754
 30
0.0
 10
289.3583014063
 20
317.7840025445
 30
0.0
 10
289.7907936677
 20
318.349035972
 30
0.0
 10
290.2343889475
 20
318.6883609521
 30
0.0
 10
290.5612167969
 20
318.8356438982
 30
0.0
 10
290.8671146793
 20
318.8709148775
 30
0.0
 10
291.0472886697
 20
318.8037614032
 30
0.0
 10
291.1130938839
 20
318.7523305395
 30
0.0
  0
SPLINE
  5
3B1
100
AcDbEntity
  8
0
100
AcDbSpline
 62
7
  6
CONTINUOUS
 70
0
 71
3
 72
9
 73
5
 74
0
 42
0.0000001
 43
0.0000001
 44
0.0000000001
 40
0.0
 40
0.0
 40
0.0
 40
0.0
 40
0.2404230761
 40
1.0
 40
1.0
 40
1.0
 40
1.0
 10
104.6136357837
 20
234.5955706628
 30
0.0
 10
104.6810545114
 20
234.5760494327
 30
0.0
 10
104.9586734192
 20
234.4852791573
 30
0.0
 10
105.2239929906
 20
234.3585180663
 30
0.0
 10
105.4160330878
 20
234.2476461727
 30
0.0
  0
SPLINE
  5
3B2
100
AcDbEntity
  8
0
100
AcDbSpline
 62
7
  6
CONTINUOUS
 70
0
 71
3
 72
9
 73
5
 74
0
 42
0.0000001
 43
0.0000001
 44
0.0000000001
 40
0.0
 40
0.0
 40
0.0
 40
0.0
 40
0.2326526023
 40
1.0
 40
1.0
 40
1.0
 40
1.0
 10
105.4160330878
 20
234.2476461727
 30
0.0
 10
105.5883081742
 20
234.1481853554
 30
0.0
 10
106.2986412434
 20
233.6686690112
 30
0.0
 10
106.8827463469
 20
233.0169478361
 30
0.0
 10
107.2545410912
 20
232.4763530354
 30
0.0
  0
ENDSEC
  0
SECTION
  2
OBJECTS
  0
DICTIONARY
  5
C
100
AcDbDictionary
280
0
281
1
  3
ACAD_GROUP
350
D
  3
ACAD_MLINESTYLE
350
17
  3
ACAD_LAYOUT
350
1A
  3
ACAD_PLOTSETTINGS
350
19
  3
ACAD_PLOTSTYLENAME
350
E
  0
DICTIONARY
  5
D
102
{ACAD_REACTORS
330
C
102
}
100
AcDbDictionary
280
0
281
1
  0
ACDBDICTIONARYWDFLT
  5
E
102
{ACAD_REACTORS
330
C
102
}
100
AcDbDictionary
281
1
  3
Normal
350
F
100
AcDbDictionaryWithDefault
340
F
  0
DICTIONARY
  5
17
102
{ACAD_REACTORS
330
C
102
}
100
AcDbDictionary
280
0
281
1
  3
Standard
350
18
  0
DICTIONARY
  5
19
102
{ACAD_REACTORS
330
C
102
}
100
AcDbDictionary
281
1
  0
DICTIONARY
  5
1A
102
{ACAD_REACTORS
330
C
102
}
100
AcDbDictionary
281
1
  3
Model
350
3B3
  3
Layout1
350
3B4
  0
ACDBPLACEHOLDER
  5
F
102
{ACAD_REACTORS
330
E
102
}
  0
MLINESTYLE
  5
18
102
{ACAD_REACTORS
330
17
102
}
100
AcDbMlineStyle
  2
STANDARD
 70
0
  3

 62
256
 51
90.0
 52
90.0
 71
2
 49
0.5
 62
256
  6
BYLAYER
 49
-0.5
 62
256
  6
BYLAYER
  0
LAYOUT
  5
3B3
102
{ACAD_REACTORS
330
1A
102
}
100
AcDbPlotSettings
  1

  2
none_device
  4

  6

 40
0.0
 41
0.0
 42
0.0
 43
0.0
 44
210.0
 45
297.0
 46
0.0
 47
0.0
 48
0.0
 49
0.0
140
0.0
141
0.0
142
1.0
143
1.0
 70
1024
 72
1
 73
0
 74
0
  7

 75
0
147
1.0
148
0.0
149
0.0
100
AcDbLayout
  1
Model
 70
0
 71
0
 10
0.0
 20
0.0
 11
210.0
 21
297.0
 12
0.0
 22
0.0
 32
0.0
 14
0.0
 24
0.0
 34
0.0
 15
0.0
 25
0.0
 35
0.0
146
0.0
 13
0.0
 23
0.0
 33
0.0
 16
1.0
 26
0.0
 36
0.0
 17
0.0
 27
1.0
 37
0.0
 76
0
330
211
345
0
346
0
  0
LAYOUT
  5
3B4
102
{ACAD_REACTORS
330
1A
102
}
100
AcDbPlotSettings
  1

  2
none_device
  4

  6

 40
0.0
 41
0.0
 42
0.0
 43
0.0
 44
210.0
 45
297.0
 46
0.0
 47
0.0
 48
0.0
 49
0.0
140
0.0
141
0.0
142
1.0
143
1.0
 70
0
 72
1
 73
0
 74
0
  7

 75
0
147
1.0
148
0.0
149
0.0
100
AcDbLayout
  1
Layout1
 70
0
 71
1
 10
0.0
 20
0.0
 11
210.0
 21
297.0
 12
0.0
 22
0.0
 32
0.0
 14
0.0
 24
0.0
 34
0.0
 15
0.0
 25
0.0
 35
0.0
146
0.0
 13
0.0
 23
0.0
 33
0.0
 16
1.0
 26
0.0
 36
0.0
 17
0.0
 27
1.0
 37
0.0
 76
0
330
212
345
0
346
0
  0
ENDSEC
  0
EOF
