999
DXF file: C:\Users\SESA621925\Desktop\Projects\Drawing_creation_tool\Gen2D (3) (1)\CAD\G12SHT415AC_3D-CAD\drw0001_1.dxf
999
Pro/ENGINEER 2019471 by Parametric Technology Corporation
  0
SECTION
  2
HEADER
  9
$ACADVER
  1
AC1024
  9
$DWGCODEPAGE
  3
ANSI_1252
  9
$EXTMAX
 10
45.2145372317
 20
63.9462740848
 30
0.0
  9
$EXTMIN
 10
0.0
 20
0.0
 30
0.0
  9
$LIMMIN
 10
0.0
 20
0.0
  9
$LIMMAX
 10
45.2145372317
 20
63.9462740848
  9
$VIEWCTR
 10
22.6072686159
 20
31.9731370424
  9
$VIEWSIZE
 40
63.9462740848
  9
$CLAYER
  8
0
  9
$LTSCALE
 40
4.1683497181
  9
$CELTYPE
  6
BYLAYER
  9
$DIMSCALE
 40
1.0
  9
$DIMASZ
 40
0.5382683004
  9
$DIMEXO
 40
1.0
  9
$DIMDLI
 40
2.8799507143
  9
$DIMEXE
 40
1.0
  9
$DIMCEN
 40
0.6820935902
  9
$DIMLFAC
 40
1.0
  9
$DIMBLK
  1
_FILLED
  9
$DIMALT
 70
0
  9
$DIMALTF
 40
0.0393700787
  9
$DIMTXT
 40
0.7535756205
  9
$DIMTOL
 70
1
  9
$DIMLIM
 70
0
  9
$DIMTFAC
 40
1.0
  9
$DIMTP
 40
0.01
  9
$DIMTM
 40
0.01
  9
$DIMGAP
 40
0.625
  9
$DIMDSEP
 70
46
  9
$AUNITS
 70
0
  9
$PDMODE
 70
3
  9
$PDSIZE
 40
0.3125
  9
$HANDSEED
  5
307
  9
$TILEMODE
 70
1
  9
$MEASUREMENT
 70
1
  9
$INSUNITS
 70
4
  0
ENDSEC
  0
SECTION
  2
CLASSES
  0
CLASS
  1
ACDBDICTIONARYWDFLT
  2
AcDbDictionaryWithDefault
  3
AutoCAD 2000
 90
0
 91
1
280
0
281
0
  0
CLASS
  1
ACDBPLACEHOLDER
  2
AcDbPlaceHolder
  3
AutoCAD 2000
 90
0
 91
1
280
0
281
0
  0
CLASS
  1
LAYOUT
  2
AcDbLayout
  3
AutoCAD 2000
 90
0
 91
0
280
0
281
0
  0
ENDSEC
  0
SECTION
  2
TABLES
  0
TABLE
  2
VPORT
  5
8
100
AcDbSymbolTable
 70
2
  0
VPORT
  5
1F4
100
AcDbSymbolTableRecord
100
AcDbViewportTableRecord
  2
*ACTIVE
 70
0
 10
0.0
 20
0.0
 11
1.0
 21
1.0
 12
22.6072686159
 22
31.9731370424
 13
0.0
 23
0.0
 14
1.0
 24
1.0
 15
0.0
 25
0.0
 16
0.0
 26
0.0
 36
1.0
 17
0.0
 27
0.0
 37
0.0
 40
63.9462740848
 41
0.7070707071
 42
50.0
 43
0.0
 44
0.0
 50
0.0
 51
0.0
 71
0
 72
100
 73
1
 74
1
 75
0
 76
0
 77
0
 78
0
  0
ENDTAB
  0
TABLE
  2
LTYPE
  5
5
100
AcDbSymbolTable
 70
6
  0
LTYPE
  5
14
100
AcDbSymbolTableRecord
100
AcDbLinetypeTableRecord
  2
BYBLOCK
 70
0
  3

 72
65
 73
0
 40
0.0
  0
LTYPE
  5
15
100
AcDbSymbolTableRecord
100
AcDbLinetypeTableRecord
  2
BYLAYER
 70
0
  3

 72
65
 73
0
 40
0.0
  0
LTYPE
  5
16
100
AcDbSymbolTableRecord
100
AcDbLinetypeTableRecord
  2
CONTINUOUS
 70
64
  3
Solid line
 72
65
 73
0
 40
0.0
  0
LTYPE
  5
1F5
100
AcDbSymbolTableRecord
100
AcDbLinetypeTableRecord
  2
CENTER
 70
64
  3
____ _ ____ _ ____ _ ____ _ ____ _ ____ _ ____
 72
65
 73
4
 40
0.6
 49
0.375
 74
0
 49
-0.075
 74
0
 49
0.075
 74
0
 49
-0.075
 74
0
  0
LTYPE
  5
1F6
100
AcDbSymbolTableRecord
100
AcDbLinetypeTableRecord
  2
HIDDEN
 70
64
  3
- - - - - - - - - - - - - - - - - - - -
 72
65
 73
2
 40
0.2
 49
0.1
 74
0
 49
-0.1
 74
0
  0
LTYPE
  5
1F7
100
AcDbSymbolTableRecord
100
AcDbLinetypeTableRecord
  2
PHANTOM
 70
64
  3
_____ _ _ _____ _ _ _____ _ _ _____
 72
65
 73
6
 40
0.8
 49
0.45
 74
0
 49
-0.05
 74
0
 49
0.1
 74
0
 49
-0.05
 74
0
 49
0.1
 74
0
 49
-0.05
 74
0
  0
LTYPE
  5
1F8
100
AcDbSymbolTableRecord
100
AcDbLinetypeTableRecord
  2
DOT
 70
64
  3
. . . . . . . . . . . . . . . . . . . .
 72
65
 73
2
 40
0.2
 49
0.1
 74
0
 49
-0.1
 74
0
  0
LTYPE
  5
1F9
100
AcDbSymbolTableRecord
100
AcDbLinetypeTableRecord
  2
DASHED
 70
64
  3
- - - - - - - - - - - - - - - - - - - -
 72
65
 73
2
 40
0.2
 49
0.1
 74
0
 49
-0.1
 74
0
  0
ENDTAB
  0
TABLE
  2
LAYER
  5
2
100
AcDbSymbolTable
 70
36
  0
LAYER
  5
10
100
AcDbSymbolTableRecord
100
AcDbLayerTableRecord
  2
0
 70
0
 62
7
  6
CONTINUOUS
370
-3
390
F
  0
LAYER
  5
1FA
100
AcDbSymbolTableRecord
100
AcDbLayerTableRecord
  2
DEFAULT_1
 70
0
 62
7
  6
CENTER
370
-3
390
F
  0
LAYER
  5
1FB
100
AcDbSymbolTableRecord
100
AcDbLayerTableRecord
  2
DEFAULT_2
 70
0
 62
8
  6
HIDDEN
370
-3
390
F
  0
LAYER
  5
1FC
100
AcDbSymbolTableRecord
100
AcDbLayerTableRecord
  2
DEFAULT_3
 70
0
 62
7
  6
PHANTOM
370
-3
390
F
  0
LAYER
  5
1FD
100
AcDbSymbolTableRecord
100
AcDbLayerTableRecord
  2
00_COMPONENTS
 70
0
 62
7
  6
CONTINUOUS
370
-3
390
F
  0
LAYER
  5
1FE
100
AcDbSymbolTableRecord
100
AcDbLayerTableRecord
  2
01_1_DEFAULT_DATUMS
 70
0
 62
7
  6
CONTINUOUS
370
-3
390
F
  0
LAYER
  5
1FF
100
AcDbSymbolTableRecord
100
AcDbLayerTableRecord
  2
01_PLANES
 70
0
 62
7
  6
CONTINUOUS
370
-3
390
F
  0
LAYER
  5
200
100
AcDbSymbolTableRecord
100
AcDbLayerTableRecord
  2
02_COORD_SYS
 70
0
 62
7
  6
CONTINUOUS
370
-3
390
F
  0
LAYER
  5
201
100
AcDbSymbolTableRecord
100
AcDbLayerTableRecord
  2
03_AXES
 70
0
 62
7
  6
CONTINUOUS
370
-3
390
F
  0
LAYER
  5
202
100
AcDbSymbolTableRecord
100
AcDbLayerTableRecord
  2
04_POINTS
 70
0
 62
7
  6
CONTINUOUS
370
-3
390
F
  0
LAYER
  5
203
100
AcDbSymbolTableRecord
100
AcDbLayerTableRecord
  2
05_CURVES
 70
0
 62
7
  6
CONTINUOUS
370
-3
390
F
  0
LAYER
  5
204
100
AcDbSymbolTableRecord
100
AcDbLayerTableRecord
  2
06_SURFS
 70
0
 62
7
  6
CONTINUOUS
370
-3
390
F
  0
LAYER
  5
205
100
AcDbSymbolTableRecord
100
AcDbLayerTableRecord
  2
07_COSMETICS
 70
0
 62
7
  6
CONTINUOUS
370
-3
390
F
  0
LAYER
  5
206
100
AcDbSymbolTableRecord
100
AcDbLayerTableRecord
  2
10_NOTES
 70
0
 62
7
  6
CONTINUOUS
370
-3
390
F
  0
LAYER
  5
207
100
AcDbSymbolTableRecord
100
AcDbLayerTableRecord
  2
11_NOTES_PUB
 70
0
 62
7
  6
CONTINUOUS
370
-3
390
F
  0
LAYER
  5
208
100
AcDbSymbolTableRecord
100
AcDbLayerTableRecord
  2
13_REF_GTOL
 70
0
 62
7
  6
CONTINUOUS
370
-3
390
F
  0
LAYER
  5
209
100
AcDbSymbolTableRecord
100
AcDbLayerTableRecord
  2
16_MISC
 70
0
 62
7
  6
CONTINUOUS
370
-3
390
F
  0
LAYER
  5
20A
100
AcDbSymbolTableRecord
100
AcDbLayerTableRecord
  2
17_NO_PRINT
 70
0
 62
7
  6
CONTINUOUS
370
-3
390
F
  0
LAYER
  5
20B
100
AcDbSymbolTableRecord
100
AcDbLayerTableRecord
  2
18_DATUM_CAMS_JOINTS
 70
0
 62
7
  6
CONTINUOUS
370
-3
390
F
  0
LAYER
  5
20C
100
AcDbSymbolTableRecord
100
AcDbLayerTableRecord
  2
19_DATUM_FUNCTIONAL
 70
0
 62
7
  6
CONTINUOUS
370
-3
390
F
  0
LAYER
  5
20D
100
AcDbSymbolTableRecord
100
AcDbLayerTableRecord
  2
20_DATUM_KINEMATIC_SCHEME
 70
0
 62
7
  6
CONTINUOUS
370
-3
390
F
  0
LAYER
  5
20E
100
AcDbSymbolTableRecord
100
AcDbLayerTableRecord
  2
black
 70
0
 62
7
  6
CONTINUOUS
370
-3
390
F
  0
ENDTAB
  0
TABLE
  2
STYLE
  5
3
100
AcDbSymbolTable
 70
1
  0
STYLE
  5
11
100
AcDbSymbolTableRecord
100
AcDbTextStyleTableRecord
  2
STANDARD
 70
0
 40
0.0
 41
0.8
 50
0.0
 71
0
 42
0.2
  3
txt
  4

  0
STYLE
  5
20F
100
AcDbSymbolTableRecord
100
AcDbTextStyleTableRecord
  2
TEXTSTYLE_1
 70
0
 40
0.0
 41
0.8
 50
0.0
 71
0
 42
0.2
  3
gdt
  4

  0
ENDTAB
  0
TABLE
  2
VIEW
  5
6
100
AcDbSymbolTable
 70
0
  0
ENDTAB
  0
TABLE
  2
UCS
  5
7
100
AcDbSymbolTable
 70
0
  0
ENDTAB
  0
TABLE
  2
APPID
  5
9
100
AcDbSymbolTable
 70
1
  0
APPID
  5
210
100
AcDbSymbolTableRecord
100
AcDbRegAppTableRecord
  2
ACAD
 70
0
  0
ENDTAB
  0
TABLE
  2
BLOCK_RECORD
  5
1
100
AcDbSymbolTable
 70
0
  0
BLOCK_RECORD
  5
211
100
AcDbSymbolTableRecord
100
AcDbBlockTableRecord
  2
*Model_Space
  0
BLOCK_RECORD
  5
212
100
AcDbSymbolTableRecord
100
AcDbBlockTableRecord
  2
*Paper_Space
  0
BLOCK_RECORD
  5
213
100
AcDbSymbolTableRecord
100
AcDbBlockTableRecord
  2
_FILLED
  0
ENDTAB
  0
TABLE
  2
DIMSTYLE
  5
A
100
AcDbSymbolTable
 70
1
100
AcDbDimStyleTable
 71
0
  0
DIMSTYLE
105
214
100
AcDbSymbolTableRecord
100
AcDbDimStyleTableRecord
  2
STANDARD
 70
0
  3

  4

 40
1.0
 41
0.5382683004
 42
1.0
 43
0.38
 44
1.0
 45
0.0
 46
0.0
 47
0.01
 48
0.01
140
0.7535756205
141
0.09
142
0.0
143
25.4
144
1.0
145
0.0
146
1.0
147
0.625
 71
1
 72
0
 73
0
 74
0
 75
0
 76
0
 77
1
 78
8
 79
2
170
0
171
1
172
0
173
0
174
0
175
0
176
0
177
0
178
0
270
2
179
2
271
2
272
2
273
2
274
2
275
0
280
0
281
0
282
0
283
1
284
8
285
0
286
0
287
3
288
0
340
11
278
46
341
213
342
213
343
213
344
213
  0
ENDTAB
  0
ENDSEC
  0
SECTION
  2
BLOCKS
  0
BLOCK
  5
20
100
AcDbEntity
  8
0
100
AcDbBlockBegin
  2
*Model_Space
 70
0
 10
0.0
 20
0.0
 30
0.0
  3
*Model_Space
  1

  0
ENDBLK
  5
21
100
AcDbEntity
  8
0
100
AcDbBlockEnd
  0
BLOCK
  5
1C
100
AcDbEntity
  8
0
100
AcDbBlockBegin
  2
*Paper_Space
 70
0
 10
0.0
 20
0.0
 30
0.0
  3
*Paper_Space
  1

  0
ENDBLK
  5
1D
100
AcDbEntity
  8
0
100
AcDbBlockEnd
  0
BLOCK
  5
215
100
AcDbEntity
  8
0
100
AcDbBlockBegin
  2
_FILLED
 70
64
 10
0.0
 20
0.0
  3
_FILLED
  1

  0
SOLID
  5
216
100
AcDbEntity
  8
0
  6
BYBLOCK
 62
0
100
AcDbTrace
 10
0.0
 20
0.0
 11
-1.0
 21
0.25
 12
-1.0
 22
-0.25
 13
-1.0
 23
-0.25
  0
ENDBLK
  5
217
100
AcDbEntity
  8
0
  6
BYBLOCK
 62
0
100
AcDbBlockEnd
  0
ENDSEC
  0
SECTION
  2
ENTITIES
  0
LINE
  5
218
100
AcDbEntity
  8
0
100
AcDbLine
 62
7
  6
CONTINUOUS
 10
13.7811246875
 20
48.6217691758
 11
16.0681210614
 21
49.9421592662
  0
LINE
  5
219
100
AcDbEntity
  8
0
100
AcDbLine
 62
7
  6
CONTINUOUS
 10
5.9525162496
 20
43.3614272882
 11
13.1326422059
 21
47.506850197
  0
LINE
  5
21A
100
AcDbEntity
  8
0
100
AcDbLine
 62
7
  6
CONTINUOUS
 10
16.716603543
 20
49.5760388884
 11
22.9877859498
 21
53.1966861267
  0
LINE
  5
21B
100
AcDbEntity
  8
0
100
AcDbLine
 62
7
  6
CONTINUOUS
 10
20.8018204777
 20
10.6198998962
 11
5.9525162496
 21
19.1929557412
  0
LINE
  5
21C
100
AcDbEntity
  8
0
100
AcDbLine
 62
7
  6
CONTINUOUS
 10
5.9525162496
 20
20.0094581583
 11
7.5788686175
 21
19.0705044229
  0
LINE
  5
21D
100
AcDbEntity
  8
0
100
AcDbLine
 62
7
  6
CONTINUOUS
 10
5.9525162496
 20
20.662660092
 11
7.5788686175
 21
19.7237063566
  0
LINE
  5
21E
100
AcDbEntity
  8
0
100
AcDbLine
 62
7
  6
CONTINUOUS
 10
5.2454065245
 20
38.9523037816
 11
5.2454065245
 21
40.258707649
  0
LINE
  5
21F
100
AcDbEntity
  8
0
100
AcDbLine
 62
7
  6
CONTINUOUS
 10
5.9525162496
 20
38.5440630271
 11
5.9525162496
 21
36.1762060174
  0
LINE
  5
220
100
AcDbEntity
  8
0
100
AcDbLine
 62
7
  6
CONTINUOUS
 10
5.9525162496
 20
28.0111818462
 11
5.9525162496
 21
23.1938175851
  0
LINE
  5
221
100
AcDbEntity
  8
0
100
AcDbLine
 62
7
  6
CONTINUOUS
 10
5.9525162496
 20
22.5406156514
 11
5.9525162496
 21
20.662660092
  0
LINE
  5
222
100
AcDbEntity
  8
0
100
AcDbLine
 62
7
  6
CONTINUOUS
 10
5.9525162496
 20
20.0094581583
 11
5.9525162496
 21
19.1929557412
  0
LINE
  5
223
100
AcDbEntity
  8
0
100
AcDbLine
 62
7
  6
CONTINUOUS
 10
5.9525162496
 20
39.8504668945
 11
5.9525162496
 21
43.3614272882
  0
LINE
  5
224
100
AcDbEntity
  8
0
100
AcDbLine
 62
7
  6
CONTINUOUS
 10
16.9166527316
 20
49.4522703608
 11
16.906726511
 21
49.4465394889
  0
LINE
  5
225
100
AcDbEntity
  8
0
100
AcDbLine
 62
7
  6
CONTINUOUS
 10
15.7046499877
 20
48.7525244273
 11
14.6296563577
 21
48.1318802703
  0
LINE
  5
226
100
AcDbEntity
  8
0
100
AcDbLine
 62
7
  6
CONTINUOUS
 10
6.8717588923
 20
42.8307143073
 11
12.2031302787
 21
45.9087646389
  0
LINE
  5
227
100
AcDbEntity
  8
0
100
AcDbLine
 62
7
  6
CONTINUOUS
 10
17.6461154702
 20
49.0512548463
 11
23.9070285925
 21
52.6659731458
  0
LINE
  5
228
100
AcDbEntity
  8
0
100
AcDbLine
 62
7
  6
CONTINUOUS
 10
24.967676694
 20
53.1150161319
 11
25.6040701475
 21
53.4824358703
  0
LINE
  5
229
100
AcDbEntity
  8
0
100
AcDbLine
 62
7
  6
CONTINUOUS
 10
15.8460807646
 20
47.4461489138
 11
16.9067365205
 21
48.0585151446
  0
LINE
  5
22A
100
AcDbEntity
  8
0
100
AcDbLine
 62
7
  6
CONTINUOUS
 10
11.4166065952
 20
44.5565150303
 11
6.8717588923
 21
41.9325616485
  0
LINE
  5
22B
100
AcDbEntity
  8
0
100
AcDbLine
 62
7
  6
CONTINUOUS
 10
5.9525162496
 20
22.5406156514
 11
7.5788686175
 21
21.601661916
  0
LINE
  5
22C
100
AcDbEntity
  8
0
100
AcDbLine
 62
7
  6
CONTINUOUS
 10
6.8717588923
 20
41.9325616485
 11
6.8717588923
 21
42.8307143073
  0
LINE
  5
22D
100
AcDbEntity
  8
0
100
AcDbLine
 62
7
  6
CONTINUOUS
 10
7.3667356999
 20
35.3597245084
 11
7.3667356999
 21
27.1947003371
  0
LINE
  5
22E
100
AcDbEntity
  8
0
100
AcDbLine
 62
7
  6
CONTINUOUS
 10
7.5788686175
 20
22.2548638497
 11
7.5788686175
 21
21.601661916
  0
LINE
  5
22F
100
AcDbEntity
  8
0
100
AcDbLine
 62
7
  6
CONTINUOUS
 10
7.5788686175
 20
19.7237063566
 11
7.5788686175
 21
19.0705044229
  0
LINE
  5
230
100
AcDbEntity
  8
0
100
AcDbLine
 62
7
  6
CONTINUOUS
 10
13.7811246875
 20
48.6217691758
 11
9.1345100128
 21
40.6329660321
  0
LINE
  5
231
100
AcDbEntity
  8
0
100
AcDbLine
 62
7
  6
CONTINUOUS
 10
9.983041683
 20
40.1430771267
 11
14.6296563577
 21
48.1318802703
  0
LINE
  5
232
100
AcDbEntity
  8
0
100
AcDbLine
 62
7
  6
CONTINUOUS
 10
26.5233127902
 20
52.9517228895
 11
25.8869193367
 21
52.584303151
  0
LINE
  5
233
100
AcDbEntity
  8
0
100
AcDbLine
 62
7
  6
CONTINUOUS
 10
5.2454065245
 20
40.258707649
 11
5.9525162496
 21
40.6669552023
  0
LINE
  5
234
100
AcDbEntity
  8
0
100
AcDbLine
 62
7
  6
CONTINUOUS
 10
19.2906649903
 20
48.1227747274
 11
20.725061325
 21
48.950918894
  0
LINE
  5
235
100
AcDbEntity
  8
0
100
AcDbLine
 62
7
  6
CONTINUOUS
 10
16.7881265087
 20
45.9722082947
 11
15.2324980668
 21
45.0740711562
  0
LINE
  5
236
100
AcDbEntity
  8
0
100
AcDbLine
 62
7
  6
CONTINUOUS
 10
16.5532004993
 20
45.291381365
 11
16.1996485807
 21
45.0872592881
  0
LINE
  5
237
100
AcDbEntity
  8
0
100
AcDbLine
 62
7
  6
CONTINUOUS
 10
5.9525162496
 20
23.1938175851
 11
7.5788686175
 21
22.2548638497
  0
LINE
  5
238
100
AcDbEntity
  8
0
100
AcDbLine
 62
7
  6
CONTINUOUS
 10
9.1345100128
 20
40.626191234
 11
9.1345100128
 21
40.6329660321
  0
LINE
  5
239
100
AcDbEntity
  8
0
100
AcDbLine
 62
7
  6
CONTINUOUS
 10
9.983041683
 20
40.1363023286
 11
9.983041683
 21
40.1430771267
  0
LINE
  5
23A
100
AcDbEntity
  8
0
100
AcDbLine
 62
7
  6
CONTINUOUS
 10
22.9878124455
 20
48.6243513801
 11
20.7206685128
 21
47.3154230335
  0
LINE
  5
23B
100
AcDbEntity
  8
0
100
AcDbLine
 62
7
  6
CONTINUOUS
 10
16.7653363608
 20
44.7606666845
 11
17.1188882794
 21
44.9647887614
  0
LINE
  5
23C
100
AcDbEntity
  8
0
100
AcDbLine
 62
7
  6
CONTINUOUS
 10
15.4777762218
 20
43.5707042775
 11
15.1242243032
 21
43.3665822006
  0
LINE
  5
23D
100
AcDbEntity
  8
0
100
AcDbLine
 62
7
  6
CONTINUOUS
 10
21.431348272
 20
46.8343069937
 11
24.6466613553
 21
48.690657787
  0
LINE
  5
23E
100
AcDbEntity
  8
0
100
AcDbLine
 62
7
  6
CONTINUOUS
 10
14.9087508257
 20
42.9801561401
 11
9.983041683
 21
40.1363023286
  0
LINE
  5
23F
100
AcDbEntity
  8
0
100
AcDbLine
 62
7
  6
CONTINUOUS
 10
16.5532004993
 20
43.6030237614
 11
16.1996485807
 21
43.3989016845
  0
LINE
  5
240
100
AcDbEntity
  8
0
100
AcDbLine
 62
7
  6
CONTINUOUS
 10
10.5487294631
 20
39.809709725
 11
10.5487294631
 21
40.4629116587
  0
LINE
  5
241
100
AcDbEntity
  8
0
100
AcDbLine
 62
7
  6
CONTINUOUS
 10
16.5532004993
 20
42.9498218277
 11
16.1996485807
 21
42.7456997508
  0
LINE
  5
242
100
AcDbEntity
  8
0
100
AcDbLine
 62
7
  6
CONTINUOUS
 10
21.2908168164
 20
45.5274224666
 11
20.2301610606
 21
44.9150562358
  0
LINE
  5
243
100
AcDbEntity
  8
0
100
AcDbLine
 62
7
  6
CONTINUOUS
 10
17.1188882794
 20
42.6232292241
 11
16.7653363608
 21
42.4191071471
  0
LINE
  5
244
100
AcDbEntity
  8
0
100
AcDbLine
 62
7
  6
CONTINUOUS
 10
23.2813719589
 20
45.7662194835
 11
25.5716572142
 21
47.0885083991
  0
LINE
  5
245
100
AcDbEntity
  8
0
100
AcDbLine
 62
7
  6
CONTINUOUS
 10
21.4179097191
 20
44.212769027
 11
22.4929033491
 21
44.8334131839
  0
LINE
  5
246
100
AcDbEntity
  8
0
100
AcDbLine
 62
7
  6
CONTINUOUS
 10
23.6949798724
 20
45.5274282455
 11
23.704906093
 21
45.5331591174
  0
LINE
  5
247
100
AcDbEntity
  8
0
100
AcDbLine
 62
7
  6
CONTINUOUS
 10
16.1996485807
 20
41.0573421471
 11
16.5532004993
 21
41.2614642241
  0
LINE
  5
248
100
AcDbEntity
  8
0
100
AcDbLine
 62
7
  6
CONTINUOUS
 10
5.9525162496
 20
28.0111818462
 11
7.3667356999
 21
27.1947003371
  0
LINE
  5
249
100
AcDbEntity
  8
0
100
AcDbLine
 62
7
  6
CONTINUOUS
 10
22.2664413893
 20
43.7228801215
 11
24.5534377632
 21
45.043270212
  0
LINE
  5
24A
100
AcDbEntity
  8
0
100
AcDbLine
 62
7
  6
CONTINUOUS
 10
19.2881153165
 20
41.642074814
 11
17.7324868746
 21
40.7439376754
  0
LINE
  5
24B
100
AcDbEntity
  8
0
100
AcDbLine
 62
7
  6
CONTINUOUS
 10
34.0187218026
 20
22.9557033506
 11
35.0793775584
 21
23.1087963424
  0
LINE
  5
24C
100
AcDbEntity
  8
0
100
AcDbLine
 62
7
  6
CONTINUOUS
 10
15.1242243032
 20
43.3665822006
 11
15.1242243032
 21
44.0197841343
  0
LINE
  5
24D
100
AcDbEntity
  8
0
100
AcDbLine
 62
7
  6
CONTINUOUS
 10
15.4777762218
 20
43.5707042775
 11
15.4777762218
 21
43.8156654567
  0
LINE
  5
24E
100
AcDbEntity
  8
0
100
AcDbLine
 62
7
  6
CONTINUOUS
 10
15.7046499877
 20
45.3466665676
 11
15.7046499877
 21
48.7525244273
  0
LINE
  5
24F
100
AcDbEntity
  8
0
100
AcDbLine
 62
7
  6
CONTINUOUS
 10
21.4179097191
 20
44.212769027
 11
16.7653622677
 21
36.2137658154
  0
LINE
  5
250
100
AcDbEntity
  8
0
100
AcDbLine
 62
7
  6
CONTINUOUS
 10
30.058909697
 20
45.1951457686
 11
27.2134289802
 21
43.5523165172
  0
LINE
  5
251
100
AcDbEntity
  8
0
100
AcDbLine
 62
7
  6
CONTINUOUS
 10
17.9093868318
 20
38.1806573428
 11
16.2056072643
 21
37.1969856225
  0
LINE
  5
252
100
AcDbEntity
  8
0
100
AcDbLine
 62
7
  6
CONTINUOUS
 10
30.058909697
 20
44.5419438349
 11
27.7854462046
 21
43.2293669106
  0
LINE
  5
253
100
AcDbEntity
  8
0
100
AcDbLine
 62
7
  6
CONTINUOUS
 10
17.3373696075
 20
37.1972030819
 11
16.2056072643
 21
36.5437836888
  0
LINE
  5
254
100
AcDbEntity
  8
0
100
AcDbLine
 62
7
  6
CONTINUOUS
 10
15.8460807646
 20
45.4283211773
 11
15.8460807646
 21
47.4461489138
  0
LINE
  5
255
100
AcDbEntity
  8
0
100
AcDbLine
 62
7
  6
CONTINUOUS
 10
16.1996485807
 20
42.7456997508
 11
16.1996485807
 21
41.0573421471
  0
LINE
  5
256
100
AcDbEntity
  8
0
100
AcDbLine
 62
7
  6
CONTINUOUS
 10
16.1996485807
 20
43.3989016845
 11
16.1996485807
 21
45.0872592881
  0
LINE
  5
257
100
AcDbEntity
  8
0
100
AcDbLine
 62
7
  6
CONTINUOUS
 10
16.2056072643
 20
36.5437836888
 11
16.2056072643
 21
37.1969856225
  0
LINE
  5
258
100
AcDbEntity
  8
0
100
AcDbLine
 62
7
  6
CONTINUOUS
 10
16.5532004993
 20
41.2614642241
 11
16.5532004993
 21
42.9498218277
  0
LINE
  5
259
100
AcDbEntity
  8
0
100
AcDbLine
 62
7
  6
CONTINUOUS
 10
16.5532004993
 20
43.6030237614
 11
16.5532004993
 21
45.291381365
  0
LINE
  5
25A
100
AcDbEntity
  8
0
100
AcDbLine
 62
7
  6
CONTINUOUS
 10
16.7653363608
 20
42.4191071471
 11
16.7653363608
 21
40.7307495435
  0
LINE
  5
25B
100
AcDbEntity
  8
0
100
AcDbLine
 62
7
  6
CONTINUOUS
 10
16.7653363608
 20
43.0723090809
 11
16.7653363608
 21
44.7606666845
  0
LINE
  5
25C
100
AcDbEntity
  8
0
100
AcDbLine
 62
7
  6
CONTINUOUS
 10
17.6138939379
 20
35.72387691
 11
22.2664413893
 21
43.7228801215
  0
LINE
  5
25D
100
AcDbEntity
  8
0
100
AcDbLine
 62
7
  6
CONTINUOUS
 10
27.9376099612
 20
41.6842415565
 11
17.6138939379
 21
35.72387691
  0
LINE
  5
25E
100
AcDbEntity
  8
0
100
AcDbLine
 62
7
  6
CONTINUOUS
 10
29.2059852146
 20
42.4165339793
 11
31.4731291473
 21
43.7254623259
  0
LINE
  5
25F
100
AcDbEntity
  8
0
100
AcDbLine
 62
7
  6
CONTINUOUS
 10
17.8407606382
 20
42.451426631
 11
17.8407606382
 21
41.7982246973
  0
LINE
  5
260
100
AcDbEntity
  8
0
100
AcDbLine
 62
7
  6
CONTINUOUS
 10
28.7861562944
 20
41.1943441855
 11
31.4731291473
 21
42.7456594253
  0
LINE
  5
261
100
AcDbEntity
  8
0
100
AcDbLine
 62
7
  6
CONTINUOUS
 10
7.3667356999
 20
28.8276769527
 11
5.9525162496
 21
28.0111818462
  0
LINE
  5
262
100
AcDbEntity
  8
0
100
AcDbLine
 62
7
  6
CONTINUOUS
 10
19.882577835
 20
35.3190844241
 11
36.9178475352
 21
45.1543432627
  0
LINE
  5
263
100
AcDbEntity
  8
0
100
AcDbLine
 62
7
  6
CONTINUOUS
 10
5.9525162496
 20
36.1762060174
 11
7.3667356999
 21
35.3597245084
  0
LINE
  5
264
100
AcDbEntity
  8
0
100
AcDbLine
 62
7
  6
CONTINUOUS
 10
19.882577835
 20
34.4209317653
 11
19.882577835
 21
35.3190844241
  0
LINE
  5
265
100
AcDbEntity
  8
0
100
AcDbLine
 62
7
  6
CONTINUOUS
 10
20.2301610606
 20
42.1707038071
 11
20.2301610606
 21
44.9150562358
  0
LINE
  5
266
100
AcDbEntity
  8
0
100
AcDbLine
 62
7
  6
CONTINUOUS
 10
20.8018204777
 20
34.7883714433
 11
20.8018204777
 21
10.6198998962
  0
LINE
  5
267
100
AcDbEntity
  8
0
100
AcDbLine
 62
7
  6
CONTINUOUS
 10
21.2908168164
 20
43.9942615216
 11
21.2908168164
 21
45.5274224666
  0
LINE
  5
268
100
AcDbEntity
  8
0
100
AcDbLine
 62
7
  6
CONTINUOUS
 10
20.8018204777
 20
34.7883714433
 11
37.8370901779
 21
44.6236302818
  0
LINE
  5
269
100
AcDbEntity
  8
0
100
AcDbLine
 62
7
  6
CONTINUOUS
 10
39.5341317329
 20
45.4400930063
 11
38.8977382794
 21
45.0726732678
  0
LINE
  5
26A
100
AcDbEntity
  8
0
100
AcDbLine
 62
7
  6
CONTINUOUS
 10
40.4533743756
 20
44.9093800254
 11
39.8169809221
 21
44.5419602869
  0
LINE
  5
26B
100
AcDbEntity
  8
0
100
AcDbLine
 62
7
  6
CONTINUOUS
 10
33.3116179654
 20
22.0881859577
 11
33.240915236
 21
22.1290052741
  0
LINE
  5
26C
100
AcDbEntity
  8
0
100
AcDbLine
 62
7
  6
CONTINUOUS
 10
5.9525162496
 20
38.5440630271
 11
5.2454065245
 21
38.9523037816
  0
LINE
  5
26D
100
AcDbEntity
  8
0
100
AcDbLine
 62
7
  6
CONTINUOUS
 10
5.9525162496
 20
39.8504668945
 11
5.2454065245
 21
40.258707649
  0
LINE
  5
26E
100
AcDbEntity
  8
0
100
AcDbLine
 62
7
  6
CONTINUOUS
 10
35.9986202011
 20
22.5780833615
 11
35.0793775584
 21
23.1087963424
  0
LINE
  5
26F
100
AcDbEntity
  8
0
100
AcDbLine
 62
7
  6
CONTINUOUS
 10
39.8169809221
 20
42.9089554527
 11
39.1386402749
 21
42.5173176352
  0
LINE
  5
270
100
AcDbEntity
  8
0
100
AcDbLine
 62
7
  6
CONTINUOUS
 10
6.5182138051
 20
22.8672193378
 11
5.9525162496
 21
22.5406156514
  0
LINE
  5
271
100
AcDbEntity
  8
0
100
AcDbLine
 62
7
  6
CONTINUOUS
 10
33.240915236
 20
24.415191134
 11
34.0187218026
 21
23.9661344624
  0
LINE
  5
272
100
AcDbEntity
  8
0
100
AcDbLine
 62
7
  6
CONTINUOUS
 10
33.8348699768
 20
25.2970208794
 11
34.2237803257
 21
25.0724884644
  0
LINE
  5
273
100
AcDbEntity
  8
0
100
AcDbLine
 62
7
  6
CONTINUOUS
 10
23.9070285925
 20
51.7098217774
 11
23.9070285925
 21
52.6659731458
  0
LINE
  5
274
100
AcDbEntity
  8
0
100
AcDbLine
 62
7
  6
CONTINUOUS
 10
24.967676694
 20
51.5968112199
 11
24.967676694
 21
53.1150161319
  0
LINE
  5
275
100
AcDbEntity
  8
0
100
AcDbLine
 62
7
  6
CONTINUOUS
 10
6.5182138051
 20
20.3360618447
 11
5.9525162496
 21
20.0094581583
  0
LINE
  5
276
100
AcDbEntity
  8
0
100
AcDbLine
 62
7
  6
CONTINUOUS
 10
16.7653622677
 20
36.2137658154
 11
17.6138939379
 21
35.72387691
  0
LINE
  5
277
100
AcDbEntity
  8
0
100
AcDbLine
 62
7
  6
CONTINUOUS
 10
19.882577835
 20
34.4209317653
 11
17.6198267146
 21
35.7273021798
  0
LINE
  5
278
100
AcDbEntity
  8
0
100
AcDbLine
 62
7
  6
CONTINUOUS
 10
16.7712950444
 20
36.2171910852
 11
16.2056072643
 21
36.5437836888
  0
LINE
  5
279
100
AcDbEntity
  8
0
100
AcDbLine
 62
7
  6
CONTINUOUS
 10
10.5487294631
 20
39.809709725
 11
9.983041683
 21
40.1363023286
  0
LINE
  5
27A
100
AcDbEntity
  8
0
100
AcDbLine
 62
7
  6
CONTINUOUS
 10
9.1345100128
 20
40.626191234
 11
6.8717588923
 21
41.9325616485
  0
LINE
  5
27B
100
AcDbEntity
  8
0
100
AcDbLine
 62
7
  6
CONTINUOUS
 10
9.1345100128
 20
40.6329660321
 11
9.983041683
 21
40.1430771267
  0
LINE
  5
27C
100
AcDbEntity
  8
0
100
AcDbLine
 62
7
  6
CONTINUOUS
 10
33.240915236
 20
27.1423259337
 11
34.2556082709
 21
26.5565058898
  0
LINE
  5
27D
100
AcDbEntity
  8
0
100
AcDbLine
 62
7
  6
CONTINUOUS
 10
16.2056072643
 20
37.1969856225
 11
10.5487294631
 21
40.4629116587
  0
LINE
  5
27E
100
AcDbEntity
  8
0
100
AcDbLine
 62
7
  6
CONTINUOUS
 10
5.9525162496
 20
43.3614272882
 11
6.8717588923
 21
42.8307143073
  0
LINE
  5
27F
100
AcDbEntity
  8
0
100
AcDbLine
 62
7
  6
CONTINUOUS
 10
19.882577835
 20
35.3190844241
 11
20.8018204777
 21
34.7883714433
  0
LINE
  5
280
100
AcDbEntity
  8
0
100
AcDbLine
 62
7
  6
CONTINUOUS
 10
25.8869193367
 20
52.584303151
 11
25.8869193367
 21
51.066098239
  0
LINE
  5
281
100
AcDbEntity
  8
0
100
AcDbLine
 62
7
  6
CONTINUOUS
 10
26.5233127902
 20
50.6986846193
 11
26.5233127902
 21
52.9517228895
  0
LINE
  5
282
100
AcDbEntity
  8
0
100
AcDbLine
 62
7
  6
CONTINUOUS
 10
33.240915236
 20
33.8050191103
 11
40.4533743756
 21
37.9691094798
  0
LINE
  5
283
100
AcDbEntity
  8
0
100
AcDbLine
 62
7
  6
CONTINUOUS
 10
38.7457176372
 20
36.4483878761
 11
34.2556082709
 21
33.856037499
  0
LINE
  5
284
100
AcDbEntity
  8
0
100
AcDbLine
 62
7
  6
CONTINUOUS
 10
19.3961864328
 20
40.7368730305
 11
18.5582114776
 21
41.2206671516
  0
LINE
  5
285
100
AcDbEntity
  8
0
100
AcDbLine
 62
7
  6
CONTINUOUS
 10
30.058909697
 20
44.5419438349
 11
30.058909697
 21
45.1951457686
  0
LINE
  5
286
100
AcDbEntity
  8
0
100
AcDbLine
 62
7
  6
CONTINUOUS
 10
30.4124998871
 20
19.3529545459
 11
30.4124998871
 21
20.3327574465
  0
LINE
  5
287
100
AcDbEntity
  8
0
100
AcDbLine
 62
7
  6
CONTINUOUS
 10
17.8407606382
 20
41.7982246973
 11
16.7653363608
 21
42.4191071471
  0
LINE
  5
288
100
AcDbEntity
  8
0
100
AcDbLine
 62
7
  6
CONTINUOUS
 10
16.1996485807
 20
42.7456997508
 11
15.1242243032
 21
43.3665822006
  0
LINE
  5
289
100
AcDbEntity
  8
0
100
AcDbLine
 62
7
  6
CONTINUOUS
 10
17.8407606382
 20
42.2064654518
 11
17.1188882794
 21
42.6232292241
  0
LINE
  5
28A
100
AcDbEntity
  8
0
100
AcDbLine
 62
7
  6
CONTINUOUS
 10
16.5532004993
 20
42.9498218277
 11
15.4777762218
 21
43.5707042775
  0
LINE
  5
28B
100
AcDbEntity
  8
0
100
AcDbLine
 62
7
  6
CONTINUOUS
 10
15.1242243032
 20
44.0197841343
 11
16.1996485807
 21
43.3989016845
  0
LINE
  5
28C
100
AcDbEntity
  8
0
100
AcDbLine
 62
7
  6
CONTINUOUS
 10
16.7653363608
 20
43.0723090809
 11
17.8407606382
 21
42.451426631
  0
LINE
  5
28D
100
AcDbEntity
  8
0
100
AcDbLine
 62
7
  6
CONTINUOUS
 10
34.2556082709
 20
33.856037499
 11
33.7924413811
 21
34.123440978
  0
LINE
  5
28E
100
AcDbEntity
  8
0
100
AcDbLine
 62
7
  6
CONTINUOUS
 10
31.4731291473
 20
42.7456594253
 11
31.4731291473
 21
43.7254623259
  0
LINE
  5
28F
100
AcDbEntity
  8
0
100
AcDbLine
 62
7
  6
CONTINUOUS
 10
33.240915236
 20
21.965734062
 11
33.240915236
 21
33.8050191103
  0
LINE
  5
290
100
AcDbEntity
  8
0
100
AcDbLine
 62
7
  6
CONTINUOUS
 10
33.8348699768
 20
25.2970208794
 11
33.8348699768
 21
26.7994137619
  0
LINE
  5
291
100
AcDbEntity
  8
0
100
AcDbLine
 62
7
  6
CONTINUOUS
 10
34.0187218026
 20
22.7413808367
 11
34.0187218026
 21
23.9661344624
  0
LINE
  5
292
100
AcDbEntity
  8
0
100
AcDbLine
 62
7
  6
CONTINUOUS
 10
34.2237803257
 20
25.0724884644
 11
34.2237803257
 21
26.5748813469
  0
LINE
  5
293
100
AcDbEntity
  8
0
100
AcDbLine
 62
7
  6
CONTINUOUS
 10
34.2556082709
 20
26.5565058898
 11
34.2556082709
 21
33.856037499
  0
LINE
  5
294
100
AcDbEntity
  8
0
100
AcDbLine
 62
7
  6
CONTINUOUS
 10
33.240915236
 20
25.5883719574
 11
33.8348699768
 21
26.0028927201
  0
LINE
  5
295
100
AcDbEntity
  8
0
100
AcDbLine
 62
7
  6
CONTINUOUS
 10
35.0872168036
 20
26.8769050413
 11
35.2591554726
 21
26.9969009658
  0
LINE
  5
296
100
AcDbEntity
  8
0
100
AcDbLine
 62
7
  6
CONTINUOUS
 10
38.7457176372
 20
29.1488562669
 11
34.2556082709
 21
26.5565058898
  0
LINE
  5
297
100
AcDbEntity
  8
0
100
AcDbLine
 62
7
  6
CONTINUOUS
 10
14.6296563577
 20
48.1318802703
 11
13.7811246875
 21
48.6217691758
  0
LINE
  5
298
100
AcDbEntity
  8
0
100
AcDbLine
 62
7
  6
CONTINUOUS
 10
21.4179097191
 20
44.212769027
 11
22.2664413893
 21
43.7228801215
  0
LINE
  5
299
100
AcDbEntity
  8
0
100
AcDbLine
 62
7
  6
CONTINUOUS
 10
20.2301610606
 20
44.9150562358
 11
15.8460807646
 21
47.4461489138
  0
LINE
  5
29A
100
AcDbEntity
  8
0
100
AcDbLine
 62
7
  6
CONTINUOUS
 10
27.9376099612
 20
41.6842415565
 11
29.4225269428
 21
40.8269437321
  0
LINE
  5
29B
100
AcDbEntity
  8
0
100
AcDbLine
 62
7
  6
CONTINUOUS
 10
22.4929033491
 20
44.8334131839
 11
21.2908168164
 21
45.5274224666
  0
LINE
  5
29C
100
AcDbEntity
  8
0
100
AcDbLine
 62
7
  6
CONTINUOUS
 10
16.9067365205
 20
48.0585151446
 11
15.7046499877
 21
48.7525244273
  0
LINE
  5
29D
100
AcDbEntity
  8
0
100
AcDbLine
 62
7
  6
CONTINUOUS
 10
35.9986202011
 20
19.3937239347
 11
35.9986202011
 21
22.5780833615
  0
LINE
  5
29E
100
AcDbEntity
  8
0
100
AcDbLine
 62
7
  6
CONTINUOUS
 10
34.4696001215
 20
25.2144117425
 11
33.2866150265
 21
24.3888069445
  0
LINE
  5
29F
100
AcDbEntity
  8
0
100
AcDbLine
 62
7
  6
CONTINUOUS
 10
34.2237803257
 20
25.0724884644
 11
36.7905672547
 21
26.5544147429
  0
LINE
  5
2A0
100
AcDbEntity
  8
0
100
AcDbLine
 62
7
  6
CONTINUOUS
 10
34.0187218026
 20
23.9661344624
 11
33.240915236
 21
23.5170703123
  0
LINE
  5
2A1
100
AcDbEntity
  8
0
100
AcDbLine
 62
7
  6
CONTINUOUS
 10
24.5534377632
 20
45.043270212
 11
29.2059852146
 21
42.4165339793
  0
LINE
  5
2A2
100
AcDbEntity
  8
0
100
AcDbLine
 62
7
  6
CONTINUOUS
 10
28.3574535444
 20
42.9064228847
 11
23.704906093
 21
45.5331591174
  0
LINE
  5
2A3
100
AcDbEntity
  8
0
100
AcDbLine
 62
7
  6
CONTINUOUS
 10
16.9166527316
 20
49.4522703608
 11
21.4918211337
 21
46.8692208083
  0
LINE
  5
2A4
100
AcDbEntity
  8
0
100
AcDbLine
 62
7
  6
CONTINUOUS
 10
20.7206685128
 20
47.3154230335
 11
16.0681210614
 21
49.9421592662
  0
LINE
  5
2A5
100
AcDbEntity
  8
0
100
AcDbLine
 62
7
  6
CONTINUOUS
 10
38.7457176372
 20
36.4483878761
 11
38.2825507474
 21
36.7157913551
  0
LINE
  5
2A6
100
AcDbEntity
  8
black
100
AcDbLine
 62
7
  6
CONTINUOUS
 10
34.3015698142
 20
39.2347461005
 11
34.3722807867
 21
39.193922025
  0
LINE
  5
2A7
100
AcDbEntity
  8
0
100
AcDbLine
 62
7
  6
CONTINUOUS
 10
16.906726511
 20
49.4465394889
 11
23.6949798724
 21
45.5274282455
  0
LINE
  5
2A8
100
AcDbEntity
  8
0
100
AcDbLine
 62
7
  6
CONTINUOUS
 10
16.9166527316
 20
49.4522703608
 11
16.0681210614
 21
49.9421592662
  0
LINE
  5
2A9
100
AcDbEntity
  8
0
100
AcDbLine
 62
7
  6
CONTINUOUS
 10
23.704906093
 20
45.5331591174
 11
24.5534377632
 21
45.043270212
  0
LINE
  5
2AA
100
AcDbEntity
  8
0
100
AcDbLine
 62
7
  6
CONTINUOUS
 10
29.2059852146
 20
42.4165339793
 11
28.3574535444
 21
42.9064228847
  0
LINE
  5
2AB
100
AcDbEntity
  8
0
100
AcDbLine
 62
7
  6
CONTINUOUS
 10
20.7206685128
 20
47.3154230335
 11
21.4926760204
 21
46.8697143744
  0
LINE
  5
2AC
100
AcDbEntity
  8
0
100
AcDbLine
 62
7
  6
CONTINUOUS
 10
36.7905672547
 20
26.5544147429
 11
36.7905672547
 21
28.0200564053
  0
LINE
  5
2AD
100
AcDbEntity
  8
0
100
AcDbLine
 62
7
  6
CONTINUOUS
 10
37.8370901779
 20
43.6674789133
 11
37.8370901779
 21
44.6236302818
  0
LINE
  5
2AE
100
AcDbEntity
  8
0
100
AcDbLine
 62
7
  6
CONTINUOUS
 10
33.240915236
 20
22.2923166866
 11
34.0187218026
 21
22.7413808367
  0
LINE
  5
2AF
100
AcDbEntity
  8
0
100
AcDbLine
 62
7
  6
CONTINUOUS
 10
33.3116179654
 20
22.0881859577
 11
33.240915236
 21
22.0473659615
  0
LINE
  5
2B0
100
AcDbEntity
  8
0
100
AcDbLine
 62
7
  6
CONTINUOUS
 10
30.4124998871
 20
20.3327574465
 11
33.240915236
 21
21.965734062
  0
LINE
  5
2B1
100
AcDbEntity
  8
0
100
AcDbLine
 62
7
  6
CONTINUOUS
 10
35.9986202011
 20
22.5780833615
 11
30.4124998871
 21
19.3529545459
  0
LINE
  5
2B2
100
AcDbEntity
  8
0
100
AcDbLine
 62
7
  6
CONTINUOUS
 10
22.1392661122
 20
48.1344458505
 11
20.725061325
 21
48.950918894
  0
LINE
  5
2B3
100
AcDbEntity
  8
0
100
AcDbLine
 62
7
  6
CONTINUOUS
 10
31.4731291473
 20
42.7456594253
 11
32.1094997956
 21
42.3782589719
  0
LINE
  5
2B4
100
AcDbEntity
  8
0
100
AcDbLine
 62
7
  6
CONTINUOUS
 10
32.2221953907
 20
42.4433234157
 11
31.4731291473
 21
42.8757872293
  0
LINE
  5
2B5
100
AcDbEntity
  8
0
100
AcDbLine
 62
7
  6
CONTINUOUS
 10
31.4731291473
 20
43.7254623259
 11
30.058909697
 21
44.5419438349
  0
LINE
  5
2B6
100
AcDbEntity
  8
0
100
AcDbLine
 62
7
  6
CONTINUOUS
 10
22.9878124455
 20
48.6243513801
 11
23.7598199531
 21
48.178642721
  0
LINE
  5
2B7
100
AcDbEntity
  8
0
100
AcDbLine
 62
7
  6
CONTINUOUS
 10
30.058909697
 20
45.1951457686
 11
25.7428366405
 21
47.6869753369
  0
LINE
  5
2B8
100
AcDbEntity
  8
0
100
AcDbLine
 62
7
  6
CONTINUOUS
 10
38.7457176372
 20
29.1488562669
 11
38.7457176372
 21
36.4483878761
  0
LINE
  5
2B9
100
AcDbEntity
  8
0
100
AcDbLine
 62
7
  6
CONTINUOUS
 10
38.8977382794
 20
43.4704792764
 11
38.8977382794
 21
45.0726732678
  0
LINE
  5
2BA
100
AcDbEntity
  8
0
100
AcDbLine
 62
7
  6
CONTINUOUS
 10
39.8169809221
 20
44.5419602869
 11
39.8169809221
 21
42.9089554527
  0
LINE
  5
2BB
100
AcDbEntity
  8
0
100
AcDbLine
 62
7
  6
CONTINUOUS
 10
35.0936692154
 20
45.7506713323
 11
34.8157003073
 21
45.8437789697
  0
LINE
  5
2BC
100
AcDbEntity
  8
0
100
AcDbLine
 62
7
  6
CONTINUOUS
 10
40.4533743756
 20
37.9691094798
 11
40.4533743756
 21
44.9093800254
  0
LINE
  5
2BD
100
AcDbEntity
  8
0
100
AcDbLine
 62
7
  6
CONTINUOUS
 10
35.9986202011
 20
19.3937239347
 11
20.8018204777
 21
10.6198998962
  0
LINE
  5
2BE
100
AcDbEntity
  8
0
100
AcDbLine
 62
7
  6
CONTINUOUS
 10
39.8169809221
 20
42.9089554527
 11
38.9704283401
 21
43.3977017568
  0
LINE
  5
2BF
100
AcDbEntity
  8
0
100
AcDbLine
 62
7
  6
CONTINUOUS
 10
34.81570031
 20
45.8437789693
 11
31.2094407118
 21
47.9258068174
  0
LINE
  5
2C0
100
AcDbEntity
  8
0
100
AcDbLine
 62
7
  6
CONTINUOUS
 10
23.9070285925
 20
52.2091628335
 11
31.2927578136
 21
47.9451065454
  0
LINE
  5
2C1
100
AcDbEntity
  8
0
100
AcDbLine
 62
7
  6
CONTINUOUS
 10
35.0936811889
 20
45.7506920558
 11
36.5222325444
 21
44.9259362046
  0
LINE
  5
2C2
100
AcDbEntity
  8
0
100
AcDbLine
 62
7
  6
CONTINUOUS
 10
37.8370901779
 20
44.1668199695
 11
38.6999407872
 21
43.6686642077
  0
LINE
  5
2C3
100
AcDbEntity
  8
0
100
AcDbLine
 62
7
  6
CONTINUOUS
 10
37.8370901779
 20
44.273294136
 11
38.8977382794
 21
43.6609425223
  0
LINE
  5
2C4
100
AcDbEntity
  8
0
100
AcDbLine
 62
7
  6
CONTINUOUS
 10
37.8370901779
 20
44.3755223459
 11
38.8977382794
 21
43.7631707322
  0
LINE
  5
2C5
100
AcDbEntity
  8
0
100
AcDbLine
 62
7
  6
CONTINUOUS
 10
23.9070285925
 20
52.6659731458
 11
22.9877859498
 21
53.1966861267
  0
LINE
  5
2C6
100
AcDbEntity
  8
0
100
AcDbLine
 62
7
  6
CONTINUOUS
 10
36.9178475352
 20
45.1543432627
 11
37.8370901779
 21
44.6236302818
  0
LINE
  5
2C7
100
AcDbEntity
  8
0
100
AcDbLine
 62
7
  6
CONTINUOUS
 10
38.8977382794
 20
44.4463645521
 11
37.7904289801
 21
45.0856554115
  0
LINE
  5
2C8
100
AcDbEntity
  8
0
100
AcDbLine
 62
7
  6
CONTINUOUS
 10
38.8977382794
 20
44.4871182421
 11
37.8611790771
 21
45.085562438
  0
LINE
  5
2C9
100
AcDbEntity
  8
0
100
AcDbLine
 62
7
  6
CONTINUOUS
 10
36.0637834573
 20
46.4259727874
 11
32.4575238591
 21
48.5080006355
  0
LINE
  5
2CA
100
AcDbEntity
  8
0
100
AcDbLine
 62
7
  6
CONTINUOUS
 10
24.967676694
 20
53.1150161319
 11
25.8869193367
 21
52.584303151
  0
LINE
  5
2CB
100
AcDbEntity
  8
0
100
AcDbLine
 62
7
  6
CONTINUOUS
 10
38.8977382794
 20
45.0726732678
 11
39.8169809221
 21
44.5419602869
  0
LINE
  5
2CC
100
AcDbEntity
  8
0
100
AcDbLine
 62
7
  6
CONTINUOUS
 10
40.4533743756
 20
44.9093800254
 11
39.5341317329
 21
45.4400930063
  0
LINE
  5
2CD
100
AcDbEntity
  8
0
100
AcDbLine
 62
7
  6
CONTINUOUS
 10
26.5233127902
 20
52.9517228895
 11
25.6040701475
 21
53.4824358703
  0
LINE
  5
2CE
100
AcDbEntity
  8
0
100
AcDbLine
 62
7
  6
CONTINUOUS
 10
40.032597725
 20
46.2682882104
 11
40.6485590983
 21
44.2799413209
  0
LINE
  5
2CF
100
AcDbEntity
  8
0
100
AcDbLine
 62
7
  6
CONTINUOUS
 10
35.6314277433
 20
49.4226166589
 11
39.2376873415
 21
47.3405888108
  0
ARC
  5
2D0
100
AcDbEntity
  8
0
100
AcDbCircle
 62
7
  6
CONTINUOUS
 10
36.9997743443
 20
42.6853746921
 40
2.145458143
100
AcDbArc
 50
355.507330523
 51
359.9746109118
  0
ARC
  5
2D1
100
AcDbEntity
  8
0
100
AcDbCircle
 62
7
  6
CONTINUOUS
 10
37.869078576
 20
43.4153350125
 40
1.6797942437
100
AcDbArc
 50
52.0127298564
 51
59.9831511252
  0
ARC
  5
2D2
100
AcDbEntity
  8
0
100
AcDbCircle
 62
7
  6
CONTINUOUS
 10
34.8505698053
 20
27.3260436347
 40
0.5351562299
100
AcDbArc
 50
296.2931125286
 51
300.0142824961
  0
ARC
  5
2D3
100
AcDbEntity
  8
0
100
AcDbCircle
 62
7
  6
CONTINUOUS
 10
37.2259524848
 20
41.2822618927
 40
0.346423024
100
AcDbArc
 50
247.0963862154
 51
253.3497660521
  0
SPLINE
  5
2D4
100
AcDbEntity
  8
0
100
AcDbSpline
 62
7
  6
CONTINUOUS
 70
0
 71
3
 72
12
 73
8
 74
0
 42
0.0000001
 43
0.0000001
 44
0.0000000001
 40
0.0
 40
0.0
 40
0.0
 40
0.0
 40
0.1081709623
 40
0.2183741467
 40
0.4513254879
 40
0.7105157861
 40
1.0
 40
1.0
 40
1.0
 40
1.0
 10
34.9429807809
 20
40.0191239299
 30
0.0
 10
34.9265848331
 20
40.0285899123
 30
0.0
 10
34.8917615734
 20
40.0448697771
 30
0.0
 10
34.8153355743
 20
40.0660422021
 30
0.0
 10
34.7082509578
 20
40.0689011806
 30
0.0
 10
34.5741814684
 20
40.036444139
 30
0.0
 10
34.4868699606
 20
39.9949333068
 30
0.0
 10
34.4429917593
 20
39.9696003667
 30
0.0
  0
SPLINE
  5
2D5
100
AcDbEntity
  8
0
100
AcDbSpline
 62
7
  6
CONTINUOUS
 70
0
 71
3
 72
12
 73
8
 74
0
 42
0.0000001
 43
0.0000001
 44
0.0000000001
 40
0.0
 40
0.0
 40
0.0
 40
0.0
 40
0.1081709623
 40
0.2183741467
 40
0.4513254879
 40
0.7105157861
 40
1.0
 40
1.0
 40
1.0
 40
1.0
 10
38.1249480483
 20
42.6727250394
 30
0.0
 10
38.1085521005
 20
42.6821910219
 30
0.0
 10
38.0737288409
 20
42.6984708866
 30
0.0
 10
37.9973028417
 20
42.7196433117
 30
0.0
 10
37.8902182253
 20
42.7225022902
 30
0.0
 10
37.7561487359
 20
42.6900452485
 30
0.0
 10
37.668837228
 20
42.6485344164
 30
0.0
 10
37.6249590267
 20
42.6232014762
 30
0.0
  0
SPLINE
  5
2D6
100
AcDbEntity
  8
0
100
AcDbSpline
 62
7
  6
CONTINUOUS
 70
0
 71
3
 72
13
 73
9
 74
0
 42
0.0000001
 43
0.0000001
 44
0.0000000001
 40
0.0
 40
0.0
 40
0.0
 40
0.0
 40
0.1128841818
 40
0.2271259375
 40
0.3439885723
 40
0.4646135523
 40
0.7204870551
 40
1.0
 40
1.0
 40
1.0
 40
1.0
 10
17.7324845302
 20
40.7439417312
 30
0.0
 10
17.6999070122
 20
40.725131033
 30
0.0
 10
17.6316875606
 20
40.691717703
 30
0.0
 10
17.5226227407
 20
40.6554151994
 30
0.0
 10
17.4072513308
 20
40.6329794818
 30
0.0
 10
17.2428798989
 20
40.6215375029
 30
0.0
 10
17.023710417
 20
40.6445430769
 30
0.0
 10
16.8521119379
 20
40.6968920266
 30
0.0
 10
16.7653363608
 20
40.7307495435
 30
0.0
  0
SPLINE
  5
2D7
100
AcDbEntity
  8
0
100
AcDbSpline
 62
7
  6
CONTINUOUS
 70
0
 71
3
 72
12
 73
8
 74
0
 42
0.0000001
 43
0.0000001
 44
0.0000000001
 40
0.0
 40
0.0
 40
0.0
 40
0.0
 40
0.1081682869
 40
0.2183546418
 40
0.4513100563
 40
0.7105879139
 40
1.0
 40
1.0
 40
1.0
 40
1.0
 10
25.5716474667
 20
47.0885251575
 30
0.0
 10
25.5868102983
 20
47.0972874031
 30
0.0
 10
25.6159615701
 20
47.1176413317
 30
0.0
 10
25.6682912146
 20
47.1690519397
 30
0.0
 10
25.7201050219
 20
47.2535376701
 30
0.0
 10
25.7560907289
 20
47.3759592025
 30
0.0
 10
25.7632357805
 20
47.4651043755
 30
0.0
 10
25.7632357805
 20
47.5119603951
 30
0.0
  0
SPLINE
  5
2D8
100
AcDbEntity
  8
0
100
AcDbSpline
 62
7
  6
CONTINUOUS
 70
0
 71
3
 72
15
 73
11
 74
0
 42
0.0000001
 43
0.0000001
 44
0.0000000001
 40
0.0
 40
0.0
 40
0.0
 40
0.0
 40
0.1141229605
 40
0.2373462928
 40
0.366971064
 40
0.4999983279
 40
0.633025824
 40
0.762651271
 40
0.8858756957
 40
1.0
 40
1.0
 40
1.0
 40
1.0
 10
37.6249590267
 20
42.6232014762
 30
0.0
 10
37.5765655854
 20
42.5952616766
 30
0.0
 10
37.4809584405
 20
42.5282153796
 30
0.0
 10
37.3493808322
 20
42.4051581851
 30
0.0
 10
37.2281520794
 20
42.2596385456
 30
0.0
 10
37.1217901888
 20
42.0972119522
 30
0.0
 10
37.0343062594
 20
41.923885844
 30
0.0
 10
36.9688973115
 20
41.7461376676
 30
0.0
 10
36.9281155618
 20
41.5706579417
 30
0.0
 10
36.9178551895
 20
41.4543354126
 30
0.0
 10
36.9178551895
 20
41.3984549052
 30
0.0
  0
SPLINE
  5
2D9
100
AcDbEntity
  8
0
100
AcDbSpline
 62
7
  6
CONTINUOUS
 70
0
 71
3
 72
12
 73
8
 74
0
 42
0.0000001
 43
0.0000001
 44
0.0000000001
 40
0.0
 40
0.0
 40
0.0
 40
0.0
 40
0.2894856789
 40
0.5486764212
 40
0.7816271842
 40
0.8918297651
 40
1.0
 40
1.0
 40
1.0
 40
1.0
 10
36.9178551895
 20
41.3984549052
 30
0.0
 10
36.9178551895
 20
41.3477865321
 30
0.0
 10
36.925561616
 20
41.2514129467
 30
0.0
 10
36.9644893304
 20
41.1190713324
 30
0.0
 10
37.0205101853
 20
41.0277594972
 30
0.0
 10
37.0770616714
 20
40.97215749
 30
0.0
 10
37.1085735172
 20
40.950139373
 30
0.0
 10
37.1249700051
 20
40.9406730788
 30
0.0
  0
SPLINE
  5
2DA
100
AcDbEntity
  8
0
100
AcDbSpline
 62
7
  6
CONTINUOUS
 70
0
 71
3
 72
15
 73
11
 74
0
 42
0.0000001
 43
0.0000001
 44
0.0000000001
 40
0.0
 40
0.0
 40
0.0
 40
0.0
 40
0.1141229605
 40
0.2373462928
 40
0.366971064
 40
0.4999983279
 40
0.633025824
 40
0.762651271
 40
0.8858756957
 40
1.0
 40
1.0
 40
1.0
 40
1.0
 10
34.4429917593
 20
39.9696003667
 30
0.0
 10
34.3945983179
 20
39.9416605671
 30
0.0
 10
34.298991173
 20
39.87461427
 30
0.0
 10
34.1674135647
 20
39.7515570756
 30
0.0
 10
34.046184812
 20
39.606037436
 30
0.0
 10
33.9398229214
 20
39.4436108427
 30
0.0
 10
33.8523389919
 20
39.2702847345
 30
0.0
 10
33.786930044
 20
39.092536558
 30
0.0
 10
33.7461482943
 20
38.9170568322
 30
0.0
 10
33.735887922
 20
38.8007343031
 30
0.0
 10
33.735887922
 20
38.7448537957
 30
0.0
  0
SPLINE
  5
2DB
100
AcDbEntity
  8
0
100
AcDbSpline
 62
7
  6
CONTINUOUS
 70
0
 71
3
 72
12
 73
8
 74
0
 42
0.0000001
 43
0.0000001
 44
0.0000000001
 40
0.0
 40
0.0
 40
0.0
 40
0.0
 40
0.2894856789
 40
0.5486764212
 40
0.7816271842
 40
0.8918297651
 40
1.0
 40
1.0
 40
1.0
 40
1.0
 10
33.735887922
 20
38.7448537957
 30
0.0
 10
33.735887922
 20
38.6941854226
 30
0.0
 10
33.7435943486
 20
38.5978118372
 30
0.0
 10
33.7825220629
 20
38.4654702229
 30
0.0
 10
33.8385429178
 20
38.3741583877
 30
0.0
 10
33.8950944039
 20
38.3185563805
 30
0.0
 10
33.9266062498
 20
38.2965382635
 30
0.0
 10
33.9430027377
 20
38.2870719692
 30
0.0
  0
SPLINE
  5
2DC
100
AcDbEntity
  8
0
100
AcDbSpline
 62
7
  6
CONTINUOUS
 70
0
 71
3
 72
13
 73
9
 74
0
 42
0.0000001
 43
0.0000001
 44
0.0000000001
 40
0.0
 40
0.0
 40
0.0
 40
0.0
 40
0.1166794354
 40
0.2342525203
 40
0.3535631186
 40
0.4753936082
 40
0.7290742739
 40
1.0
 40
1.0
 40
1.0
 40
1.0
 10
38.7094034558
 20
44.8698324506
 30
0.0
 10
38.6578791045
 20
44.8995801687
 30
0.0
 10
38.5511396784
 20
44.9537913418
 30
0.0
 10
38.3823227266
 20
45.0179545341
 30
0.0
 10
38.2052102591
 20
45.0649414331
 30
0.0
 10
37.9557154338
 20
45.1049371774
 30
0.0
 10
37.6241736832
 20
45.1093299065
 30
0.0
 10
37.3587263929
 20
45.0673991112
 30
0.0
 10
37.2241369673
 20
45.0362542955
 30
0.0
  0
SPLINE
  5
2DD
100
AcDbEntity
  8
0
100
AcDbSpline
 62
7
  6
CONTINUOUS
 70
0
 71
3
 72
11
 73
7
 74
0
 42
0.0000001
 43
0.0000001
 44
0.0000000001
 40
0.0
 40
0.0
 40
0.0
 40
0.0
 40
0.2342597209
 40
0.4753307122
 40
0.7292385424
 40
1.0
 40
1.0
 40
1.0
 40
1.0
 10
39.2376720432
 20
47.3405623038
 30
0.0
 10
39.32997914
 20
47.2872692297
 30
0.0
 10
39.5061668671
 20
47.1585665401
 30
0.0
 10
39.7291025408
 20
46.9099386386
 30
0.0
 10
39.9091126448
 20
46.6094795853
 30
0.0
 10
39.9961428752
 20
46.3859658607
 30
0.0
 10
40.032597725
 20
46.2682882104
 30
0.0
  0
SPLINE
  5
2DE
100
AcDbEntity
  8
0
100
AcDbSpline
 62
7
  6
CONTINUOUS
 70
0
 71
3
 72
16
 73
12
 74
0
 42
0.0000001
 43
0.0000001
 44
0.0000000001
 40
0.0
 40
0.0
 40
0.0
 40
0.0
 40
0.0498511631
 40
0.1001511829
 40
0.2036279557
 40
0.3135295259
 40
0.4318936289
 40
0.5598037979
 40
0.6974947903
 40
0.8446101402
 40
1.0
 40
1.0
 40
1.0
 40
1.0
 10
35.6314124424
 20
49.4225901474
 30
0.0
 10
35.5807382066
 20
49.4518466792
 30
0.0
 10
35.4753781605
 20
49.5047126329
 30
0.0
 10
35.2503401865
 20
49.5865392226
 30
0.0
 10
34.9429999104
 20
49.6414432322
 30
0.0
 10
34.5514748402
 20
49.6298748972
 30
0.0
 10
34.1405110502
 20
49.5433833405
 30
0.0
 10
33.7172739903
 20
49.3842759567
 30
0.0
 10
33.2887631697
 20
49.1557809162
 30
0.0
 10
32.8625068623
 20
48.8621188628
 30
0.0
 10
32.5912344042
 20
48.6320486426
 30
0.0
 10
32.4575238586
 20
48.5080006351
 30
0.0
  0
SPLINE
  5
2DF
100
AcDbEntity
  8
0
100
AcDbSpline
 62
7
  6
CONTINUOUS
 70
0
 71
3
 72
14
 73
10
 74
0
 42
0.0000001
 43
0.0000001
 44
0.0000000001
 40
0.0
 40
0.0
 40
0.0
 40
0.0
 40
0.1080514341
 40
0.2181432057
 40
0.3321064789
 40
0.4514774763
 40
0.5774304085
 40
0.7107770965
 40
1.0
 40
1.0
 40
1.0
 40
1.0
 10
38.6999296486
 20
43.6686448296
 30
0.0
 10
38.7351855586
 20
43.6483001668
 30
0.0
 10
38.8029723654
 20
43.6010151722
 30
0.0
 10
38.8924896574
 20
43.5128530922
 30
0.0
 10
38.9695349976
 20
43.4082892826
 30
0.0
 10
39.0332859057
 20
43.288406873
 30
0.0
 10
39.0833440912
 20
43.154420992
 30
0.0
 10
39.1324731983
 20
42.9533441686
 30
0.0
 10
39.1452322767
 20
42.7933792654
 30
0.0
 10
39.1452322767
 20
42.6844239899
 30
0.0
  0
SPLINE
  5
2E0
100
AcDbEntity
  8
0
100
AcDbSpline
 62
7
  6
CONTINUOUS
 70
0
 71
3
 72
11
 73
7
 74
0
 42
0.0000001
 43
0.0000001
 44
0.0000000001
 40
0.0
 40
0.0
 40
0.0
 40
0.0
 40
0.2643249854
 40
0.5245807508
 40
0.7723747531
 40
1.0
 40
1.0
 40
1.0
 40
1.0
 10
35.4541994705
 20
27.2473046196
 30
0.0
 10
35.4343940574
 20
27.206243763
 30
0.0
 10
35.3896456607
 20
27.1272632909
 30
0.0
 10
35.3091869754
 20
27.020600708
 30
0.0
 10
35.2191114013
 20
26.9306473302
 30
0.0
 10
35.1522621337
 20
26.882280497
 30
0.0
 10
35.1182634414
 20
26.86265146
 30
0.0
  0
SPLINE
  5
2E1
100
AcDbEntity
  8
0
100
AcDbSpline
 62
7
  6
CONTINUOUS
 70
0
 71
3
 72
11
 73
7
 74
0
 42
0.0000001
 43
0.0000001
 44
0.0000000001
 40
0.0
 40
0.0
 40
0.0
 40
0.0
 40
0.2895411595
 40
0.5491183966
 40
0.7822559144
 40
1.0
 40
1.0
 40
1.0
 40
1.0
 10
35.0829114879
 20
26.8830740029
 30
0.0
 10
35.0829114879
 20
26.8526906918
 30
0.0
 10
35.0875507128
 20
26.7948765804
 30
0.0
 10
35.1109225776
 20
26.7154298824
 30
0.0
 10
35.1503465164
 20
26.6509412003
 30
0.0
 10
35.1874075574
 20
26.6198557963
 30
0.0
 10
35.2071956657
 20
26.6084313885
 30
0.0
  0
SPLINE
  5
2E2
100
AcDbEntity
  8
0
100
AcDbSpline
 62
7
  6
CONTINUOUS
 70
0
 71
3
 72
9
 73
5
 74
0
 42
0.0000001
 43
0.0000001
 44
0.0000000001
 40
0.0
 40
0.0
 40
0.0
 40
0.0
 40
0.5173053399
 40
1.0
 40
1.0
 40
1.0
 40
1.0
 10
35.1058292966
 20
27.0551408631
 30
0.0
 10
35.0984672882
 20
27.0260697808
 30
0.0
 10
35.0872285002
 20
26.9690618986
 30
0.0
 10
35.0829114879
 20
26.9110563634
 30
0.0
 10
35.0829114879
 20
26.8830740029
 30
0.0
  0
SPLINE
  5
2E3
100
AcDbEntity
  8
0
100
AcDbSpline
 62
7
  6
CONTINUOUS
 70
0
 71
3
 72
15
 73
11
 74
0
 42
0.0000001
 43
0.0000001
 44
0.0000000001
 40
0.0
 40
0.0
 40
0.0
 40
0.0
 40
0.148518711
 40
0.2894988799
 40
0.4227457388
 40
0.5486486734
 40
0.6679959493
 40
0.7819395515
 40
0.8919877187
 40
1.0
 40
1.0
 40
1.0
 40
1.0
 10
14.7147181579
 20
43.9296063021
 30
0.0
 10
14.7147181579
 20
43.994685095
 30
0.0
 10
14.7199924247
 20
44.1216249346
 30
0.0
 10
14.7449452735
 20
44.3054719345
 30
0.0
 10
14.7867061219
 20
44.4761296244
 30
0.0
 10
14.8448661908
 20
44.6319059256
 30
0.0
 10
14.9190425325
 20
44.7712916031
 30
0.0
 10
15.0085699869
 20
44.8929358592
 30
0.0
 10
15.1127133482
 20
44.9954032875
 30
0.0
 10
15.1915130273
 20
45.0504004322
 30
0.0
 10
15.2325004112
 20
45.0740671004
 30
0.0
  0
SPLINE
  5
2E4
100
AcDbEntity
  8
0
100
AcDbSpline
 62
7
  6
CONTINUOUS
 70
0
 71
3
 72
15
 73
11
 74
0
 42
0.0000001
 43
0.0000001
 44
0.0000000001
 40
0.0
 40
0.0
 40
0.0
 40
0.0
 40
0.120002097
 40
0.2464893248
 40
0.3770616383
 40
0.5091218054
 40
0.6399409986
 40
0.7668700214
 40
0.8875489805
 40
1.0
 40
1.0
 40
1.0
 40
1.0
 10
16.1996485807
 20
41.0573421471
 30
0.0
 10
16.0937514173
 20
41.1383006423
 30
0.0
 10
15.8873280521
 20
41.3194368116
 30
0.0
 10
15.6057860139
 20
41.6305888301
 30
0.0
 10
15.350845406
 20
41.9806053652
 30
0.0
 10
15.1302558464
 20
42.3587557008
 30
0.0
 10
14.950735513
 20
42.7536212949
 30
0.0
 10
14.8176651794
 20
43.153263554
 30
0.0
 10
14.7351599754
 20
43.5455199612
 30
0.0
 10
14.7147181579
 20
43.8046955601
 30
0.0
 10
14.7147181579
 20
43.9296063021
 30
0.0
  0
SPLINE
  5
2E5
100
AcDbEntity
  8
0
100
AcDbSpline
 62
7
  6
CONTINUOUS
 70
0
 71
3
 72
9
 73
5
 74
0
 42
0.0000001
 43
0.0000001
 44
0.0000000001
 40
0.0
 40
0.0
 40
0.0
 40
0.0
 40
0.2449797762
 40
1.0
 40
1.0
 40
1.0
 40
1.0
 10
16.7652915156
 20
41.1143540897
 30
0.0
 10
16.7474025435
 20
41.1255096675
 30
0.0
 10
16.674959022
 20
41.1719705344
 30
0.0
 10
16.6048189406
 20
41.2220018702
 30
0.0
 10
16.5532004993
 20
41.2614642241
 30
0.0
  0
SPLINE
  5
2E6
100
AcDbEntity
  8
0
100
AcDbSpline
 62
7
  6
CONTINUOUS
 70
0
 71
3
 72
20
 73
16
 74
0
 42
0.0000001
 43
0.0000001
 44
0.0000000001
 40
0.0
 40
0.0
 40
0.0
 40
0.0
 40
0.0623646044
 40
0.1288050383
 40
0.2703051791
 40
0.4173629131
 40
0.5616119072
 40
0.6302495432
 40
0.6953765372
 40
0.7563593032
 40
0.8128296619
 40
0.8647616635
 40
0.9125646663
 40
0.9571664617
 40
1.0
 40
1.0
 40
1.0
 40
1.0
 10
25.7632357805
 20
47.5119603951
 30
0.0
 10
25.7632357805
 20
47.5503007458
 30
0.0
 10
25.7579991205
 20
47.6295410892
 30
0.0
 10
25.7289203379
 20
47.7934054713
 30
0.0
 10
25.6585224102
 20
48.0014577488
 30
0.0
 10
25.5313666519
 20
48.2364424184
 30
0.0
 10
25.3943885513
 20
48.411875932
 30
0.0
 10
25.271111196
 20
48.5306033985
 30
0.0
 10
25.1766582299
 20
48.6045665979
 30
0.0
 10
25.0806627771
 20
48.6632812969
 30
0.0
 10
24.9850920396
 20
48.7055309308
 30
0.0
 10
24.8918331245
 20
48.7302997418
 30
0.0
 10
24.8027253997
 20
48.7368689731
 30
0.0
 10
24.719745103
 20
48.724705892
 30
0.0
 10
24.6694710316
 20
48.7038165738
 30
0.0
 10
24.6466711028
 20
48.6906410285
 30
0.0
  0
SPLINE
  5
2E7
100
AcDbEntity
  8
0
100
AcDbSpline
 62
7
  6
CONTINUOUS
 70
0
 71
3
 72
11
 73
7
 74
0
 42
0.0000001
 43
0.0000001
 44
0.0000000001
 40
0.0
 40
0.0
 40
0.0
 40
0.0
 40
0.2276785748
 40
0.475389294
 40
0.7356436097
 40
1.0
 40
1.0
 40
1.0
 40
1.0
 10
40.671408275
 20
44.1153184768
 30
0.0
 10
40.671408275
 20
44.0663576934
 30
0.0
 10
40.6609015678
 20
43.9640244566
 30
0.0
 10
40.6199869053
 20
43.8106712871
 30
0.0
 10
40.5551018639
 20
43.6572585026
 30
0.0
 10
40.4978428872
 20
43.5596174121
 30
0.0
 10
40.4658936385
 20
43.5125966426
 30
0.0
  0
SPLINE
  5
2E8
100
AcDbEntity
  8
0
100
AcDbSpline
 62
7
  6
CONTINUOUS
 70
0
 71
3
 72
9
 73
5
 74
0
 42
0.0000001
 43
0.0000001
 44
0.0000000001
 40
0.0
 40
0.0
 40
0.0
 40
0.0
 40
0.2349907853
 40
1.0
 40
1.0
 40
1.0
 40
1.0
 10
40.6485590983
 20
44.2799413209
 30
0.0
 10
40.6524198639
 20
44.2674786218
 30
0.0
 10
40.6664539296
 20
44.2137037249
 30
0.0
 10
40.671408275
 20
44.1577928239
 30
0.0
 10
40.671408275
 20
44.1153184768
 30
0.0
  0
SPLINE
  5
2E9
100
AcDbEntity
  8
0
100
AcDbSpline
 62
7
  6
CONTINUOUS
 70
0
 71
3
 72
12
 73
8
 74
0
 42
0.0000001
 43
0.0000001
 44
0.0000000001
 40
0.0
 40
0.0
 40
0.0
 40
0.0
 40
0.2872615968
 40
0.5506205095
 40
0.6725684467
 40
0.7879605178
 40
1.0
 40
1.0
 40
1.0
 40
1.0
 10
32.4575238586
 20
48.5080006351
 30
0.0
 10
32.3586198807
 20
48.4162439129
 30
0.0
 10
32.1576176209
 20
48.2520769861
 30
0.0
 10
31.8842461367
 20
48.0906431666
 30
0.0
 10
31.6664592969
 20
48.0008265043
 30
0.0
 10
31.4639257808
 20
47.9408978336
 30
0.0
 10
31.3089715408
 20
47.9225480799
 30
0.0
 10
31.2094407091
 20
47.9258068177
 30
0.0
  0
SPLINE
  5
2EA
100
AcDbEntity
  8
0
100
AcDbSpline
 62
7
  6
CONTINUOUS
 70
0
 71
3
 72
9
 73
5
 74
0
 42
0.0000001
 43
0.0000001
 44
0.0000000001
 40
0.0
 40
0.0
 40
0.0
 40
0.0
 40
0.2671594246
 40
1.0
 40
1.0
 40
1.0
 40
1.0
 10
35.9314360925
 20
27.3729669876
 30
0.0
 10
35.9314360925
 20
27.3861273185
 30
0.0
 10
35.9296894472
 20
27.4353310886
 30
0.0
 10
35.9206823608
 20
27.4845834781
 30
0.0
 10
35.9085178154
 20
27.5185720869
 30
0.0
  0
SPLINE
  5
2EB
100
AcDbEntity
  8
0
100
AcDbSpline
 62
7
  6
CONTINUOUS
 70
0
 71
3
 72
15
 73
11
 74
0
 42
0.0000001
 43
0.0000001
 44
0.0000000001
 40
0.0
 40
0.0
 40
0.0
 40
0.0
 40
0.1140735392
 40
0.2373568958
 40
0.3669855293
 40
0.4999985636
 40
0.6330118183
 40
0.7626410154
 40
0.8859252383
 40
1.0
 40
1.0
 40
1.0
 40
1.0
 10
35.5071737902
 20
26.638119045
 30
0.0
 10
35.536197124
 20
26.6548755745
 30
0.0
 10
35.5935488349
 20
26.6951248745
 30
0.0
 10
35.6725220484
 20
26.7689332375
 30
0.0
 10
35.7452721486
 20
26.8562569236
 30
0.0
 10
35.8090466814
 20
26.9537294009
 30
0.0
 10
35.861572596
 20
27.0576964237
 30
0.0
 10
35.9008217575
 20
27.1643623286
 30
0.0
 10
35.925254996
 20
27.2696601301
 30
0.0
 10
35.9314360925
 20
27.3394534193
 30
0.0
 10
35.9314360925
 20
27.3729669876
 30
0.0
  0
SPLINE
  5
2EC
100
AcDbEntity
  8
0
100
AcDbSpline
 62
7
  6
CONTINUOUS
 70
0
 71
3
 72
11
 73
7
 74
0
 42
0.0000001
 43
0.0000001
 44
0.0000000001
 40
0.0
 40
0.0
 40
0.0
 40
0.0
 40
0.2227578715
 40
0.4623964692
 40
0.7215134075
 40
1.0
 40
1.0
 40
1.0
 40
1.0
 10
34.9086373833
 20
40.003908593
 30
0.0
 10
34.9254001657
 20
39.9811774445
 30
0.0
 10
34.9551620728
 20
39.9301463566
 30
0.0
 10
34.9862600465
 20
39.8436800315
 30
0.0
 10
35.004811587
 20
39.7465529816
 30
0.0
 10
35.0086736514
 20
39.6782996216
 30
0.0
 10
35.0086736514
 20
39.6429902543
 30
0.0
  0
SPLINE
  5
2ED
100
AcDbEntity
  8
0
100
AcDbSpline
 62
7
  6
CONTINUOUS
 70
0
 71
3
 72
20
 73
16
 74
0
 42
0.0000001
 43
0.0000001
 44
0.0000000001
 40
0.0
 40
0.0
 40
0.0
 40
0.0
 40
0.0611510689
 40
0.1261339457
 40
0.2644192823
 40
0.4086682474
 40
0.5515611998
 40
0.6202993953
 40
0.6861281442
 40
0.748384815
 40
0.8066195078
 40
0.860599909
 40
0.9104337703
 40
0.9565905593
 40
1.0
 40
1.0
 40
1.0
 40
1.0
 10
35.0086736514
 20
39.6429902543
 30
0.0
 10
35.0086736514
 20
39.603829957
 30
0.0
 10
35.0036203168
 20
39.5230046765
 30
0.0
 10
34.9754473891
 20
39.3558009143
 30
0.0
 10
34.9069086443
 20
39.1427028443
 30
0.0
 10
34.7821531716
 20
38.8993516645
 30
0.0
 10
34.6469617572
 20
38.7144540452
 30
0.0
 10
34.5242807094
 20
38.5856458072
 30
0.0
 10
34.429159667
 20
38.5026379637
 30
0.0
 10
34.3315172796
 20
38.4336637937
 30
0.0
 10
34.2332165222
 20
38.379957944
 30
0.0
 10
34.1359981252
 20
38.3426586455
 30
0.0
 10
34.04162278
 20
38.3224875402
 30
0.0
 10
33.951831883
 20
38.3201137602
 30
0.0
 10
33.8949103874
 20
38.3308962792
 30
0.0
 10
33.8684133435
 20
38.3393034306
 30
0.0
  0
SPLINE
  5
2EE
100
AcDbEntity
  8
0
100
AcDbSpline
 62
7
  6
CONTINUOUS
 70
0
 71
3
 72
11
 73
7
 74
0
 42
0.0000001
 43
0.0000001
 44
0.0000000001
 40
0.0
 40
0.0
 40
0.0
 40
0.0
 40
0.2841942877
 40
0.5440202384
 40
0.7807732104
 40
1.0
 40
1.0
 40
1.0
 40
1.0
 10
37.5542480542
 20
41.0310207174
 30
0.0
 10
37.5176270188
 20
41.009877679
 30
0.0
 10
37.4446549585
 20
40.9740318608
 30
0.0
 10
37.3327827056
 20
40.9404430029
 30
0.0
 10
37.2259068743
 20
40.9306772618
 30
0.0
 10
37.1579423692
 20
40.9410110069
 30
0.0
 10
37.1266924276
 20
40.9503637869
 30
0.0
  0
SPLINE
  5
2EF
100
AcDbEntity
  8
0
100
AcDbSpline
 62
7
  6
CONTINUOUS
 70
0
 71
3
 72
15
 73
11
 74
0
 42
0.0000001
 43
0.0000001
 44
0.0000000001
 40
0.0
 40
0.0
 40
0.0
 40
0.0
 40
0.148518711
 40
0.2894988799
 40
0.4227457388
 40
0.5486486734
 40
0.6679959493
 40
0.7819395515
 40
0.8919877187
 40
1.0
 40
1.0
 40
1.0
 40
1.0
 10
18.2502667836
 20
41.8884025295
 30
0.0
 10
18.2502667836
 20
41.8233237366
 30
0.0
 10
18.2449925167
 20
41.696383897
 30
0.0
 10
18.220039668
 20
41.5125368971
 30
0.0
 10
18.1782788195
 20
41.3418792072
 30
0.0
 10
18.1201187506
 20
41.186102906
 30
0.0
 10
18.0459424089
 20
41.0467172285
 30
0.0
 10
17.9564149545
 20
40.9250729724
 30
0.0
 10
17.8522715932
 20
40.8226055441
 30
0.0
 10
17.7734719142
 20
40.7676083994
 30
0.0
 10
17.7324845302
 20
40.7439417312
 30
0.0
  0
SPLINE
  5
2F0
100
AcDbEntity
  8
0
100
AcDbSpline
 62
7
  6
CONTINUOUS
 70
0
 71
3
 72
15
 73
11
 74
0
 42
0.0000001
 43
0.0000001
 44
0.0000000001
 40
0.0
 40
0.0
 40
0.0
 40
0.0
 40
0.120002097
 40
0.2464893248
 40
0.3770616383
 40
0.5091218054
 40
0.6399409986
 40
0.7668700214
 40
0.8875489805
 40
1.0
 40
1.0
 40
1.0
 40
1.0
 10
16.7653363608
 20
44.7606666845
 30
0.0
 10
16.8712335241
 20
44.6797081893
 30
0.0
 10
17.0776568893
 20
44.49857202
 30
0.0
 10
17.3591989275
 20
44.1874200016
 30
0.0
 10
17.6141395355
 20
43.8374034664
 30
0.0
 10
17.8347290951
 20
43.4592531308
 30
0.0
 10
18.0142494285
 20
43.0643875367
 30
0.0
 10
18.1473197621
 20
42.6647452776
 30
0.0
 10
18.2298249661
 20
42.2724888704
 30
0.0
 10
18.2502667836
 20
42.0133132715
 30
0.0
 10
18.2502667836
 20
41.8884025295
 30
0.0
  0
SPLINE
  5
2F1
100
AcDbEntity
  8
0
100
AcDbSpline
 62
7
  6
CONTINUOUS
 70
0
 71
3
 72
15
 73
11
 74
0
 42
0.0000001
 43
0.0000001
 44
0.0000000001
 40
0.0
 40
0.0
 40
0.0
 40
0.0
 40
0.1141242661
 40
0.2373486253
 40
0.3669740476
 40
0.5000015346
 40
0.6330288076
 40
0.7626536034
 40
0.8858770013
 40
1.0
 40
1.0
 40
1.0
 40
1.0
 10
38.2613518914
 20
42.2557672884
 30
0.0
 10
38.2613518914
 20
42.1998867998
 30
0.0
 10
38.2510915411
 20
42.08356432
 30
0.0
 10
38.2103098032
 20
41.9080846557
 30
0.0
 10
38.1449008933
 20
41.7303365182
 30
0.0
 10
38.0574169895
 20
41.5570104102
 30
0.0
 10
37.9510551116
 20
41.3945837944
 30
0.0
 10
37.8298263441
 20
41.2490641025
 30
0.0
 10
37.6982486884
 20
41.1260068672
 30
0.0
 10
37.6026415117
 20
41.0589605264
 30
0.0
 10
37.5542480542
 20
41.0310207174
 30
0.0
  0
SPLINE
  5
2F2
100
AcDbEntity
  8
0
100
AcDbSpline
 62
7
  6
CONTINUOUS
 70
0
 71
3
 72
12
 73
8
 74
0
 42
0.0000001
 43
0.0000001
 44
0.0000000001
 40
0.0
 40
0.0
 40
0.0
 40
0.0
 40
0.1081709623
 40
0.2183741467
 40
0.4513254879
 40
0.7105157861
 40
1.0
 40
1.0
 40
1.0
 40
1.0
 10
37.1249700051
 20
40.9406730788
 30
0.0
 10
37.1413659529
 20
40.9312070963
 30
0.0
 10
37.1761892125
 20
40.9149272316
 30
0.0
 10
37.2526152117
 20
40.8937548065
 30
0.0
 10
37.3596998282
 20
40.890895828
 30
0.0
 10
37.4937693176
 20
40.9233528697
 30
0.0
 10
37.5810808254
 20
40.9648637018
 30
0.0
 10
37.6249590267
 20
40.990196642
 30
0.0
  0
SPLINE
  5
2F3
100
AcDbEntity
  8
0
100
AcDbSpline
 62
7
  6
CONTINUOUS
 70
0
 71
3
 72
9
 73
5
 74
0
 42
0.0000001
 43
0.0000001
 44
0.0000000001
 40
0.0
 40
0.0
 40
0.0
 40
0.0
 40
0.4799677048
 40
1.0
 40
1.0
 40
1.0
 40
1.0
 10
16.5532004993
 20
45.291381365
 30
0.0
 10
16.6507935666
 20
45.2533031519
 30
0.0
 10
16.8474871306
 20
45.1564756374
 30
0.0
 10
17.0287172675
 20
45.033724597
 30
0.0
 10
17.1188882794
 20
44.9647887614
 30
0.0
  0
SPLINE
  5
2F4
100
AcDbEntity
  8
0
100
AcDbSpline
 62
7
  6
CONTINUOUS
 70
0
 71
3
 72
15
 73
11
 74
0
 42
0.0000001
 43
0.0000001
 44
0.0000000001
 40
0.0
 40
0.0
 40
0.0
 40
0.0
 40
0.1066375233
 40
0.2231100733
 40
0.3477288001
 40
0.4781626049
 40
0.6116021038
 40
0.7450207207
 40
0.875437302
 40
1.0
 40
1.0
 40
1.0
 40
1.0
 10
23.9070285925
 20
51.7098217774
 30
0.0
 10
23.8094512933
 20
51.6693630888
 30
0.0
 10
23.6133014611
 20
51.5648343453
 30
0.0
 10
23.3364176086
 20
51.3582547586
 30
0.0
 10
23.0716751812
 20
51.1012611433
 30
0.0
 10
22.827859646
 20
50.8025021421
 30
0.0
 10
22.6130641081
 20
50.4718527709
 30
0.0
 10
22.434403256
 20
50.1203608064
 30
0.0
 10
22.2979455963
 20
49.7598436662
 30
0.0
 10
22.2362585744
 20
49.514127769
 30
0.0
 10
22.2143082006
 20
49.3927071178
 30
0.0
  0
SPLINE
  5
2F5
100
AcDbEntity
  8
0
100
AcDbSpline
 62
7
  6
CONTINUOUS
 70
0
 71
3
 72
9
 73
5
 74
0
 42
0.0000001
 43
0.0000001
 44
0.0000000001
 40
0.0
 40
0.0
 40
0.0
 40
0.0
 40
0.2593288389
 40
1.0
 40
1.0
 40
1.0
 40
1.0
 10
22.2143082006
 20
49.3927071178
 30
0.0
 10
22.2077947217
 20
49.3566771688
 30
0.0
 10
22.1854752548
 20
49.2172677749
 30
0.0
 10
22.1746241913
 20
49.0758904369
 30
0.0
 10
22.1746241913
 20
48.9713169923
 30
0.0
  0
SPLINE
  5
2F6
100
AcDbEntity
  8
0
100
AcDbSpline
 62
7
  6
CONTINUOUS
 70
0
 71
3
 72
10
 73
6
 74
0
 42
0.0000001
 43
0.0000001
 44
0.0000000001
 40
0.0
 40
0.0
 40
0.0
 40
0.0
 40
0.2763277685
 40
0.5350887882
 40
1.0
 40
1.0
 40
1.0
 40
1.0
 10
22.1746241913
 20
48.9713169923
 30
0.0
 10
22.1746241913
 20
48.9023752893
 30
0.0
 10
22.1814910376
 20
48.7686380404
 30
0.0
 10
22.2235129027
 20
48.522564493
 30
0.0
 10
22.2898921766
 20
48.3504331562
 30
0.0
 10
22.3512738208
 20
48.2520136236
 30
0.0
  0
SPLINE
  5
2F7
100
AcDbEntity
  8
0
100
AcDbSpline
 62
7
  6
CONTINUOUS
 70
0
 71
3
 72
12
 73
8
 74
0
 42
0.0000001
 43
0.0000001
 44
0.0000000001
 40
0.0
 40
0.0
 40
0.0
 40
0.0
 40
0.2809165529
 40
0.537365833
 40
0.7739352116
 40
0.8876796921
 40
1.0
 40
1.0
 40
1.0
 40
1.0
 10
37.8370901779
 20
43.6674789133
 30
0.0
 10
37.9143159545
 20
43.6994992057
 30
0.0
 10
38.0672335121
 20
43.7495171878
 30
0.0
 10
38.2974174913
 20
43.7780185191
 30
0.0
 10
38.4790118018
 20
43.7577221306
 30
0.0
 10
38.6102560738
 20
43.7149243703
 30
0.0
 10
38.6709776862
 20
43.6853517565
 30
0.0
 10
38.6999296486
 20
43.6686448296
 30
0.0
  0
SPLINE
  5
2F8
100
AcDbEntity
  8
0
100
AcDbSpline
 62
7
  6
CONTINUOUS
 70
0
 71
3
 72
15
 73
11
 74
0
 42
0.0000001
 43
0.0000001
 44
0.0000000001
 40
0.0
 40
0.0
 40
0.0
 40
0.0
 40
0.1141229605
 40
0.2373462928
 40
0.366971064
 40
0.4999983279
 40
0.633025824
 40
0.762651271
 40
0.8858756957
 40
1.0
 40
1.0
 40
1.0
 40
1.0
 10
37.6249590267
 20
40.990196642
 30
0.0
 10
37.673352468
 20
41.0181364416
 30
0.0
 10
37.768959613
 20
41.0851827386
 30
0.0
 10
37.9005372213
 20
41.2082399331
 30
0.0
 10
38.021765974
 20
41.3537595726
 30
0.0
 10
38.1281278646
 20
41.516186166
 30
0.0
 10
38.2156117941
 20
41.6895122742
 30
0.0
 10
38.2810207419
 20
41.8672604506
 30
0.0
 10
38.3218024916
 20
42.0427401765
 30
0.0
 10
38.3320628639
 20
42.1590627056
 30
0.0
 10
38.3320628639
 20
42.214943213
 30
0.0
  0
SPLINE
  5
2F9
100
AcDbEntity
  8
0
100
AcDbSpline
 62
7
  6
CONTINUOUS
 70
0
 71
3
 72
12
 73
8
 74
0
 42
0.0000001
 43
0.0000001
 44
0.0000000001
 40
0.0
 40
0.0
 40
0.0
 40
0.0
 40
0.2894856789
 40
0.5486764212
 40
0.7816271842
 40
0.8918297651
 40
1.0
 40
1.0
 40
1.0
 40
1.0
 10
38.3320628639
 20
42.214943213
 30
0.0
 10
38.3320628639
 20
42.2656115861
 30
0.0
 10
38.3243564374
 20
42.3619851715
 30
0.0
 10
38.285428723
 20
42.4943267858
 30
0.0
 10
38.2294078681
 20
42.585638621
 30
0.0
 10
38.172856382
 20
42.6412406282
 30
0.0
 10
38.1413445362
 20
42.6632587452
 30
0.0
 10
38.1249480483
 20
42.6727250394
 30
0.0
  0
SPLINE
  5
2FA
100
AcDbEntity
  8
0
100
AcDbSpline
 62
7
  6
CONTINUOUS
 70
0
 71
3
 72
9
 73
5
 74
0
 42
0.0000001
 43
0.0000001
 44
0.0000000001
 40
0.0
 40
0.0
 40
0.0
 40
0.0
 40
0.2454157405
 40
1.0
 40
1.0
 40
1.0
 40
1.0
 10
38.0885587512
 20
42.6907936305
 30
0.0
 10
38.0959169749
 20
42.6852361261
 30
0.0
 10
38.1249736735
 20
42.6613767517
 30
0.0
 10
38.1500720257
 20
42.6328038566
 30
0.0
 10
38.1664010733
 20
42.6096258462
 30
0.0
  0
SPLINE
  5
2FB
100
AcDbEntity
  8
0
100
AcDbSpline
 62
7
  6
CONTINUOUS
 70
0
 71
3
 72
10
 73
6
 74
0
 42
0.0000001
 43
0.0000001
 44
0.0000000001
 40
0.0
 40
0.0
 40
0.0
 40
0.0
 40
0.462287428
 40
0.721668255
 40
1.0
 40
1.0
 40
1.0
 40
1.0
 10
38.1664010733
 20
42.6096258462
 30
0.0
 10
38.1993307299
 20
42.5628843619
 30
0.0
 10
38.2351709565
 20
42.4785310542
 30
0.0
 10
38.2576603217
 20
42.3568368984
 30
0.0
 10
38.2613518914
 20
42.2901917111
 30
0.0
 10
38.2613518914
 20
42.2557672884
 30
0.0
  0
SPLINE
  5
2FC
100
AcDbEntity
  8
0
100
AcDbSpline
 62
7
  6
CONTINUOUS
 70
0
 71
3
 72
24
 73
20
 74
0
 42
0.0000001
 43
0.0000001
 44
0.0000000001
 40
0.0
 40
0.0
 40
0.0
 40
0.0
 40
0.0623677243
 40
0.1287417189
 40
0.1983320016
 40
0.2703128727
 40
0.3436958498
 40
0.4174307237
 40
0.4904597138
 40
0.5617521316
 40
0.6303560442
 40
0.6954478245
 40
0.7564004884
 40
0.8128430796
 40
0.864746705
 40
0.9125260882
 40
0.9571048887
 40
0.9786666005
 40
1.0
 40
1.0
 40
1.0
 40
1.0
 10
19.8058952255
 20
42.786539668
 30
0.0
 10
19.8058952255
 20
42.8902211116
 30
0.0
 10
19.7918063444
 20
43.1043834245
 30
0.0
 10
19.7340436897
 20
43.4295526278
 30
0.0
 10
19.6400190217
 20
43.7627666171
 30
0.0
 10
19.5118316456
 20
44.096824761
 30
0.0
 10
19.3522303372
 20
44.4247231641
 30
0.0
 10
19.1645821084
 20
44.7394412756
 30
0.0
 10
18.9528777898
 20
45.0342540437
 30
0.0
 10
18.7216633183
 20
45.3029114019
 30
0.0
 10
18.4758276844
 20
45.539686688
 30
0.0
 10
18.2205264895
 20
45.7395333362
 30
0.0
 10
17.9610945378
 20
45.8982597588
 30
0.0
 10
17.7027930125
 20
46.012437436
 30
0.0
 10
17.450713967
 20
46.0793639456
 30
0.0
 10
17.2099699854
 20
46.097165379
 30
0.0
 10
17.0207030132
 20
46.0693006941
 30
0.0
 10
16.8829672934
 20
46.0216651171
 30
0.0
 10
16.818849877
 20
45.9899240575
 30
0.0
 10
16.7881357389
 20
45.9721923025
 30
0.0
  0
SPLINE
  5
2FD
100
AcDbEntity
  8
0
100
AcDbSpline
 62
7
  6
CONTINUOUS
 70
0
 71
3
 72
11
 73
7
 74
0
 42
0.0000001
 43
0.0000001
 44
0.0000000001
 40
0.0
 40
0.0
 40
0.0
 40
0.0
 40
0.2177456295
 40
0.4508837762
 40
0.7104602913
 40
1.0
 40
1.0
 40
1.0
 40
1.0
 10
35.2071956657
 20
26.6084313885
 30
0.0
 10
35.2269831308
 20
26.5970073521
 30
0.0
 10
35.2724329782
 20
26.5804554534
 30
0.0
 10
35.3479909082
 20
26.5785580853
 30
0.0
 10
35.4284763477
 20
26.5980399362
 30
0.0
 10
35.4808622054
 20
26.6229281351
 30
0.0
 10
35.5071737902
 20
26.638119045
 30
0.0
  0
SPLINE
  5
2FE
100
AcDbEntity
  8
0
100
AcDbSpline
 62
7
  6
CONTINUOUS
 70
0
 71
3
 72
15
 73
11
 74
0
 42
0.0000001
 43
0.0000001
 44
0.0000000001
 40
0.0
 40
0.0
 40
0.0
 40
0.0
 40
0.1141229605
 40
0.2373462928
 40
0.366971064
 40
0.4999983279
 40
0.633025824
 40
0.762651271
 40
0.8858756957
 40
1.0
 40
1.0
 40
1.0
 40
1.0
 10
34.4429917593
 20
38.3365955324
 30
0.0
 10
34.4913852006
 20
38.364535332
 30
0.0
 10
34.5869923455
 20
38.4315816291
 30
0.0
 10
34.7185699538
 20
38.5546388235
 30
0.0
 10
34.8397987065
 20
38.7001584631
 30
0.0
 10
34.9461605972
 20
38.8625850564
 30
0.0
 10
35.0336445266
 20
39.0359111646
 30
0.0
 10
35.0990534745
 20
39.2136593411
 30
0.0
 10
35.1398352242
 20
39.3891390669
 30
0.0
 10
35.1500955965
 20
39.505461596
 30
0.0
 10
35.1500955965
 20
39.5613421034
 30
0.0
  0
SPLINE
  5
2FF
100
AcDbEntity
  8
0
100
AcDbSpline
 62
7
  6
CONTINUOUS
 70
0
 71
3
 72
12
 73
8
 74
0
 42
0.0000001
 43
0.0000001
 44
0.0000000001
 40
0.0
 40
0.0
 40
0.0
 40
0.0
 40
0.2894856789
 40
0.5486764212
 40
0.7816271842
 40
0.8918297651
 40
1.0
 40
1.0
 40
1.0
 40
1.0
 10
35.1500955965
 20
39.5613421034
 30
0.0
 10
35.1500955965
 20
39.6120104765
 30
0.0
 10
35.1423891699
 20
39.7083840619
 30
0.0
 10
35.1034614556
 20
39.8407256762
 30
0.0
 10
35.0474406007
 20
39.9320375114
 30
0.0
 10
34.9908891146
 20
39.9876395186
 30
0.0
 10
34.9593772687
 20
40.0096576356
 30
0.0
 10
34.9429807809
 20
40.0191239299
 30
0.0
  0
SPLINE
  5
300
100
AcDbEntity
  8
0
100
AcDbSpline
 62
7
  6
CONTINUOUS
 70
0
 71
3
 72
15
 73
11
 74
0
 42
0.0000001
 43
0.0000001
 44
0.0000000001
 40
0.0
 40
0.0
 40
0.0
 40
0.0
 40
0.1080101801
 40
0.2180653144
 40
0.3320026536
 40
0.4513411472
 40
0.5772501427
 40
0.7105310352
 40
0.8515229555
 40
1.0
 40
1.0
 40
1.0
 40
1.0
 10
19.2881060862
 20
41.6420908061
 30
0.0
 10
19.3290942981
 20
41.6657539455
 30
0.0
 10
19.4079192874
 20
41.7207230667
 30
0.0
 10
19.5120143551
 20
41.8232379491
 30
0.0
 10
19.6015858631
 20
41.9448414841
 30
0.0
 10
19.6757391011
 20
42.084237736
 30
0.0
 10
19.7339183897
 20
42.240019599
 30
0.0
 10
19.7756622068
 20
42.4107058112
 30
0.0
 10
19.8006127677
 20
42.5945530668
 30
0.0
 10
19.8058952255
 20
42.7214793069
 30
0.0
 10
19.8058952255
 20
42.786539668
 30
0.0
  0
SPLINE
  5
301
100
AcDbEntity
  8
0
100
AcDbSpline
 62
7
  6
CONTINUOUS
 70
0
 71
3
 72
12
 73
8
 74
0
 42
0.0000001
 43
0.0000001
 44
0.0000000001
 40
0.0
 40
0.0
 40
0.0
 40
0.0
 40
0.1081709623
 40
0.2183741467
 40
0.4513254879
 40
0.7105157861
 40
1.0
 40
1.0
 40
1.0
 40
1.0
 10
33.9430027377
 20
38.2870719692
 30
0.0
 10
33.9593986855
 20
38.2776059868
 30
0.0
 10
33.9942219451
 20
38.261326122
 30
0.0
 10
34.0706479442
 20
38.240153697
 30
0.0
 10
34.1777325607
 20
38.2372947185
 30
0.0
 10
34.3118020501
 20
38.2697517601
 30
0.0
 10
34.3991135579
 20
38.3112625923
 30
0.0
 10
34.4429917593
 20
38.3365955324
 30
0.0
  0
SPLINE
  5
302
100
AcDbEntity
  8
0
100
AcDbSpline
 62
7
  6
CONTINUOUS
 70
0
 71
3
 72
13
 73
9
 74
0
 42
0.0000001
 43
0.0000001
 44
0.0000000001
 40
0.0
 40
0.0
 40
0.0
 40
0.0
 40
0.1128841818
 40
0.2271259375
 40
0.3439885723
 40
0.4646135523
 40
0.7204870551
 40
1.0
 40
1.0
 40
1.0
 40
1.0
 10
15.2325004112
 20
45.0740671004
 30
0.0
 10
15.2650779292
 20
45.0928777986
 30
0.0
 10
15.3332973808
 20
45.1262911286
 30
0.0
 10
15.4423622008
 20
45.1625936322
 30
0.0
 10
15.5577336107
 20
45.1850293498
 30
0.0
 10
15.7221050426
 20
45.1964713288
 30
0.0
 10
15.9412745245
 20
45.1734657547
 30
0.0
 10
16.1128730035
 20
45.121116805
 30
0.0
 10
16.1996485807
 20
45.0872592881
 30
0.0
  0
SPLINE
  5
303
100
AcDbEntity
  8
0
100
AcDbSpline
 62
7
  6
CONTINUOUS
 70
0
 71
3
 72
16
 73
12
 74
0
 42
0.0000001
 43
0.0000001
 44
0.0000000001
 40
0.0
 40
0.0
 40
0.0
 40
0.0
 40
0.1553898638
 40
0.3025052306
 40
0.4401962262
 40
0.5681063921
 40
0.6864704937
 40
0.7963720596
 40
0.8998488253
 40
0.9501488413
 40
1.0
 40
1.0
 40
1.0
 40
1.0
 10
36.0637834569
 20
46.4259727871
 30
0.0
 10
36.1974940059
 20
46.5500207977
 30
0.0
 10
36.468766489
 20
46.7800910264
 30
0.0
 10
36.8950228163
 20
47.0737531002
 30
0.0
 10
37.3235336586
 20
47.3022481452
 30
0.0
 10
37.7467707264
 20
47.461355503
 30
0.0
 10
38.1577345047
 20
47.5478470573
 30
0.0
 10
38.5492595627
 20
47.5594153887
 30
0.0
 10
38.8565998136
 20
47.5045113541
 30
0.0
 10
39.0816377773
 20
47.4226847896
 30
0.0
 10
39.1869978132
 20
47.3698188354
 30
0.0
 10
39.2376720432
 20
47.3405623038
 30
0.0
  0
SPLINE
  5
304
100
AcDbEntity
  8
0
100
AcDbSpline
 62
7
  6
CONTINUOUS
 70
0
 71
3
 72
12
 73
8
 74
0
 42
0.0000001
 43
0.0000001
 44
0.0000000001
 40
0.0
 40
0.0
 40
0.0
 40
0.0
 40
0.2120394822
 40
0.3274315533
 40
0.4493794905
 40
0.7127384032
 40
1.0
 40
1.0
 40
1.0
 40
1.0
 10
34.8157003073
 20
45.8437789697
 30
0.0
 10
34.915231139
 20
45.8405202318
 30
0.0
 10
35.070185379
 20
45.8588699855
 30
0.0
 10
35.2727188952
 20
45.9187986563
 30
0.0
 10
35.4905057349
 20
46.0086153186
 30
0.0
 10
35.7638772192
 20
46.1700491381
 30
0.0
 10
35.964879479
 20
46.3342160649
 30
0.0
 10
36.0637834569
 20
46.4259727871
 30
0.0
  0
ENDSEC
  0
SECTION
  2
OBJECTS
  0
DICTIONARY
  5
C
100
AcDbDictionary
280
0
281
1
  3
ACAD_GROUP
350
D
  3
ACAD_MLINESTYLE
350
17
  3
ACAD_LAYOUT
350
1A
  3
ACAD_PLOTSETTINGS
350
19
  3
ACAD_PLOTSTYLENAME
350
E
  0
DICTIONARY
  5
D
102
{ACAD_REACTORS
330
C
102
}
100
AcDbDictionary
280
0
281
1
  0
ACDBDICTIONARYWDFLT
  5
E
102
{ACAD_REACTORS
330
C
102
}
100
AcDbDictionary
281
1
  3
Normal
350
F
100
AcDbDictionaryWithDefault
340
F
  0
DICTIONARY
  5
17
102
{ACAD_REACTORS
330
C
102
}
100
AcDbDictionary
280
0
281
1
  3
Standard
350
18
  0
DICTIONARY
  5
19
102
{ACAD_REACTORS
330
C
102
}
100
AcDbDictionary
281
1
  0
DICTIONARY
  5
1A
102
{ACAD_REACTORS
330
C
102
}
100
AcDbDictionary
281
1
  3
Model
350
305
  3
Layout1
350
306
  0
ACDBPLACEHOLDER
  5
F
102
{ACAD_REACTORS
330
E
102
}
  0
MLINESTYLE
  5
18
102
{ACAD_REACTORS
330
17
102
}
100
AcDbMlineStyle
  2
STANDARD
 70
0
  3

 62
256
 51
90.0
 52
90.0
 71
2
 49
0.5
 62
256
  6
BYLAYER
 49
-0.5
 62
256
  6
BYLAYER
  0
LAYOUT
  5
305
102
{ACAD_REACTORS
330
1A
102
}
100
AcDbPlotSettings
  1

  2
none_device
  4

  6

 40
0.0
 41
0.0
 42
0.0
 43
0.0
 44
210.0
 45
297.0
 46
0.0
 47
0.0
 48
0.0
 49
0.0
140
0.0
141
0.0
142
1.0
143
1.0
 70
1024
 72
1
 73
0
 74
0
  7

 75
0
147
1.0
148
0.0
149
0.0
100
AcDbLayout
  1
Model
 70
0
 71
0
 10
0.0
 20
0.0
 11
210.0
 21
297.0
 12
0.0
 22
0.0
 32
0.0
 14
0.0
 24
0.0
 34
0.0
 15
0.0
 25
0.0
 35
0.0
146
0.0
 13
0.0
 23
0.0
 33
0.0
 16
1.0
 26
0.0
 36
0.0
 17
0.0
 27
1.0
 37
0.0
 76
0
330
211
345
0
346
0
  0
LAYOUT
  5
306
102
{ACAD_REACTORS
330
1A
102
}
100
AcDbPlotSettings
  1

  2
none_device
  4

  6

 40
0.0
 41
0.0
 42
0.0
 43
0.0
 44
210.0
 45
297.0
 46
0.0
 47
0.0
 48
0.0
 49
0.0
140
0.0
141
0.0
142
1.0
143
1.0
 70
0
 72
1
 73
0
 74
0
  7

 75
0
147
1.0
148
0.0
149
0.0
100
AcDbLayout
  1
Layout1
 70
0
 71
1
 10
0.0
 20
0.0
 11
210.0
 21
297.0
 12
0.0
 22
0.0
 32
0.0
 14
0.0
 24
0.0
 34
0.0
 15
0.0
 25
0.0
 35
0.0
146
0.0
 13
0.0
 23
0.0
 33
0.0
 16
1.0
 26
0.0
 36
0.0
 17
0.0
 27
1.0
 37
0.0
 76
0
330
212
345
0
346
0
  0
ENDSEC
  0
EOF
