999
DXF file: C:\Users\SESA621925\Desktop\Projects\Drawing_creation_tool\Gen2D (3) (1)\CAD\G20-25SHT110AC_3D-CAD\drw0001_1.dxf
999
Pro/ENGINEER 2019471 by Parametric Technology Corporation
  0
SECTION
  2
HEADER
  9
$ACADVER
  1
AC1024
  9
$DWGCODEPAGE
  3
ANSI_1252
  9
$EXTMAX
 10
42.3250642954
 20
59.8597337892
 30
0.0
  9
$EXTMIN
 10
-0.0
 20
0.0
 30
0.0
  9
$LIMMIN
 10
-0.0
 20
0.0
  9
$LIMMAX
 10
42.3250642954
 20
59.8597337892
  9
$VIEWCTR
 10
21.1625321477
 20
29.9298668946
  9
$VIEWSIZE
 40
59.8597337892
  9
$CLAYER
  8
0
  9
$LTSCALE
 40
3.9019678322
  9
$CELTYPE
  6
BYLAYER
  9
$DIMSCALE
 40
1.0
  9
$DIMASZ
 40
0.503869813
  9
$DIMEXO
 40
1.0
  9
$DIMDLI
 40
2.6959050477
  9
$DIMEXE
 40
1.0
  9
$DIMCEN
 40
0.6385038271
  9
$DIMLFAC
 40
1.0
  9
$DIMBLK
  1
_FILLED
  9
$DIMALT
 70
0
  9
$DIMALTF
 40
0.0393700787
  9
$DIMTXT
 40
0.7054177383
  9
$DIMTOL
 70
1
  9
$DIMLIM
 70
0
  9
$DIMTFAC
 40
1.0
  9
$DIMTP
 40
0.01
  9
$DIMTM
 40
0.01
  9
$DIMGAP
 40
0.625
  9
$DIMDSEP
 70
46
  9
$AUNITS
 70
0
  9
$PDMODE
 70
3
  9
$PDSIZE
 40
0.3125
  9
$HANDSEED
  5
3BE
  9
$TILEMODE
 70
1
  9
$MEASUREMENT
 70
1
  9
$INSUNITS
 70
4
  0
ENDSEC
  0
SECTION
  2
CLASSES
  0
CLASS
  1
ACDBDICTIONARYWDFLT
  2
AcDbDictionaryWithDefault
  3
AutoCAD 2000
 90
0
 91
1
280
0
281
0
  0
CLASS
  1
ACDBPLACEHOLDER
  2
AcDbPlaceHolder
  3
AutoCAD 2000
 90
0
 91
1
280
0
281
0
  0
CLASS
  1
LAYOUT
  2
AcDbLayout
  3
AutoCAD 2000
 90
0
 91
0
280
0
281
0
  0
ENDSEC
  0
SECTION
  2
TABLES
  0
TABLE
  2
VPORT
  5
8
100
AcDbSymbolTable
 70
2
  0
VPORT
  5
1F4
100
AcDbSymbolTableRecord
100
AcDbViewportTableRecord
  2
*ACTIVE
 70
0
 10
0.0
 20
0.0
 11
1.0
 21
1.0
 12
21.1625321477
 22
29.9298668946
 13
0.0
 23
0.0
 14
1.0
 24
1.0
 15
0.0
 25
0.0
 16
0.0
 26
0.0
 36
1.0
 17
0.0
 27
0.0
 37
0.0
 40
59.8597337892
 41
0.7070707071
 42
50.0
 43
0.0
 44
0.0
 50
0.0
 51
0.0
 71
0
 72
100
 73
1
 74
1
 75
0
 76
0
 77
0
 78
0
  0
ENDTAB
  0
TABLE
  2
LTYPE
  5
5
100
AcDbSymbolTable
 70
6
  0
LTYPE
  5
14
100
AcDbSymbolTableRecord
100
AcDbLinetypeTableRecord
  2
BYBLOCK
 70
0
  3

 72
65
 73
0
 40
0.0
  0
LTYPE
  5
15
100
AcDbSymbolTableRecord
100
AcDbLinetypeTableRecord
  2
BYLAYER
 70
0
  3

 72
65
 73
0
 40
0.0
  0
LTYPE
  5
16
100
AcDbSymbolTableRecord
100
AcDbLinetypeTableRecord
  2
CONTINUOUS
 70
64
  3
Solid line
 72
65
 73
0
 40
0.0
  0
LTYPE
  5
1F5
100
AcDbSymbolTableRecord
100
AcDbLinetypeTableRecord
  2
CENTER
 70
64
  3
____ _ ____ _ ____ _ ____ _ ____ _ ____ _ ____
 72
65
 73
4
 40
0.6
 49
0.375
 74
0
 49
-0.075
 74
0
 49
0.075
 74
0
 49
-0.075
 74
0
  0
LTYPE
  5
1F6
100
AcDbSymbolTableRecord
100
AcDbLinetypeTableRecord
  2
HIDDEN
 70
64
  3
- - - - - - - - - - - - - - - - - - - -
 72
65
 73
2
 40
0.2
 49
0.1
 74
0
 49
-0.1
 74
0
  0
LTYPE
  5
1F7
100
AcDbSymbolTableRecord
100
AcDbLinetypeTableRecord
  2
PHANTOM
 70
64
  3
_____ _ _ _____ _ _ _____ _ _ _____
 72
65
 73
6
 40
0.8
 49
0.45
 74
0
 49
-0.05
 74
0
 49
0.1
 74
0
 49
-0.05
 74
0
 49
0.1
 74
0
 49
-0.05
 74
0
  0
LTYPE
  5
1F8
100
AcDbSymbolTableRecord
100
AcDbLinetypeTableRecord
  2
DOT
 70
64
  3
. . . . . . . . . . . . . . . . . . . .
 72
65
 73
2
 40
0.2
 49
0.1
 74
0
 49
-0.1
 74
0
  0
LTYPE
  5
1F9
100
AcDbSymbolTableRecord
100
AcDbLinetypeTableRecord
  2
DASHED
 70
64
  3
- - - - - - - - - - - - - - - - - - - -
 72
65
 73
2
 40
0.2
 49
0.1
 74
0
 49
-0.1
 74
0
  0
ENDTAB
  0
TABLE
  2
LAYER
  5
2
100
AcDbSymbolTable
 70
36
  0
LAYER
  5
10
100
AcDbSymbolTableRecord
100
AcDbLayerTableRecord
  2
0
 70
0
 62
7
  6
CONTINUOUS
370
-3
390
F
  0
LAYER
  5
1FA
100
AcDbSymbolTableRecord
100
AcDbLayerTableRecord
  2
DEFAULT_1
 70
0
 62
7
  6
CENTER
370
-3
390
F
  0
LAYER
  5
1FB
100
AcDbSymbolTableRecord
100
AcDbLayerTableRecord
  2
DEFAULT_2
 70
0
 62
8
  6
HIDDEN
370
-3
390
F
  0
LAYER
  5
1FC
100
AcDbSymbolTableRecord
100
AcDbLayerTableRecord
  2
DEFAULT_3
 70
0
 62
7
  6
PHANTOM
370
-3
390
F
  0
LAYER
  5
1FD
100
AcDbSymbolTableRecord
100
AcDbLayerTableRecord
  2
00_COMPONENTS
 70
0
 62
7
  6
CONTINUOUS
370
-3
390
F
  0
LAYER
  5
1FE
100
AcDbSymbolTableRecord
100
AcDbLayerTableRecord
  2
01_1_DEFAULT_DATUMS
 70
0
 62
7
  6
CONTINUOUS
370
-3
390
F
  0
LAYER
  5
1FF
100
AcDbSymbolTableRecord
100
AcDbLayerTableRecord
  2
01_PLANES
 70
0
 62
7
  6
CONTINUOUS
370
-3
390
F
  0
LAYER
  5
200
100
AcDbSymbolTableRecord
100
AcDbLayerTableRecord
  2
02_COORD_SYS
 70
0
 62
7
  6
CONTINUOUS
370
-3
390
F
  0
LAYER
  5
201
100
AcDbSymbolTableRecord
100
AcDbLayerTableRecord
  2
03_AXES
 70
0
 62
7
  6
CONTINUOUS
370
-3
390
F
  0
LAYER
  5
202
100
AcDbSymbolTableRecord
100
AcDbLayerTableRecord
  2
04_POINTS
 70
0
 62
7
  6
CONTINUOUS
370
-3
390
F
  0
LAYER
  5
203
100
AcDbSymbolTableRecord
100
AcDbLayerTableRecord
  2
05_CURVES
 70
0
 62
7
  6
CONTINUOUS
370
-3
390
F
  0
LAYER
  5
204
100
AcDbSymbolTableRecord
100
AcDbLayerTableRecord
  2
06_SURFS
 70
0
 62
7
  6
CONTINUOUS
370
-3
390
F
  0
LAYER
  5
205
100
AcDbSymbolTableRecord
100
AcDbLayerTableRecord
  2
07_COSMETICS
 70
0
 62
7
  6
CONTINUOUS
370
-3
390
F
  0
LAYER
  5
206
100
AcDbSymbolTableRecord
100
AcDbLayerTableRecord
  2
10_NOTES
 70
0
 62
7
  6
CONTINUOUS
370
-3
390
F
  0
LAYER
  5
207
100
AcDbSymbolTableRecord
100
AcDbLayerTableRecord
  2
11_NOTES_PUB
 70
0
 62
7
  6
CONTINUOUS
370
-3
390
F
  0
LAYER
  5
208
100
AcDbSymbolTableRecord
100
AcDbLayerTableRecord
  2
13_REF_GTOL
 70
0
 62
7
  6
CONTINUOUS
370
-3
390
F
  0
LAYER
  5
209
100
AcDbSymbolTableRecord
100
AcDbLayerTableRecord
  2
16_MISC
 70
0
 62
7
  6
CONTINUOUS
370
-3
390
F
  0
LAYER
  5
20A
100
AcDbSymbolTableRecord
100
AcDbLayerTableRecord
  2
17_NO_PRINT
 70
0
 62
7
  6
CONTINUOUS
370
-3
390
F
  0
LAYER
  5
20B
100
AcDbSymbolTableRecord
100
AcDbLayerTableRecord
  2
18_DATUM_CAMS_JOINTS
 70
0
 62
7
  6
CONTINUOUS
370
-3
390
F
  0
LAYER
  5
20C
100
AcDbSymbolTableRecord
100
AcDbLayerTableRecord
  2
19_DATUM_FUNCTIONAL
 70
0
 62
7
  6
CONTINUOUS
370
-3
390
F
  0
LAYER
  5
20D
100
AcDbSymbolTableRecord
100
AcDbLayerTableRecord
  2
20_DATUM_KINEMATIC_SCHEME
 70
0
 62
7
  6
CONTINUOUS
370
-3
390
F
  0
LAYER
  5
20E
100
AcDbSymbolTableRecord
100
AcDbLayerTableRecord
  2
black
 70
0
 62
7
  6
CONTINUOUS
370
-3
390
F
  0
ENDTAB
  0
TABLE
  2
STYLE
  5
3
100
AcDbSymbolTable
 70
1
  0
STYLE
  5
11
100
AcDbSymbolTableRecord
100
AcDbTextStyleTableRecord
  2
STANDARD
 70
0
 40
0.0
 41
0.8
 50
0.0
 71
0
 42
0.2
  3
txt
  4

  0
STYLE
  5
20F
100
AcDbSymbolTableRecord
100
AcDbTextStyleTableRecord
  2
TEXTSTYLE_1
 70
0
 40
0.0
 41
0.8
 50
0.0
 71
0
 42
0.2
  3
gdt
  4

  0
ENDTAB
  0
TABLE
  2
VIEW
  5
6
100
AcDbSymbolTable
 70
0
  0
ENDTAB
  0
TABLE
  2
UCS
  5
7
100
AcDbSymbolTable
 70
0
  0
ENDTAB
  0
TABLE
  2
APPID
  5
9
100
AcDbSymbolTable
 70
1
  0
APPID
  5
210
100
AcDbSymbolTableRecord
100
AcDbRegAppTableRecord
  2
ACAD
 70
0
  0
ENDTAB
  0
TABLE
  2
BLOCK_RECORD
  5
1
100
AcDbSymbolTable
 70
0
  0
BLOCK_RECORD
  5
211
100
AcDbSymbolTableRecord
100
AcDbBlockTableRecord
  2
*Model_Space
  0
BLOCK_RECORD
  5
212
100
AcDbSymbolTableRecord
100
AcDbBlockTableRecord
  2
*Paper_Space
  0
BLOCK_RECORD
  5
213
100
AcDbSymbolTableRecord
100
AcDbBlockTableRecord
  2
_FILLED
  0
ENDTAB
  0
TABLE
  2
DIMSTYLE
  5
A
100
AcDbSymbolTable
 70
1
100
AcDbDimStyleTable
 71
0
  0
DIMSTYLE
105
214
100
AcDbSymbolTableRecord
100
AcDbDimStyleTableRecord
  2
STANDARD
 70
0
  3

  4

 40
1.0
 41
0.503869813
 42
1.0
 43
0.38
 44
1.0
 45
0.0
 46
0.0
 47
0.01
 48
0.01
140
0.7054177383
141
0.09
142
0.0
143
25.4
144
1.0
145
0.0
146
1.0
147
0.625
 71
1
 72
0
 73
0
 74
0
 75
0
 76
0
 77
1
 78
8
 79
2
170
0
171
1
172
0
173
0
174
0
175
0
176
0
177
0
178
0
270
2
179
2
271
2
272
2
273
2
274
2
275
0
280
0
281
0
282
0
283
1
284
8
285
0
286
0
287
3
288
0
340
11
278
46
341
213
342
213
343
213
344
213
  0
ENDTAB
  0
ENDSEC
  0
SECTION
  2
BLOCKS
  0
BLOCK
  5
20
100
AcDbEntity
  8
0
100
AcDbBlockBegin
  2
*Model_Space
 70
0
 10
0.0
 20
0.0
 30
0.0
  3
*Model_Space
  1

  0
ENDBLK
  5
21
100
AcDbEntity
  8
0
100
AcDbBlockEnd
  0
BLOCK
  5
1C
100
AcDbEntity
  8
0
100
AcDbBlockBegin
  2
*Paper_Space
 70
0
 10
0.0
 20
0.0
 30
0.0
  3
*Paper_Space
  1

  0
ENDBLK
  5
1D
100
AcDbEntity
  8
0
100
AcDbBlockEnd
  0
BLOCK
  5
215
100
AcDbEntity
  8
0
100
AcDbBlockBegin
  2
_FILLED
 70
64
 10
0.0
 20
0.0
  3
_FILLED
  1

  0
SOLID
  5
216
100
AcDbEntity
  8
0
  6
BYBLOCK
 62
0
100
AcDbTrace
 10
0.0
 20
0.0
 11
-1.0
 21
0.25
 12
-1.0
 22
-0.25
 13
-1.0
 23
-0.25
  0
ENDBLK
  5
217
100
AcDbEntity
  8
0
  6
BYBLOCK
 62
0
100
AcDbBlockEnd
  0
ENDSEC
  0
SECTION
  2
ENTITIES
  0
LINE
  5
218
100
AcDbEntity
  8
0
100
AcDbLine
 62
7
  6
CONTINUOUS
 10
7.0662463002
 20
47.9965564655
 11
19.8648257537
 21
55.3857756506
  0
LINE
  5
219
100
AcDbEntity
  8
0
100
AcDbLine
 62
7
  6
CONTINUOUS
 10
7.9147779703
 20
46.6901651429
 11
7.7733572029
 21
46.6085163122
  0
LINE
  5
21A
100
AcDbEntity
  8
0
100
AcDbLine
 62
7
  6
CONTINUOUS
 10
13.8898539702
 20
7.8859726038
 11
19.5467317714
 21
4.6200465676
  0
LINE
  5
21B
100
AcDbEntity
  8
0
100
AcDbLine
 62
7
  6
CONTINUOUS
 10
7.7733572029
 20
46.3635486558
 11
6.9955359164
 21
45.9144760073
  0
LINE
  5
21C
100
AcDbEntity
  8
0
100
AcDbLine
 62
7
  6
CONTINUOUS
 10
9.4704205433
 20
46.6901916436
 11
10.1775243805
 21
47.0984357975
  0
LINE
  5
21D
100
AcDbEntity
  8
0
100
AcDbLine
 62
7
  6
CONTINUOUS
 10
21.8447376945
 20
53.8344643363
 11
22.5518415317
 21
54.2427084902
  0
LINE
  5
21E
100
AcDbEntity
  8
0
100
AcDbLine
 62
7
  6
CONTINUOUS
 10
7.7733572029
 20
45.547060348
 11
7.7026456416
 21
45.5062352528
  0
LINE
  5
21F
100
AcDbEntity
  8
0
100
AcDbLine
 62
7
  6
CONTINUOUS
 10
10.3896609638
 20
46.9759614547
 11
21.8447376945
 21
53.5895136112
  0
LINE
  5
220
100
AcDbEntity
  8
0
100
AcDbLine
 62
7
  6
CONTINUOUS
 10
11.0967829082
 20
46.5677136456
 11
21.8447376945
 21
52.7730111941
  0
LINE
  5
221
100
AcDbEntity
  8
0
100
AcDbLine
 62
7
  6
CONTINUOUS
 10
21.1377154052
 20
7.4807823262
 11
24.3475331706
 21
5.6276350991
  0
LINE
  5
222
100
AcDbEntity
  8
0
100
AcDbLine
 62
7
  6
CONTINUOUS
 10
19.1577307484
 20
50.5112958446
 11
20.0062553531
 21
51.0011888292
  0
LINE
  5
223
100
AcDbEntity
  8
0
100
AcDbLine
 62
7
  6
CONTINUOUS
 10
20.7920588097
 20
50.8952654779
 11
21.6405834144
 21
51.3851584625
  0
LINE
  5
224
100
AcDbEntity
  8
0
100
AcDbLine
 62
7
  6
CONTINUOUS
 10
12.430238307
 20
45.7978602285
 11
23.3246471633
 21
52.087712569
  0
LINE
  5
225
100
AcDbEntity
  8
0
100
AcDbLine
 62
7
  6
CONTINUOUS
 10
8.8340129587
 20
42.7709443696
 11
7.7733572029
 21
42.1585781388
  0
LINE
  5
226
100
AcDbEntity
  8
0
100
AcDbLine
 62
7
  6
CONTINUOUS
 10
8.812578332
 20
42.6448185856
 11
9.0032646059
 21
42.7549107
  0
LINE
  5
227
100
AcDbEntity
  8
0
100
AcDbLine
 62
7
  6
CONTINUOUS
 10
17.4961159237
 20
10.3763652952
 11
9.6118424883
 21
14.9282497081
  0
LINE
  5
228
100
AcDbEntity
  8
0
100
AcDbLine
 62
7
  6
CONTINUOUS
 10
17.7789574586
 20
10.5396629567
 11
19.5467317714
 21
9.5190610704
  0
LINE
  5
229
100
AcDbEntity
  8
0
100
AcDbLine
 62
7
  6
CONTINUOUS
 10
9.6118424883
 20
15.8672044889
 11
9.0461482314
 21
16.1938008318
  0
LINE
  5
22A
100
AcDbEntity
  8
0
100
AcDbLine
 62
7
  6
CONTINUOUS
 10
8.3036806649
 20
16.9082224665
 11
9.0461482314
 21
16.4795683145
  0
LINE
  5
22B
100
AcDbEntity
  8
0
100
AcDbLine
 62
7
  6
CONTINUOUS
 10
17.4961159237
 20
11.6011189208
 11
20.6073987143
 21
9.804859601
  0
LINE
  5
22C
100
AcDbEntity
  8
0
100
AcDbLine
 62
7
  6
CONTINUOUS
 10
9.6118424883
 20
16.5612545423
 11
7.7733572029
 21
17.6226805041
  0
LINE
  5
22D
100
AcDbEntity
  8
0
100
AcDbLine
 62
7
  6
CONTINUOUS
 10
7.7733572029
 20
17.7043077469
 11
7.7026397537
 21
17.7451355616
  0
LINE
  5
22E
100
AcDbEntity
  8
0
100
AcDbLine
 62
7
  6
CONTINUOUS
 10
24.2303283835
 20
50.6578036858
 11
23.3818037788
 21
50.1679107011
  0
LINE
  5
22F
100
AcDbEntity
  8
0
100
AcDbLine
 62
7
  6
CONTINUOUS
 10
14.5342572574
 20
44.7032112543
 11
23.1225661632
 21
49.6616441151
  0
LINE
  5
230
100
AcDbEntity
  8
0
100
AcDbLine
 62
7
  6
CONTINUOUS
 10
9.1875766532
 20
41.3420966298
 11
9.2399716208
 21
41.3723466978
  0
LINE
  5
231
100
AcDbEntity
  8
0
100
AcDbLine
 62
7
  6
CONTINUOUS
 10
9.5625749744
 20
41.3457785414
 11
9.6856850219
 21
41.4168557362
  0
LINE
  5
232
100
AcDbEntity
  8
0
100
AcDbLine
 62
7
  6
CONTINUOUS
 10
15.1690493758
 20
44.5249237839
 11
17.4243353952
 21
45.8270060019
  0
LINE
  5
233
100
AcDbEntity
  8
0
100
AcDbLine
 62
7
  6
CONTINUOUS
 10
19.9457018852
 20
47.2827089343
 11
20.7598154904
 21
47.7527348377
  0
LINE
  5
234
100
AcDbEntity
  8
0
100
AcDbLine
 62
7
  6
CONTINUOUS
 10
22.3634075168
 20
10.2372266881
 11
25.84750772
 21
8.2257260042
  0
LINE
  5
235
100
AcDbEntity
  8
0
100
AcDbLine
 62
7
  6
CONTINUOUS
 10
6.9955359164
 20
45.9144760073
 11
6.9955359164
 21
33.2586885418
  0
LINE
  5
236
100
AcDbEntity
  8
0
100
AcDbLine
 62
7
  6
CONTINUOUS
 10
6.9955359164
 20
31.2174324989
 11
6.9955359164
 21
30.5642305652
  0
LINE
  5
237
100
AcDbEntity
  8
0
100
AcDbLine
 62
7
  6
CONTINUOUS
 10
7.0662463002
 20
47.1800540484
 11
7.0662463002
 21
47.9965564655
  0
LINE
  5
238
100
AcDbEntity
  8
0
100
AcDbLine
 62
7
  6
CONTINUOUS
 10
7.7026397537
 20
17.7451355616
 11
7.7026397537
 21
30.15599321
  0
LINE
  5
239
100
AcDbEntity
  8
0
100
AcDbLine
 62
7
  6
CONTINUOUS
 10
7.7026456416
 20
45.5062352528
 11
7.7026456416
 21
32.8504477873
  0
LINE
  5
23A
100
AcDbEntity
  8
0
100
AcDbLine
 62
7
  6
CONTINUOUS
 10
7.7733572029
 20
17.6226805041
 11
7.7733572029
 21
29.0537143439
  0
LINE
  5
23B
100
AcDbEntity
  8
0
100
AcDbLine
 62
7
  6
CONTINUOUS
 10
7.7733572029
 20
30.7683694198
 11
7.7733572029
 21
42.1585781388
  0
LINE
  5
23C
100
AcDbEntity
  8
0
100
AcDbLine
 62
7
  6
CONTINUOUS
 10
7.7733572029
 20
43.4649820062
 11
7.7733572029
 21
46.6085163122
  0
LINE
  5
23D
100
AcDbEntity
  8
0
100
AcDbLine
 62
7
  6
CONTINUOUS
 10
18.3800030801
 20
43.98329378
 11
19.0871069173
 21
44.3915379339
  0
LINE
  5
23E
100
AcDbEntity
  8
0
100
AcDbLine
 62
7
  6
CONTINUOUS
 10
30.7543202313
 20
51.1275664727
 11
31.4614240686
 21
51.5358106266
  0
LINE
  5
23F
100
AcDbEntity
  8
0
100
AcDbLine
 62
7
  6
CONTINUOUS
 10
8.3036806649
 20
17.3165050372
 11
8.3036806649
 21
16.9082224665
  0
LINE
  5
240
100
AcDbEntity
  8
0
100
AcDbLine
 62
7
  6
CONTINUOUS
 10
8.8340129587
 20
42.8526259734
 11
8.8340129587
 21
42.7709443696
  0
LINE
  5
241
100
AcDbEntity
  8
0
100
AcDbLine
 62
7
  6
CONTINUOUS
 10
8.8340217906
 20
30.7275599801
 11
8.8340217906
 21
30.1560082881
  0
LINE
  5
242
100
AcDbEntity
  8
0
100
AcDbLine
 62
7
  6
CONTINUOUS
 10
8.9754431469
 20
30.0743583863
 11
8.9754431469
 21
30.4826095949
  0
LINE
  5
243
100
AcDbEntity
  8
0
100
AcDbLine
 62
7
  6
CONTINUOUS
 10
9.0461482314
 20
16.8878508852
 11
9.0461482314
 21
16.1938008318
  0
LINE
  5
244
100
AcDbEntity
  8
0
100
AcDbLine
 62
7
  6
CONTINUOUS
 10
9.4704205433
 20
45.6287385013
 11
9.4704205433
 21
46.6901916436
  0
LINE
  5
245
100
AcDbEntity
  8
0
100
AcDbLine
 62
7
  6
CONTINUOUS
 10
9.6118424883
 20
16.5612545423
 11
9.6118424883
 21
14.9282497081
  0
LINE
  5
246
100
AcDbEntity
  8
0
100
AcDbLine
 62
7
  6
CONTINUOUS
 10
9.6118424883
 20
27.9922883821
 11
9.6118424883
 21
30.2784951501
  0
LINE
  5
247
100
AcDbEntity
  8
0
100
AcDbLine
 62
7
  6
CONTINUOUS
 10
23.122566241
 20
49.6616439805
 11
23.2368569356
 21
49.7686192293
  0
LINE
  5
248
100
AcDbEntity
  8
0
100
AcDbLine
 62
7
  6
CONTINUOUS
 10
23.1158602541
 20
46.1300942702
 11
23.2065673729
 21
46.1824637371
  0
LINE
  5
249
100
AcDbEntity
  8
0
100
AcDbLine
 62
7
  6
CONTINUOUS
 10
25.29695795
 20
12.5677973134
 11
25.9106733719
 21
12.2134765652
  0
LINE
  5
24A
100
AcDbEntity
  8
0
100
AcDbLine
 62
7
  6
CONTINUOUS
 10
25.29695795
 20
13.3842997305
 11
25.9106733719
 21
13.0299789823
  0
LINE
  5
24B
100
AcDbEntity
  8
0
100
AcDbLine
 62
7
  6
CONTINUOUS
 10
20.6073987143
 20
16.336878938
 11
19.5467341266
 21
16.9492400698
  0
LINE
  5
24C
100
AcDbEntity
  8
0
100
AcDbLine
 62
7
  6
CONTINUOUS
 10
21.3145025515
 20
16.7451230919
 11
20.2538379638
 21
17.3574842236
  0
LINE
  5
24D
100
AcDbEntity
  8
0
100
AcDbLine
 62
7
  6
CONTINUOUS
 10
32.918286475
 20
49.7644141906
 11
32.2111826378
 21
49.3561700367
  0
LINE
  5
24E
100
AcDbEntity
  8
0
100
AcDbLine
 62
7
  6
CONTINUOUS
 10
20.5439693238
 20
42.6201414978
 11
19.8368654866
 21
42.2118973439
  0
LINE
  5
24F
100
AcDbEntity
  8
0
100
AcDbLine
 62
7
  6
CONTINUOUS
 10
21.35838551
 20
42.7865892158
 11
22.6468348276
 21
43.5304713358
  0
LINE
  5
250
100
AcDbEntity
  8
0
100
AcDbLine
 62
7
  6
CONTINUOUS
 10
27.2430097695
 20
46.1840583359
 11
29.4350316649
 21
47.4496152129
  0
LINE
  5
251
100
AcDbEntity
  8
0
100
AcDbLine
 62
7
  6
CONTINUOUS
 10
21.8611718005
 20
42.6453768515
 11
21.0126471958
 21
42.1554838668
  0
LINE
  5
252
100
AcDbEntity
  8
0
100
AcDbLine
 62
7
  6
CONTINUOUS
 10
31.124232068
 20
47.9933752672
 11
31.9727566726
 21
48.4832682518
  0
LINE
  5
253
100
AcDbEntity
  8
0
100
AcDbLine
 62
7
  6
CONTINUOUS
 10
23.4685789421
 20
43.3718118519
 11
26.449762182
 21
45.0929885239
  0
LINE
  5
254
100
AcDbEntity
  8
0
100
AcDbLine
 62
7
  6
CONTINUOUS
 10
23.5801930237
 20
43.2899210246
 11
27.5805082586
 21
45.599490316
  0
LINE
  5
255
100
AcDbEntity
  8
0
100
AcDbLine
 62
7
  6
CONTINUOUS
 10
18.6699641721
 20
39.8548231545
 11
18.432085105
 21
39.7174844309
  0
LINE
  5
256
100
AcDbEntity
  8
0
100
AcDbLine
 62
7
  6
CONTINUOUS
 10
9.1875760644
 20
30.3601373685
 11
9.6118418995
 21
29.7069417072
  0
LINE
  5
257
100
AcDbEntity
  8
0
100
AcDbLine
 62
7
  6
CONTINUOUS
 10
13.8898539702
 20
12.4583945029
 11
13.8898539702
 21
7.8859726038
  0
LINE
  5
258
100
AcDbEntity
  8
0
100
AcDbLine
 62
7
  6
CONTINUOUS
 10
22.9943471871
 20
46.5675915186
 11
22.8975687706
 21
46.4345056533
  0
LINE
  5
259
100
AcDbEntity
  8
0
100
AcDbLine
 62
7
  6
CONTINUOUS
 10
23.2065673729
 20
46.1824637371
 11
23.4031372569
 21
46.4527788966
  0
LINE
  5
25A
100
AcDbEntity
  8
0
100
AcDbLine
 62
7
  6
CONTINUOUS
 10
19.4667070476
 20
39.2406996832
 11
19.8744398179
 21
39.4761029027
  0
LINE
  5
25B
100
AcDbEntity
  8
0
100
AcDbLine
 62
7
  6
CONTINUOUS
 10
24.3075602052
 20
42.0355508738
 11
28.3055050128
 21
44.3437516066
  0
LINE
  5
25C
100
AcDbEntity
  8
0
100
AcDbLine
 62
7
  6
CONTINUOUS
 10
33.6777252665
 20
47.445385902
 11
33.8916253268
 21
47.5688804222
  0
LINE
  5
25D
100
AcDbEntity
  8
0
100
AcDbLine
 62
7
  6
CONTINUOUS
 10
22.3568693435
 20
40.1299040021
 11
24.04682856
 21
41.1055965866
  0
LINE
  5
25E
100
AcDbEntity
  8
0
100
AcDbLine
 62
7
  6
CONTINUOUS
 10
28.6430035019
 20
43.7591835867
 11
30.8350253972
 21
45.0247404637
  0
LINE
  5
25F
100
AcDbEntity
  8
0
100
AcDbLine
 62
7
  6
CONTINUOUS
 10
7.7733572029
 20
31.6665051475
 11
6.9955359164
 21
31.2174324989
  0
LINE
  5
260
100
AcDbEntity
  8
0
100
AcDbLine
 62
7
  6
CONTINUOUS
 10
7.7733572029
 20
29.0537143439
 11
9.6118424883
 21
27.9922883821
  0
LINE
  5
261
100
AcDbEntity
  8
0
100
AcDbLine
 62
7
  6
CONTINUOUS
 10
34.2191519966
 20
45.7920809646
 11
33.5120481594
 21
45.3838368108
  0
LINE
  5
262
100
AcDbEntity
  8
0
100
AcDbLine
 62
7
  6
CONTINUOUS
 10
21.8448348454
 20
38.6478082719
 11
21.1377310082
 21
38.239564118
  0
LINE
  5
263
100
AcDbEntity
  8
0
100
AcDbLine
 62
7
  6
CONTINUOUS
 10
24.8500261535
 20
40.1378952007
 11
30.5068568513
 21
43.4038484317
  0
LINE
  5
264
100
AcDbEntity
  8
0
100
AcDbLine
 62
7
  6
CONTINUOUS
 10
22.6349163666
 20
38.718923158
 11
21.8448348454
 21
38.2627721019
  0
LINE
  5
265
100
AcDbEntity
  8
0
100
AcDbLine
 62
7
  6
CONTINUOUS
 10
31.8979766341
 20
44.0669215737
 11
32.7465012388
 21
44.5568145583
  0
LINE
  5
266
100
AcDbEntity
  8
0
100
AcDbLine
 62
7
  6
CONTINUOUS
 10
31.1785126702
 20
43.6309238667
 11
31.8856165074
 21
44.0391680206
  0
LINE
  5
267
100
AcDbEntity
  8
0
100
AcDbLine
 62
7
  6
CONTINUOUS
 10
9.1168693464
 20
30.5642615619
 11
8.9754431469
 21
30.4826095949
  0
LINE
  5
268
100
AcDbEntity
  8
0
100
AcDbLine
 62
7
  6
CONTINUOUS
 10
9.329002264
 20
30.4417893355
 11
9.1875760644
 21
30.3601373685
  0
LINE
  5
269
100
AcDbEntity
  8
0
100
AcDbLine
 62
7
  6
CONTINUOUS
 10
8.9754431469
 20
30.2376574588
 11
8.8340217906
 21
30.1560082881
  0
LINE
  5
26A
100
AcDbEntity
  8
0
100
AcDbLine
 62
7
  6
CONTINUOUS
 10
33.4413377757
 20
44.2815592531
 11
31.2139787956
 21
42.9956006225
  0
LINE
  5
26B
100
AcDbEntity
  8
0
100
AcDbLine
 62
7
  6
CONTINUOUS
 10
21.9155452291
 20
37.627179545
 11
24.8500261535
 21
39.3213927836
  0
LINE
  5
26C
100
AcDbEntity
  8
0
100
AcDbLine
 62
7
  6
CONTINUOUS
 10
34.3080639829
 20
44.4949857294
 11
33.6898690952
 21
44.138072875
  0
LINE
  5
26D
100
AcDbEntity
  8
0
100
AcDbLine
 62
7
  6
CONTINUOUS
 10
22.0044572154
 20
37.391537452
 11
21.2973533782
 21
36.9832932981
  0
LINE
  5
26E
100
AcDbEntity
  8
0
100
AcDbLine
 62
7
  6
CONTINUOUS
 10
8.5511714238
 20
29.5027829131
 11
7.7733572029
 21
29.0537143439
  0
LINE
  5
26F
100
AcDbEntity
  8
0
100
AcDbLine
 62
7
  6
CONTINUOUS
 10
8.5511714238
 20
29.5027829131
 11
9.6118424883
 21
28.8904180421
  0
LINE
  5
270
100
AcDbEntity
  8
0
100
AcDbLine
 62
7
  6
CONTINUOUS
 10
6.9955359164
 20
30.5642305652
 11
9.6118418995
 21
29.0537397735
  0
LINE
  5
271
100
AcDbEntity
  8
0
100
AcDbLine
 62
7
  6
CONTINUOUS
 10
8.9754431469
 20
30.0743583863
 11
6.9955359164
 21
31.2174324989
  0
LINE
  5
272
100
AcDbEntity
  8
0
100
AcDbLine
 62
7
  6
CONTINUOUS
 10
28.4745003609
 20
19.1430643008
 11
32.486739058
 21
16.8266496133
  0
LINE
  5
273
100
AcDbEntity
  8
0
100
AcDbLine
 62
7
  6
CONTINUOUS
 10
8.9754431469
 20
30.4826095949
 11
9.1875760644
 21
30.3601373685
  0
LINE
  5
274
100
AcDbEntity
  8
0
100
AcDbLine
 62
7
  6
CONTINUOUS
 10
9.6118424883
 20
30.2784951501
 11
8.8340217906
 21
30.7275599801
  0
LINE
  5
275
100
AcDbEntity
  8
0
100
AcDbLine
 62
7
  6
CONTINUOUS
 10
17.3745003609
 20
44.2202703455
 11
17.3745003609
 21
45.6083244546
  0
LINE
  5
276
100
AcDbEntity
  8
0
100
AcDbLine
 62
7
  6
CONTINUOUS
 10
17.4961159237
 20
11.6011189208
 11
17.4961159237
 21
10.3763652952
  0
LINE
  5
277
100
AcDbEntity
  8
0
100
AcDbLine
 62
7
  6
CONTINUOUS
 10
34.2898694459
 20
43.7916703477
 11
32.0625104658
 21
42.5057117171
  0
LINE
  5
278
100
AcDbEntity
  8
0
100
AcDbLine
 62
7
  6
CONTINUOUS
 10
22.7640768993
 20
37.1372906396
 11
25.6985578237
 21
38.8315038782
  0
LINE
  5
279
100
AcDbEntity
  8
0
100
AcDbLine
 62
7
  6
CONTINUOUS
 10
19.3876930265
 20
35.147674911
 11
18.6805891893
 21
34.7394307572
  0
LINE
  5
27A
100
AcDbEntity
  8
0
100
AcDbLine
 62
7
  6
CONTINUOUS
 10
21.1377310082
 20
35.8717071084
 11
21.1730862
 21
35.892119316
  0
LINE
  5
27B
100
AcDbEntity
  8
0
100
AcDbLine
 62
7
  6
CONTINUOUS
 10
26.7592224114
 20
39.0356451635
 11
32.4160531092
 21
42.3015983945
  0
LINE
  5
27C
100
AcDbEntity
  8
0
100
AcDbLine
 62
7
  6
CONTINUOUS
 10
35.1383946393
 20
43.7100133912
 11
34.4312908021
 21
43.3017692374
  0
LINE
  5
27D
100
AcDbEntity
  8
0
100
AcDbLine
 62
7
  6
CONTINUOUS
 10
22.7640774881
 20
36.5657406985
 11
22.0569736509
 21
36.1574965446
  0
LINE
  5
27E
100
AcDbEntity
  8
0
100
AcDbLine
 62
7
  6
CONTINUOUS
 10
34.4312908021
 20
43.2326785092
 11
34.2925888043
 21
43.1525993514
  0
LINE
  5
27F
100
AcDbEntity
  8
0
100
AcDbLine
 62
7
  6
CONTINUOUS
 10
22.0569736509
 20
36.0884058164
 11
21.9889820367
 21
36.049151074
  0
LINE
  5
280
100
AcDbEntity
  8
0
100
AcDbLine
 62
7
  6
CONTINUOUS
 10
21.7170167578
 20
35.4524722099
 11
22.0569736509
 21
35.648745242
  0
LINE
  5
281
100
AcDbEntity
  8
0
100
AcDbLine
 62
7
  6
CONTINUOUS
 10
34.2898694459
 20
42.7113687641
 11
34.4312908021
 21
42.7930179348
  0
LINE
  5
282
100
AcDbEntity
  8
0
100
AcDbLine
 62
7
  6
CONTINUOUS
 10
34.4312908021
 20
42.7582267711
 11
34.2898694459
 21
42.6765776004
  0
LINE
  5
283
100
AcDbEntity
  8
0
100
AcDbLine
 62
7
  6
CONTINUOUS
 10
22.0569736509
 20
35.6139540784
 11
21.6559291947
 21
35.3824123358
  0
LINE
  5
284
100
AcDbEntity
  8
0
100
AcDbLine
 62
7
  6
CONTINUOUS
 10
35.9869263095
 20
43.2201244858
 11
35.2798224723
 21
42.8118803319
  0
LINE
  5
285
100
AcDbEntity
  8
0
100
AcDbLine
 62
7
  6
CONTINUOUS
 10
23.6126091583
 20
36.0758517931
 11
22.905505321
 21
35.6676076392
  0
LINE
  5
286
100
AcDbEntity
  8
0
100
AcDbLine
 62
7
  6
CONTINUOUS
 10
27.4663262487
 20
37.8108844831
 11
31.7089492719
 21
40.2603494063
  0
LINE
  5
287
100
AcDbEntity
  8
0
100
AcDbLine
 62
7
  6
CONTINUOUS
 10
32.9817158656
 20
16.9491322937
 11
32.486739058
 21
17.2349008219
  0
LINE
  5
288
100
AcDbEntity
  8
0
100
AcDbLine
 62
7
  6
CONTINUOUS
 10
6.9955359164
 20
33.2586885418
 11
7.7733572029
 21
32.809621281
  0
LINE
  5
289
100
AcDbEntity
  8
0
100
AcDbLine
 62
7
  6
CONTINUOUS
 10
18.3800030801
 20
41.5463581366
 11
18.3800030801
 21
43.98329378
  0
LINE
  5
28A
100
AcDbEntity
  8
0
100
AcDbLine
 62
7
  6
CONTINUOUS
 10
19.1577307484
 20
49.6819566156
 11
19.1577307484
 21
50.5112958446
  0
LINE
  5
28B
100
AcDbEntity
  8
0
100
AcDbLine
 62
7
  6
CONTINUOUS
 10
19.5467317714
 20
4.6200465676
 11
19.5467317714
 21
9.5190610704
  0
LINE
  5
28C
100
AcDbEntity
  8
0
100
AcDbLine
 62
7
  6
CONTINUOUS
 10
19.5467341266
 20
16.9492400698
 11
19.5467341266
 21
27.972022701
  0
LINE
  5
28D
100
AcDbEntity
  8
0
100
AcDbLine
 62
7
  6
CONTINUOUS
 10
19.7942219416
 20
27.9924371695
 11
19.7942219416
 21
27.0126342689
  0
LINE
  5
28E
100
AcDbEntity
  8
0
100
AcDbLine
 62
7
  6
CONTINUOUS
 10
21.9889820367
 20
36.049151074
 11
21.7170167578
 21
35.4524722099
  0
LINE
  5
28F
100
AcDbEntity
  8
0
100
AcDbLine
 62
7
  6
CONTINUOUS
 10
21.7170167578
 20
35.4524722099
 11
21.6559201227
 21
35.3824280953
  0
LINE
  5
290
100
AcDbEntity
  8
0
100
AcDbLine
 62
7
  6
CONTINUOUS
 10
19.2594933879
 20
31.5707921599
 11
19.1363803192
 21
31.4997132208
  0
LINE
  5
291
100
AcDbEntity
  8
0
100
AcDbLine
 62
7
  6
CONTINUOUS
 10
20.7841755568
 20
26.4410972126
 11
19.7942219416
 21
27.0126342689
  0
LINE
  5
292
100
AcDbEntity
  8
0
100
AcDbLine
 62
7
  6
CONTINUOUS
 10
20.2538379638
 20
26.7472808379
 11
20.2538379638
 21
17.3574842236
  0
LINE
  5
293
100
AcDbEntity
  8
0
100
AcDbLine
 62
7
  6
CONTINUOUS
 10
20.3598072717
 20
51.9156913322
 11
20.3598072717
 21
50.9018903732
  0
LINE
  5
294
100
AcDbEntity
  8
0
100
AcDbLine
 62
7
  6
CONTINUOUS
 10
20.6073987143
 20
16.336878938
 11
20.6073987143
 21
9.804859601
  0
LINE
  5
295
100
AcDbEntity
  8
0
100
AcDbLine
 62
7
  6
CONTINUOUS
 10
20.7841755568
 20
27.3392498715
 11
20.7841755568
 21
26.4410972126
  0
LINE
  5
296
100
AcDbEntity
  8
0
100
AcDbLine
 62
7
  6
CONTINUOUS
 10
21.1377154052
 20
5.5385959138
 11
21.1377154052
 21
8.2330538904
  0
LINE
  5
297
100
AcDbEntity
  8
0
100
AcDbLine
 62
7
  6
CONTINUOUS
 10
21.1377310082
 20
35.8717071084
 11
21.1377310082
 21
38.239564118
  0
LINE
  5
298
100
AcDbEntity
  8
0
100
AcDbLine
 62
7
  6
CONTINUOUS
 10
21.1730862
 20
36.7086217332
 11
21.1730862
 21
35.892119316
  0
LINE
  5
299
100
AcDbEntity
  8
0
100
AcDbLine
 62
7
  6
CONTINUOUS
 10
21.3145025515
 20
10.2131037548
 11
21.3145025515
 21
16.7451230919
  0
LINE
  5
29A
100
AcDbEntity
  8
0
100
AcDbLine
 62
7
  6
CONTINUOUS
 10
21.491279394
 20
27.3303020268
 11
21.491279394
 21
26.8493413665
  0
LINE
  5
29B
100
AcDbEntity
  8
0
100
AcDbLine
 62
7
  6
CONTINUOUS
 10
19.740450793
 20
28.4640242252
 11
19.5931677687
 21
28.2525477814
  0
LINE
  5
29C
100
AcDbEntity
  8
0
100
AcDbLine
 62
7
  6
CONTINUOUS
 10
19.5728324958
 20
30.2324714532
 11
19.5113786403
 21
30.196991265
  0
LINE
  5
29D
100
AcDbEntity
  8
0
100
AcDbLine
 62
7
  6
CONTINUOUS
 10
20.6641911824
 20
30.6497417459
 11
19.8863769615
 21
30.2006731766
  0
LINE
  5
29E
100
AcDbEntity
  8
0
100
AcDbLine
 62
7
  6
CONTINUOUS
 10
20.7891906228
 20
30.4332350718
 11
21.0770889996
 21
30.5994522849
  0
LINE
  5
29F
100
AcDbEntity
  8
0
100
AcDbLine
 62
7
  6
CONTINUOUS
 10
31.4261053819
 20
36.4145401582
 11
27.4663262487
 21
34.1283742563
  0
LINE
  5
2A0
100
AcDbEntity
  8
0
100
AcDbLine
 62
7
  6
CONTINUOUS
 10
31.7089492719
 20
36.2512438564
 11
27.4663262487
 21
33.8017789332
  0
LINE
  5
2A1
100
AcDbEntity
  8
0
100
AcDbLine
 62
7
  6
CONTINUOUS
 10
21.7745420049
 20
30.1967867141
 11
20.6431468939
 21
29.5435793413
  0
LINE
  5
2A2
100
AcDbEntity
  8
0
100
AcDbLine
 62
7
  6
CONTINUOUS
 10
21.844877391
 20
30.1561794786
 11
21.3759949872
 21
29.8854717125
  0
LINE
  5
2A3
100
AcDbEntity
  8
0
100
AcDbLine
 62
7
  6
CONTINUOUS
 10
20.7891676612
 20
30.4332748867
 11
20.7134586964
 21
30.4011153815
  0
LINE
  5
2A4
100
AcDbEntity
  8
0
100
AcDbLine
 62
7
  6
CONTINUOUS
 10
21.8809767637
 20
28.5839603762
 11
21.9925111011
 21
28.5195674532
  0
LINE
  5
2A5
100
AcDbEntity
  8
0
100
AcDbLine
 62
7
  6
CONTINUOUS
 10
20.6431468939
 20
29.5435793413
 11
19.5113786403
 21
30.196991265
  0
LINE
  5
2A6
100
AcDbEntity
  8
0
100
AcDbLine
 62
7
  6
CONTINUOUS
 10
20.4735049086
 20
30.5396496315
 11
20.7134586964
 21
30.4011153815
  0
LINE
  5
2A7
100
AcDbEntity
  8
0
100
AcDbLine
 62
7
  6
CONTINUOUS
 10
32.9817158656
 20
23.4811516307
 11
31.9210512778
 21
24.0935127625
  0
LINE
  5
2A8
100
AcDbEntity
  8
0
100
AcDbLine
 62
7
  6
CONTINUOUS
 10
20.6431468939
 20
29.5435793413
 11
21.3371718772
 21
27.754838786
  0
LINE
  5
2A9
100
AcDbEntity
  8
0
100
AcDbLine
 62
7
  6
CONTINUOUS
 10
22.0442757144
 20
28.1630829399
 11
21.3502507311
 21
29.9518234952
  0
LINE
  5
2AA
100
AcDbEntity
  8
0
100
AcDbLine
 62
7
  6
CONTINUOUS
 10
21.9925111011
 20
28.5195674532
 11
21.9155452291
 21
28.7179349182
  0
LINE
  5
2AB
100
AcDbEntity
  8
0
100
AcDbLine
 62
7
  6
CONTINUOUS
 10
21.8447376945
 20
52.7730111941
 11
21.8447376945
 21
53.8344643363
  0
LINE
  5
2AC
100
AcDbEntity
  8
0
100
AcDbLine
 62
7
  6
CONTINUOUS
 10
21.8448348454
 20
37.2993799838
 11
21.8448348454
 21
38.6478082719
  0
LINE
  5
2AD
100
AcDbEntity
  8
0
100
AcDbLine
 62
7
  6
CONTINUOUS
 10
21.9155452291
 20
37.627179545
 11
21.9155452291
 21
37.3402043992
  0
LINE
  5
2AE
100
AcDbEntity
  8
0
100
AcDbLine
 62
7
  6
CONTINUOUS
 10
21.9155452291
 20
30.1153803063
 11
21.9155452291
 21
28.7179349182
  0
LINE
  5
2AF
100
AcDbEntity
  8
0
100
AcDbLine
 62
7
  6
CONTINUOUS
 10
22.0569736509
 20
36.1574965446
 11
22.0569736509
 21
35.3409941275
  0
LINE
  5
2B0
100
AcDbEntity
  8
0
100
AcDbLine
 62
7
  6
CONTINUOUS
 10
22.7640768993
 20
27.5842123592
 11
22.7640768993
 21
29.6254914009
  0
LINE
  5
2B1
100
AcDbEntity
  8
0
100
AcDbLine
 62
7
  6
CONTINUOUS
 10
22.7640768993
 20
36.5657406985
 11
22.7640768993
 21
37.1372906396
  0
LINE
  5
2B2
100
AcDbEntity
  8
0
100
AcDbLine
 62
7
  6
CONTINUOUS
 10
22.905505321
 20
29.5438395107
 11
22.905505321
 21
35.6676076392
  0
LINE
  5
2B3
100
AcDbEntity
  8
0
100
AcDbLine
 62
7
  6
CONTINUOUS
 10
23.2745003609
 20
44.2202703455
 11
23.2745003609
 21
45.6083244546
  0
LINE
  5
2B4
100
AcDbEntity
  8
0
100
AcDbLine
 62
7
  6
CONTINUOUS
 10
23.6126091583
 20
29.9520836646
 11
23.6126091583
 21
36.0758517931
  0
LINE
  5
2B5
100
AcDbEntity
  8
0
100
AcDbLine
 62
7
  6
CONTINUOUS
 10
22.6243240983
 20
40.2443149363
 11
22.6276456198
 21
40.2862358249
  0
LINE
  5
2B6
100
AcDbEntity
  8
0
100
AcDbLine
 62
7
  6
CONTINUOUS
 10
19.9729644309
 20
28.4718221777
 11
19.5931677687
 21
28.2525477814
  0
LINE
  5
2B7
100
AcDbEntity
  8
0
100
AcDbLine
 62
7
  6
CONTINUOUS
 10
20.118754493
 20
28.4165523622
 11
19.9392003161
 21
28.3128873286
  0
LINE
  5
2B8
100
AcDbEntity
  8
0
100
AcDbLine
 62
7
  6
CONTINUOUS
 10
20.1556594246
 20
28.3341241028
 11
20.2010127011
 21
28.3603086729
  0
LINE
  5
2B9
100
AcDbEntity
  8
0
100
AcDbLine
 62
7
  6
CONTINUOUS
 10
19.8241164203
 20
28.132168487
 11
19.5467341266
 21
27.972022701
  0
LINE
  5
2BA
100
AcDbEntity
  8
0
100
AcDbLine
 62
7
  6
CONTINUOUS
 10
35.9869263095
 20
37.0963563573
 11
35.2798224723
 21
36.6881122035
  0
LINE
  5
2BB
100
AcDbEntity
  8
0
100
AcDbLine
 62
7
  6
CONTINUOUS
 10
23.6126091583
 20
29.9520836646
 11
22.905505321
 21
29.5438395107
  0
LINE
  5
2BC
100
AcDbEntity
  8
0
100
AcDbLine
 62
7
  6
CONTINUOUS
 10
21.3371718772
 20
27.754838786
 11
22.0442757144
 21
28.1630829399
  0
LINE
  5
2BD
100
AcDbEntity
  8
0
100
AcDbLine
 62
7
  6
CONTINUOUS
 10
34.2898694459
 20
35.2330375752
 11
34.4185928657
 21
35.3073556326
  0
LINE
  5
2BE
100
AcDbEntity
  8
0
100
AcDbLine
 62
7
  6
CONTINUOUS
 10
20.815030937
 20
27.3570641272
 11
20.7841755568
 21
27.3392498715
  0
LINE
  5
2BF
100
AcDbEntity
  8
0
100
AcDbLine
 62
7
  6
CONTINUOUS
 10
19.5113786403
 20
31.5033951324
 11
22.905505321
 21
29.5438395107
  0
LINE
  5
2C0
100
AcDbEntity
  8
0
100
AcDbLine
 62
7
  6
CONTINUOUS
 10
33.6888197028
 20
23.8893957846
 11
32.6281551151
 21
24.5017569164
  0
LINE
  5
2C1
100
AcDbEntity
  8
0
100
AcDbLine
 62
7
  6
CONTINUOUS
 10
26.7592224114
 20
28.666064466
 11
25.6985578237
 21
29.2784255977
  0
LINE
  5
2C2
100
AcDbEntity
  8
0
100
AcDbLine
 62
7
  6
CONTINUOUS
 10
21.0126471958
 20
42.1554838668
 11
21.4908751578
 21
39.728662368
  0
LINE
  5
2C3
100
AcDbEntity
  8
0
100
AcDbLine
 62
7
  6
CONTINUOUS
 10
23.7539975421
 20
39.0559879066
 11
23.7539975421
 21
38.6886041469
  0
LINE
  5
2C4
100
AcDbEntity
  8
0
100
AcDbLine
 62
7
  6
CONTINUOUS
 10
24.8500261535
 20
39.3213927836
 11
24.8500261535
 21
40.1378952007
  0
LINE
  5
2C5
100
AcDbEntity
  8
0
100
AcDbLine
 62
7
  6
CONTINUOUS
 10
24.991431318
 20
8.719970764
 11
24.991431318
 21
12.4404496836
  0
LINE
  5
2C6
100
AcDbEntity
  8
0
100
AcDbLine
 62
7
  6
CONTINUOUS
 10
24.9914539865
 20
29.3600828941
 11
24.9914539865
 21
28.8701814439
  0
LINE
  5
2C7
100
AcDbEntity
  8
0
100
AcDbLine
 62
7
  6
CONTINUOUS
 10
25.29695795
 20
13.3842997305
 11
25.29695795
 21
12.5677973134
  0
LINE
  5
2C8
100
AcDbEntity
  8
0
100
AcDbLine
 62
7
  6
CONTINUOUS
 10
24.9914539865
 20
29.3600828941
 11
25.6985578237
 21
29.768327048
  0
LINE
  5
2C9
100
AcDbEntity
  8
0
100
AcDbLine
 62
7
  6
CONTINUOUS
 10
34.3511665314
 20
34.7549170083
 11
34.2898694459
 21
34.7195273307
  0
LINE
  5
2CA
100
AcDbEntity
  8
0
100
AcDbLine
 62
7
  6
CONTINUOUS
 10
21.9768493802
 20
27.6106443156
 11
21.269745543
 21
27.2024001617
  0
LINE
  5
2CB
100
AcDbEntity
  8
0
100
AcDbLine
 62
7
  6
CONTINUOUS
 10
32.4160531092
 20
33.1567501586
 11
34.2898694459
 21
34.2385920673
  0
LINE
  5
2CC
100
AcDbEntity
  8
0
100
AcDbLine
 62
7
  6
CONTINUOUS
 10
25.6985608785
 20
29.2784203069
 11
20.7841755568
 21
26.4410972126
  0
LINE
  5
2CD
100
AcDbEntity
  8
0
100
AcDbLine
 62
7
  6
CONTINUOUS
 10
32.4160531092
 20
31.9320176969
 11
26.7592224114
 21
28.666064466
  0
LINE
  5
2CE
100
AcDbEntity
  8
0
100
AcDbLine
 62
7
  6
CONTINUOUS
 10
7.7733572029
 20
42.1585781388
 11
9.1875766532
 21
41.3420966298
  0
LINE
  5
2CF
100
AcDbEntity
  8
0
100
AcDbLine
 62
7
  6
CONTINUOUS
 10
22.3631232356
 20
37.8855872851
 11
22.1487069309
 21
38.438211685
  0
LINE
  5
2D0
100
AcDbEntity
  8
0
100
AcDbLine
 62
7
  6
CONTINUOUS
 10
19.8368654866
 20
42.2118973439
 11
21.1377310082
 21
38.239564118
  0
LINE
  5
2D1
100
AcDbEntity
  8
0
100
AcDbLine
 62
7
  6
CONTINUOUS
 10
21.8448348454
 20
38.6478082719
 11
20.5439693238
 21
42.6201414978
  0
LINE
  5
2D2
100
AcDbEntity
  8
0
100
AcDbLine
 62
7
  6
CONTINUOUS
 10
22.6349163666
 20
38.718923158
 11
21.8611718005
 21
42.6453768515
  0
LINE
  5
2D3
100
AcDbEntity
  8
0
100
AcDbLine
 62
7
  6
CONTINUOUS
 10
20.839782925
 20
50.6530840956
 11
20.7920588097
 21
50.8952654779
  0
LINE
  5
2D4
100
AcDbEntity
  8
0
100
AcDbLine
 62
7
  6
CONTINUOUS
 10
25.6985578237
 20
29.2784255977
 11
25.6985578237
 21
38.8315038782
  0
LINE
  5
2D5
100
AcDbEntity
  8
0
100
AcDbLine
 62
7
  6
CONTINUOUS
 10
25.9106733719
 20
12.2134765652
 11
25.9106733719
 21
13.0299789823
  0
LINE
  5
2D6
100
AcDbEntity
  8
0
100
AcDbLine
 62
7
  6
CONTINUOUS
 10
26.7592224114
 20
28.666064466
 11
26.7592224114
 21
39.0356451635
  0
LINE
  5
2D7
100
AcDbEntity
  8
0
100
AcDbLine
 62
7
  6
CONTINUOUS
 10
27.4663262487
 20
33.8017789332
 11
27.4663262487
 21
37.8108844831
  0
LWPOLYLINE
  5
2D8
100
AcDbEntity
  8
0
100
AcDbPolyline
 62
7
  6
CONTINUOUS
 90
3
 70
0
 10
19.3806369047
 20
35.0355158967
 10
20.322023755
 20
34.927333981
 10
20.3454599706
 20
34.9300212688
  0
LINE
  5
2D9
100
AcDbEntity
  8
0
100
AcDbLine
 62
7
  6
CONTINUOUS
 10
8.8340129587
 20
42.7709443696
 11
8.9325252507
 21
42.714069558
  0
LINE
  5
2DA
100
AcDbEntity
  8
0
100
AcDbLine
 62
7
  6
CONTINUOUS
 10
9.1875766532
 20
42.6485004972
 11
7.7733572029
 21
43.4649820062
  0
LINE
  5
2DB
100
AcDbEntity
  8
0
100
AcDbLine
 62
7
  6
CONTINUOUS
 10
22.905505321
 20
35.6676076392
 11
22.0569736509
 21
36.1574965446
  0
LINE
  5
2DC
100
AcDbEntity
  8
0
100
AcDbLine
 62
7
  6
CONTINUOUS
 10
24.1305675877
 20
41.182037279
 11
24.7574059237
 21
39.2679187881
  0
LINE
  5
2DD
100
AcDbEntity
  8
0
100
AcDbLine
 62
7
  6
CONTINUOUS
 10
28.4745003609
 20
17.1123900968
 11
28.4745003609
 21
29.6563747404
  0
LINE
  5
2DE
100
AcDbEntity
  8
0
100
AcDbLine
 62
7
  6
CONTINUOUS
 10
20.2415897901
 20
37.3873507379
 11
19.4868865981
 21
37.4729515668
  0
LINE
  5
2DF
100
AcDbEntity
  8
0
100
AcDbLine
 62
7
  6
CONTINUOUS
 10
20.0431474024
 20
38.7186371142
 11
19.3555867866
 21
38.9117451246
  0
LINE
  5
2E0
100
AcDbEntity
  8
0
100
AcDbLine
 62
7
  6
CONTINUOUS
 10
23.6126091583
 20
36.0758517931
 11
22.7640774881
 21
36.5657406985
  0
LINE
  5
2E1
100
AcDbEntity
  8
0
100
AcDbLine
 62
7
  6
CONTINUOUS
 10
7.7026456416
 20
45.5062352528
 11
6.9955359164
 21
45.9144760073
  0
LINE
  5
2E2
100
AcDbEntity
  8
0
100
AcDbLine
 62
7
  6
CONTINUOUS
 10
21.9155452291
 20
37.627179545
 11
22.7640768993
 21
37.1372906396
  0
LINE
  5
2E3
100
AcDbEntity
  8
0
100
AcDbLine
 62
7
  6
CONTINUOUS
 10
9.4704205433
 20
45.6287385013
 11
7.7733572029
 21
46.6085163122
  0
LINE
  5
2E4
100
AcDbEntity
  8
0
100
AcDbLine
 62
7
  6
CONTINUOUS
 10
9.4704205433
 20
45.7920348031
 11
7.0662463002
 21
47.1800540484
  0
LINE
  5
2E5
100
AcDbEntity
  8
0
100
AcDbLine
 62
7
  6
CONTINUOUS
 10
30.7543202313
 20
48.8254778425
 11
30.7543202313
 21
51.1275664727
  0
LINE
  5
2E6
100
AcDbEntity
  8
0
100
AcDbLine
 62
7
  6
CONTINUOUS
 10
31.4261053819
 20
40.097050385
 11
31.4261053819
 21
36.4145401582
  0
LINE
  5
2E7
100
AcDbEntity
  8
0
100
AcDbLine
 62
7
  6
CONTINUOUS
 10
7.0662463002
 20
47.9965564655
 11
9.4704205433
 21
46.6085372203
  0
LINE
  5
2E8
100
AcDbEntity
  8
0
100
AcDbLine
 62
7
  6
CONTINUOUS
 10
18.3800030801
 20
41.5463581366
 11
9.4704205433
 21
46.6901916436
  0
LINE
  5
2E9
100
AcDbEntity
  8
0
100
AcDbLine
 62
7
  6
CONTINUOUS
 10
24.0721657593
 20
38.8722975563
 11
23.7539975421
 21
39.0559879066
  0
LINE
  5
2EA
100
AcDbEntity
  8
0
100
AcDbLine
 62
7
  6
CONTINUOUS
 10
10.1775243805
 20
47.0984357975
 11
18.3800030801
 21
42.3628396457
  0
LINE
  5
2EB
100
AcDbEntity
  8
0
100
AcDbLine
 62
7
  6
CONTINUOUS
 10
25.6985578237
 20
38.8315038782
 11
24.8500261535
 21
39.3213927836
  0
LINE
  5
2EC
100
AcDbEntity
  8
0
100
AcDbLine
 62
7
  6
CONTINUOUS
 10
31.7089492719
 20
40.2603494063
 11
31.7089492719
 21
36.2512438564
  0
LINE
  5
2ED
100
AcDbEntity
  8
0
100
AcDbLine
 62
7
  6
CONTINUOUS
 10
31.9210512778
 20
24.0935127625
 11
31.9210512778
 21
31.6462299623
  0
LINE
  5
2EE
100
AcDbEntity
  8
0
100
AcDbLine
 62
7
  6
CONTINUOUS
 10
32.4160531092
 20
42.3015983945
 11
32.4160531092
 21
31.9320176969
  0
LINE
  5
2EF
100
AcDbEntity
  8
0
100
AcDbLine
 62
7
  6
CONTINUOUS
 10
32.486739058
 20
17.2349008219
 11
32.486739058
 21
16.8266496133
  0
LINE
  5
2F0
100
AcDbEntity
  8
0
100
AcDbLine
 62
7
  6
CONTINUOUS
 10
32.6281551151
 20
24.5017569164
 11
32.6281551151
 21
33.2792065778
  0
LINE
  5
2F1
100
AcDbEntity
  8
0
100
AcDbLine
 62
7
  6
CONTINUOUS
 10
32.9817158656
 20
16.9491322937
 11
32.9817158656
 21
23.4811516307
  0
LINE
  5
2F2
100
AcDbEntity
  8
0
100
AcDbLine
 62
7
  6
CONTINUOUS
 10
33.1938428952
 20
17.0716031603
 11
33.1938428952
 21
16.41839135
  0
LINE
  5
2F3
100
AcDbEntity
  8
0
100
AcDbLine
 62
7
  6
CONTINUOUS
 10
32.6281551151
 20
24.5017569164
 11
31.9210512778
 21
24.0935127625
  0
LINE
  5
2F4
100
AcDbEntity
  8
0
100
AcDbLine
 62
7
  6
CONTINUOUS
 10
20.2538379638
 20
17.3574842236
 11
19.5467341266
 21
16.9492400698
  0
LINE
  5
2F5
100
AcDbEntity
  8
0
100
AcDbLine
 62
7
  6
CONTINUOUS
 10
33.6888197028
 20
23.8893957846
 11
32.9817158656
 21
23.4811516307
  0
LINE
  5
2F6
100
AcDbEntity
  8
0
100
AcDbLine
 62
7
  6
CONTINUOUS
 10
21.3145025515
 20
16.7451230919
 11
20.6073987143
 21
16.336878938
  0
LINE
  5
2F7
100
AcDbEntity
  8
0
100
AcDbLine
 62
7
  6
CONTINUOUS
 10
16.5854403562
 20
43.3989074785
 11
18.3800030801
 21
42.8948872814
  0
LINE
  5
2F8
100
AcDbEntity
  8
0
100
AcDbLine
 62
7
  6
CONTINUOUS
 10
20.6640757707
 20
42.2533835033
 11
21.0126471958
 21
42.1554838668
  0
LINE
  5
2F9
100
AcDbEntity
  8
0
100
AcDbLine
 62
7
  6
CONTINUOUS
 10
26.7592224114
 20
39.0356451635
 11
24.8500261535
 21
40.1378952007
  0
LINE
  5
2FA
100
AcDbEntity
  8
0
100
AcDbLine
 62
7
  6
CONTINUOUS
 10
31.4261053819
 20
36.4145401582
 11
31.7089492719
 21
36.2512438564
  0
LINE
  5
2FB
100
AcDbEntity
  8
0
100
AcDbLine
 62
7
  6
CONTINUOUS
 10
28.1387628413
 20
42.0366368787
 11
27.5298743155
 21
43.8959436878
  0
LINE
  5
2FC
100
AcDbEntity
  8
0
100
AcDbLine
 62
7
  6
CONTINUOUS
 10
33.5120481594
 20
44.2407355176
 11
33.5120481594
 21
45.3838368108
  0
LINE
  5
2FD
100
AcDbEntity
  8
0
100
AcDbLine
 62
7
  6
CONTINUOUS
 10
33.6888197028
 20
17.3573764476
 11
33.6888197028
 21
23.8893957846
  0
LINE
  5
2FE
100
AcDbEntity
  8
0
100
AcDbLine
 62
7
  6
CONTINUOUS
 10
34.2191519966
 20
44.4436526766
 11
34.2191519966
 21
45.7920809646
  0
LINE
  5
2FF
100
AcDbEntity
  8
0
100
AcDbLine
 62
7
  6
CONTINUOUS
 10
34.2898694459
 20
43.7916703477
 11
34.2898694459
 21
34.2385920673
  0
LINE
  5
300
100
AcDbEntity
  8
0
100
AcDbLine
 62
7
  6
CONTINUOUS
 10
34.4312908021
 20
43.3017692374
 11
34.4312908021
 21
42.4852668202
  0
LINE
  5
301
100
AcDbEntity
  8
0
100
AcDbLine
 62
7
  6
CONTINUOUS
 10
35.2798224723
 20
36.6881122035
 11
35.2798224723
 21
42.8118803319
  0
LINE
  5
302
100
AcDbEntity
  8
0
100
AcDbLine
 62
7
  6
CONTINUOUS
 10
21.8611718005
 20
42.6453768515
 11
20.3277000978
 21
43.0760671246
  0
LINE
  5
303
100
AcDbEntity
  8
0
100
AcDbLine
 62
7
  6
CONTINUOUS
 10
18.3800030801
 20
43.6230965605
 11
14.1292369271
 21
44.8169651087
  0
LINE
  5
304
100
AcDbEntity
  8
0
100
AcDbLine
 62
7
  6
CONTINUOUS
 10
34.2898694459
 20
37.2596489199
 11
35.2798224723
 21
36.6881122035
  0
LINE
  5
305
100
AcDbEntity
  8
0
100
AcDbLine
 62
7
  6
CONTINUOUS
 10
31.124232068
 20
47.9933752672
 11
31.8979766341
 21
44.0669215737
  0
LINE
  5
306
100
AcDbEntity
  8
0
100
AcDbLine
 62
7
  6
CONTINUOUS
 10
32.7465012388
 20
44.5568145583
 11
31.9727566726
 21
48.4832682518
  0
LINE
  5
307
100
AcDbEntity
  8
0
100
AcDbLine
 62
7
  6
CONTINUOUS
 10
35.9869263095
 20
37.0963563573
 11
35.9869263095
 21
43.2201244858
  0
LINE
  5
308
100
AcDbEntity
  8
0
100
AcDbLine
 62
7
  6
CONTINUOUS
 10
18.5567716795
 20
10.988731526
 11
17.4961159237
 21
10.3763652952
  0
LINE
  5
309
100
AcDbEntity
  8
0
100
AcDbLine
 62
7
  6
CONTINUOUS
 10
26.449762182
 20
45.0929885239
 11
26.5764902381
 21
45.0198237018
  0
LINE
  5
30A
100
AcDbEntity
  8
0
100
AcDbLine
 62
7
  6
CONTINUOUS
 10
34.4185928656
 20
35.3073556326
 11
34.2898694459
 21
35.6391200603
  0
LINE
  5
30B
100
AcDbEntity
  8
0
100
AcDbLine
 62
7
  6
CONTINUOUS
 10
19.5467317714
 20
9.5190610704
 11
20.3245731531
 21
9.9681453208
  0
LINE
  5
30C
100
AcDbEntity
  8
0
100
AcDbLine
 62
7
  6
CONTINUOUS
 10
21.3145025515
 20
10.5396779139
 11
24.0213527052
 21
12.1024692502
  0
LINE
  5
30D
100
AcDbEntity
  8
0
100
AcDbLine
 62
7
  6
CONTINUOUS
 10
25.9106733719
 20
13.0299789823
 11
32.486739058
 21
16.8266496133
  0
LINE
  5
30E
100
AcDbEntity
  8
0
100
AcDbLine
 62
7
  6
CONTINUOUS
 10
21.3145025515
 20
10.2131037548
 11
20.6073987143
 21
9.804859601
  0
LINE
  5
30F
100
AcDbEntity
  8
0
100
AcDbLine
 62
7
  6
CONTINUOUS
 10
32.9817158656
 20
16.9491322937
 11
33.6888197028
 21
17.3573764476
  0
LINE
  5
310
100
AcDbEntity
  8
0
100
AcDbLine
 62
7
  6
CONTINUOUS
 10
25.9106733719
 20
12.2134765652
 11
33.1938428952
 21
16.41839135
  0
LINE
  5
311
100
AcDbEntity
  8
0
100
AcDbLine
 62
7
  6
CONTINUOUS
 10
31.8979766341
 20
44.0669215737
 11
30.0668200046
 21
44.581219521
  0
LINE
  5
312
100
AcDbEntity
  8
0
100
AcDbLine
 62
7
  6
CONTINUOUS
 10
26.9848928937
 20
45.4468083849
 11
22.9943471871
 21
46.5675915186
  0
LINE
  5
313
100
AcDbEntity
  8
0
100
AcDbLine
 62
7
  6
CONTINUOUS
 10
32.4160531092
 20
42.3015983945
 11
30.5068568513
 21
43.4038484317
  0
LINE
  5
314
100
AcDbEntity
  8
0
100
AcDbLine
 62
7
  6
CONTINUOUS
 10
32.2111826378
 20
49.3561700367
 11
33.5120481594
 21
45.3838368108
  0
LINE
  5
315
100
AcDbEntity
  8
0
100
AcDbLine
 62
7
  6
CONTINUOUS
 10
34.2191519966
 20
45.7920809646
 11
32.918286475
 21
49.7644141906
  0
LINE
  5
316
100
AcDbEntity
  8
0
100
AcDbLine
 62
7
  6
CONTINUOUS
 10
19.1577307484
 20
50.5112958446
 11
20.1240940751
 21
50.239883412
  0
LINE
  5
317
100
AcDbEntity
  8
0
100
AcDbLine
 62
7
  6
CONTINUOUS
 10
35.2798224723
 20
42.8118803319
 11
34.4312908021
 21
43.3017692374
  0
LINE
  5
318
100
AcDbEntity
  8
0
100
AcDbLine
 62
7
  6
CONTINUOUS
 10
33.4413377757
 20
44.2815592531
 11
34.2898694459
 21
43.7916703477
  0
LINE
  5
319
100
AcDbEntity
  8
0
100
AcDbLine
 62
7
  6
CONTINUOUS
 10
35.9869263095
 20
43.2201244858
 11
35.1383946393
 21
43.7100133912
  0
LINE
  5
31A
100
AcDbEntity
  8
0
100
AcDbLine
 62
7
  6
CONTINUOUS
 10
21.1377154052
 20
6.4367344633
 11
22.0419003033
 21
6.9587627415
  0
LINE
  5
31B
100
AcDbEntity
  8
0
100
AcDbLine
 62
7
  6
CONTINUOUS
 10
21.1377154052
 20
5.5385959138
 11
19.5467317714
 21
4.6200465676
  0
LINE
  5
31C
100
AcDbEntity
  8
0
100
AcDbLine
 62
7
  6
CONTINUOUS
 10
20.8160018692
 20
50.7737637339
 11
20.0062553531
 21
51.0011888292
  0
LINE
  5
31D
100
AcDbEntity
  8
0
100
AcDbLine
 62
7
  6
CONTINUOUS
 10
20.7920588097
 20
50.8952654779
 11
21.1063593515
 21
50.8069911485
  0
LINE
  5
31E
100
AcDbEntity
  8
0
100
AcDbLine
 62
7
  6
CONTINUOUS
 10
23.3818037788
 20
50.1679107011
 11
31.124232068
 21
47.9933752672
  0
LINE
  5
31F
100
AcDbEntity
  8
0
100
AcDbLine
 62
7
  6
CONTINUOUS
 10
31.9727566726
 20
48.4832682518
 11
24.2303283835
 21
50.6578036858
  0
LINE
  5
320
100
AcDbEntity
  8
0
100
AcDbLine
 62
7
  6
CONTINUOUS
 10
21.9548839561
 20
51.2968841332
 11
21.6405834144
 21
51.3851584625
  0
LINE
  5
321
100
AcDbEntity
  8
0
100
AcDbLine
 62
7
  6
CONTINUOUS
 10
30.2994898611
 20
48.9532213255
 11
21.8447376945
 21
53.8344643363
  0
LINE
  5
322
100
AcDbEntity
  8
0
100
AcDbLine
 62
7
  6
CONTINUOUS
 10
19.8648257537
 20
55.3857756506
 11
22.1982841809
 21
54.038583277
  0
LINE
  5
323
100
AcDbEntity
  8
0
100
AcDbLine
 62
7
  6
CONTINUOUS
 10
22.5518415317
 20
54.2427084902
 11
30.7543202313
 21
49.5071123384
  0
ARC
  5
324
100
AcDbEntity
  8
0
100
AcDbCircle
 62
7
  6
CONTINUOUS
 10
9.2288423858
 20
20.8090879998
 40
27.0608998119
100
AcDbArc
 50
57.3284062582
 51
58.875248918
  0
ARC
  5
325
100
AcDbEntity
  8
0
100
AcDbCircle
 62
7
  6
CONTINUOUS
 10
15.4070810677
 20
42.5819042429
 40
17.330233292
100
AcDbArc
 50
4.1821886188
 51
6.2863514145
  0
ARC
  5
326
100
AcDbEntity
  8
0
100
AcDbCircle
 62
7
  6
CONTINUOUS
 10
19.025776713
 20
43.9957199668
 40
12.8599131907
100
AcDbArc
 50
0.0000943732
 51
0.1935778891
  0
ARC
  5
327
100
AcDbEntity
  8
0
100
AcDbCircle
 62
7
  6
CONTINUOUS
 10
18.3186728758
 20
43.5874758129
 40
12.8599131906
100
AcDbArc
 50
0.0000943732
 51
0.1935778891
  0
ARC
  5
328
100
AcDbEntity
  8
0
100
AcDbCircle
 62
7
  6
CONTINUOUS
 10
18.7663744771
 20
43.585688027
 40
12.4122117212
100
AcDbArc
 50
357.4033687787
 51
0.0083503425
  0
ARC
  5
329
100
AcDbEntity
  8
0
100
AcDbCircle
 62
7
  6
CONTINUOUS
 10
19.6953722981
 20
43.9890541147
 40
12.1903194396
100
AcDbArc
 50
357.1053348549
 51
0.0314297623
  0
ARC
  5
32A
100
AcDbEntity
  8
0
100
AcDbCircle
 62
7
  6
CONTINUOUS
 10
20.4803326273
 20
43.425092535
 40
6.0346648906
100
AcDbArc
 50
283.1004430271
 51
283.7802299454
  0
ARC
  5
32B
100
AcDbEntity
  8
0
100
AcDbCircle
 62
7
  6
CONTINUOUS
 10
20.7400303539
 20
41.4941469769
 40
3.4078827977
100
AcDbArc
 50
292.0585766602
 51
294.7262040668
  0
ARC
  5
32C
100
AcDbEntity
  8
0
100
AcDbCircle
 62
7
  6
CONTINUOUS
 10
32.8076858705
 20
45.457645869
 40
1.6918320225
100
AcDbArc
 50
235.0277649507
 51
236.6705096995
  0
ARC
  5
32D
100
AcDbEntity
  8
0
100
AcDbCircle
 62
7
  6
CONTINUOUS
 10
32.7809916186
 20
45.4172406412
 40
1.6434052261
100
AcDbArc
 50
236.6740984259
 51
236.9870092775
  0
ARC
  5
32E
100
AcDbEntity
  8
0
100
AcDbCircle
 62
7
  6
CONTINUOUS
 10
22.9227903151
 20
9.0788873263
 40
1.2911388184
100
AcDbArc
 50
113.4300226109
 51
116.9383385227
  0
ARC
  5
32F
100
AcDbEntity
  8
0
100
AcDbCircle
 62
7
  6
CONTINUOUS
 10
19.8695266945
 20
27.2914939295
 40
0.9158947382
100
AcDbArc
 50
2.9888317503
 51
7.1248686673
  0
ARC
  5
330
100
AcDbEntity
  8
0
100
AcDbCircle
 62
7
  6
CONTINUOUS
 10
20.3618263808
 20
28.0136548401
 40
0.8161626725
100
AcDbArc
 50
180.0132707741
 51
182.93476611
  0
ARC
  5
331
100
AcDbEntity
  8
0
100
AcDbCircle
 62
7
  6
CONTINUOUS
 10
33.5465333356
 20
43.3012338825
 40
0.780000581
100
AcDbArc
 50
10.0220012473
 51
11.8477883212
  0
ARC
  5
332
100
AcDbEntity
  8
0
100
AcDbCircle
 62
7
  6
CONTINUOUS
 10
19.71093571
 20
31.1768477882
 40
0.7652448522
100
AcDbArc
 50
180.0046410362
 51
181.7891758546
  0
ARC
  5
333
100
AcDbEntity
  8
0
100
AcDbCircle
 62
7
  6
CONTINUOUS
 10
9.0290832958
 20
41.6891037405
 40
0.6888256514
100
AcDbArc
 50
359.2400795667
 51
0.0011858877
  0
ARC
  5
334
100
AcDbEntity
  8
0
100
AcDbCircle
 62
7
  6
CONTINUOUS
 10
8.8431651868
 20
42.0111522473
 40
0.6888099169
100
AcDbArc
 50
59.9993749205
 51
60.7606117097
  0
ARC
  5
335
100
AcDbEntity
  8
0
100
AcDbCircle
 62
7
  6
CONTINUOUS
 10
22.2920696837
 20
36.6177443483
 40
0.4362091603
100
AcDbArc
 50
349.7076160069
 51
353.4390771119
  0
ARC
  5
336
100
AcDbEntity
  8
0
100
AcDbCircle
 62
7
  6
CONTINUOUS
 10
18.8272579486
 20
40.1198427868
 40
0.417318481
100
AcDbArc
 50
97.0871674933
 51
103.2674697152
  0
ARC
  5
337
100
AcDbEntity
  8
0
100
AcDbCircle
 62
7
  6
CONTINUOUS
 10
19.2441457137
 20
31.3130667136
 40
0.2655193222
100
AcDbArc
 50
117.654757238
 51
122.3416841315
  0
ARC
  5
338
100
AcDbEntity
  8
0
100
AcDbCircle
 62
7
  6
CONTINUOUS
 10
9.4548182586
 20
41.5324293668
 40
0.2655187225
100
AcDbArc
 50
297.6579128377
 51
302.3489271064
  0
ARC
  5
339
100
AcDbEntity
  8
0
100
AcDbCircle
 62
7
  6
CONTINUOUS
 10
34.1877432623
 20
42.3763882608
 40
0.2178376484
100
AcDbArc
 50
298.339376079
 51
299.9975034131
  0
SPLINE
  5
33A
100
AcDbEntity
  8
0
100
AcDbSpline
 62
7
  6
CONTINUOUS
 70
0
 71
3
 72
18
 73
14
 74
0
 42
0.0000001
 43
0.0000001
 44
0.0000000001
 40
0.0
 40
0.0
 40
0.0
 40
0.0
 40
0.0539106111
 40
0.1080795916
 40
0.1627590729
 40
0.2181899885
 40
0.2745951212
 40
0.332178505
 40
0.4515041608
 40
0.57739188
 40
0.7105716887
 40
0.8514464145
 40
1.0
 40
1.0
 40
1.0
 40
1.0
 10
17.3745014381
 20
45.6083244546
 30
0.0
 10
17.3745014386
 20
45.6362061148
 30
0.0
 10
17.376887655
 20
45.6921318561
 30
0.0
 10
17.3875916579
 20
45.7757200634
 30
0.0
 10
17.4054003171
 20
45.8588959397
 30
0.0
 10
17.4302698384
 20
45.9414417761
 30
0.0
 10
17.4621223209
 20
46.0231651798
 30
0.0
 10
17.5144110625
 20
46.1320229144
 30
0.0
 10
17.5976623996
 20
46.2653217826
 30
0.0
 10
17.7225218473
 20
46.4166407303
 30
0.0
 10
17.872253378
 20
46.5599701895
 30
0.0
 10
18.0453634884
 20
46.6939621058
 30
0.0
 10
18.1719903493
 20
46.7742201461
 30
0.0
 10
18.2385266717
 20
46.8126346805
 30
0.0
  0
SPLINE
  5
33B
100
AcDbEntity
  8
0
100
AcDbSpline
 62
7
  6
CONTINUOUS
 70
0
 71
3
 72
14
 73
10
 74
0
 42
0.0000001
 43
0.0000001
 44
0.0000000001
 40
0.0
 40
0.0
 40
0.0
 40
0.0
 40
0.2651725631
 40
0.3928811184
 40
0.517815451
 40
0.6404510963
 40
0.7613105546
 40
0.8809613458
 40
1.0
 40
1.0
 40
1.0
 40
1.0
 10
23.033670137
 20
43.5462641186
 30
0.0
 10
23.0721644211
 20
43.5978357778
 30
0.0
 10
23.1243234102
 20
43.6781616337
 30
0.0
 10
23.1804459528
 20
43.7907053933
 30
0.0
 10
23.2146279205
 20
43.8752336054
 30
0.0
 10
23.2413216987
 20
43.9606747979
 30
0.0
 10
23.260443083
 20
44.0468184819
 30
0.0
 10
23.2719365882
 20
44.1334221995
 30
0.0
 10
23.2744992835
 20
44.1913811519
 30
0.0
 10
23.2744992836
 20
44.2202703455
 30
0.0
  0
SPLINE
  5
33C
100
AcDbEntity
  8
0
100
AcDbSpline
 62
7
  6
CONTINUOUS
 70
0
 71
3
 72
11
 73
7
 74
0
 42
0.0000001
 43
0.0000001
 44
0.0000000001
 40
0.0
 40
0.0
 40
0.0
 40
0.0
 40
0.2469747284
 40
0.4951773389
 40
0.7458052217
 40
1.0
 40
1.0
 40
1.0
 40
1.0
 10
17.3745014381
 20
44.2202703455
 30
0.0
 10
17.374501438
 20
44.1918683483
 30
0.0
 10
17.3769779019
 20
44.1348929874
 30
0.0
 10
17.3880865464
 20
44.0497461457
 30
0.0
 10
17.4065656603
 20
43.9650415192
 30
0.0
 10
17.4236280381
 20
43.9094718258
 30
0.0
 10
17.433312457
 20
43.8818903211
 30
0.0
  0
SPLINE
  5
33D
100
AcDbEntity
  8
0
100
AcDbSpline
 62
7
  6
CONTINUOUS
 70
0
 71
3
 72
23
 73
19
 74
0
 42
0.0000001
 43
0.0000001
 44
0.0000000001
 40
0.0
 40
0.0
 40
0.0
 40
0.0
 40
0.0558339182
 40
0.1141812543
 40
0.1747820179
 40
0.2373527285
 40
0.3015481972
 40
0.3669918858
 40
0.4332820073
 40
0.4999994774
 40
0.5667169658
 40
0.6330071418
 40
0.6984509199
 40
0.7626465115
 40
0.8252173757
 40
0.8858183201
 40
0.9441658606
 40
1.0
 40
1.0
 40
1.0
 40
1.0
 10
18.2385266717
 20
46.8126346805
 30
0.0
 10
18.3084088713
 20
46.8529809464
 30
0.0
 10
18.4549557235
 20
46.9293111187
 30
0.0
 10
18.6875105433
 20
47.0284762016
 30
0.0
 10
18.9357256691
 20
47.1140323249
 30
0.0
 10
19.1971943008
 20
47.1851732428
 30
0.0
 10
19.4694466565
 20
47.2412182086
 30
0.0
 10
19.749875075
 20
47.2816371681
 30
0.0
 10
20.0358003046
 20
47.3060460098
 30
0.0
 10
20.3244880881
 20
47.314209549
 30
0.0
 10
20.6131759894
 20
47.3060473946
 30
0.0
 10
20.8991015711
 20
47.2816399237
 30
0.0
 10
21.1795305725
 20
47.2412223088
 30
0.0
 10
21.451783736
 20
47.1851786483
 30
0.0
 10
21.7132533924
 20
47.114038984
 30
0.0
 10
21.9614697499
 20
47.0284840506
 30
0.0
 10
22.1940259955
 20
46.9293200826
 30
0.0
 10
22.3405739133
 20
46.8529906304
 30
0.0
 10
22.4104566807
 20
46.8126447086
 30
0.0
  0
SPLINE
  5
33E
100
AcDbEntity
  8
0
100
AcDbSpline
 62
7
  6
CONTINUOUS
 70
0
 71
3
 72
18
 73
14
 74
0
 42
0.0000001
 43
0.0000001
 44
0.0000000001
 40
0.0
 40
0.0
 40
0.0
 40
0.0
 40
0.1485538477
 40
0.2894287772
 40
0.4226087165
 40
0.5484964773
 40
0.6678220809
 40
0.7254054056
 40
0.7818104596
 40
0.8372412793
 40
0.891920651
 40
0.9460895127
 40
1.0
 40
1.0
 40
1.0
 40
1.0
 10
22.4104566807
 20
46.8126447086
 30
0.0
 10
22.4769942569
 20
46.7742300901
 30
0.0
 10
22.6036235301
 20
46.693971786
 30
0.0
 10
22.776737044
 20
46.5599791395
 30
0.0
 10
22.926471588
 20
46.41664867
 30
0.0
 10
23.0513336001
 20
46.2653284664
 30
0.0
 10
23.1345866951
 20
46.1320283362
 30
0.0
 10
23.1868765434
 20
46.02316951
 30
0.0
 10
23.218729699
 20
45.941445281
 30
0.0
 10
23.2435997483
 20
45.8588985925
 30
0.0
 10
23.2614087836
 20
45.7757218429
 30
0.0
 10
23.2721130167
 20
45.6921327497
 30
0.0
 10
23.2744992841
 20
45.6362064109
 30
0.0
 10
23.2744992836
 20
45.6083244546
 30
0.0
  0
SPLINE
  5
33F
100
AcDbEntity
  8
0
100
AcDbSpline
 62
7
  6
CONTINUOUS
 70
0
 71
3
 72
16
 73
12
 74
0
 42
0.0000001
 43
0.0000001
 44
0.0000000001
 40
0.0
 40
0.0
 40
0.0
 40
0.0
 40
0.0546306582
 40
0.1108987502
 40
0.2278810662
 40
0.3501402768
 40
0.476640104
 40
0.6061894352
 40
0.7374987924
 40
0.8692218995
 40
1.0
 40
1.0
 40
1.0
 40
1.0
 10
22.4104740501
 20
44.4040142288
 30
0.0
 10
22.3665090392
 20
44.3786311695
 30
0.0
 10
22.2758326736
 20
44.3295409695
 30
0.0
 10
22.0846821211
 20
44.2382477639
 30
0.0
 10
21.8285448522
 20
44.1380645024
 30
0.0
 10
21.5021480384
 20
44.0419852786
 30
0.0
 10
21.1576941531
 20
43.9699430098
 30
0.0
 10
20.8004743638
 20
43.9230427583
 30
0.0
 10
20.4359476935
 20
43.9019989391
 30
0.0
 10
20.0697325896
 20
43.9071314892
 30
0.0
 10
19.8264456172
 20
43.9281073741
 30
0.0
 10
19.7058392256
 20
43.9430414637
 30
0.0
  0
SPLINE
  5
340
100
AcDbEntity
  8
0
100
AcDbSpline
 62
7
  6
CONTINUOUS
 70
0
 71
3
 72
9
 73
5
 74
0
 42
0.0000001
 43
0.0000001
 44
0.0000000001
 40
0.0
 40
0.0
 40
0.0
 40
0.0
 40
0.5117100485
 40
1.0
 40
1.0
 40
1.0
 40
1.0
 10
18.7223521637
 20
44.1782377204
 30
0.0
 10
18.6369671907
 20
44.2101228878
 30
0.0
 10
18.4723414293
 20
44.2786469968
 30
0.0
 10
18.3138649871
 20
44.3605186161
 30
0.0
 10
18.2385440411
 20
44.4040042007
 30
0.0
  0
SPLINE
  5
341
100
AcDbEntity
  8
0
100
AcDbSpline
 62
7
  6
CONTINUOUS
 70
0
 71
3
 72
18
 73
14
 74
0
 42
0.0000001
 43
0.0000001
 44
0.0000000001
 40
0.0
 40
0.0
 40
0.0
 40
0.0
 40
0.1485538477
 40
0.2894287772
 40
0.4226087165
 40
0.5484964773
 40
0.6678220809
 40
0.7254054056
 40
0.7818104596
 40
0.8372412793
 40
0.891920651
 40
0.9460895127
 40
1.0
 40
1.0
 40
1.0
 40
1.0
 10
18.2385440411
 20
44.4040042007
 30
0.0
 10
18.1720064648
 20
44.4424188192
 30
0.0
 10
18.0453771917
 20
44.5226771233
 30
0.0
 10
17.8722636778
 20
44.6566697698
 30
0.0
 10
17.7225291338
 20
44.8000002392
 30
0.0
 10
17.5976671216
 20
44.9513204429
 30
0.0
 10
17.5144140267
 20
45.0846205731
 30
0.0
 10
17.4621241784
 20
45.1934793993
 30
0.0
 10
17.4302710228
 20
45.2752036283
 30
0.0
 10
17.4054009734
 20
45.3577503167
 30
0.0
 10
17.3875919381
 20
45.4409270663
 30
0.0
 10
17.3768877051
 20
45.5245161596
 30
0.0
 10
17.3745014376
 20
45.5804424984
 30
0.0
 10
17.3745014381
 20
45.6083244546
 30
0.0
  0
SPLINE
  5
342
100
AcDbEntity
  8
0
100
AcDbSpline
 62
7
  6
CONTINUOUS
 70
0
 71
3
 72
18
 73
14
 74
0
 42
0.0000001
 43
0.0000001
 44
0.0000000001
 40
0.0
 40
0.0
 40
0.0
 40
0.0
 40
0.0539106111
 40
0.1080795916
 40
0.1627590729
 40
0.2181899885
 40
0.2745951212
 40
0.332178505
 40
0.4515041608
 40
0.57739188
 40
0.7105716887
 40
0.8514464145
 40
1.0
 40
1.0
 40
1.0
 40
1.0
 10
23.2744992836
 20
45.6083244546
 30
0.0
 10
23.2744992832
 20
45.5804427945
 30
0.0
 10
23.2721130668
 20
45.5245170532
 30
0.0
 10
23.2614090639
 20
45.4409288459
 30
0.0
 10
23.2436004046
 20
45.3577529696
 30
0.0
 10
23.2187308834
 20
45.2752071332
 30
0.0
 10
23.1868784009
 20
45.1934837295
 30
0.0
 10
23.1345896593
 20
45.0846259948
 30
0.0
 10
23.0513383222
 20
44.9513271267
 30
0.0
 10
22.9264788744
 20
44.800008179
 30
0.0
 10
22.7767473437
 20
44.6566787198
 30
0.0
 10
22.6036372333
 20
44.5226868034
 30
0.0
 10
22.4770103725
 20
44.4424287632
 30
0.0
 10
22.4104740501
 20
44.4040142288
 30
0.0
  0
SPLINE
  5
343
100
AcDbEntity
  8
0
100
AcDbSpline
 62
7
  6
CONTINUOUS
 70
0
 71
3
 72
14
 73
10
 74
0
 42
0.0000001
 43
0.0000001
 44
0.0000000001
 40
0.0
 40
0.0
 40
0.0
 40
0.0
 40
0.289253767
 40
0.4225619226
 40
0.5485064083
 40
0.667883941
 40
0.7818603608
 40
0.8919500602
 40
1.0
 40
1.0
 40
1.0
 40
1.0
 10
19.7942219416
 20
27.9924371695
 30
0.0
 10
19.7942219416
 20
28.0279148372
 30
0.0
 10
19.798367806
 20
28.079997334
 30
0.0
 10
19.8143754026
 20
28.1454589317
 30
0.0
 10
19.8306647145
 20
28.1890805918
 30
0.0
 10
19.8514298338
 20
28.2281084464
 30
0.0
 10
19.8765029653
 20
28.2621635896
 30
0.0
 10
19.9056567155
 20
28.2908622109
 30
0.0
 10
19.9277269516
 20
28.3062546245
 30
0.0
 10
19.9392034273
 20
28.3128819535
 30
0.0
  0
SPLINE
  5
344
100
AcDbEntity
  8
0
100
AcDbSpline
 62
7
  6
CONTINUOUS
 70
0
 71
3
 72
11
 73
7
 74
0
 42
0.0000001
 43
0.0000001
 44
0.0000000001
 40
0.0
 40
0.0
 40
0.0
 40
0.0
 40
0.2272415956
 40
0.4717260756
 40
0.7304592477
 40
1.0
 40
1.0
 40
1.0
 40
1.0
 10
20.1556594246
 20
28.3341241028
 30
0.0
 10
20.1878183384
 20
28.3184349547
 30
0.0
 10
20.2521084012
 20
28.280674755
 30
0.0
 10
20.3433833221
 20
28.2102850732
 30
0.0
 10
20.4310778959
 20
28.1256097338
 30
0.0
 10
20.4849098152
 20
28.0619945305
 30
0.0
 10
20.5107926206
 20
28.0283576562
 30
0.0
  0
SPLINE
  5
345
100
AcDbEntity
  8
0
100
AcDbSpline
 62
7
  6
CONTINUOUS
 70
0
 71
3
 72
11
 73
7
 74
0
 42
0.0000001
 43
0.0000001
 44
0.0000000001
 40
0.0
 40
0.0
 40
0.0
 40
0.0
 40
0.2330885967
 40
0.4735570068
 40
0.7278359031
 40
1.0
 40
1.0
 40
1.0
 40
1.0
 10
19.9392034273
 20
28.3128819535
 30
0.0
 10
19.95419147
 20
28.3215371099
 30
0.0
 10
19.9867313419
 20
28.3357351182
 30
0.0
 10
20.0401316973
 20
28.3462204536
 30
0.0
 10
20.097397527
 20
28.3459919702
 30
0.0
 10
20.1360714335
 20
28.3390958152
 30
0.0
 10
20.1556594246
 20
28.3341241028
 30
0.0
  0
SPLINE
  5
346
100
AcDbEntity
  8
0
100
AcDbSpline
 62
7
  6
CONTINUOUS
 70
0
 71
3
 72
11
 73
7
 74
0
 42
0.0000001
 43
0.0000001
 44
0.0000000001
 40
0.0
 40
0.0
 40
0.0
 40
0.0
 40
0.226778266
 40
0.4640705106
 40
0.7203895622
 40
1.0
 40
1.0
 40
1.0
 40
1.0
 10
19.9983935763
 20
33.199947763
 30
0.0
 10
20.0271766634
 20
33.2165538188
 30
0.0
 10
20.0816100221
 20
33.2589145636
 30
0.0
 10
20.1458624203
 20
33.3439560548
 30
0.0
 10
20.1921874047
 20
33.4482454195
 30
0.0
 10
20.21004263
 20
33.525184912
 30
0.0
 10
20.2162235701
 20
33.5656874356
 30
0.0
  0
SPLINE
  5
347
100
AcDbEntity
  8
0
100
AcDbSpline
 62
7
  6
CONTINUOUS
 70
0
 71
3
 72
15
 73
11
 74
0
 42
0.0000001
 43
0.0000001
 44
0.0000000001
 40
0.0
 40
0.0
 40
0.0
 40
0.0
 40
0.1120018821
 40
0.2338894157
 40
0.3631199712
 40
0.4964549193
 40
0.6302910924
 40
0.7609502659
 40
0.8851673016
 40
1.0
 40
1.0
 40
1.0
 40
1.0
 10
20.1981296424
 20
33.6393999495
 30
0.0
 10
20.1428687302
 20
33.6678022282
 30
0.0
 10
20.0330986698
 20
33.7383484859
 30
0.0
 10
19.8815261714
 20
33.8719231319
 30
0.0
 10
19.7409258616
 20
34.033045974
 30
0.0
 10
19.6169527482
 20
34.2152797628
 30
0.0
 10
19.5145726267
 20
34.4113500082
 30
0.0
 10
19.4377922965
 20
34.613445113
 30
0.0
 10
19.3898171801
 20
34.8134291191
 30
0.0
 10
19.3776895192
 20
34.9461651137
 30
0.0
 10
19.3776895192
 20
35.0098680802
 30
0.0
  0
SPLINE
  5
348
100
AcDbEntity
  8
0
100
AcDbSpline
 62
7
  6
CONTINUOUS
 70
0
 71
3
 72
12
 73
8
 74
0
 42
0.0000001
 43
0.0000001
 44
0.0000000001
 40
0.0
 40
0.0
 40
0.0
 40
0.0
 40
0.1081665502
 40
0.2183379719
 40
0.4512998972
 40
0.7106798711
 40
1.0
 40
1.0
 40
1.0
 40
1.0
 10
9.5625539923
 20
41.3458148841
 30
0.0
 10
9.5502576555
 20
41.3387156359
 30
0.0
 10
9.5241607999
 20
41.3264755504
 30
0.0
 10
9.4668469104
 20
41.3105795238
 30
0.0
 10
9.3865074951
 20
41.308434654
 30
0.0
 10
9.2859668135
 20
41.3328353981
 30
0.0
 10
9.2204666011
 20
41.3639331599
 30
0.0
 10
9.1875766532
 20
41.3829217506
 30
0.0
  0
SPLINE
  5
349
100
AcDbEntity
  8
0
100
AcDbSpline
 62
7
  6
CONTINUOUS
 70
0
 71
3
 72
11
 73
7
 74
0
 42
0.0000001
 43
0.0000001
 44
0.0000000001
 40
0.0
 40
0.0
 40
0.0
 40
0.0
 40
0.2177647485
 40
0.4508921226
 40
0.710382141
 40
1.0
 40
1.0
 40
1.0
 40
1.0
 10
19.4666976201
 20
39.2407161374
 30
0.0
 10
19.4427799589
 20
39.2269193695
 30
0.0
 10
19.3878546025
 20
39.2069347459
 30
0.0
 10
19.2965666497
 20
39.2046419815
 30
0.0
 10
19.1993049307
 20
39.2281528843
 30
0.0
 10
19.1360113569
 20
39.2582439113
 30
0.0
 10
19.1042086705
 20
39.2766047855
 30
0.0
  0
SPLINE
  5
34A
100
AcDbEntity
  8
0
100
AcDbSpline
 62
7
  6
CONTINUOUS
 70
0
 71
3
 72
9
 73
5
 74
0
 42
0.0000001
 43
0.0000001
 44
0.0000000001
 40
0.0
 40
0.0
 40
0.0
 40
0.0
 40
0.4920965843
 40
1.0
 40
1.0
 40
1.0
 40
1.0
 10
9.596882104
 20
41.30811297
 30
0.0
 10
9.6124351479
 20
41.3179634893
 30
0.0
 10
9.6420167766
 20
41.3413459217
 30
0.0
 10
9.666359593
 20
41.3700851702
 30
0.0
 10
9.6773031463
 20
41.3856187484
 30
0.0
  0
SPLINE
  5
34B
100
AcDbEntity
  8
0
100
AcDbSpline
 62
7
  6
CONTINUOUS
 70
0
 71
3
 72
10
 73
6
 74
0
 42
0.0000001
 43
0.0000001
 44
0.0000000001
 40
0.0
 40
0.0
 40
0.0
 40
0.0
 40
0.4622880483
 40
0.7216686929
 40
1.0
 40
1.0
 40
1.0
 40
1.0
 10
9.6773031463
 20
41.3856187484
 30
0.0
 10
9.7036470436
 20
41.4230119953
 30
0.0
 10
9.7323194875
 20
41.4904947351
 30
0.0
 10
9.7503111491
 20
41.5878502239
 30
0.0
 10
9.7532644333
 20
41.6411664132
 30
0.0
 10
9.7532644333
 20
41.6687059599
 30
0.0
  0
SPLINE
  5
34C
100
AcDbEntity
  8
0
100
AcDbSpline
 62
7
  6
CONTINUOUS
 70
0
 71
3
 72
12
 73
8
 74
0
 42
0.0000001
 43
0.0000001
 44
0.0000000001
 40
0.0
 40
0.0
 40
0.0
 40
0.0
 40
0.1081660482
 40
0.2183370456
 40
0.4512985564
 40
0.7106788764
 40
1.0
 40
1.0
 40
1.0
 40
1.0
 10
33.8916050437
 20
47.5689155532
 30
0.0
 10
33.9034917619
 20
47.5757783179
 30
0.0
 10
33.9263526952
 20
47.5917097571
 30
0.0
 10
33.9673628681
 20
47.6320084258
 30
0.0
 10
34.007989911
 20
47.6982304779
 30
0.0
 10
34.0361573034
 20
47.7941955193
 30
0.0
 10
34.0417815004
 20
47.864062223
 30
0.0
 10
34.0417815004
 20
47.9007752299
 30
0.0
  0
SPLINE
  5
34D
100
AcDbEntity
  8
0
100
AcDbSpline
 62
7
  6
CONTINUOUS
 70
0
 71
3
 72
11
 73
7
 74
0
 42
0.0000001
 43
0.0000001
 44
0.0000000001
 40
0.0
 40
0.0
 40
0.0
 40
0.0
 40
0.2225906852
 40
0.4579568698
 40
0.7158442544
 40
1.0
 40
1.0
 40
1.0
 40
1.0
 10
22.5221068285
 20
40.0502382652
 30
0.0
 10
22.5367446188
 20
40.0586733734
 30
0.0
 10
22.5642853406
 20
40.0808797053
 30
0.0
 10
22.5954122498
 20
40.1261755071
 30
0.0
 10
22.6161081229
 20
40.1819385768
 30
0.0
 10
22.6226206216
 20
40.2228153742
 30
0.0
 10
22.6243240983
 20
40.2443149363
 30
0.0
  0
SPLINE
  5
34E
100
AcDbEntity
  8
0
100
AcDbSpline
 62
7
  6
CONTINUOUS
 70
0
 71
3
 72
17
 73
13
 74
0
 42
0.0000001
 43
0.0000001
 44
0.0000000001
 40
0.0
 40
0.0
 40
0.0
 40
0.0
 40
0.0452359283
 40
0.0913000119
 40
0.1389488277
 40
0.188816524
 40
0.296731612
 40
0.4172096016
 40
0.5500393212
 40
0.6934069055
 40
0.8446312425
 40
1.0
 40
1.0
 40
1.0
 40
1.0
 10
24.0468256167
 20
41.1056016834
 30
0.0
 10
24.0694543785
 20
41.1186664533
 30
0.0
 10
24.1129679726
 20
41.1489761443
 30
0.0
 10
24.1706183378
 20
41.2052908836
 30
0.0
 10
24.2203538385
 20
41.2720642904
 30
0.0
 10
24.2769483641
 20
41.3767603363
 30
0.0
 10
24.3243042453
 20
41.5320909851
 30
0.0
 10
24.3428925739
 20
41.7410205352
 30
0.0
 10
24.3249750903
 20
41.9703502605
 30
0.0
 10
24.2714161988
 20
42.2120815265
 30
0.0
 10
24.1841321627
 20
42.4575102899
 30
0.0
 10
24.106043476
 20
42.616947679
 30
0.0
 10
24.06216855
 20
42.6952367193
 30
0.0
  0
SPLINE
  5
34F
100
AcDbEntity
  8
0
100
AcDbSpline
 62
7
  6
CONTINUOUS
 70
0
 71
3
 72
17
 73
13
 74
0
 42
0.0000001
 43
0.0000001
 44
0.0000000001
 40
0.0
 40
0.0
 40
0.0
 40
0.0
 40
0.0452359283
 40
0.0913000119
 40
0.1389488277
 40
0.188816524
 40
0.296731612
 40
0.4172096016
 40
0.5500393212
 40
0.6934069055
 40
0.8446312425
 40
1.0
 40
1.0
 40
1.0
 40
1.0
 10
30.835022454
 20
45.0247455605
 30
0.0
 10
30.8576512158
 20
45.0378103304
 30
0.0
 10
30.9011648099
 20
45.0681200215
 30
0.0
 10
30.9588151751
 20
45.1244347608
 30
0.0
 10
31.0085506758
 20
45.1912081676
 30
0.0
 10
31.0651452014
 20
45.2959042135
 30
0.0
 10
31.1125010825
 20
45.4512348623
 30
0.0
 10
31.1310894111
 20
45.6601644124
 30
0.0
 10
31.1131719275
 20
45.8894941377
 30
0.0
 10
31.0596130361
 20
46.1312254037
 30
0.0
 10
30.9723289999
 20
46.376654167
 30
0.0
 10
30.8942403132
 20
46.5360915562
 30
0.0
 10
30.8503653872
 20
46.6143805964
 30
0.0
  0
SPLINE
  5
350
100
AcDbEntity
  8
0
100
AcDbSpline
 62
7
  6
CONTINUOUS
 70
0
 71
3
 72
13
 73
9
 74
0
 42
0.0000001
 43
0.0000001
 44
0.0000000001
 40
0.0
 40
0.0
 40
0.0
 40
0.0
 40
0.1081020487
 40
0.218238851
 40
0.3322415883
 40
0.4516664189
 40
0.7106903402
 40
1.0
 40
1.0
 40
1.0
 40
1.0
 10
28.6430005565
 20
43.7591886872
 30
0.0
 10
28.6200465117
 20
43.7459361238
 30
0.0
 10
28.5712992283
 20
43.723139513
 30
0.0
 10
28.4924565399
 20
43.7013277152
 30
0.0
 10
28.4084082612
 20
43.6919257446
 30
0.0
 10
28.2873697202
 20
43.6961444609
 30
0.0
 10
28.1265753725
 20
43.7349122285
 30
0.0
 10
28.0044381208
 20
43.7930508952
 30
0.0
 10
27.9430066357
 20
43.8285175774
 30
0.0
  0
SPLINE
  5
351
100
AcDbEntity
  8
0
100
AcDbSpline
 62
7
  6
CONTINUOUS
 70
0
 71
3
 72
9
 73
5
 74
0
 42
0.0000001
 43
0.0000001
 44
0.0000000001
 40
0.0
 40
0.0
 40
0.0
 40
0.0
 40
0.2563889204
 40
1.0
 40
1.0
 40
1.0
 40
1.0
 10
24.0213527052
 20
12.1024692502
 30
0.0
 10
24.1327342554
 20
12.1351990607
 30
0.0
 10
24.5651474278
 20
12.2695323561
 30
0.0
 10
24.9892921083
 20
12.4310148986
 30
0.0
 10
25.29695795
 20
12.5677973134
 30
0.0
  0
SPLINE
  5
352
100
AcDbEntity
  8
0
100
AcDbSpline
 62
7
  6
CONTINUOUS
 70
0
 71
3
 72
18
 73
14
 74
0
 42
0.0000001
 43
0.0000001
 44
0.0000000001
 40
0.0
 40
0.0
 40
0.0
 40
0.0
 40
0.0428485482
 40
0.0874678192
 40
0.1352854958
 40
0.1872410072
 40
0.3044774503
 40
0.4381126611
 40
0.5824223183
 40
0.7295402742
 40
0.8711413646
 40
0.9376289733
 40
1.0
 40
1.0
 40
1.0
 40
1.0
 10
19.886361557
 20
30.200699895
 30
0.0
 10
19.8678729279
 20
30.1900250916
 30
0.0
 10
19.8271305753
 20
30.1730460625
 30
0.0
 10
19.75984752
 20
30.1632324491
 30
0.0
 10
19.6875980627
 20
30.1685049086
 30
0.0
 10
19.5826289104
 20
30.1964742288
 30
0.0
 10
19.4484226745
 20
30.2698215804
 30
0.0
 10
19.3001542328
 20
30.40112543
 30
0.0
 10
19.1690903313
 20
30.5688976043
 30
0.0
 10
19.0659536236
 20
30.7594610348
 30
0.0
 10
19.0088710477
 20
30.9281704325
 30
0.0
 10
18.9853053877
 20
31.0610521848
 30
0.0
 10
18.9810463465
 20
31.1252977862
 30
0.0
 10
18.9810463465
 20
31.1563737646
 30
0.0
  0
SPLINE
  5
353
100
AcDbEntity
  8
0
100
AcDbSpline
 62
7
  6
CONTINUOUS
 70
0
 71
3
 72
10
 73
6
 74
0
 42
0.0000001
 43
0.0000001
 44
0.0000000001
 40
0.0
 40
0.0
 40
0.0
 40
0.0
 40
0.2783296535
 40
0.537709705
 40
1.0
 40
1.0
 40
1.0
 40
1.0
 10
19.5113786403
 20
31.5033951324
 30
0.0
 10
19.4875301563
 20
31.5171637496
 30
0.0
 10
19.439883288
 20
31.5412622927
 30
0.0
 10
19.346580773
 20
31.5743566378
 30
0.0
 10
19.2738074114
 20
31.5832671877
 30
0.0
 10
19.2282544102
 20
31.5791507843
 30
0.0
  0
SPLINE
  5
354
100
AcDbEntity
  8
0
100
AcDbSpline
 62
7
  6
CONTINUOUS
 70
0
 71
3
 72
9
 73
5
 74
0
 42
0.0000001
 43
0.0000001
 44
0.0000000001
 40
0.0
 40
0.0
 40
0.0
 40
0.0
 40
0.5079045457
 40
1.0
 40
1.0
 40
1.0
 40
1.0
 10
19.2282544102
 20
31.5791507843
 30
0.0
 10
19.2093258058
 20
31.5774402983
 30
0.0
 10
19.1722569547
 20
31.5707272014
 30
0.0
 10
19.1372088755
 20
31.5567954047
 30
0.0
 10
19.120898464
 20
31.5482483787
 30
0.0
  0
SPLINE
  5
355
100
AcDbEntity
  8
0
100
AcDbSpline
 62
7
  6
CONTINUOUS
 70
0
 71
3
 72
20
 73
16
 74
0
 42
0.0000001
 43
0.0000001
 44
0.0000000001
 40
0.0
 40
0.0
 40
0.0
 40
0.0
 40
0.0642763837
 40
0.1322228508
 40
0.2754124202
 40
0.4225266262
 40
0.5656792215
 40
0.6335304335
 40
0.6978349002
 40
0.7580341397
 40
0.8138380444
 40
0.8652636076
 40
0.9127541155
 40
0.9572120197
 40
1.0
 40
1.0
 40
1.0
 40
1.0
 10
20.7046458225
 20
27.4925795326
 30
0.0
 10
20.7026468656
 20
27.5256707502
 30
0.0
 10
20.6944729885
 20
27.5935388531
 30
0.0
 10
20.6633472417
 20
27.732318538
 30
0.0
 10
20.5977219019
 20
27.906170031
 30
0.0
 10
20.4854485288
 20
28.1005053706
 30
0.0
 10
20.367642175
 20
28.244116419
 30
0.0
 10
20.2630027699
 20
28.3403881465
 30
0.0
 10
20.1834139322
 20
28.3999471751
 30
0.0
 10
20.1028601262
 20
28.4468752946
 30
0.0
 10
20.022918894
 20
28.4803003093
 30
0.0
 10
19.9450547021
 20
28.4993971972
 30
0.0
 10
19.8707354238
 20
28.5036896318
 30
0.0
 10
19.8015344598
 20
28.4927096506
 30
0.0
 10
19.7595441018
 20
28.4750907692
 30
0.0
 10
19.740432172
 20
28.4640564779
 30
0.0
  0
SPLINE
  5
356
100
AcDbEntity
  8
0
100
AcDbSpline
 62
7
  6
CONTINUOUS
 70
0
 71
3
 72
15
 73
11
 74
0
 42
0.0000001
 43
0.0000001
 44
0.0000000001
 40
0.0
 40
0.0
 40
0.0
 40
0.0
 40
0.1141241598
 40
0.2373483675
 40
0.3669736385
 40
0.5000010132
 40
0.6330282465
 40
0.7626531028
 40
0.8858766831
 40
1.0
 40
1.0
 40
1.0
 40
1.0
 10
9.7532644333
 20
41.6687059599
 30
0.0
 10
9.7532644333
 20
41.7134103359
 30
0.0
 10
9.7450560889
 20
41.8064682763
 30
0.0
 10
9.7124304218
 20
41.9468518747
 30
0.0
 10
9.6601028494
 20
42.0890501515
 30
0.0
 10
9.5901151323
 20
42.2277107153
 30
0.0
 10
9.5050249078
 20
42.3576516093
 30
0.0
 10
9.4080410698
 20
42.474066904
 30
0.0
 10
9.3027780498
 20
42.5725121893
 30
0.0
 10
9.2262917115
 20
42.6261488535
 30
0.0
 10
9.1875766532
 20
42.6485004972
 30
0.0
  0
SPLINE
  5
357
100
AcDbEntity
  8
0
100
AcDbSpline
 62
7
  6
CONTINUOUS
 70
0
 71
3
 72
9
 73
5
 74
0
 42
0.0000001
 43
0.0000001
 44
0.0000000001
 40
0.0
 40
0.0
 40
0.0
 40
0.0
 40
0.2420007693
 40
1.0
 40
1.0
 40
1.0
 40
1.0
 10
20.2162235701
 20
33.5656874356
 30
0.0
 10
20.2403883583
 20
33.7240346921
 30
0.0
 10
20.3265797552
 20
34.3804163907
 30
0.0
 10
20.3599103105
 20
35.0433743725
 30
0.0
 10
20.3599103105
 20
35.5450946421
 30
0.0
  0
SPLINE
  5
358
100
AcDbEntity
  8
0
100
AcDbSpline
 62
7
  6
CONTINUOUS
 70
0
 71
3
 72
9
 73
5
 74
0
 42
0.0000001
 43
0.0000001
 44
0.0000000001
 40
0.0
 40
0.0
 40
0.0
 40
0.0
 40
0.4852784932
 40
1.0
 40
1.0
 40
1.0
 40
1.0
 10
20.3599103105
 20
35.5450946421
 30
0.0
 10
20.3599103105
 20
36.1652538126
 30
0.0
 10
20.2805175654
 20
37.4438890604
 30
0.0
 10
20.0670715614
 20
38.7062023193
 30
0.0
 10
19.9275202958
 20
39.3490144977
 30
0.0
  0
SPLINE
  5
359
100
AcDbEntity
  8
0
100
AcDbSpline
 62
7
  6
CONTINUOUS
 70
0
 71
3
 72
15
 73
11
 74
0
 42
0.0000001
 43
0.0000001
 44
0.0000000001
 40
0.0
 40
0.0
 40
0.0
 40
0.0
 40
0.1322669077
 40
0.2702832494
 40
0.4097234858
 40
0.5464846515
 40
0.6765304812
 40
0.7965614541
 40
0.9044771375
 40
1.0
 40
1.0
 40
1.0
 40
1.0
 10
19.9275202958
 20
39.3490144977
 30
0.0
 10
19.9117242784
 20
39.4217753738
 30
0.0
 10
19.8682139379
 20
39.5681661604
 30
0.0
 10
19.774401141
 20
39.7794791109
 30
0.0
 10
19.6540274069
 20
39.9798726541
 30
0.0
 10
19.5126210796
 20
40.1603811561
 30
0.0
 10
19.3563236241
 20
40.3130205035
 30
0.0
 10
19.1918585704
 20
40.4310894638
 30
0.0
 10
19.0262537034
 20
40.509419653
 30
0.0
 10
18.9126982544
 20
40.5337301675
 30
0.0
 10
18.8590064823
 20
40.5366623441
 30
0.0
  0
SPLINE
  5
35A
100
AcDbEntity
  8
0
100
AcDbSpline
 62
7
  6
CONTINUOUS
 70
0
 71
3
 72
9
 73
5
 74
0
 42
0.0000001
 43
0.0000001
 44
0.0000000001
 40
0.0
 40
0.0
 40
0.0
 40
0.0
 40
0.2557012819
 40
1.0
 40
1.0
 40
1.0
 40
1.0
 10
18.8590064823
 20
40.5366623441
 30
0.0
 10
18.8519135049
 20
40.5370497007
 30
0.0
 10
18.8241471673
 20
40.5379839277
 30
0.0
 10
18.7962877353
 20
40.5365311466
 30
0.0
 10
18.7757695192
 20
40.533972786
 30
0.0
  0
SPLINE
  5
35B
100
AcDbEntity
  8
0
100
AcDbSpline
 62
7
  6
CONTINUOUS
 70
0
 71
3
 72
9
 73
5
 74
0
 42
0.0000001
 43
0.0000001
 44
0.0000000001
 40
0.0
 40
0.0
 40
0.0
 40
0.0
 40
0.2534519368
 40
1.0
 40
1.0
 40
1.0
 40
1.0
 10
18.7314845392
 20
40.5260227575
 30
0.0
 10
18.7224799611
 20
40.5238898491
 30
0.0
 10
18.6872538824
 20
40.5142552782
 30
0.0
 10
18.6534135808
 20
40.4995021924
 30
0.0
 10
18.6298142852
 20
40.4858631945
 30
0.0
  0
SPLINE
  5
35C
100
AcDbEntity
  8
0
100
AcDbSpline
 62
7
  6
CONTINUOUS
 70
0
 71
3
 72
12
 73
8
 74
0
 42
0.0000001
 43
0.0000001
 44
0.0000000001
 40
0.0
 40
0.0
 40
0.0
 40
0.0
 40
0.1081519707
 40
0.2183166358
 40
0.4512890513
 40
0.7106876799
 40
1.0
 40
1.0
 40
1.0
 40
1.0
 10
34.2966538661
 20
42.1877305776
 30
0.0
 10
34.3073098229
 20
42.1938822134
 30
0.0
 10
34.3278038205
 20
42.2081652361
 30
0.0
 10
34.3645633523
 20
42.2443017373
 30
0.0
 10
34.4009956046
 20
42.3036703726
 30
0.0
 10
34.4262476283
 20
42.3897126233
 30
0.0
 10
34.4312908021
 20
42.4523525669
 30
0.0
 10
34.4312908021
 20
42.4852668202
 30
0.0
  0
SPLINE
  5
35D
100
AcDbEntity
  8
0
100
AcDbSpline
 62
7
  6
CONTINUOUS
 70
0
 71
3
 72
17
 73
13
 74
0
 42
0.0000001
 43
0.0000001
 44
0.0000000001
 40
0.0
 40
0.0
 40
0.0
 40
0.0
 40
0.0428684811
 40
0.0874825514
 40
0.1353190938
 40
0.1872802312
 40
0.3045453239
 40
0.4382089848
 40
0.582554935
 40
0.729686271
 40
0.8713360124
 40
1.0
 40
1.0
 40
1.0
 40
1.0
 10
21.6559303592
 20
35.3824103656
 30
0.0
 10
21.6460673133
 20
35.3767153742
 30
0.0
 10
21.6243271929
 20
35.3676923739
 30
0.0
 10
21.5884471935
 20
35.362420874
 30
0.0
 10
21.5499192205
 20
35.3652894266
 30
0.0
 10
21.4939223248
 20
35.3801470433
 30
0.0
 10
21.4223545096
 20
35.4193049258
 30
0.0
 10
21.3432733211
 20
35.4893283439
 30
0.0
 10
21.2733883642
 20
35.5788018699
 30
0.0
 10
21.2183437645
 20
35.6804768915
 30
0.0
 10
21.1826681655
 20
35.7860417283
 30
0.0
 10
21.1730862
 20
35.8579363302
 30
0.0
 10
21.1730862
 20
35.892119316
 30
0.0
  0
SPLINE
  5
35E
100
AcDbEntity
  8
0
100
AcDbSpline
 62
7
  6
CONTINUOUS
 70
0
 71
3
 72
12
 73
8
 74
0
 42
0.0000001
 43
0.0000001
 44
0.0000000001
 40
0.0
 40
0.0
 40
0.0
 40
0.0
 40
0.1081519707
 40
0.2183166358
 40
0.4512890513
 40
0.7106876799
 40
1.0
 40
1.0
 40
1.0
 40
1.0
 10
21.9223367149
 20
35.0434578848
 30
0.0
 10
21.9329926716
 20
35.0496095206
 30
0.0
 10
21.9534866692
 20
35.0638925434
 30
0.0
 10
21.9902462011
 20
35.1000290445
 30
0.0
 10
22.0266784533
 20
35.1593976799
 30
0.0
 10
22.0519304771
 20
35.2454399306
 30
0.0
 10
22.0569736509
 20
35.3080798741
 30
0.0
 10
22.0569736509
 20
35.3409941275
 30
0.0
  0
SPLINE
  5
35F
100
AcDbEntity
  8
0
100
AcDbSpline
 62
7
  6
CONTINUOUS
 70
0
 71
3
 72
15
 73
11
 74
0
 42
0.0000001
 43
0.0000001
 44
0.0000000001
 40
0.0
 40
0.0
 40
0.0
 40
0.0
 40
0.1302889537
 40
0.2632889278
 40
0.396712128
 40
0.5284472044
 40
0.6563677696
 40
0.7785558495
 40
0.8934995043
 40
1.0
 40
1.0
 40
1.0
 40
1.0
 10
20.5439693238
 20
42.6201414978
 30
0.0
 10
20.5121517755
 20
42.7172998142
 30
0.0
 10
20.4380189929
 20
42.9105371028
 30
0.0
 10
20.3000317072
 20
43.1900281541
 30
0.0
 10
20.1367679543
 20
43.456910874
 30
0.0
 10
19.9522991999
 20
43.7046616883
 30
0.0
 10
19.7510289871
 20
43.927265428
 30
0.0
 10
19.5378169252
 20
44.1194107555
 30
0.0
 10
19.3178009019
 20
44.2763374987
 30
0.0
 10
19.1637892922
 20
44.3583173504
 30
0.0
 10
19.0871069173
 20
44.3915379339
 30
0.0
  0
SPLINE
  5
360
100
AcDbEntity
  8
0
100
AcDbSpline
 62
7
  6
CONTINUOUS
 70
0
 71
3
 72
11
 73
7
 74
0
 42
0.0000001
 43
0.0000001
 44
0.0000000001
 40
0.0
 40
0.0
 40
0.0
 40
0.0
 40
0.217718696
 40
0.4508619991
 40
0.710481033
 40
1.0
 40
1.0
 40
1.0
 40
1.0
 10
34.3511517114
 20
34.7549428002
 30
0.0
 10
34.3709391035
 20
34.7663630446
 30
0.0
 10
34.4079913188
 20
34.7974560056
 30
0.0
 10
34.4474251079
 20
34.8619397194
 30
0.0
 10
34.4707881364
 20
34.9413929727
 30
0.0
 10
34.4754337096
 20
34.9992076408
 30
0.0
 10
34.4754337096
 20
35.0295885733
 30
0.0
  0
SPLINE
  5
361
100
AcDbEntity
  8
0
100
AcDbSpline
 62
7
  6
CONTINUOUS
 70
0
 71
3
 72
15
 73
11
 74
0
 42
0.0000001
 43
0.0000001
 44
0.0000000001
 40
0.0
 40
0.0
 40
0.0
 40
0.0
 40
0.0923389136
 40
0.1903898296
 40
0.2982928531
 40
0.4181004979
 40
0.5498773587
 40
0.6924451598
 40
0.8436729586
 40
1.0
 40
1.0
 40
1.0
 40
1.0
 10
21.2697307229
 20
27.2024259535
 30
0.0
 10
21.2513502886
 20
27.1918177313
 30
0.0
 10
21.209637065
 20
27.1760071519
 30
0.0
 10
21.1403513729
 20
27.1719881795
 30
0.0
 10
21.0662406296
 20
27.1864548635
 30
0.0
 10
20.9896020109
 20
27.218514538
 30
0.0
 10
20.9125962828
 20
27.2668606231
 30
0.0
 10
20.8375316178
 20
27.3299938099
 30
0.0
 10
20.7668910025
 20
27.4058687361
 30
0.0
 10
20.7245617476
 20
27.4626764081
 30
0.0
 10
20.7046458225
 20
27.4925795326
 30
0.0
  0
SPLINE
  5
362
100
AcDbEntity
  8
0
100
AcDbSpline
 62
7
  6
CONTINUOUS
 70
0
 71
3
 72
11
 73
7
 74
0
 42
0.0000001
 43
0.0000001
 44
0.0000000001
 40
0.0
 40
0.0
 40
0.0
 40
0.0
 40
0.217718696
 40
0.4508619991
 40
0.710481033
 40
1.0
 40
1.0
 40
1.0
 40
1.0
 10
21.9768345602
 20
27.6106701074
 30
0.0
 10
21.9966219522
 20
27.6220903518
 30
0.0
 10
22.0336741676
 20
27.6531833128
 30
0.0
 10
22.0731079567
 20
27.7176670267
 30
0.0
 10
22.0964709851
 20
27.7971202799
 30
0.0
 10
22.1011165584
 20
27.854934948
 30
0.0
 10
22.1011165584
 20
27.8853158806
 30
0.0
  0
SPLINE
  5
363
100
AcDbEntity
  8
0
100
AcDbSpline
 62
7
  6
CONTINUOUS
 70
0
 71
3
 72
9
 73
5
 74
0
 42
0.0000001
 43
0.0000001
 44
0.0000000001
 40
0.0
 40
0.0
 40
0.0
 40
0.0
 40
0.2581266844
 40
1.0
 40
1.0
 40
1.0
 40
1.0
 10
19.3776895192
 20
35.0098680802
 30
0.0
 10
19.3776895192
 20
35.0217627219
 30
0.0
 10
19.3784822171
 20
35.0678366204
 30
0.0
 10
19.3825357362
 20
35.1138801698
 30
0.0
 10
19.3876930265
 20
35.147674911
 30
0.0
  0
SPLINE
  5
364
100
AcDbEntity
  8
0
100
AcDbSpline
 62
7
  6
CONTINUOUS
 70
0
 71
3
 72
9
 73
5
 74
0
 42
0.0000001
 43
0.0000001
 44
0.0000000001
 40
0.0
 40
0.0
 40
0.0
 40
0.0
 40
0.2420007693
 40
1.0
 40
1.0
 40
1.0
 40
1.0
 10
19.3876930265
 20
35.147674911
 30
0.0
 10
19.4084930974
 20
35.2839738154
 30
0.0
 10
19.4826831605
 20
35.848960594
 30
0.0
 10
19.5113727524
 20
36.4196079707
 30
0.0
 10
19.5113727524
 20
36.8514684559
 30
0.0
  0
SPLINE
  5
365
100
AcDbEntity
  8
0
100
AcDbSpline
 62
7
  6
CONTINUOUS
 70
0
 71
3
 72
9
 73
5
 74
0
 42
0.0000001
 43
0.0000001
 44
0.0000000001
 40
0.0
 40
0.0
 40
0.0
 40
0.0
 40
0.4886189234
 40
1.0
 40
1.0
 40
1.0
 40
1.0
 10
19.5113727524
 20
36.8514684559
 30
0.0
 10
19.5113727524
 20
37.2403495234
 30
0.0
 10
19.475267655
 20
38.0365001286
 30
0.0
 10
19.3754699443
 20
38.8269567736
 30
0.0
 10
19.3099368086
 20
39.2286431411
 30
0.0
  0
SPLINE
  5
366
100
AcDbEntity
  8
0
100
AcDbSpline
 62
7
  6
CONTINUOUS
 70
0
 71
3
 72
13
 73
9
 74
0
 42
0.0000001
 43
0.0000001
 44
0.0000000001
 40
0.0
 40
0.0
 40
0.0
 40
0.0
 40
0.1081033366
 40
0.2182377598
 40
0.332238321
 40
0.4516627248
 40
0.7106932938
 40
1.0
 40
1.0
 40
1.0
 40
1.0
 10
25.8475039777
 20
8.2257195221
 30
0.0
 10
25.8720986977
 20
8.2115200723
 30
0.0
 10
25.9193674889
 20
8.1785009521
 30
0.0
 10
25.9818462512
 20
8.1170293041
 30
0.0
 10
26.0355929066
 20
8.0440752834
 30
0.0
 10
26.0965237915
 20
7.9295023744
 30
0.0
 10
26.1466901926
 20
7.7595288119
 30
0.0
 10
26.1581762011
 20
7.6150493421
 30
0.0
 10
26.1581762011
 20
7.5390467824
 30
0.0
  0
SPLINE
  5
367
100
AcDbEntity
  8
0
100
AcDbSpline
 62
7
  6
CONTINUOUS
 70
0
 71
3
 72
12
 73
8
 74
0
 42
0.0000001
 43
0.0000001
 44
0.0000000001
 40
0.0
 40
0.0
 40
0.0
 40
0.0
 40
0.1118473424
 40
0.2251935196
 40
0.4613752758
 40
0.7179620649
 40
1.0
 40
1.0
 40
1.0
 40
1.0
 10
23.0690634475
 20
10.271885184
 30
0.0
 10
23.0469956752
 20
10.2846208386
 30
0.0
 10
23.000646504
 20
10.3070935193
 30
0.0
 10
22.900277694
 20
10.3392585935
 30
0.0
 10
22.7612153638
 20
10.3534166546
 30
0.0
 10
22.5850900859
 20
10.3292860956
 30
0.0
 10
22.4683550002
 20
10.2890975708
 30
0.0
 10
22.409396422
 20
10.2635670969
 30
0.0
  0
SPLINE
  5
368
100
AcDbEntity
  8
0
100
AcDbSpline
 62
7
  6
CONTINUOUS
 70
0
 71
3
 72
15
 73
11
 74
0
 42
0.0000001
 43
0.0000001
 44
0.0000000001
 40
0.0
 40
0.0
 40
0.0
 40
0.0
 40
0.1117561716
 40
0.2334965492
 40
0.3626808654
 40
0.4960431963
 40
0.6299688412
 40
0.7607612822
 40
0.8850647938
 40
1.0
 40
1.0
 40
1.0
 40
1.0
 10
22.3378639667
 20
10.2299305989
 30
0.0
 10
22.2571862326
 20
10.1890155794
 30
0.0
 10
22.0967948142
 20
10.0869927791
 30
0.0
 10
21.8752435238
 20
9.8930542981
 30
0.0
 10
21.6695971498
 20
9.658557421
 30
0.0
 10
21.4881645046
 20
9.3929516055
 30
0.0
 10
21.338241087
 20
9.1069099107
 30
0.0
 10
21.2257927442
 20
8.8119164935
 30
0.0
 10
21.1554688964
 20
8.5199202644
 30
0.0
 10
21.1377154052
 20
8.3260866985
 30
0.0
 10
21.1377154052
 20
8.2330538904
 30
0.0
  0
SPLINE
  5
369
100
AcDbEntity
  8
0
100
AcDbSpline
 62
7
  6
CONTINUOUS
 70
0
 71
3
 72
9
 73
5
 74
0
 42
0.0000001
 43
0.0000001
 44
0.0000000001
 40
0.0
 40
0.0
 40
0.0
 40
0.0
 40
0.4773852748
 40
1.0
 40
1.0
 40
1.0
 40
1.0
 10
34.4754337096
 20
35.0295885733
 30
0.0
 10
34.4754337096
 20
35.0748928691
 30
0.0
 10
34.4642297143
 20
35.1698825306
 30
0.0
 10
34.4365331227
 20
35.2611174335
 30
0.0
 10
34.4185928656
 20
35.3073556326
 30
0.0
  0
SPLINE
  5
36A
100
AcDbEntity
  8
0
100
AcDbSpline
 62
7
  6
CONTINUOUS
 70
0
 71
3
 72
15
 73
11
 74
0
 42
0.0000001
 43
0.0000001
 44
0.0000000001
 40
0.0
 40
0.0
 40
0.0
 40
0.0
 40
0.1302889537
 40
0.2632889278
 40
0.396712128
 40
0.5284472044
 40
0.6563677696
 40
0.7785558495
 40
0.8934995043
 40
1.0
 40
1.0
 40
1.0
 40
1.0
 10
32.918286475
 20
49.7644141906
 30
0.0
 10
32.8864689268
 20
49.861572507
 30
0.0
 10
32.8123361442
 20
50.0548097956
 30
0.0
 10
32.6743488584
 20
50.3343008469
 30
0.0
 10
32.5110851056
 20
50.6011835668
 30
0.0
 10
32.3266163511
 20
50.8489343811
 30
0.0
 10
32.1253461383
 20
51.0715381208
 30
0.0
 10
31.9121340765
 20
51.2636834482
 30
0.0
 10
31.6921180532
 20
51.4206101914
 30
0.0
 10
31.5381064434
 20
51.5025900432
 30
0.0
 10
31.4614240686
 20
51.5358106266
 30
0.0
  0
SPLINE
  5
36B
100
AcDbEntity
  8
0
100
AcDbSpline
 62
7
  6
CONTINUOUS
 70
0
 71
3
 72
12
 73
8
 74
0
 42
0.0000001
 43
0.0000001
 44
0.0000000001
 40
0.0
 40
0.0
 40
0.0
 40
0.0
 40
0.2893210862
 40
0.5487016029
 40
0.7816630889
 40
0.8918340248
 40
1.0
 40
1.0
 40
1.0
 40
1.0
 10
8.6572443593
 20
42.3014791294
 30
0.0
 10
8.6572443593
 20
42.3394580967
 30
0.0
 10
8.6630625406
 20
42.4117340089
 30
0.0
 10
8.6922011715
 20
42.5110082274
 30
0.0
 10
8.7342291996
 20
42.5795137795
 30
0.0
 10
8.7766534746
 20
42.6212020683
 30
0.0
 10
8.8003027137
 20
42.6376828426
 30
0.0
 10
8.8125993141
 20
42.6447822429
 30
0.0
  0
SPLINE
  5
36C
100
AcDbEntity
  8
0
100
AcDbSpline
 62
7
  6
CONTINUOUS
 70
0
 71
3
 72
15
 73
11
 74
0
 42
0.0000001
 43
0.0000001
 44
0.0000000001
 40
0.0
 40
0.0
 40
0.0
 40
0.0
 40
0.1140738571
 40
0.2373573965
 40
0.3669860904
 40
0.4999990849
 40
0.6330122274
 40
0.7626412732
 40
0.8859253446
 40
1.0
 40
1.0
 40
1.0
 40
1.0
 10
9.1875766532
 20
41.3829217506
 30
0.0
 10
9.1512972122
 20
41.4038672218
 30
0.0
 10
9.0796070137
 20
41.4541784641
 30
0.0
 10
8.9808896574
 20
41.5464384459
 30
0.0
 10
8.8899512594
 20
41.6555926234
 30
0.0
 10
8.8102324168
 20
41.7774328469
 30
0.0
 10
8.7445744663
 20
41.9073913224
 30
0.0
 10
8.6955125976
 20
42.040723485
 30
0.0
 10
8.6649707905
 20
42.1723456123
 30
0.0
 10
8.6572443593
 20
42.259587183
 30
0.0
 10
8.6572443593
 20
42.3014791294
 30
0.0
  0
SPLINE
  5
36D
100
AcDbEntity
  8
0
100
AcDbSpline
 62
7
  6
CONTINUOUS
 70
0
 71
3
 72
13
 73
9
 74
0
 42
0.0000001
 43
0.0000001
 44
0.0000000001
 40
0.0
 40
0.0
 40
0.0
 40
0.0
 40
0.2859688639
 40
0.4236877705
 40
0.555338414
 40
0.6795822627
 40
0.7954278724
 40
1.0
 40
1.0
 40
1.0
 40
1.0
 10
18.73376637
 20
39.6732318953
 30
0.0
 10
18.6997387749
 20
39.7339496676
 30
0.0
 10
18.6565672021
 20
39.828346932
 30
0.0
 10
18.6173167277
 20
39.957840743
 30
0.0
 10
18.5984192523
 20
40.0519201356
 30
0.0
 10
18.5901720692
 20
40.1422735217
 30
0.0
 10
18.5933011505
 20
40.2504927854
 30
0.0
 10
18.6115887486
 20
40.3282757837
 30
0.0
 10
18.6327888846
 20
40.3733282652
 30
0.0
  0
SPLINE
  5
36E
100
AcDbEntity
  8
0
100
AcDbSpline
 62
7
  6
CONTINUOUS
 70
0
 71
3
 72
10
 73
6
 74
0
 42
0.0000001
 43
0.0000001
 44
0.0000000001
 40
0.0
 40
0.0
 40
0.0
 40
0.0
 40
0.5153948748
 40
0.7598406126
 40
1.0
 40
1.0
 40
1.0
 40
1.0
 10
18.6327888846
 20
40.3733282652
 30
0.0
 10
18.6449748689
 20
40.3992247419
 30
0.0
 10
18.667951132
 20
40.4355313078
 30
0.0
 10
18.7079291939
 20
40.4743360904
 30
0.0
 10
18.7301676326
 20
40.4897581815
 30
0.0
 10
18.741719721
 20
40.4964219385
 30
0.0
  0
SPLINE
  5
36F
100
AcDbEntity
  8
0
100
AcDbSpline
 62
7
  6
CONTINUOUS
 70
0
 71
3
 72
11
 73
7
 74
0
 42
0.0000001
 43
0.0000001
 44
0.0000000001
 40
0.0
 40
0.0
 40
0.0
 40
0.0
 40
0.228090886
 40
0.4746721051
 40
0.7342431879
 40
1.0
 40
1.0
 40
1.0
 40
1.0
 10
19.1042086705
 20
39.2766047855
 30
0.0
 10
19.0680917612
 20
39.2974564211
 30
0.0
 10
18.9968075196
 20
39.3477237261
 30
0.0
 10
18.8990028151
 20
39.4402235326
 30
0.0
 10
18.8093890777
 20
39.5497015933
 30
0.0
 10
18.7575216206
 20
39.6308437721
 30
0.0
 10
18.73376637
 20
39.6732318953
 30
0.0
  0
SPLINE
  5
370
100
AcDbEntity
  8
0
100
AcDbSpline
 62
7
  6
CONTINUOUS
 70
0
 71
3
 72
11
 73
7
 74
0
 42
0.0000001
 43
0.0000001
 44
0.0000000001
 40
0.0
 40
0.0
 40
0.0
 40
0.0
 40
0.2840552683
 40
0.5440561279
 40
0.7808468531
 40
1.0
 40
1.0
 40
1.0
 40
1.0
 10
33.5291269497
 20
48.7887140293
 30
0.0
 10
33.5025407371
 20
48.8040632391
 30
0.0
 10
33.449518564
 20
48.8300637423
 30
0.0
 10
33.3682517543
 20
48.8544682299
 30
0.0
 10
33.2905967358
 20
48.8614509664
 30
0.0
 10
33.2412400389
 20
48.8538773474
 30
0.0
 10
33.2185700582
 20
48.847018928
 30
0.0
  0
SPLINE
  5
371
100
AcDbEntity
  8
0
100
AcDbSpline
 62
7
  6
CONTINUOUS
 70
0
 71
3
 72
15
 73
11
 74
0
 42
0.0000001
 43
0.0000001
 44
0.0000000001
 40
0.0
 40
0.0
 40
0.0
 40
0.0
 40
0.1140747376
 40
0.2373589707
 40
0.366988104
 40
0.5000012485
 40
0.6330142409
 40
0.7626428473
 40
0.8859262251
 40
1.0
 40
1.0
 40
1.0
 40
1.0
 10
34.0417815004
 20
47.9007752299
 30
0.0
 10
34.0417815004
 20
47.9412708072
 30
0.0
 10
34.0343125689
 20
48.0256044084
 30
0.0
 10
34.0047888173
 20
48.1528392504
 30
0.0
 10
33.9573622625
 20
48.2817270754
 30
0.0
 10
33.8938928663
 20
48.4073536123
 30
0.0
 10
33.8168313056
 20
48.5251324516
 30
0.0
 10
33.7289242053
 20
48.6306480518
 30
0.0
 10
33.6334975283
 20
48.7198326372
 30
0.0
 10
33.5641970507
 20
48.7684667551
 30
0.0
 10
33.5291269497
 20
48.7887140293
 30
0.0
  0
SPLINE
  5
372
100
AcDbEntity
  8
0
100
AcDbSpline
 62
7
  6
CONTINUOUS
 70
0
 71
3
 72
13
 73
9
 74
0
 42
0.0000001
 43
0.0000001
 44
0.0000000001
 40
0.0
 40
0.0
 40
0.0
 40
0.0
 40
0.2893096708
 40
0.5483335451
 40
0.6677583788
 40
0.7817611281
 40
0.8918979437
 40
1.0
 40
1.0
 40
1.0
 40
1.0
 10
23.3468316938
 20
43.4611373451
 30
0.0
 10
23.2854002059
 20
43.4966040289
 30
0.0
 10
23.1632629669
 20
43.554742708
 30
0.0
 10
23.002468623
 20
43.593510456
 30
0.0
 10
22.8814300889
 20
43.5977291855
 30
0.0
 10
22.7973818043
 20
43.588327205
 30
0.0
 10
22.7185391016
 20
43.5665154288
 30
0.0
 10
22.6697918134
 20
43.5437188105
 30
0.0
 10
22.6468377709
 20
43.530466239
 30
0.0
  0
SPLINE
  5
373
100
AcDbEntity
  8
0
100
AcDbSpline
 62
7
  6
CONTINUOUS
 70
0
 71
3
 72
11
 73
7
 74
0
 42
0.0000001
 43
0.0000001
 44
0.0000000001
 40
0.0
 40
0.0
 40
0.0
 40
0.0
 40
0.2657574563
 40
0.5253291339
 40
0.771909829
 40
1.0
 40
1.0
 40
1.0
 40
1.0
 10
24.06216855
 20
42.6952367193
 30
0.0
 10
24.0162961885
 20
42.7770899207
 30
0.0
 10
23.9161397133
 20
42.9337797739
 30
0.0
 10
23.7430936086
 20
43.1451874025
 30
0.0
 10
23.5542280183
 20
43.3238066342
 30
0.0
 10
23.4165745367
 20
43.4208722069
 30
0.0
 10
23.3468316938
 20
43.4611373451
 30
0.0
  0
SPLINE
  5
374
100
AcDbEntity
  8
0
100
AcDbSpline
 62
7
  6
CONTINUOUS
 70
0
 71
3
 72
9
 73
5
 74
0
 42
0.0000001
 43
0.0000001
 44
0.0000000001
 40
0.0
 40
0.0
 40
0.0
 40
0.0
 40
0.239822219
 40
1.0
 40
1.0
 40
1.0
 40
1.0
 10
27.9430066357
 20
43.8285175774
 30
0.0
 10
27.9230484915
 20
43.8400401566
 30
0.0
 10
27.8411091599
 20
43.8902940392
 30
0.0
 10
27.764237559
 20
43.9486327816
 30
0.0
 10
27.7087984773
 20
43.9961998808
 30
0.0
  0
SPLINE
  5
375
100
AcDbEntity
  8
0
100
AcDbSpline
 62
7
  6
CONTINUOUS
 70
0
 71
3
 72
15
 73
11
 74
0
 42
0.0000001
 43
0.0000001
 44
0.0000000001
 40
0.0
 40
0.0
 40
0.0
 40
0.0
 40
0.1545733887
 40
0.3007300239
 40
0.4376643462
 40
0.5651587891
 40
0.6835789045
 40
0.7940916553
 40
0.8986480699
 40
1.0
 40
1.0
 40
1.0
 40
1.0
 10
26.9815697341
 20
45.2543179234
 30
0.0
 10
26.9717406061
 20
45.3062767306
 30
0.0
 10
26.9570491777
 20
45.4082819374
 30
0.0
 10
26.9504110043
 20
45.5581291797
 30
0.0
 10
26.9600250346
 20
45.6986003322
 30
0.0
 10
26.9856739483
 20
45.8274656039
 30
0.0
 10
27.0272386864
 20
45.942651073
 30
0.0
 10
27.0841409364
 20
46.0423034205
 30
0.0
 10
27.155787114
 20
46.1244436729
 30
0.0
 10
27.2129850356
 20
46.1667166952
 30
0.0
 10
27.2430127149
 20
46.1840532355
 30
0.0
  0
SPLINE
  5
376
100
AcDbEntity
  8
0
100
AcDbSpline
 62
7
  6
CONTINUOUS
 70
0
 71
3
 72
13
 73
9
 74
0
 42
0.0000001
 43
0.0000001
 44
0.0000000001
 40
0.0
 40
0.0
 40
0.0
 40
0.0
 40
0.2893096708
 40
0.5483335451
 40
0.6677583788
 40
0.7817611281
 40
0.8918979437
 40
1.0
 40
1.0
 40
1.0
 40
1.0
 10
30.1350285311
 20
47.3802812223
 30
0.0
 10
30.0735970431
 20
47.415747906
 30
0.0
 10
29.9514598042
 20
47.4738865852
 30
0.0
 10
29.7906654603
 20
47.5126543332
 30
0.0
 10
29.6696269262
 20
47.5168730627
 30
0.0
 10
29.5855786416
 20
47.5074710822
 30
0.0
 10
29.5067359388
 20
47.485659306
 30
0.0
 10
29.4579886507
 20
47.4628626877
 30
0.0
 10
29.4350346082
 20
47.4496101161
 30
0.0
  0
SPLINE
  5
377
100
AcDbEntity
  8
0
100
AcDbSpline
 62
7
  6
CONTINUOUS
 70
0
 71
3
 72
11
 73
7
 74
0
 42
0.0000001
 43
0.0000001
 44
0.0000000001
 40
0.0
 40
0.0
 40
0.0
 40
0.0
 40
0.2657574563
 40
0.5253291339
 40
0.771909829
 40
1.0
 40
1.0
 40
1.0
 40
1.0
 10
30.8503653872
 20
46.6143805964
 30
0.0
 10
30.8044930257
 20
46.6962337978
 30
0.0
 10
30.7043365506
 20
46.8529236511
 30
0.0
 10
30.5312904459
 20
47.0643312797
 30
0.0
 10
30.3424248555
 20
47.2429505114
 30
0.0
 10
30.204771374
 20
47.3400160841
 30
0.0
 10
30.1350285311
 20
47.3802812223
 30
0.0
  0
SPLINE
  5
378
100
AcDbEntity
  8
0
100
AcDbSpline
 62
7
  6
CONTINUOUS
 70
0
 71
3
 72
13
 73
9
 74
0
 42
0.0000001
 43
0.0000001
 44
0.0000000001
 40
0.0
 40
0.0
 40
0.0
 40
0.0
 40
0.2893052466
 40
0.5483352362
 40
0.6677598057
 40
0.78176081
 40
0.8918958892
 40
1.0
 40
1.0
 40
1.0
 40
1.0
 10
25.0975204453
 20
5.7019269259
 30
0.0
 10
25.0317031433
 20
5.6639275157
 30
0.0
 10
24.9008428076
 20
5.6016379267
 30
0.0
 10
24.7285655417
 20
5.5600983606
 30
0.0
 10
24.5988822213
 20
5.5555793061
 30
0.0
 10
24.5088320485
 20
5.5656472766
 30
0.0
 10
24.4243592855
 20
5.5890178694
 30
0.0
 10
24.3721308332
 20
5.613442593
 30
0.0
 10
24.3475369129
 20
5.6276415811
 30
0.0
  0
SPLINE
  5
379
100
AcDbEntity
  8
0
100
AcDbSpline
 62
7
  6
CONTINUOUS
 70
0
 71
3
 72
15
 73
11
 74
0
 42
0.0000001
 43
0.0000001
 44
0.0000000001
 40
0.0
 40
0.0
 40
0.0
 40
0.0
 40
0.1141242661
 40
0.2373486253
 40
0.3669740476
 40
0.5000015346
 40
0.6330288076
 40
0.7626536034
 40
0.8858770013
 40
1.0
 40
1.0
 40
1.0
 40
1.0
 10
26.1581762011
 20
7.5390467824
 30
0.0
 10
26.1581762011
 20
7.4552260494
 30
0.0
 10
26.1427856757
 20
7.2807423298
 30
0.0
 10
26.0816130688
 20
7.0175228333
 30
0.0
 10
25.9834997039
 20
6.7509006271
 30
0.0
 10
25.8522738483
 20
6.490911465
 30
0.0
 10
25.6927310313
 20
6.2472715415
 30
0.0
 10
25.5108878802
 20
6.0289920036
 30
0.0
 10
25.3135213966
 20
5.8444061506
 30
0.0
 10
25.1701106316
 20
5.7438366394
 30
0.0
 10
25.0975204453
 20
5.7019269259
 30
0.0
  0
SPLINE
  5
37A
100
AcDbEntity
  8
0
100
AcDbSpline
 62
7
  6
CONTINUOUS
 70
0
 71
3
 72
9
 73
5
 74
0
 42
0.0000001
 43
0.0000001
 44
0.0000000001
 40
0.0
 40
0.0
 40
0.0
 40
0.0
 40
0.4773852748
 40
1.0
 40
1.0
 40
1.0
 40
1.0
 10
22.1011165584
 20
27.8853158806
 30
0.0
 10
22.1011165584
 20
27.9306201763
 30
0.0
 10
22.089912563
 20
28.0256098378
 30
0.0
 10
22.0622159715
 20
28.1168447407
 30
0.0
 10
22.0442757144
 20
28.1630829399
 30
0.0
  0
SPLINE
  5
37B
100
AcDbEntity
  8
0
100
AcDbSpline
 62
7
  6
CONTINUOUS
 70
0
 71
3
 72
11
 73
7
 74
0
 42
0.0000001
 43
0.0000001
 44
0.0000000001
 40
0.0
 40
0.0
 40
0.0
 40
0.0
 40
0.2233249041
 40
0.4622879697
 40
0.7206480745
 40
1.0
 40
1.0
 40
1.0
 40
1.0
 10
23.2368569356
 20
49.7686192293
 30
0.0
 10
23.2587763803
 20
49.7922356364
 30
0.0
 10
23.2985451387
 20
49.846536667
 30
0.0
 10
23.3422215434
 20
49.941514528
 30
0.0
 10
23.3709973921
 20
50.0502968846
 30
0.0
 10
23.3797219555
 20
50.1276599277
 30
0.0
 10
23.3818037788
 20
50.1679107011
 30
0.0
  0
SPLINE
  5
37C
100
AcDbEntity
  8
0
100
AcDbSpline
 62
7
  6
CONTINUOUS
 70
0
 71
3
 72
11
 73
7
 74
0
 42
0.0000001
 43
0.0000001
 44
0.0000000001
 40
0.0
 40
0.0
 40
0.0
 40
0.0
 40
0.2895453772
 40
0.5491366158
 40
0.7822776227
 40
1.0
 40
1.0
 40
1.0
 40
1.0
 10
21.1730862
 20
36.7086217332
 30
0.0
 10
21.1730862
 20
36.7390056289
 30
0.0
 10
21.1777256388
 20
36.7968216429
 30
0.0
 10
21.2010981466
 20
36.8762720245
 30
0.0
 10
21.2405272243
 20
36.9407557179
 30
0.0
 10
21.2775797671
 20
36.9718480931
 30
0.0
 10
21.2973657018
 20
36.9832719235
 30
0.0
  0
SPLINE
  5
37D
100
AcDbEntity
  8
0
100
AcDbSpline
 62
7
  6
CONTINUOUS
 70
0
 71
3
 72
9
 73
5
 74
0
 42
0.0000001
 43
0.0000001
 44
0.0000000001
 40
0.0
 40
0.0
 40
0.0
 40
0.0
 40
0.2439151534
 40
1.0
 40
1.0
 40
1.0
 40
1.0
 10
22.7254220772
 20
36.5679032556
 30
0.0
 10
22.7259759212
 20
36.5726832764
 30
0.0
 10
22.7279414833
 20
36.5923150599
 30
0.0
 10
22.7287217074
 20
36.6120608108
 30
0.0
 10
22.7287217074
 20
36.6269769816
 30
0.0
  0
SPLINE
  5
37E
100
AcDbEntity
  8
0
100
AcDbSpline
 62
7
  6
CONTINUOUS
 70
0
 71
3
 72
18
 73
14
 74
0
 42
0.0000001
 43
0.0000001
 44
0.0000000001
 40
0.0
 40
0.0
 40
0.0
 40
0.0
 40
0.0623716577
 40
0.1288574093
 40
0.2704479018
 40
0.4175585361
 40
0.5618680084
 40
0.6955086193
 40
0.8127492772
 40
0.8647056544
 40
0.9125259678
 40
0.9571476196
 40
1.0
 40
1.0
 40
1.0
 40
1.0
 10
22.7287217074
 20
36.6269769816
 30
0.0
 10
22.7287217074
 20
36.6518380172
 30
0.0
 10
22.7253147845
 20
36.7032340252
 30
0.0
 10
22.7064632503
 20
36.8095348398
 30
0.0
 10
22.6608006943
 20
36.9444949717
 30
0.0
 10
22.5782991126
 20
37.0969415976
 30
0.0
 10
22.4734508579
 20
37.231160778
 30
0.0
 10
22.3548357501
 20
37.336208484
 30
0.0
 10
22.2474690293
 20
37.3948933138
 30
0.0
 10
22.1634906122
 20
37.4172682964
 30
0.0
 10
22.1056890484
 20
37.421490925
 30
0.0
 10
22.0518587913
 20
37.4136389832
 30
0.0
 10
22.0192629982
 20
37.4000544926
 30
0.0
 10
22.0044702859
 20
37.3915147264
 30
0.0
  0
SPLINE
  5
37F
100
AcDbEntity
  8
0
100
AcDbSpline
 62
7
  6
CONTINUOUS
 70
0
 71
3
 72
9
 73
5
 74
0
 42
0.0000001
 43
0.0000001
 44
0.0000000001
 40
0.0
 40
0.0
 40
0.0
 40
0.0
 40
0.2405790817
 40
1.0
 40
1.0
 40
1.0
 40
1.0
 10
35.0248664811
 20
43.6432545107
 30
0.0
 10
35.0261230128
 20
43.6501626543
 30
0.0
 10
35.0306205499
 20
43.6790077501
 30
0.0
 10
35.0323284749
 20
43.7082609617
 30
0.0
 10
35.0323284749
 20
43.730425259
 30
0.0
  0
SPLINE
  5
380
100
AcDbEntity
  8
0
100
AcDbSpline
 62
7
  6
CONTINUOUS
 70
0
 71
3
 72
19
 73
15
 74
0
 42
0.0000001
 43
0.0000001
 44
0.0000000001
 40
0.0
 40
0.0
 40
0.0
 40
0.0
 40
0.0623613801
 40
0.1288233048
 40
0.2703655811
 40
0.4174522966
 40
0.5617323696
 40
0.6953380427
 40
0.7563278349
 40
0.8128104328
 40
0.8647484721
 40
0.912562406
 40
0.9571633477
 40
1.0
 40
1.0
 40
1.0
 40
1.0
 10
35.0323284749
 20
43.730425259
 30
0.0
 10
35.0323284749
 20
43.7552889414
 30
0.0
 10
35.0289252016
 20
43.8066854525
 30
0.0
 10
35.0100704659
 20
43.9129829868
 30
0.0
 10
34.9644114678
 20
44.047937758
 30
0.0
 10
34.8818902236
 20
44.2004112933
 30
0.0
 10
34.7771071591
 20
44.334570126
 30
0.0
 10
34.6751533817
 20
44.4248613659
 30
0.0
 10
34.5895650579
 20
44.4772362325
 30
0.0
 10
34.527571229
 20
44.5046397588
 30
0.0
 10
34.4670763904
 20
44.5206992272
 30
0.0
 10
34.4092815965
 20
44.5249482027
 30
0.0
 10
34.3554571223
 20
44.5170785744
 30
0.0
 10
34.3228557896
 20
44.5035236464
 30
0.0
 10
34.3080633726
 20
44.4949866432
 30
0.0
  0
SPLINE
  5
381
100
AcDbEntity
  8
0
100
AcDbSpline
 62
7
  6
CONTINUOUS
 70
0
 71
3
 72
11
 73
7
 74
0
 42
0.0000001
 43
0.0000001
 44
0.0000000001
 40
0.0
 40
0.0
 40
0.0
 40
0.0
 40
0.283135485
 40
0.5430680967
 40
0.7803737584
 40
1.0
 40
1.0
 40
1.0
 40
1.0
 10
18.9810463465
 20
31.1563737646
 30
0.0
 10
18.9810463465
 20
31.187234149
 30
0.0
 10
18.9849568979
 20
31.2465387239
 30
0.0
 10
19.0039735877
 20
31.3298861764
 30
0.0
 10
19.0359374168
 20
31.401785106
 30
0.0
 10
19.0664273822
 20
31.4419319578
 30
0.0
 10
19.0833492246
 20
31.4588638228
 30
0.0
  0
SPLINE
  5
382
100
AcDbEntity
  8
0
100
AcDbSpline
 62
7
  6
CONTINUOUS
 70
0
 71
3
 72
9
 73
5
 74
0
 42
0.0000001
 43
0.0000001
 44
0.0000000001
 40
0.0
 40
0.0
 40
0.0
 40
0.0
 40
0.252758801
 40
1.0
 40
1.0
 40
1.0
 40
1.0
 10
19.0833492246
 20
31.4588638228
 30
0.0
 10
19.0873422394
 20
31.4628592027
 30
0.0
 10
19.1036364886
 20
31.4781613953
 30
0.0
 10
19.1219338108
 20
31.4913366094
 30
0.0
 10
19.1363957237
 20
31.4996865024
 30
0.0
  0
SPLINE
  5
383
100
AcDbEntity
  8
0
100
AcDbSpline
 62
7
  6
CONTINUOUS
 70
0
 71
3
 72
12
 73
8
 74
0
 42
0.0000001
 43
0.0000001
 44
0.0000000001
 40
0.0
 40
0.0
 40
0.0
 40
0.0
 40
0.2894224857
 40
0.5486962918
 40
0.781646137
 40
0.8918323221
 40
1.0
 40
1.0
 40
1.0
 40
1.0
 10
23.8246449249
 20
52.03818829
 30
0.0
 10
23.7807755654
 20
52.0635157035
 30
0.0
 10
23.6934526789
 20
52.1050115088
 30
0.0
 10
23.5593871967
 20
52.1374914588
 30
0.0
 10
23.4522852604
 20
52.1346461641
 30
0.0
 10
23.3758690545
 20
52.1134444495
 30
0.0
 10
23.3410553833
 20
52.097156365
 30
0.0
 10
23.3246560799
 20
52.0876970609
 30
0.0
  0
SPLINE
  5
384
100
AcDbEntity
  8
0
100
AcDbSpline
 62
7
  6
CONTINUOUS
 70
0
 71
3
 72
11
 73
7
 74
0
 42
0.0000001
 43
0.0000001
 44
0.0000000001
 40
0.0
 40
0.0
 40
0.0
 40
0.0
 40
0.28230877
 40
0.5419093363
 40
0.7795376114
 40
1.0
 40
1.0
 40
1.0
 40
1.0
 10
9.7178483624
 20
41.6799680355
 30
0.0
 10
9.7174525224
 20
41.6501714436
 30
0.0
 10
9.7129736954
 20
41.5929183997
 30
0.0
 10
9.6937901009
 20
41.5124860724
 30
0.0
 10
9.6624025014
 20
41.4429809653
 30
0.0
 10
9.6328338386
 20
41.4040179525
 30
0.0
 10
9.6164558647
 20
41.3874861219
 30
0.0
  0
SPLINE
  5
385
100
AcDbEntity
  8
0
100
AcDbSpline
 62
7
  6
CONTINUOUS
 70
0
 71
3
 72
9
 73
5
 74
0
 42
0.0000001
 43
0.0000001
 44
0.0000000001
 40
0.0
 40
0.0
 40
0.0
 40
0.0
 40
0.2528466733
 40
1.0
 40
1.0
 40
1.0
 40
1.0
 10
9.6164558647
 20
41.3874861219
 30
0.0
 10
9.6124077475
 20
41.3833999762
 30
0.0
 10
9.5958816538
 20
41.3677595948
 30
0.0
 10
9.5772734485
 20
41.3543131119
 30
0.0
 10
9.5625539923
 20
41.3458148841
 30
0.0
  0
SPLINE
  5
386
100
AcDbEntity
  8
0
100
AcDbSpline
 62
7
  6
CONTINUOUS
 70
0
 71
3
 72
15
 73
11
 74
0
 42
0.0000001
 43
0.0000001
 44
0.0000000001
 40
0.0
 40
0.0
 40
0.0
 40
0.0
 40
0.1140738571
 40
0.2373573965
 40
0.3669860904
 40
0.4999990849
 40
0.6330122274
 40
0.7626412732
 40
0.8859253446
 40
1.0
 40
1.0
 40
1.0
 40
1.0
 10
9.1875766532
 20
42.6076753763
 30
0.0
 10
9.2238560942
 20
42.5867299051
 30
0.0
 10
9.2955462927
 20
42.5364186628
 30
0.0
 10
9.3942636489
 20
42.4441586811
 30
0.0
 10
9.4852020469
 20
42.3350045035
 30
0.0
 10
9.5649208896
 20
42.2131642801
 30
0.0
 10
9.6305788401
 20
42.0832058046
 30
0.0
 10
9.6796407088
 20
41.949873642
 30
0.0
 10
9.7101825159
 20
41.8182515147
 30
0.0
 10
9.7179089471
 20
41.7310099439
 30
0.0
 10
9.7179089471
 20
41.6891179976
 30
0.0
  0
SPLINE
  5
387
100
AcDbEntity
  8
0
100
AcDbSpline
 62
7
  6
CONTINUOUS
 70
0
 71
3
 72
9
 73
5
 74
0
 42
0.0000001
 43
0.0000001
 44
0.0000000001
 40
0.0
 40
0.0
 40
0.0
 40
0.0
 40
0.2427749302
 40
1.0
 40
1.0
 40
1.0
 40
1.0
 10
19.1042086705
 20
40.4605332904
 30
0.0
 10
19.111063729
 20
40.45657561
 30
0.0
 10
19.1390118673
 20
40.4397769763
 30
0.0
 10
19.1658170898
 20
40.4210990932
 30
0.0
 10
19.1854488568
 20
40.4061281736
 30
0.0
  0
SPLINE
  5
388
100
AcDbEntity
  8
0
100
AcDbSpline
 62
7
  6
CONTINUOUS
 70
0
 71
3
 72
9
 73
5
 74
0
 42
0.0000001
 43
0.0000001
 44
0.0000000001
 40
0.0
 40
0.0
 40
0.0
 40
0.0
 40
0.4837534591
 40
1.0
 40
1.0
 40
1.0
 40
1.0
 10
19.1854488568
 20
40.4061281736
 30
0.0
 10
19.2431885607
 20
40.3620966578
 30
0.0
 10
19.351286943
 20
40.2560151608
 30
0.0
 10
19.4367672087
 20
40.1315047765
 30
0.0
 10
19.474650971
 20
40.0639061805
 30
0.0
  0
SPLINE
  5
389
100
AcDbEntity
  8
0
100
AcDbSpline
 62
7
  6
CONTINUOUS
 70
0
 71
3
 72
16
 73
12
 74
0
 42
0.0000001
 43
0.0000001
 44
0.0000000001
 40
0.0
 40
0.0
 40
0.0
 40
0.0
 40
0.1553635155
 40
0.306682902
 40
0.4500863234
 40
0.5829289672
 40
0.7034428631
 40
0.8113919092
 40
0.9086748793
 40
0.954752847
 40
1.0
 40
1.0
 40
1.0
 40
1.0
 10
19.474650971
 20
40.0639061805
 30
0.0
 10
19.4973652932
 20
40.0233754574
 30
0.0
 10
19.5377928033
 20
39.9408007442
 30
0.0
 10
19.5830128861
 20
39.8137095246
 30
0.0
 10
19.6107556151
 20
39.6885131803
 30
0.0
 10
19.6200169687
 20
39.5697698268
 30
0.0
 10
19.6103599642
 20
39.4615350404
 30
0.0
 10
19.5818191954
 20
39.3675246896
 30
0.0
 10
19.5414568207
 20
39.3027396903
 30
0.0
 10
19.5009690947
 20
39.2631558513
 30
0.0
 10
19.4784185507
 20
39.2474772901
 30
0.0
 10
19.4666976201
 20
39.2407161374
 30
0.0
  0
SPLINE
  5
38A
100
AcDbEntity
  8
0
100
AcDbSpline
 62
7
  6
CONTINUOUS
 70
0
 71
3
 72
15
 73
11
 74
0
 42
0.0000001
 43
0.0000001
 44
0.0000000001
 40
0.0
 40
0.0
 40
0.0
 40
0.0
 40
0.1065004809
 40
0.2214441098
 40
0.3436321796
 40
0.47155274
 40
0.6032878178
 40
0.7367110265
 40
0.8697110297
 40
1.0
 40
1.0
 40
1.0
 40
1.0
 10
18.3800030801
 20
43.98329378
 30
0.0
 10
18.4566854444
 20
43.9500732011
 30
0.0
 10
18.6106970306
 20
43.8680933734
 30
0.0
 10
18.8307130207
 20
43.7111666521
 30
0.0
 10
19.043925067
 20
43.519021356
 30
0.0
 10
19.2451952822
 20
43.2964176325
 30
0.0
 10
19.429664049
 20
43.0486668225
 30
0.0
 10
19.5929278276
 20
42.781784082
 30
0.0
 10
19.7309151312
 20
42.502292992
 30
0.0
 10
19.8050479343
 20
42.3090556728
 30
0.0
 10
19.8368654866
 20
42.2118973439
 30
0.0
  0
SPLINE
  5
38B
100
AcDbEntity
  8
0
100
AcDbSpline
 62
7
  6
CONTINUOUS
 70
0
 71
3
 72
18
 73
14
 74
0
 42
0.0000001
 43
0.0000001
 44
0.0000000001
 40
0.0
 40
0.0
 40
0.0
 40
0.0
 40
0.0623716577
 40
0.1288574093
 40
0.2704479018
 40
0.4175585361
 40
0.5618680084
 40
0.6955086193
 40
0.8127492772
 40
0.8647056544
 40
0.9125259678
 40
0.9571476196
 40
1.0
 40
1.0
 40
1.0
 40
1.0
 10
21.1377310082
 20
35.8717071084
 30
0.0
 10
21.1377310082
 20
35.8447743198
 30
0.0
 10
21.1414218414
 20
35.7890953111
 30
0.0
 10
21.1618443367
 20
35.6739360954
 30
0.0
 10
21.2113121057
 20
35.5277292858
 30
0.0
 10
21.3006888192
 20
35.3625787744
 30
0.0
 10
21.4142744285
 20
35.2171746622
 30
0.0
 10
21.5427741286
 20
35.1033729808
 30
0.0
 10
21.6590880762
 20
35.0397977485
 30
0.0
 10
21.7500646947
 20
35.015558184
 30
0.0
 10
21.8126830554
 20
35.0109836697
 30
0.0
 10
21.8709991673
 20
35.0194899399
 30
0.0
 10
21.9063112765
 20
35.0342064715
 30
0.0
 10
21.9223367149
 20
35.0434578848
 30
0.0
  0
SPLINE
  5
38C
100
AcDbEntity
  8
0
100
AcDbSpline
 62
7
  6
CONTINUOUS
 70
0
 71
3
 72
15
 73
11
 74
0
 42
0.0000001
 43
0.0000001
 44
0.0000000001
 40
0.0
 40
0.0
 40
0.0
 40
0.0
 40
0.1155647106
 40
0.2395690682
 40
0.3694356957
 40
0.5022461854
 40
0.6347472594
 40
0.7637123309
 40
0.8863182829
 40
1.0
 40
1.0
 40
1.0
 40
1.0
 10
18.9460639325
 20
31.1529553633
 30
0.0
 10
18.9474382575
 20
31.1086236418
 30
0.0
 10
18.9578786191
 20
31.0168751109
 30
0.0
 10
18.992734244
 20
30.8790837913
 30
0.0
 10
19.0461684717
 20
30.7402717113
 30
0.0
 10
19.1162224619
 20
30.6054085369
 30
0.0
 10
19.2004431766
 20
30.4793217985
 30
0.0
 10
19.2958006538
 20
30.3664650717
 30
0.0
 10
19.3988969344
 20
30.2709603833
 30
0.0
 10
19.4735934456
 20
30.2188060638
 30
0.0
 10
19.5113786403
 20
30.196991265
 30
0.0
  0
SPLINE
  5
38D
100
AcDbEntity
  8
0
100
AcDbSpline
 62
7
  6
CONTINUOUS
 70
0
 71
3
 72
17
 73
13
 74
0
 42
0.0000001
 43
0.0000001
 44
0.0000000001
 40
0.0
 40
0.0
 40
0.0
 40
0.0
 40
0.1521669918
 40
0.2960856837
 40
0.4312888705
 40
0.5579324171
 40
0.6766180695
 40
0.7885291886
 40
0.842540522
 40
0.8955824943
 40
0.9479601309
 40
1.0
 40
1.0
 40
1.0
 40
1.0
 10
25.29695795
 20
13.3842997305
 30
0.0
 10
25.5366676038
 20
13.4908701093
 30
0.0
 10
25.9945779103
 20
13.7183088733
 30
0.0
 10
26.6264465642
 20
14.1125886569
 30
0.0
 10
27.1771926778
 20
14.5464514989
 30
0.0
 10
27.6395378053
 20
15.0146044251
 30
0.0
 10
28.0072821385
 20
15.5114565115
 30
0.0
 10
28.233055119
 20
15.9500878894
 30
0.0
 10
28.3585900688
 20
16.3065900882
 30
0.0
 10
28.4253675074
 20
16.5736544255
 30
0.0
 10
28.4655537701
 20
16.8425337972
 30
0.0
 10
28.4744797621
 20
17.0226747559
 30
0.0
 10
28.4744760486
 20
17.1123900838
 30
0.0
  0
SPLINE
  5
38E
100
AcDbEntity
  8
0
100
AcDbSpline
 62
7
  6
CONTINUOUS
 70
0
 71
3
 72
9
 73
5
 74
0
 42
0.0000001
 43
0.0000001
 44
0.0000000001
 40
0.0
 40
0.0
 40
0.0
 40
0.0
 40
0.2389184347
 40
1.0
 40
1.0
 40
1.0
 40
1.0
 10
22.6381987974
 20
10.3187148248
 30
0.0
 10
22.6444034011
 20
10.3002003534
 30
0.0
 10
22.6678371375
 20
10.2218618589
 30
0.0
 10
22.6814252011
 20
10.1407351652
 30
0.0
 10
22.6872926154
 20
10.0788104036
 30
0.0
  0
SPLINE
  5
38F
100
AcDbEntity
  8
0
100
AcDbSpline
 62
7
  6
CONTINUOUS
 70
0
 71
3
 72
10
 73
6
 74
0
 42
0.0000001
 43
0.0000001
 44
0.0000000001
 40
0.0
 40
0.0
 40
0.0
 40
0.0
 40
0.5084936478
 40
0.7570476332
 40
1.0
 40
1.0
 40
1.0
 40
1.0
 10
21.3193230515
 20
11.6257440516
 30
0.0
 10
21.7839683272
 20
11.65872508
 30
0.0
 10
22.4740740523
 20
11.7425050093
 30
0.0
 10
23.3719753356
 20
11.9255111225
 30
0.0
 10
23.8078203808
 20
12.039722121
 30
0.0
 10
24.0213527052
 20
12.1024692502
 30
0.0
  0
SPLINE
  5
390
100
AcDbEntity
  8
0
100
AcDbSpline
 62
7
  6
CONTINUOUS
 70
0
 71
3
 72
9
 73
5
 74
0
 42
0.0000001
 43
0.0000001
 44
0.0000000001
 40
0.0
 40
0.0
 40
0.0
 40
0.0
 40
0.5226147252
 40
1.0
 40
1.0
 40
1.0
 40
1.0
 10
21.3371718772
 20
27.754838786
 30
0.0
 10
21.3551121343
 20
27.7086005868
 30
0.0
 10
21.3828087258
 20
27.6173656839
 30
0.0
 10
21.3940127211
 20
27.5223760225
 30
0.0
 10
21.3940127211
 20
27.4770717267
 30
0.0
  0
SPLINE
  5
391
100
AcDbEntity
  8
0
100
AcDbSpline
 62
7
  6
CONTINUOUS
 70
0
 71
3
 72
13
 73
9
 74
0
 42
0.0000001
 43
0.0000001
 44
0.0000000001
 40
0.0
 40
0.0
 40
0.0
 40
0.0
 40
0.2834144663
 40
0.540215111
 40
0.6603391815
 40
0.7761321523
 40
0.888866165
 40
1.0
 40
1.0
 40
1.0
 40
1.0
 10
23.394430923
 20
9.6702689837
 30
0.0
 10
23.3881197435
 20
9.7370453087
 30
0.0
 10
23.3662441302
 20
9.8637655102
 30
0.0
 10
23.3091904461
 20
10.0107555563
 30
0.0
 10
23.2475851433
 20
10.1101045998
 30
0.0
 10
23.1951227015
 20
10.1741283121
 30
0.0
 10
23.1358260449
 20
10.2287896894
 30
0.0
 10
23.0918433908
 20
10.2587385246
 30
0.0
 10
23.0690634475
 20
10.271885184
 30
0.0
  0
SPLINE
  5
392
100
AcDbEntity
  8
0
100
AcDbSpline
 62
7
  6
CONTINUOUS
 70
0
 71
3
 72
11
 73
7
 74
0
 42
0.0000001
 43
0.0000001
 44
0.0000000001
 40
0.0
 40
0.0
 40
0.0
 40
0.0
 40
0.289518967
 40
0.5491380009
 40
0.782281304
 40
1.0
 40
1.0
 40
1.0
 40
1.0
 10
21.3940127211
 20
27.4770717267
 30
0.0
 10
21.3940127211
 20
27.4466907942
 30
0.0
 10
21.3893671479
 20
27.3888761261
 30
0.0
 10
21.3660041195
 20
27.3094228728
 30
0.0
 10
21.3265703304
 20
27.244939159
 30
0.0
 10
21.289518115
 20
27.213846198
 30
0.0
 10
21.2697307229
 20
27.2024259535
 30
0.0
  0
SPLINE
  5
393
100
AcDbEntity
  8
0
100
AcDbSpline
 62
7
  6
CONTINUOUS
 70
0
 71
3
 72
9
 73
5
 74
0
 42
0.0000001
 43
0.0000001
 44
0.0000000001
 40
0.0
 40
0.0
 40
0.0
 40
0.0
 40
0.2294552977
 40
1.0
 40
1.0
 40
1.0
 40
1.0
 10
19.5931677687
 20
28.2525477814
 30
0.0
 10
19.5851416028
 20
28.2356210928
 30
0.0
 10
19.5554066816
 20
28.159352633
 30
0.0
 10
19.5456637302
 20
28.0763745889
 30
0.0
 10
19.5456637302
 20
28.0134658015
 30
0.0
  0
SPLINE
  5
394
100
AcDbEntity
  8
0
100
AcDbSpline
 62
7
  6
CONTINUOUS
 70
0
 71
3
 72
16
 73
12
 74
0
 42
0.0000001
 43
0.0000001
 44
0.0000000001
 40
0.0
 40
0.0
 40
0.0
 40
0.0
 40
0.1004140403
 40
0.1559182877
 40
0.2147386693
 40
0.3409485859
 40
0.4755298862
 40
0.613749247
 40
0.7504089597
 40
0.8805976528
 40
1.0
 40
1.0
 40
1.0
 40
1.0
 10
24.4923602472
 20
50.5675176468
 30
0.0
 10
24.5120922065
 20
50.6215434714
 30
0.0
 10
24.5295360119
 20
50.71048291
 30
0.0
 10
24.5331644216
 20
50.8334956786
 30
0.0
 10
24.5234572711
 20
50.9711664509
 30
0.0
 10
24.4854985557
 20
51.1511883974
 30
0.0
 10
24.4051238915
 20
51.3659305757
 30
0.0
 10
24.2931267352
 20
51.5728239982
 30
0.0
 10
24.1556405143
 20
51.7606736755
 30
0.0
 10
24.0001334432
 20
51.9191257982
 30
0.0
 10
23.8838751587
 20
52.0039924721
 30
0.0
 10
23.8246449249
 20
52.03818829
 30
0.0
  0
SPLINE
  5
395
100
AcDbEntity
  8
0
100
AcDbSpline
 62
7
  6
CONTINUOUS
 70
0
 71
3
 72
9
 73
5
 74
0
 42
0.0000001
 43
0.0000001
 44
0.0000000001
 40
0.0
 40
0.0
 40
0.0
 40
0.0
 40
0.4858337354
 40
1.0
 40
1.0
 40
1.0
 40
1.0
 10
20.6641748444
 20
30.6497701528
 30
0.0
 10
20.686426659
 20
30.6626160251
 30
0.0
 10
20.7282954141
 20
30.6964408499
 30
0.0
 10
20.7583607774
 20
30.7408215938
 30
0.0
 10
20.7708775557
 20
30.7649614489
 30
0.0
  0
SPLINE
  5
396
100
AcDbEntity
  8
0
100
AcDbSpline
 62
7
  6
CONTINUOUS
 70
0
 71
3
 72
11
 73
7
 74
0
 42
0.0000001
 43
0.0000001
 44
0.0000000001
 40
0.0
 40
0.0
 40
0.0
 40
0.0
 40
0.2634561676
 40
0.5214787644
 40
0.7686849501
 40
1.0
 40
1.0
 40
1.0
 40
1.0
 10
30.4350232689
 20
44.4570317708
 30
0.0
 10
30.4833631587
 20
44.3712658984
 30
0.0
 10
30.5881384522
 20
44.2064449225
 30
0.0
 10
30.7677836342
 20
43.9815632121
 30
0.0
 10
30.9635626358
 20
43.7872260021
 30
0.0
 10
31.1060285395
 20
43.6780184683
 30
0.0
 10
31.1785126702
 20
43.6309238668
 30
0.0
  0
SPLINE
  5
397
100
AcDbEntity
  8
0
100
AcDbSpline
 62
7
  6
CONTINUOUS
 70
0
 71
3
 72
14
 73
10
 74
0
 42
0.0000001
 43
0.0000001
 44
0.0000000001
 40
0.0
 40
0.0
 40
0.0
 40
0.0
 40
0.0988279514
 40
0.2014288066
 40
0.310908215
 40
0.4293572438
 40
0.5577807441
 40
0.6962889589
 40
1.0
 40
1.0
 40
1.0
 40
1.0
 10
20.7598083572
 20
47.7527472442
 30
0.0
 10
20.7787317614
 20
47.7636624782
 30
0.0
 10
20.8146500743
 20
47.7908553967
 30
0.0
 10
20.8584336025
 20
47.8445525683
 30
0.0
 10
20.8918303856
 20
47.9100783397
 30
0.0
 10
20.914376533
 20
47.9859332451
 30
0.0
 10
20.9258402931
 20
48.0706452742
 30
0.0
 10
20.9261707711
 20
48.1970472392
 30
0.0
 10
20.909265322
 20
48.2942732406
 30
0.0
 10
20.8921436741
 20
48.3591880985
 30
0.0
  0
SPLINE
  5
398
100
AcDbEntity
  8
0
100
AcDbSpline
 62
7
  6
CONTINUOUS
 70
0
 71
3
 72
11
 73
7
 74
0
 42
0.0000001
 43
0.0000001
 44
0.0000000001
 40
0.0
 40
0.0
 40
0.0
 40
0.0
 40
0.2211368049
 40
0.4557853592
 40
0.7137678609
 40
1.0
 40
1.0
 40
1.0
 40
1.0
 10
19.1363957237
 20
31.4996865024
 30
0.0
 10
19.159204825
 20
31.5128558224
 30
0.0
 10
19.2109221651
 20
31.5325156198
 30
0.0
 10
19.2968138636
 20
31.5377730577
 30
0.0
 10
19.3886880145
 20
31.5202323789
 30
0.0
 10
19.4489808911
 20
31.4953355353
 30
0.0
 10
19.4793840501
 20
31.4799134897
 30
0.0
  0
SPLINE
  5
399
100
AcDbEntity
  8
0
100
AcDbSpline
 62
7
  6
CONTINUOUS
 70
0
 71
3
 72
15
 73
11
 74
0
 42
0.0000001
 43
0.0000001
 44
0.0000000001
 40
0.0
 40
0.0
 40
0.0
 40
0.0
 40
0.1117785067
 40
0.2335207086
 40
0.3627036104
 40
0.4960642759
 40
0.6299666005
 40
0.7607435903
 40
0.8851287228
 40
1.0
 40
1.0
 40
1.0
 40
1.0
 10
19.4793840501
 20
31.4799134897
 30
0.0
 10
19.5171980653
 20
31.4607322768
 30
0.0
 10
19.5923326898
 20
31.4128550682
 30
0.0
 10
19.6961612939
 20
31.3219659818
 30
0.0
 10
19.7925119213
 20
31.2120509388
 30
0.0
 10
19.8774952476
 20
31.0875656289
 30
0.0
 10
19.9477641864
 20
30.9535416808
 30
0.0
 10
20.0004592041
 20
30.8152764856
 30
0.0
 10
20.0333552546
 20
30.6784251468
 30
0.0
 10
20.0417109342
 20
30.5875864985
 30
0.0
 10
20.0417109342
 20
30.5440126328
 30
0.0
  0
SPLINE
  5
39A
100
AcDbEntity
  8
0
100
AcDbSpline
 62
7
  6
CONTINUOUS
 70
0
 71
3
 72
10
 73
6
 74
0
 42
0.0000001
 43
0.0000001
 44
0.0000000001
 40
0.0
 40
0.0
 40
0.0
 40
0.0
 40
0.2783296535
 40
0.537709705
 40
1.0
 40
1.0
 40
1.0
 40
1.0
 10
9.1875766532
 20
41.3420966298
 30
0.0
 10
9.2114251372
 20
41.3283280126
 30
0.0
 10
9.2590720055
 20
41.3042294695
 30
0.0
 10
9.3523745205
 20
41.2711351244
 30
0.0
 10
9.4251478822
 20
41.2622245745
 30
0.0
 10
9.4707008833
 20
41.2663409778
 30
0.0
  0
SPLINE
  5
39B
100
AcDbEntity
  8
0
100
AcDbSpline
 62
7
  6
CONTINUOUS
 70
0
 71
3
 72
9
 73
5
 74
0
 42
0.0000001
 43
0.0000001
 44
0.0000000001
 40
0.0
 40
0.0
 40
0.0
 40
0.0
 40
0.5079047987
 40
1.0
 40
1.0
 40
1.0
 40
1.0
 10
9.4707008833
 20
41.2663409778
 30
0.0
 10
9.4896319546
 20
41.2680516868
 30
0.0
 10
9.52670561
 20
41.2747660987
 30
0.0
 10
9.5617577547
 20
41.2887011543
 30
0.0
 10
9.5780698049
 20
41.2972501833
 30
0.0
  0
SPLINE
  5
39C
100
AcDbEntity
  8
0
100
AcDbSpline
 62
7
  6
CONTINUOUS
 70
0
 71
3
 72
10
 73
6
 74
0
 42
0.0000001
 43
0.0000001
 44
0.0000000001
 40
0.0
 40
0.0
 40
0.0
 40
0.0
 40
0.523214171
 40
0.7649337459
 40
1.0
 40
1.0
 40
1.0
 40
1.0
 10
22.3767107871
 20
40.0328772672
 30
0.0
 10
22.4021599771
 20
40.0272889226
 30
0.0
 10
22.4411143522
 20
40.0241600388
 30
0.0
 10
22.4900573431
 20
40.034707171
 30
0.0
 10
22.5119642782
 20
40.0443935642
 30
0.0
 10
22.5221068285
 20
40.0502382652
 30
0.0
  0
SPLINE
  5
39D
100
AcDbEntity
  8
0
100
AcDbSpline
 62
7
  6
CONTINUOUS
 70
0
 71
3
 72
13
 73
9
 74
0
 42
0.0000001
 43
0.0000001
 44
0.0000000001
 40
0.0
 40
0.0
 40
0.0
 40
0.0
 40
0.1081020487
 40
0.218238851
 40
0.3322415883
 40
0.4516664189
 40
0.7106903402
 40
1.0
 40
1.0
 40
1.0
 40
1.0
 10
27.2430127149
 20
46.1840532355
 30
0.0
 10
27.2659667597
 20
46.1973057989
 30
0.0
 10
27.3147140431
 20
46.2201024097
 30
0.0
 10
27.3935567315
 20
46.2419142075
 30
0.0
 10
27.4776050101
 20
46.251316178
 30
0.0
 10
27.5986435512
 20
46.2470974618
 30
0.0
 10
27.7594378989
 20
46.2083296941
 30
0.0
 10
27.8815751505
 20
46.1501910274
 30
0.0
 10
27.9430066357
 20
46.1147243453
 30
0.0
  0
SPLINE
  5
39E
100
AcDbEntity
  8
0
100
AcDbSpline
 62
7
  6
CONTINUOUS
 70
0
 71
3
 72
15
 73
11
 74
0
 42
0.0000001
 43
0.0000001
 44
0.0000000001
 40
0.0
 40
0.0
 40
0.0
 40
0.0
 40
0.1065004809
 40
0.2214441098
 40
0.3436321796
 40
0.47155274
 40
0.6032878178
 40
0.7367110265
 40
0.8697110297
 40
1.0
 40
1.0
 40
1.0
 40
1.0
 10
30.7543202313
 20
51.1275664727
 30
0.0
 10
30.8310025956
 20
51.0943458939
 30
0.0
 10
30.9850141818
 20
51.0123660661
 30
0.0
 10
31.2050301719
 20
50.8554393449
 30
0.0
 10
31.4182422182
 20
50.6632940487
 30
0.0
 10
31.6195124335
 20
50.4406903252
 30
0.0
 10
31.8039812003
 20
50.1929395152
 30
0.0
 10
31.9672449789
 20
49.9260567748
 30
0.0
 10
32.1052322824
 20
49.6465656848
 30
0.0
 10
32.1793650855
 20
49.4533283656
 30
0.0
 10
32.2111826378
 20
49.3561700367
 30
0.0
  0
SPLINE
  5
39F
100
AcDbEntity
  8
0
100
AcDbSpline
 62
7
  6
CONTINUOUS
 70
0
 71
3
 72
9
 73
5
 74
0
 42
0.0000001
 43
0.0000001
 44
0.0000000001
 40
0.0
 40
0.0
 40
0.0
 40
0.0
 40
0.238885842
 40
1.0
 40
1.0
 40
1.0
 40
1.0
 10
18.4019820027
 20
39.9823142943
 30
0.0
 10
18.4019820027
 20
39.9610672456
 30
0.0
 10
18.4047177221
 20
39.8721307495
 30
0.0
 10
18.4177233557
 20
39.783638667
 30
0.0
 10
18.432085105
 20
39.7174844309
 30
0.0
  0
SPLINE
  5
3A0
100
AcDbEntity
  8
0
100
AcDbSpline
 62
7
  6
CONTINUOUS
 70
0
 71
3
 72
9
 73
5
 74
0
 42
0.0000001
 43
0.0000001
 44
0.0000000001
 40
0.0
 40
0.0
 40
0.0
 40
0.0
 40
0.5147215068
 40
1.0
 40
1.0
 40
1.0
 40
1.0
 10
18.432085105
 20
39.7174844309
 30
0.0
 10
18.5522051818
 20
39.1641777457
 30
0.0
 10
18.7359308561
 20
38.0776296241
 30
0.0
 10
18.8042689152
 20
36.9770321957
 30
0.0
 10
18.8042689152
 20
36.443224302
 30
0.0
  0
SPLINE
  5
3A1
100
AcDbEntity
  8
0
100
AcDbSpline
 62
7
  6
CONTINUOUS
 70
0
 71
3
 72
9
 73
5
 74
0
 42
0.0000001
 43
0.0000001
 44
0.0000000001
 40
0.0
 40
0.0
 40
0.0
 40
0.0
 40
0.2581266844
 40
1.0
 40
1.0
 40
1.0
 40
1.0
 10
18.8042689152
 20
36.443224302
 30
0.0
 10
18.8042689152
 20
36.2961632778
 30
0.0
 10
18.7944682873
 20
35.7265223502
 30
0.0
 10
18.7443520507
 20
35.1572566484
 30
0.0
 10
18.6805891893
 20
34.7394307572
 30
0.0
  0
SPLINE
  5
3A2
100
AcDbEntity
  8
0
100
AcDbSpline
 62
7
  6
CONTINUOUS
 70
0
 71
3
 72
9
 73
5
 74
0
 42
0.0000001
 43
0.0000001
 44
0.0000000001
 40
0.0
 40
0.0
 40
0.0
 40
0.0
 40
0.2420007693
 40
1.0
 40
1.0
 40
1.0
 40
1.0
 10
18.6805891893
 20
34.7394307572
 30
0.0
 10
18.6789068306
 20
34.7284065811
 30
0.0
 10
18.6729061637
 20
34.6827091211
 30
0.0
 10
18.670585682
 20
34.6365538185
 30
0.0
 10
18.670585682
 20
34.6016239263
 30
0.0
  0
SPLINE
  5
3A3
100
AcDbEntity
  8
0
100
AcDbSpline
 62
7
  6
CONTINUOUS
 70
0
 71
3
 72
21
 73
17
 74
0
 42
0.0000001
 43
0.0000001
 44
0.0000000001
 40
0.0
 40
0.0
 40
0.0
 40
0.0
 40
0.0623646706
 40
0.1287877941
 40
0.1984188917
 40
0.2704118897
 40
0.4174537756
 40
0.5616819246
 40
0.6303100955
 40
0.6954223567
 40
0.7563986073
 40
0.8128569969
 40
0.8647825443
 40
0.9125766907
 40
0.9571720138
 40
1.0
 40
1.0
 40
1.0
 40
1.0
 10
18.670585682
 20
34.6016239263
 30
0.0
 10
18.670585682
 20
34.5560230211
 30
0.0
 10
18.6768088374
 20
34.461794359
 30
0.0
 10
18.7021875255
 20
34.3187053126
 30
0.0
 10
18.7435789231
 20
34.1720684877
 30
0.0
 10
18.8192935776
 20
33.9747895627
 30
0.0
 10
18.9463565953
 20
33.7400225043
 30
0.0
 10
19.1092334733
 20
33.5314665697
 30
0.0
 10
19.2558086276
 20
33.390239732
 30
0.0
 10
19.3681553792
 20
33.3023207594
 30
0.0
 10
19.4822862423
 20
33.2324597087
 30
0.0
 10
19.5959559686
 20
33.1822603397
 30
0.0
 10
19.7068452884
 20
33.1527609305
 30
0.0
 10
19.8128129665
 20
33.144987859
 30
0.0
 10
19.9114994901
 20
33.1594228871
 30
0.0
 10
19.9712685206
 20
33.1842982884
 30
0.0
 10
19.9983935763
 20
33.199947763
 30
0.0
  0
SPLINE
  5
3A4
100
AcDbEntity
  8
0
100
AcDbSpline
 62
7
  6
CONTINUOUS
 70
0
 71
3
 72
11
 73
7
 74
0
 42
0.0000001
 43
0.0000001
 44
0.0000000001
 40
0.0
 40
0.0
 40
0.0
 40
0.0
 40
0.2896178244
 40
0.5491079403
 40
0.7822353049
 40
1.0
 40
1.0
 40
1.0
 40
1.0
 10
27.9430066357
 20
45.5635852138
 30
0.0
 10
27.9112039535
 20
45.5819460855
 30
0.0
 10
27.8479103662
 20
45.6120370982
 30
0.0
 10
27.7506486479
 20
45.6355480228
 30
0.0
 10
27.6593606884
 20
45.6332552533
 30
0.0
 10
27.6044353465
 20
45.6132706169
 30
0.0
 10
27.5805176934
 20
45.5994738493
 30
0.0
  0
SPLINE
  5
3A5
100
AcDbEntity
  8
0
100
AcDbSpline
 62
7
  6
CONTINUOUS
 70
0
 71
3
 72
11
 73
7
 74
0
 42
0.0000001
 43
0.0000001
 44
0.0000000001
 40
0.0
 40
0.0
 40
0.0
 40
0.0
 40
0.2657568121
 40
0.5253278949
 40
0.771909114
 40
1.0
 40
1.0
 40
1.0
 40
1.0
 10
28.3134489362
 20
45.1669581039
 30
0.0
 10
28.2896936856
 20
45.2093462271
 30
0.0
 10
28.2378262285
 20
45.290488406
 30
0.0
 10
28.1482124911
 20
45.3999664667
 30
0.0
 10
28.0504077867
 20
45.4924662732
 30
0.0
 10
27.979123545
 20
45.5427335781
 30
0.0
 10
27.9430066357
 20
45.5635852138
 30
0.0
  0
SPLINE
  5
3A6
100
AcDbEntity
  8
0
100
AcDbSpline
 62
7
  6
CONTINUOUS
 70
0
 71
3
 72
17
 73
13
 74
0
 42
0.0000001
 43
0.0000001
 44
0.0000000001
 40
0.0
 40
0.0
 40
0.0
 40
0.0
 40
0.1553687443
 40
0.3065930393
 40
0.4499606185
 40
0.5827903416
 40
0.7032683405
 40
0.8111834412
 40
0.8610511462
 40
0.9086999683
 40
0.954764062
 40
1.0
 40
1.0
 40
1.0
 40
1.0
 10
28.6583434919
 20
45.3488237194
 30
0.0
 10
28.7022184142
 20
45.2705346857
 30
0.0
 10
28.7803070983
 20
45.1110973305
 30
0.0
 10
28.8675911177
 20
44.8656685977
 30
0.0
 10
28.9211500154
 20
44.6239373592
 30
0.0
 10
28.9390675201
 20
44.3946076322
 30
0.0
 10
28.920479216
 20
44.1856780616
 30
0.0
 10
28.8731233217
 20
44.0303474016
 30
0.0
 10
28.8165288181
 20
43.9256513238
 30
0.0
 10
28.7667932898
 20
43.8588779192
 30
0.0
 10
28.7091429308
 20
43.8025631543
 30
0.0
 10
28.6656293272
 20
43.7722534529
 30
0.0
 10
28.6430005565
 20
43.7591886872
 30
0.0
  0
SPLINE
  5
3A7
100
AcDbEntity
  8
0
100
AcDbSpline
 62
7
  6
CONTINUOUS
 70
0
 71
3
 72
11
 73
7
 74
0
 42
0.0000001
 43
0.0000001
 44
0.0000000001
 40
0.0
 40
0.0
 40
0.0
 40
0.0
 40
0.228090171
 40
0.4746708661
 40
0.7342425437
 40
1.0
 40
1.0
 40
1.0
 40
1.0
 10
27.9430066357
 20
46.1147243453
 30
0.0
 10
28.0127494786
 20
46.0744592071
 30
0.0
 10
28.1504029602
 20
45.9773936344
 30
0.0
 10
28.3392685505
 20
45.7987744027
 30
0.0
 10
28.5123146552
 20
45.587366774
 30
0.0
 10
28.6124711304
 20
45.4306769208
 30
0.0
 10
28.6583434919
 20
45.3488237194
 30
0.0
  0
SPLINE
  5
3A8
100
AcDbEntity
  8
0
100
AcDbSpline
 62
7
  6
CONTINUOUS
 70
0
 71
3
 72
12
 73
8
 74
0
 42
0.0000001
 43
0.0000001
 44
0.0000000001
 40
0.0
 40
0.0
 40
0.0
 40
0.0
 40
0.1081709825
 40
0.2183595511
 40
0.4513114998
 40
0.7105848053
 40
1.0
 40
1.0
 40
1.0
 40
1.0
 10
18.6298142852
 20
40.4858631945
 30
0.0
 10
18.6117828857
 20
40.4754421115
 30
0.0
 10
18.5771176048
 20
40.4512342569
 30
0.0
 10
18.5148905363
 20
40.3900945452
 30
0.0
 10
18.4532751893
 20
40.2896263483
 30
0.0
 10
18.4104806715
 20
40.1440454674
 30
0.0
 10
18.4019820027
 20
40.0380354935
 30
0.0
 10
18.4019820027
 20
39.9823142943
 30
0.0
  0
SPLINE
  5
3A9
100
AcDbEntity
  8
0
100
AcDbSpline
 62
7
  6
CONTINUOUS
 70
0
 71
3
 72
18
 73
14
 74
0
 42
0.0000001
 43
0.0000001
 44
0.0000000001
 40
0.0
 40
0.0
 40
0.0
 40
0.0
 40
0.0428485482
 40
0.0874678192
 40
0.1352854958
 40
0.1872410072
 40
0.3044774503
 40
0.4381126611
 40
0.5824223183
 40
0.7295402742
 40
0.8711413646
 40
0.9376289733
 40
1.0
 40
1.0
 40
1.0
 40
1.0
 10
21.2973657018
 20
36.9832719235
 30
0.0
 10
21.3121566051
 20
36.9918117661
 30
0.0
 10
21.3447504871
 20
37.0053949894
 30
0.0
 10
21.3985769314
 20
37.0132458801
 30
0.0
 10
21.4563764973
 20
37.0090279125
 30
0.0
 10
21.5403518191
 20
36.9866524564
 30
0.0
 10
21.6477168078
 20
36.9279745751
 30
0.0
 10
21.7663315612
 20
36.8229314954
 30
0.0
 10
21.8711826823
 20
36.688713756
 30
0.0
 10
21.9536920486
 20
36.5362630116
 30
0.0
 10
21.9993581093
 20
36.4012954934
 30
0.0
 10
22.0182106372
 20
36.2949900916
 30
0.0
 10
22.0216178702
 20
36.2435936104
 30
0.0
 10
22.0216178702
 20
36.2187328277
 30
0.0
  0
SPLINE
  5
3AA
100
AcDbEntity
  8
0
100
AcDbSpline
 62
7
  6
CONTINUOUS
 70
0
 71
3
 72
9
 73
5
 74
0
 42
0.0000001
 43
0.0000001
 44
0.0000000001
 40
0.0
 40
0.0
 40
0.0
 40
0.0
 40
0.4920960034
 40
1.0
 40
1.0
 40
1.0
 40
1.0
 10
19.1021015967
 20
31.5373967813
 30
0.0
 10
19.0865426908
 20
31.5275453029
 30
0.0
 10
19.0569499187
 20
31.5041585289
 30
0.0
 10
19.032598975
 20
31.4754112399
 30
0.0
 10
19.0216521472
 20
31.4598730137
 30
0.0
  0
SPLINE
  5
3AB
100
AcDbEntity
  8
0
100
AcDbSpline
 62
7
  6
CONTINUOUS
 70
0
 71
3
 72
10
 73
6
 74
0
 42
0.0000001
 43
0.0000001
 44
0.0000000001
 40
0.0
 40
0.0
 40
0.0
 40
0.0
 40
0.4622880483
 40
0.7216686929
 40
1.0
 40
1.0
 40
1.0
 40
1.0
 10
19.0216521472
 20
31.4598730137
 30
0.0
 10
18.99530825
 20
31.4224797669
 30
0.0
 10
18.9666358061
 20
31.354997027
 30
0.0
 10
18.9486441444
 20
31.2576415383
 30
0.0
 10
18.9456908602
 20
31.204325349
 30
0.0
 10
18.9456908602
 20
31.1767858023
 30
0.0
  0
SPLINE
  5
3AC
100
AcDbEntity
  8
0
100
AcDbSpline
 62
7
  6
CONTINUOUS
 70
0
 71
3
 72
15
 73
11
 74
0
 42
0.0000001
 43
0.0000001
 44
0.0000000001
 40
0.0
 40
0.0
 40
0.0
 40
0.0
 40
0.1141242661
 40
0.2373486253
 40
0.3669740476
 40
0.5000015346
 40
0.6330288076
 40
0.7626536034
 40
0.8858770013
 40
1.0
 40
1.0
 40
1.0
 40
1.0
 10
24.0368646895
 20
6.3143143208
 30
0.0
 10
24.0368646895
 20
6.3981350538
 30
0.0
 10
24.0522552149
 20
6.5726187734
 30
0.0
 10
24.1134278218
 20
6.8358382699
 30
0.0
 10
24.2115411867
 20
7.1024604762
 30
0.0
 10
24.3427670423
 20
7.3624496382
 30
0.0
 10
24.5023098592
 20
7.6060895618
 30
0.0
 10
24.6841530104
 20
7.8243690996
 30
0.0
 10
24.881519494
 20
8.0089549526
 30
0.0
 10
25.024930259
 20
8.1095244639
 30
0.0
 10
25.0975204453
 20
8.1514341773
 30
0.0
  0
SPLINE
  5
3AD
100
AcDbEntity
  8
0
100
AcDbSpline
 62
7
  6
CONTINUOUS
 70
0
 71
3
 72
13
 73
9
 74
0
 42
0.0000001
 43
0.0000001
 44
0.0000000001
 40
0.0
 40
0.0
 40
0.0
 40
0.0
 40
0.2893052466
 40
0.5483352362
 40
0.6677598057
 40
0.78176081
 40
0.8918958892
 40
1.0
 40
1.0
 40
1.0
 40
1.0
 10
25.0975204453
 20
8.1514341773
 30
0.0
 10
25.1633377473
 20
8.1894335875
 30
0.0
 10
25.294198083
 20
8.2517231765
 30
0.0
 10
25.4664753489
 20
8.2932627426
 30
0.0
 10
25.5961586693
 20
8.2977817971
 30
0.0
 10
25.6862088421
 20
8.2877138266
 30
0.0
 10
25.7706816051
 20
8.2643432338
 30
0.0
 10
25.8229100574
 20
8.2399185102
 30
0.0
 10
25.8475039777
 20
8.2257195221
 30
0.0
  0
SPLINE
  5
3AE
100
AcDbEntity
  8
0
100
AcDbSpline
 62
7
  6
CONTINUOUS
 70
0
 71
3
 72
16
 73
12
 74
0
 42
0.0000001
 43
0.0000001
 44
0.0000000001
 40
0.0
 40
0.0
 40
0.0
 40
0.0
 40
0.0452471724
 40
0.0913251553
 40
0.188608159
 40
0.2965572309
 40
0.4170711335
 40
0.5499137961
 40
0.6933171973
 40
0.8446365024
 40
1.0
 40
1.0
 40
1.0
 40
1.0
 10
28.305495578
 20
44.3437680733
 30
0.0
 10
28.3172165128
 20
44.3505292305
 30
0.0
 10
28.3397670737
 20
44.3662077849
 30
0.0
 10
28.3802548144
 20
44.4057916406
 30
0.0
 10
28.4206171894
 20
44.4705766678
 30
0.0
 10
28.4491579363
 20
44.5645870447
 30
0.0
 10
28.4588149519
 20
44.6728218454
 30
0.0
 10
28.4495535621
 20
44.7915651995
 30
0.0
 10
28.4218108274
 20
44.9167615151
 30
0.0
 10
28.3765907665
 20
45.0438527053
 30
0.0
 10
28.3361632558
 20
45.1264273854
 30
0.0
 10
28.3134489362
 20
45.1669581039
 30
0.0
  0
SPLINE
  5
3AF
100
AcDbEntity
  8
0
100
AcDbSpline
 62
7
  6
CONTINUOUS
 70
0
 71
3
 72
12
 73
8
 74
0
 42
0.0000001
 43
0.0000001
 44
0.0000000001
 40
0.0
 40
0.0
 40
0.0
 40
0.0
 40
0.1085983722
 40
0.2191339337
 40
0.4524294669
 40
0.7114580376
 40
1.0
 40
1.0
 40
1.0
 40
1.0
 10
8.8125993141
 20
42.6447822429
 30
0.0
 10
8.824659005
 20
42.6517448643
 30
0.0
 10
8.850219537
 20
42.6637846973
 30
0.0
 10
8.9062622857
 20
42.6796213142
 30
0.0
 10
8.9847301709
 20
42.6824189475
 30
0.0
 10
9.0831085221
 20
42.6597730841
 30
0.0
 10
9.1473357859
 20
42.6302703417
 30
0.0
 10
9.17962103
 20
42.6121984745
 30
0.0
  0
SPLINE
  5
3B0
100
AcDbEntity
  8
0
100
AcDbSpline
 62
7
  6
CONTINUOUS
 70
0
 71
3
 72
9
 73
5
 74
0
 42
0.0000001
 43
0.0000001
 44
0.0000000001
 40
0.0
 40
0.0
 40
0.0
 40
0.0
 40
0.2564636327
 40
1.0
 40
1.0
 40
1.0
 40
1.0
 10
22.0216178702
 20
36.2187328277
 30
0.0
 10
22.0216178702
 20
36.213407431
 30
0.0
 10
22.0213236022
 20
36.1926445378
 30
0.0
 10
22.019830047
 20
36.1718924925
 30
0.0
 10
22.017949542
 20
36.1565681147
 30
0.0
  0
SPLINE
  5
3B1
100
AcDbEntity
  8
0
100
AcDbSpline
 62
7
  6
CONTINUOUS
 70
0
 71
3
 72
9
 73
5
 74
0
 42
0.0000001
 43
0.0000001
 44
0.0000000001
 40
0.0
 40
0.0
 40
0.0
 40
0.0
 40
0.2571553793
 40
1.0
 40
1.0
 40
1.0
 40
1.0
 10
22.017949542
 20
36.1565681147
 30
0.0
 10
22.0173447588
 20
36.151639691
 30
0.0
 10
22.0146819139
 20
36.1325150404
 30
0.0
 10
22.0107427895
 20
36.1135598575
 30
0.0
 10
22.0070074942
 20
36.0997112353
 30
0.0
  0
SPLINE
  5
3B2
100
AcDbEntity
  8
0
100
AcDbSpline
 62
7
  6
CONTINUOUS
 70
0
 71
3
 72
9
 73
5
 74
0
 42
0.0000001
 43
0.0000001
 44
0.0000000001
 40
0.0
 40
0.0
 40
0.0
 40
0.0
 40
0.257246129
 40
1.0
 40
1.0
 40
1.0
 40
1.0
 10
22.0070074942
 20
36.0997112353
 30
0.0
 10
22.0058081174
 20
36.0952645409
 30
0.0
 10
22.000820513
 20
36.0780695093
 30
0.0
 10
21.994497305
 20
36.0612513097
 30
0.0
 10
21.9889820367
 20
36.049151074
 30
0.0
  0
SPLINE
  5
3B3
100
AcDbEntity
  8
0
100
AcDbSpline
 62
7
  6
CONTINUOUS
 70
0
 71
3
 72
11
 73
7
 74
0
 42
0.0000001
 43
0.0000001
 44
0.0000000001
 40
0.0
 40
0.0
 40
0.0
 40
0.0
 40
0.2338027587
 40
0.4745739269
 40
0.7284406791
 40
1.0
 40
1.0
 40
1.0
 40
1.0
 10
18.741719721
 20
40.4964219385
 30
0.0
 10
18.756866652
 20
40.5051593602
 30
0.0
 10
18.7896542842
 20
40.5195779584
 30
0.0
 10
18.843381731
 20
40.5305871619
 30
0.0
 10
18.9009963828
 20
40.53104698
 30
0.0
 10
18.9399660392
 20
40.5246636945
 30
0.0
 10
18.9597219049
 20
40.5199509908
 30
0.0
  0
SPLINE
  5
3B4
100
AcDbEntity
  8
0
100
AcDbSpline
 62
7
  6
CONTINUOUS
 70
0
 71
3
 72
9
 73
5
 74
0
 42
0.0000001
 43
0.0000001
 44
0.0000000001
 40
0.0
 40
0.0
 40
0.0
 40
0.0
 40
0.2358041052
 40
1.0
 40
1.0
 40
1.0
 40
1.0
 10
18.9597219049
 20
40.5199509908
 30
0.0
 10
18.9716905042
 20
40.5170959166
 30
0.0
 10
19.0219150859
 20
40.5027733531
 30
0.0
 10
19.0696746082
 20
40.4804710895
 30
0.0
 10
19.1042086705
 20
40.4605332904
 30
0.0
  0
SPLINE
  5
3B5
100
AcDbEntity
  8
0
100
AcDbSpline
 62
7
  6
CONTINUOUS
 70
0
 71
3
 72
9
 73
5
 74
0
 42
0.0000001
 43
0.0000001
 44
0.0000000001
 40
0.0
 40
0.0
 40
0.0
 40
0.0
 40
0.2468597629
 40
1.0
 40
1.0
 40
1.0
 40
1.0
 10
19.4250449277
 20
38.1074557156
 30
0.0
 10
19.4850504402
 20
38.0963681799
 30
0.0
 10
19.7289907771
 20
38.0562378607
 30
0.0
 10
19.9759734192
 20
38.0348652219
 30
0.0
 10
20.1620478819
 20
38.0289411683
 30
0.0
  0
SPLINE
  5
3B6
100
AcDbEntity
  8
0
100
AcDbSpline
 62
7
  6
CONTINUOUS
 70
0
 71
3
 72
13
 73
9
 74
0
 42
0.0000001
 43
0.0000001
 44
0.0000000001
 40
0.0
 40
0.0
 40
0.0
 40
0.0
 40
0.1081033366
 40
0.2182377598
 40
0.332238321
 40
0.4516627248
 40
0.7106932938
 40
1.0
 40
1.0
 40
1.0
 40
1.0
 10
24.3475369129
 20
5.6276415811
 30
0.0
 10
24.3229421929
 20
5.641841031
 30
0.0
 10
24.2756734017
 20
5.6748601511
 30
0.0
 10
24.2131946394
 20
5.7363317992
 30
0.0
 10
24.159447984
 20
5.8092858198
 30
0.0
 10
24.0985170991
 20
5.9238587288
 30
0.0
 10
24.048350698
 20
6.0938322913
 30
0.0
 10
24.0368646895
 20
6.2383117612
 30
0.0
 10
24.0368646895
 20
6.3143143208
 30
0.0
  0
SPLINE
  5
3B7
100
AcDbEntity
  8
0
100
AcDbSpline
 62
7
  6
CONTINUOUS
 70
0
 71
3
 72
9
 73
5
 74
0
 42
0.0000001
 43
0.0000001
 44
0.0000000001
 40
0.0
 40
0.0
 40
0.0
 40
0.0
 40
0.2717852597
 40
1.0
 40
1.0
 40
1.0
 40
1.0
 10
34.3252246377
 20
43.3221811051
 30
0.0
 10
34.3252246377
 20
43.3064733793
 30
0.0
 10
34.3228402739
 20
43.2487909676
 30
0.0
 10
34.310044243
 20
43.1908957523
 30
0.0
 10
34.2925888043
 20
43.1525993514
 30
0.0
  0
SPLINE
  5
3B8
100
AcDbEntity
  8
0
100
AcDbSpline
 62
7
  6
CONTINUOUS
 70
0
 71
3
 72
12
 73
8
 74
0
 42
0.0000001
 43
0.0000001
 44
0.0000000001
 40
0.0
 40
0.0
 40
0.0
 40
0.0
 40
0.2893262092
 40
0.5487209533
 40
0.7816854868
 40
0.891848413
 40
1.0
 40
1.0
 40
1.0
 40
1.0
 10
20.0417109342
 20
30.5440126328
 30
0.0
 10
20.0417109342
 20
30.5060327631
 30
0.0
 10
20.0358924339
 20
30.4337542011
 30
0.0
 10
20.0067532021
 20
30.3344752221
 30
0.0
 10
19.9647180905
 20
30.2659732083
 30
0.0
 10
19.92230187
 20
30.2242805115
 30
0.0
 10
19.8986564647
 20
30.2077986215
 30
0.0
 10
19.886361557
 20
30.200699895
 30
0.0
  0
SPLINE
  5
3B9
100
AcDbEntity
  8
0
100
AcDbSpline
 62
7
  6
CONTINUOUS
 70
0
 71
3
 72
10
 73
6
 74
0
 42
0.0000001
 43
0.0000001
 44
0.0000000001
 40
0.0
 40
0.0
 40
0.0
 40
0.0
 40
0.5222048486
 40
0.764228721
 40
1.0
 40
1.0
 40
1.0
 40
1.0
 10
20.9621027209
 20
30.6599189996
 30
0.0
 10
20.9460962141
 20
30.6119229471
 30
0.0
 10
20.9125996767
 20
30.5438301422
 30
0.0
 10
20.846775023
 20
30.4720579663
 30
0.0
 10
20.8089668294
 20
30.4446679669
 30
0.0
 10
20.7891825602
 20
30.433249078
 30
0.0
  0
SPLINE
  5
3BA
100
AcDbEntity
  8
0
100
AcDbSpline
 62
7
  6
CONTINUOUS
 70
0
 71
3
 72
11
 73
7
 74
0
 42
0.0000001
 43
0.0000001
 44
0.0000000001
 40
0.0
 40
0.0
 40
0.0
 40
0.0
 40
0.2150901519
 40
0.4542724863
 40
0.7170343584
 40
1.0
 40
1.0
 40
1.0
 40
1.0
 10
33.7434965199
 20
44.1129356408
 30
0.0
 10
33.7694000011
 20
44.1099432664
 30
0.0
 10
33.8233589136
 20
44.0964500726
 30
0.0
 10
33.9022998928
 20
44.0590880304
 30
0.0
 10
33.9809477185
 20
44.0049143036
 30
0.0
 10
34.0300206915
 20
43.9602366489
 30
0.0
 10
34.0539861295
 20
43.9356917851
 30
0.0
  0
SPLINE
  5
3BB
100
AcDbEntity
  8
0
100
AcDbSpline
 62
7
  6
CONTINUOUS
 70
0
 71
3
 72
9
 73
5
 74
0
 42
0.0000001
 43
0.0000001
 44
0.0000000001
 40
0.0
 40
0.0
 40
0.0
 40
0.0
 40
0.259575956
 40
1.0
 40
1.0
 40
1.0
 40
1.0
 10
34.3146318881
 20
43.4369745174
 30
0.0
 10
34.3163678312
 20
43.4271450039
 30
0.0
 10
34.3223093714
 20
43.3891542876
 30
0.0
 10
34.3252246377
 20
43.3506530605
 30
0.0
 10
34.3252246377
 20
43.3221811051
 30
0.0
  0
ENDSEC
  0
SECTION
  2
OBJECTS
  0
DICTIONARY
  5
C
100
AcDbDictionary
280
0
281
1
  3
ACAD_GROUP
350
D
  3
ACAD_MLINESTYLE
350
17
  3
ACAD_LAYOUT
350
1A
  3
ACAD_PLOTSETTINGS
350
19
  3
ACAD_PLOTSTYLENAME
350
E
  0
DICTIONARY
  5
D
102
{ACAD_REACTORS
330
C
102
}
100
AcDbDictionary
280
0
281
1
  0
ACDBDICTIONARYWDFLT
  5
E
102
{ACAD_REACTORS
330
C
102
}
100
AcDbDictionary
281
1
  3
Normal
350
F
100
AcDbDictionaryWithDefault
340
F
  0
DICTIONARY
  5
17
102
{ACAD_REACTORS
330
C
102
}
100
AcDbDictionary
280
0
281
1
  3
Standard
350
18
  0
DICTIONARY
  5
19
102
{ACAD_REACTORS
330
C
102
}
100
AcDbDictionary
281
1
  0
DICTIONARY
  5
1A
102
{ACAD_REACTORS
330
C
102
}
100
AcDbDictionary
281
1
  3
Model
350
3BC
  3
Layout1
350
3BD
  0
ACDBPLACEHOLDER
  5
F
102
{ACAD_REACTORS
330
E
102
}
  0
MLINESTYLE
  5
18
102
{ACAD_REACTORS
330
17
102
}
100
AcDbMlineStyle
  2
STANDARD
 70
0
  3

 62
256
 51
90.0
 52
90.0
 71
2
 49
0.5
 62
256
  6
BYLAYER
 49
-0.5
 62
256
  6
BYLAYER
  0
LAYOUT
  5
3BC
102
{ACAD_REACTORS
330
1A
102
}
100
AcDbPlotSettings
  1

  2
none_device
  4

  6

 40
0.0
 41
0.0
 42
0.0
 43
0.0
 44
210.0
 45
297.0
 46
0.0
 47
0.0
 48
0.0
 49
0.0
140
0.0
141
0.0
142
1.0
143
1.0
 70
1024
 72
1
 73
0
 74
0
  7

 75
0
147
1.0
148
0.0
149
0.0
100
AcDbLayout
  1
Model
 70
0
 71
0
 10
0.0
 20
0.0
 11
210.0
 21
297.0
 12
0.0
 22
0.0
 32
0.0
 14
0.0
 24
0.0
 34
0.0
 15
0.0
 25
0.0
 35
0.0
146
0.0
 13
0.0
 23
0.0
 33
0.0
 16
1.0
 26
0.0
 36
0.0
 17
0.0
 27
1.0
 37
0.0
 76
0
330
211
345
0
346
0
  0
LAYOUT
  5
3BD
102
{ACAD_REACTORS
330
1A
102
}
100
AcDbPlotSettings
  1

  2
none_device
  4

  6

 40
0.0
 41
0.0
 42
0.0
 43
0.0
 44
210.0
 45
297.0
 46
0.0
 47
0.0
 48
0.0
 49
0.0
140
0.0
141
0.0
142
1.0
143
1.0
 70
0
 72
1
 73
0
 74
0
  7

 75
0
147
1.0
148
0.0
149
0.0
100
AcDbLayout
  1
Layout1
 70
0
 71
1
 10
0.0
 20
0.0
 11
210.0
 21
297.0
 12
0.0
 22
0.0
 32
0.0
 14
0.0
 24
0.0
 34
0.0
 15
0.0
 25
0.0
 35
0.0
146
0.0
 13
0.0
 23
0.0
 33
0.0
 16
1.0
 26
0.0
 36
0.0
 17
0.0
 27
1.0
 37
0.0
 76
0
330
212
345
0
346
0
  0
ENDSEC
  0
EOF
