999
DXF file: C:\Users\SESA621925\Desktop\Projects\Drawing_creation_tool\Gen2D (3) (1)\CAD\G20ROTDS_3D-CAD\drw0001_1.dxf
999
Pro/ENGINEER 2019471 by Parametric Technology Corporation
  0
SECTION
  2
HEADER
  9
$ACADVER
  1
AC1024
  9
$DWGCODEPAGE
  3
ANSI_1252
  9
$EXTMAX
 10
136.0764170491
 20
192.4509326837
 30
0.0
  9
$EXTMIN
 10
0.0
 20
0.0
 30
0.0
  9
$LIMMIN
 10
0.0
 20
0.0
  9
$LIMMAX
 10
136.0764170491
 20
192.4509326837
  9
$VIEWCTR
 10
68.0382085245
 20
96.2254663418
  9
$VIEWSIZE
 40
192.4509326837
  9
$CLAYER
  8
0
  9
$LTSCALE
 40
12.544949686
  9
$CELTYPE
  6
BYLAYER
  9
$DIMSCALE
 40
1.0
  9
$DIMASZ
 40
1.6199573458
  9
$DIMEXO
 40
1.0
  9
$DIMDLI
 40
8.6674197831
  9
$DIMEXE
 40
1.0
  9
$DIMCEN
 40
2.0528099486
  9
$DIMLFAC
 40
1.0
  9
$DIMBLK
  1
_FILLED
  9
$DIMALT
 70
0
  9
$DIMALTF
 40
0.0393700787
  9
$DIMTXT
 40
2.2679402842
  9
$DIMTOL
 70
1
  9
$DIMLIM
 70
0
  9
$DIMTFAC
 40
1.0
  9
$DIMTP
 40
0.01
  9
$DIMTM
 40
0.01
  9
$DIMGAP
 40
0.625
  9
$DIMDSEP
 70
46
  9
$AUNITS
 70
0
  9
$PDMODE
 70
3
  9
$PDSIZE
 40
0.3125
  9
$HANDSEED
  5
346
  9
$TILEMODE
 70
1
  9
$MEASUREMENT
 70
1
  9
$INSUNITS
 70
4
  0
ENDSEC
  0
SECTION
  2
CLASSES
  0
CLASS
  1
ACDBDICTIONARYWDFLT
  2
AcDbDictionaryWithDefault
  3
AutoCAD 2000
 90
0
 91
1
280
0
281
0
  0
CLASS
  1
ACDBPLACEHOLDER
  2
AcDbPlaceHolder
  3
AutoCAD 2000
 90
0
 91
1
280
0
281
0
  0
CLASS
  1
LAYOUT
  2
AcDbLayout
  3
AutoCAD 2000
 90
0
 91
0
280
0
281
0
  0
ENDSEC
  0
SECTION
  2
TABLES
  0
TABLE
  2
VPORT
  5
8
100
AcDbSymbolTable
 70
2
  0
VPORT
  5
1F4
100
AcDbSymbolTableRecord
100
AcDbViewportTableRecord
  2
*ACTIVE
 70
0
 10
0.0
 20
0.0
 11
1.0
 21
1.0
 12
68.0382085245
 22
96.2254663418
 13
0.0
 23
0.0
 14
1.0
 24
1.0
 15
0.0
 25
0.0
 16
0.0
 26
0.0
 36
1.0
 17
0.0
 27
0.0
 37
0.0
 40
192.4509326837
 41
0.7070707071
 42
50.0
 43
0.0
 44
0.0
 50
0.0
 51
0.0
 71
0
 72
100
 73
1
 74
1
 75
0
 76
0
 77
0
 78
0
  0
ENDTAB
  0
TABLE
  2
LTYPE
  5
5
100
AcDbSymbolTable
 70
6
  0
LTYPE
  5
14
100
AcDbSymbolTableRecord
100
AcDbLinetypeTableRecord
  2
BYBLOCK
 70
0
  3

 72
65
 73
0
 40
0.0
  0
LTYPE
  5
15
100
AcDbSymbolTableRecord
100
AcDbLinetypeTableRecord
  2
BYLAYER
 70
0
  3

 72
65
 73
0
 40
0.0
  0
LTYPE
  5
16
100
AcDbSymbolTableRecord
100
AcDbLinetypeTableRecord
  2
CONTINUOUS
 70
64
  3
Solid line
 72
65
 73
0
 40
0.0
  0
LTYPE
  5
1F5
100
AcDbSymbolTableRecord
100
AcDbLinetypeTableRecord
  2
CENTER
 70
64
  3
____ _ ____ _ ____ _ ____ _ ____ _ ____ _ ____
 72
65
 73
4
 40
0.6
 49
0.375
 74
0
 49
-0.075
 74
0
 49
0.075
 74
0
 49
-0.075
 74
0
  0
LTYPE
  5
1F6
100
AcDbSymbolTableRecord
100
AcDbLinetypeTableRecord
  2
HIDDEN
 70
64
  3
- - - - - - - - - - - - - - - - - - - -
 72
65
 73
2
 40
0.2
 49
0.1
 74
0
 49
-0.1
 74
0
  0
LTYPE
  5
1F7
100
AcDbSymbolTableRecord
100
AcDbLinetypeTableRecord
  2
PHANTOM
 70
64
  3
_____ _ _ _____ _ _ _____ _ _ _____
 72
65
 73
6
 40
0.8
 49
0.45
 74
0
 49
-0.05
 74
0
 49
0.1
 74
0
 49
-0.05
 74
0
 49
0.1
 74
0
 49
-0.05
 74
0
  0
LTYPE
  5
1F8
100
AcDbSymbolTableRecord
100
AcDbLinetypeTableRecord
  2
DOT
 70
64
  3
. . . . . . . . . . . . . . . . . . . .
 72
65
 73
2
 40
0.2
 49
0.1
 74
0
 49
-0.1
 74
0
  0
LTYPE
  5
1F9
100
AcDbSymbolTableRecord
100
AcDbLinetypeTableRecord
  2
DASHED
 70
64
  3
- - - - - - - - - - - - - - - - - - - -
 72
65
 73
2
 40
0.2
 49
0.1
 74
0
 49
-0.1
 74
0
  0
ENDTAB
  0
TABLE
  2
LAYER
  5
2
100
AcDbSymbolTable
 70
36
  0
LAYER
  5
10
100
AcDbSymbolTableRecord
100
AcDbLayerTableRecord
  2
0
 70
0
 62
7
  6
CONTINUOUS
370
-3
390
F
  0
LAYER
  5
1FA
100
AcDbSymbolTableRecord
100
AcDbLayerTableRecord
  2
DEFAULT_1
 70
0
 62
7
  6
CENTER
370
-3
390
F
  0
LAYER
  5
1FB
100
AcDbSymbolTableRecord
100
AcDbLayerTableRecord
  2
DEFAULT_2
 70
0
 62
8
  6
HIDDEN
370
-3
390
F
  0
LAYER
  5
1FC
100
AcDbSymbolTableRecord
100
AcDbLayerTableRecord
  2
DEFAULT_3
 70
0
 62
7
  6
PHANTOM
370
-3
390
F
  0
LAYER
  5
1FD
100
AcDbSymbolTableRecord
100
AcDbLayerTableRecord
  2
00_COMPONENTS
 70
0
 62
7
  6
CONTINUOUS
370
-3
390
F
  0
LAYER
  5
1FE
100
AcDbSymbolTableRecord
100
AcDbLayerTableRecord
  2
01_1_DEFAULT_DATUMS
 70
0
 62
7
  6
CONTINUOUS
370
-3
390
F
  0
LAYER
  5
1FF
100
AcDbSymbolTableRecord
100
AcDbLayerTableRecord
  2
01_PLANES
 70
0
 62
7
  6
CONTINUOUS
370
-3
390
F
  0
LAYER
  5
200
100
AcDbSymbolTableRecord
100
AcDbLayerTableRecord
  2
02_COORD_SYS
 70
0
 62
7
  6
CONTINUOUS
370
-3
390
F
  0
LAYER
  5
201
100
AcDbSymbolTableRecord
100
AcDbLayerTableRecord
  2
03_AXES
 70
0
 62
7
  6
CONTINUOUS
370
-3
390
F
  0
LAYER
  5
202
100
AcDbSymbolTableRecord
100
AcDbLayerTableRecord
  2
04_POINTS
 70
0
 62
7
  6
CONTINUOUS
370
-3
390
F
  0
LAYER
  5
203
100
AcDbSymbolTableRecord
100
AcDbLayerTableRecord
  2
05_CURVES
 70
0
 62
7
  6
CONTINUOUS
370
-3
390
F
  0
LAYER
  5
204
100
AcDbSymbolTableRecord
100
AcDbLayerTableRecord
  2
06_SURFS
 70
0
 62
7
  6
CONTINUOUS
370
-3
390
F
  0
LAYER
  5
205
100
AcDbSymbolTableRecord
100
AcDbLayerTableRecord
  2
07_COSMETICS
 70
0
 62
7
  6
CONTINUOUS
370
-3
390
F
  0
LAYER
  5
206
100
AcDbSymbolTableRecord
100
AcDbLayerTableRecord
  2
10_NOTES
 70
0
 62
7
  6
CONTINUOUS
370
-3
390
F
  0
LAYER
  5
207
100
AcDbSymbolTableRecord
100
AcDbLayerTableRecord
  2
11_NOTES_PUB
 70
0
 62
7
  6
CONTINUOUS
370
-3
390
F
  0
LAYER
  5
208
100
AcDbSymbolTableRecord
100
AcDbLayerTableRecord
  2
13_REF_GTOL
 70
0
 62
7
  6
CONTINUOUS
370
-3
390
F
  0
LAYER
  5
209
100
AcDbSymbolTableRecord
100
AcDbLayerTableRecord
  2
16_MISC
 70
0
 62
7
  6
CONTINUOUS
370
-3
390
F
  0
LAYER
  5
20A
100
AcDbSymbolTableRecord
100
AcDbLayerTableRecord
  2
17_NO_PRINT
 70
0
 62
7
  6
CONTINUOUS
370
-3
390
F
  0
LAYER
  5
20B
100
AcDbSymbolTableRecord
100
AcDbLayerTableRecord
  2
18_DATUM_CAMS_JOINTS
 70
0
 62
7
  6
CONTINUOUS
370
-3
390
F
  0
LAYER
  5
20C
100
AcDbSymbolTableRecord
100
AcDbLayerTableRecord
  2
19_DATUM_FUNCTIONAL
 70
0
 62
7
  6
CONTINUOUS
370
-3
390
F
  0
LAYER
  5
20D
100
AcDbSymbolTableRecord
100
AcDbLayerTableRecord
  2
20_DATUM_KINEMATIC_SCHEME
 70
0
 62
7
  6
CONTINUOUS
370
-3
390
F
  0
LAYER
  5
20E
100
AcDbSymbolTableRecord
100
AcDbLayerTableRecord
  2
black
 70
0
 62
7
  6
CONTINUOUS
370
-3
390
F
  0
ENDTAB
  0
TABLE
  2
STYLE
  5
3
100
AcDbSymbolTable
 70
1
  0
STYLE
  5
11
100
AcDbSymbolTableRecord
100
AcDbTextStyleTableRecord
  2
STANDARD
 70
0
 40
0.0
 41
0.8
 50
0.0
 71
0
 42
0.2
  3
txt
  4

  0
STYLE
  5
20F
100
AcDbSymbolTableRecord
100
AcDbTextStyleTableRecord
  2
TEXTSTYLE_1
 70
0
 40
0.0
 41
0.8
 50
0.0
 71
0
 42
0.2
  3
gdt
  4

  0
ENDTAB
  0
TABLE
  2
VIEW
  5
6
100
AcDbSymbolTable
 70
0
  0
ENDTAB
  0
TABLE
  2
UCS
  5
7
100
AcDbSymbolTable
 70
0
  0
ENDTAB
  0
TABLE
  2
APPID
  5
9
100
AcDbSymbolTable
 70
1
  0
APPID
  5
210
100
AcDbSymbolTableRecord
100
AcDbRegAppTableRecord
  2
ACAD
 70
0
  0
ENDTAB
  0
TABLE
  2
BLOCK_RECORD
  5
1
100
AcDbSymbolTable
 70
0
  0
BLOCK_RECORD
  5
211
100
AcDbSymbolTableRecord
100
AcDbBlockTableRecord
  2
*Model_Space
  0
BLOCK_RECORD
  5
212
100
AcDbSymbolTableRecord
100
AcDbBlockTableRecord
  2
*Paper_Space
  0
BLOCK_RECORD
  5
213
100
AcDbSymbolTableRecord
100
AcDbBlockTableRecord
  2
_FILLED
  0
ENDTAB
  0
TABLE
  2
DIMSTYLE
  5
A
100
AcDbSymbolTable
 70
1
100
AcDbDimStyleTable
 71
0
  0
DIMSTYLE
105
214
100
AcDbSymbolTableRecord
100
AcDbDimStyleTableRecord
  2
STANDARD
 70
0
  3

  4

 40
1.0
 41
1.6199573458
 42
1.0
 43
0.38
 44
1.0
 45
0.0
 46
0.0
 47
0.01
 48
0.01
140
2.2679402842
141
0.09
142
0.0
143
25.4
144
1.0
145
0.0
146
1.0
147
0.625
 71
1
 72
0
 73
0
 74
0
 75
0
 76
0
 77
1
 78
8
 79
2
170
0
171
1
172
0
173
0
174
0
175
0
176
0
177
0
178
0
270
2
179
2
271
2
272
2
273
2
274
2
275
0
280
0
281
0
282
0
283
1
284
8
285
0
286
0
287
3
288
0
340
11
278
46
341
213
342
213
343
213
344
213
  0
ENDTAB
  0
ENDSEC
  0
SECTION
  2
BLOCKS
  0
BLOCK
  5
20
100
AcDbEntity
  8
0
100
AcDbBlockBegin
  2
*Model_Space
 70
0
 10
0.0
 20
0.0
 30
0.0
  3
*Model_Space
  1

  0
ENDBLK
  5
21
100
AcDbEntity
  8
0
100
AcDbBlockEnd
  0
BLOCK
  5
1C
100
AcDbEntity
  8
0
100
AcDbBlockBegin
  2
*Paper_Space
 70
0
 10
0.0
 20
0.0
 30
0.0
  3
*Paper_Space
  1

  0
ENDBLK
  5
1D
100
AcDbEntity
  8
0
100
AcDbBlockEnd
  0
BLOCK
  5
215
100
AcDbEntity
  8
0
100
AcDbBlockBegin
  2
_FILLED
 70
64
 10
0.0
 20
0.0
  3
_FILLED
  1

  0
SOLID
  5
216
100
AcDbEntity
  8
0
  6
BYBLOCK
 62
0
100
AcDbTrace
 10
0.0
 20
0.0
 11
-1.0
 21
0.25
 12
-1.0
 22
-0.25
 13
-1.0
 23
-0.25
  0
ENDBLK
  5
217
100
AcDbEntity
  8
0
  6
BYBLOCK
 62
0
100
AcDbBlockEnd
  0
ENDSEC
  0
SECTION
  2
ENTITIES
  0
LINE
  5
218
100
AcDbEntity
  8
0
100
AcDbLine
 62
7
  6
CONTINUOUS
 10
17.2661077676
 20
71.8975403702
 11
18.2387199042
 21
69.9899132834
  0
LINE
  5
219
100
AcDbEntity
  8
0
100
AcDbLine
 62
7
  6
CONTINUOUS
 10
24.5806966119
 20
57.5511146123
 11
25.5140807707
 21
55.7204270887
  0
LINE
  5
21A
100
AcDbEntity
  8
0
100
AcDbLine
 62
7
  6
CONTINUOUS
 10
80.6480159795
 20
40.9813219534
 11
81.2707204981
 21
40.9063855318
  0
LINE
  5
21B
100
AcDbEntity
  8
0
100
AcDbLine
 62
7
  6
CONTINUOUS
 10
81.9778243353
 20
41.3146296857
 11
81.3551198167
 21
41.3895661073
  0
LINE
  5
21C
100
AcDbEntity
  8
0
100
AcDbLine
 62
7
  6
CONTINUOUS
 10
30.3381956821
 20
132.6923972425
 11
68.168250973
 21
154.5334594746
  0
LINE
  5
21D
100
AcDbEntity
  8
0
100
AcDbLine
 62
7
  6
CONTINUOUS
 10
79.4480109834
 20
43.059780038
 11
78.8253064648
 21
43.1347164595
  0
LINE
  5
21E
100
AcDbEntity
  8
0
100
AcDbLine
 62
7
  6
CONTINUOUS
 10
32.318107034
 20
123.1631710444
 11
32.0716593985
 21
122.5864150454
  0
LINE
  5
21F
100
AcDbEntity
  8
0
100
AcDbLine
 62
7
  6
CONTINUOUS
 10
33.0252167592
 20
119.9312009618
 11
33.2716643946
 21
120.5079569609
  0
LINE
  5
220
100
AcDbEntity
  8
0
100
AcDbLine
 62
7
  6
CONTINUOUS
 10
31.6106379014
 20
122.5679849347
 11
30.9035340642
 21
122.1597407808
  0
LINE
  5
221
100
AcDbEntity
  8
0
100
AcDbLine
 62
7
  6
CONTINUOUS
 10
83.3714250681
 20
38.3871521174
 11
82.4875379117
 21
38.8974530605
  0
LINE
  5
222
100
AcDbEntity
  8
0
100
AcDbLine
 62
7
  6
CONTINUOUS
 10
78.5984344233
 20
41.1427772104
 11
40.3694033292
 21
63.2138192898
  0
LINE
  5
223
100
AcDbEntity
  8
0
100
AcDbLine
 62
7
  6
CONTINUOUS
 10
80.401568344
 20
40.4045659544
 11
79.6944586189
 21
40.8128067089
  0
LINE
  5
224
100
AcDbEntity
  8
0
100
AcDbLine
 62
7
  6
CONTINUOUS
 10
60.3196533256
 20
52.7572696168
 11
52.1171805175
 21
57.4928623672
  0
LINE
  5
225
100
AcDbEntity
  8
0
100
AcDbLine
 62
7
  6
CONTINUOUS
 10
80.7324045374
 20
41.0300434192
 11
80.4015624561
 21
41.2210508628
  0
LINE
  5
226
100
AcDbEntity
  8
0
100
AcDbLine
 62
7
  6
CONTINUOUS
 10
78.8253064648
 20
42.3182140424
 11
78.279885649
 21
42.6331057734
  0
LINE
  5
227
100
AcDbEntity
  8
0
100
AcDbLine
 62
7
  6
CONTINUOUS
 10
81.2707204981
 20
40.9063855318
 11
81.8161413138
 21
40.5914938009
  0
LINE
  5
228
100
AcDbEntity
  8
0
100
AcDbLine
 62
7
  6
CONTINUOUS
 10
41.7364282926
 20
63.7415659393
 11
52.1171805175
 21
57.7483714321
  0
LINE
  5
229
100
AcDbEntity
  8
0
100
AcDbLine
 62
7
  6
CONTINUOUS
 10
60.5409338301
 20
52.8850252131
 11
78.0065464877
 21
42.801477164
  0
LINE
  5
22A
100
AcDbEntity
  8
0
100
AcDbLine
 62
7
  6
CONTINUOUS
 10
77.958730659
 20
43.0783364775
 11
61.0396430778
 21
52.8463552648
  0
LINE
  5
22B
100
AcDbEntity
  8
0
100
AcDbLine
 62
7
  6
CONTINUOUS
 10
52.1171805175
 20
57.9976248885
 11
41.9951531267
 21
63.8414479225
  0
LINE
  5
22C
100
AcDbEntity
  8
0
100
AcDbLine
 62
7
  6
CONTINUOUS
 10
30.5336066327
 20
78.7779454958
 11
31.4966590607
 21
76.8890682869
  0
LINE
  5
22D
100
AcDbEntity
  8
0
100
AcDbLine
 62
7
  6
CONTINUOUS
 10
38.5191087626
 20
63.1156279158
 11
38.7815796357
 21
62.6008322143
  0
LINE
  5
22E
100
AcDbEntity
  8
0
100
AcDbLine
 62
7
  6
CONTINUOUS
 10
32.6943746778
 20
122.9459377335
 11
32.0716593985
 21
122.5864150454
  0
LINE
  5
22F
100
AcDbEntity
  8
0
100
AcDbLine
 62
7
  6
CONTINUOUS
 10
32.1560587171
 20
122.2530932037
 11
31.4489548799
 21
121.8448490499
  0
LINE
  5
230
100
AcDbEntity
  8
black
100
AcDbLine
 62
7
  6
CONTINUOUS
 10
33.2716695787
 20
121.8935985321
 11
32.6716618966
 21
121.5471860031
  0
LINE
  5
231
100
AcDbEntity
  8
0
100
AcDbLine
 62
7
  6
CONTINUOUS
 10
32.7787632358
 20
121.6090086489
 11
32.0716593986
 21
121.200764495
  0
LINE
  5
232
100
AcDbEntity
  8
0
100
AcDbLine
 62
7
  6
CONTINUOUS
 10
33.0252108712
 20
120.7476858702
 11
32.318107034
 21
120.3394417164
  0
LINE
  5
233
100
AcDbEntity
  8
0
100
AcDbLine
 62
7
  6
CONTINUOUS
 10
33.6845816213
 20
120.7463534098
 11
33.2716643946
 21
120.5079569609
  0
LINE
  5
234
100
AcDbEntity
  8
0
100
AcDbLine
 62
7
  6
CONTINUOUS
 10
55.6923406679
 20
61.525405899
 11
63.5440212188
 21
60.6408810152
  0
LWPOLYLINE
  5
235
100
AcDbEntity
  8
0
100
AcDbPolyline
 62
7
  6
CONTINUOUS
 90
4
 70
0
 10
60.2617909811
 20
61.0106380756
 10
62.2333921702
 20
60.1917401758
 10
66.7700594774
 20
60.0646464673
 10
68.6787947176
 20
60.8105630847
  0
LINE
  5
236
100
AcDbEntity
  8
0
100
AcDbLine
 62
7
  6
CONTINUOUS
 10
79.532410302
 20
42.7264581963
 11
78.986928311
 21
43.041385246
  0
LINE
  5
237
100
AcDbEntity
  8
0
100
AcDbLine
 62
7
  6
CONTINUOUS
 10
78.279885649
 20
43.4496081905
 11
78.8253064648
 21
43.1347164595
  0
LINE
  5
238
100
AcDbEntity
  8
0
100
AcDbLine
 62
7
  6
CONTINUOUS
 10
81.2707204981
 20
41.722887949
 11
81.8161413138
 21
41.407996218
  0
LINE
  5
239
100
AcDbEntity
  8
0
100
AcDbLine
 62
7
  6
CONTINUOUS
 10
79.6944586189
 20
43.636536037
 11
80.401568344
 21
43.2282952825
  0
LINE
  5
23A
100
AcDbEntity
  8
0
100
AcDbLine
 62
7
  6
CONTINUOUS
 10
52.1171805175
 20
61.2487734841
 11
60.3196533256
 21
56.5131807337
  0
LINE
  5
23B
100
AcDbEntity
  8
0
100
AcDbLine
 62
7
  6
CONTINUOUS
 10
60.4194741728
 20
56.5708148035
 11
51.9341574711
 21
61.4697038577
  0
LINE
  5
23C
100
AcDbEntity
  8
0
100
AcDbLine
 62
7
  6
CONTINUOUS
 10
77.0703790593
 20
48.7113529688
 11
81.4544593552
 21
46.1802602908
  0
LINE
  5
23D
100
AcDbEntity
  8
0
100
AcDbLine
 62
7
  6
CONTINUOUS
 10
81.4245870158
 20
46.4450898536
 11
77.2847954218
 21
48.8351455745
  0
LINE
  5
23E
100
AcDbEntity
  8
0
100
AcDbLine
 62
7
  6
CONTINUOUS
 10
33.9934174947
 20
117.0847270786
 11
33.7796741105
 21
116.9613230149
  0
LINE
  5
23F
100
AcDbEntity
  8
0
100
AcDbLine
 62
7
  6
CONTINUOUS
 10
46.6952065804
 20
63.8975039379
 11
45.7121345724
 21
65.8256464321
  0
LINE
  5
240
100
AcDbEntity
  8
0
100
AcDbLine
 62
7
  6
CONTINUOUS
 10
39.3701578647
 20
78.2644451031
 11
38.4472335774
 21
80.0746172194
  0
LINE
  5
241
100
AcDbEntity
  8
0
100
AcDbLine
 62
7
  6
CONTINUOUS
 10
38.3049934301
 20
91.6413544907
 11
41.4648501231
 21
98.8833554174
  0
LINE
  5
242
100
AcDbEntity
  8
0
100
AcDbLine
 62
7
  6
CONTINUOUS
 10
78.8253064648
 20
42.3182140424
 11
79.4480109834
 21
41.6741294875
  0
LINE
  5
243
100
AcDbEntity
  8
0
100
AcDbLine
 62
7
  6
CONTINUOUS
 10
80.1551148206
 20
42.0823736414
 11
79.532410302
 21
42.7264581963
  0
LINE
  5
244
100
AcDbEntity
  8
0
100
AcDbLine
 62
7
  6
CONTINUOUS
 10
81.2707204981
 20
41.722887949
 11
80.6480159795
 21
42.3669725039
  0
LINE
  5
245
100
AcDbEntity
  8
0
100
AcDbLine
 62
7
  6
CONTINUOUS
 10
32.0716593985
 20
121.200764495
 11
32.318107034
 21
120.3394417164
  0
LINE
  5
246
100
AcDbEntity
  8
0
100
AcDbLine
 62
7
  6
CONTINUOUS
 10
33.0252108712
 20
120.7476858702
 11
32.7787632358
 21
121.6090086489
  0
LINE
  5
247
100
AcDbEntity
  8
0
100
AcDbLine
 62
7
  6
CONTINUOUS
 10
33.2716643946
 20
121.8936075113
 11
33.142910068
 21
122.3435977663
  0
LINE
  5
248
100
AcDbEntity
  8
0
100
AcDbLine
 62
7
  6
CONTINUOUS
 10
51.9725369225
 20
61.2259949118
 11
51.9341574711
 21
61.4697038577
  0
LINE
  5
249
100
AcDbEntity
  8
0
100
AcDbLine
 62
7
  6
CONTINUOUS
 10
52.1171805175
 20
57.4928623672
 11
52.1171805175
 21
61.2487734841
  0
LINE
  5
24A
100
AcDbEntity
  8
0
100
AcDbLine
 62
7
  6
CONTINUOUS
 10
46.1480734811
 20
103.8050642665
 11
45.2084267131
 21
103.2625621903
  0
LINE
  5
24B
100
AcDbEntity
  8
0
100
AcDbLine
 62
7
  6
CONTINUOUS
 10
60.9866459562
 20
53.1421598072
 11
61.0396430778
 21
52.8463552648
  0
LINE
  5
24C
100
AcDbEntity
  8
0
100
AcDbLine
 62
7
  6
CONTINUOUS
 10
60.3196533256
 20
56.5131807337
 11
60.3196533256
 21
52.7572696168
  0
LINE
  5
24D
100
AcDbEntity
  8
0
100
AcDbLine
 62
7
  6
CONTINUOUS
 10
38.4472335774
 20
80.0746172194
 11
43.5644344799
 21
83.8085600945
  0
LINE
  5
24E
100
AcDbEntity
  8
0
100
AcDbLine
 62
7
  6
CONTINUOUS
 10
37.5654453281
 20
83.900348867
 11
15.786429974
 21
71.3263035465
  0
LINE
  5
24F
100
AcDbEntity
  8
0
100
AcDbLine
 62
7
  6
CONTINUOUS
 10
76.731490284
 20
84.6051175576
 11
72.6302538781
 21
86.9729139338
  0
LINE
  5
250
100
AcDbEntity
  8
0
100
AcDbLine
 62
7
  6
CONTINUOUS
 10
74.1722775761
 20
87.944874877
 11
75.5635869688
 21
87.1416201967
  0
LINE
  5
251
100
AcDbEntity
  8
0
100
AcDbLine
 62
7
  6
CONTINUOUS
 10
31.4489548799
 20
121.8448490499
 11
32.0716593985
 21
121.200764495
  0
LINE
  5
252
100
AcDbEntity
  8
0
100
AcDbLine
 62
7
  6
CONTINUOUS
 10
32.7787632358
 20
121.6090086489
 11
32.1560587171
 21
122.2530932037
  0
LINE
  5
253
100
AcDbEntity
  8
0
100
AcDbLine
 62
7
  6
CONTINUOUS
 10
33.4329554973
 20
121.7267786141
 11
33.2716643946
 21
121.8936075113
  0
LINE
  5
254
100
AcDbEntity
  8
0
100
AcDbLine
 62
7
  6
CONTINUOUS
 10
79.4480109834
 20
41.6741294875
 11
79.6944586189
 21
40.8128067089
  0
LINE
  5
255
100
AcDbEntity
  8
0
100
AcDbLine
 62
7
  6
CONTINUOUS
 10
20.1981518381
 20
71.009560792
 11
17.6920866071
 21
69.5626919929
  0
LINE
  5
256
100
AcDbEntity
  8
0
100
AcDbLine
 62
7
  6
CONTINUOUS
 10
39.9055387614
 20
80.637603043
 11
64.5137484197
 21
94.8450747064
  0
LINE
  5
257
100
AcDbEntity
  8
0
100
AcDbLine
 62
7
  6
CONTINUOUS
 10
74.7233157585
 20
100.5105371687
 11
72.206026098
 21
99.0571879809
  0
LINE
  5
258
100
AcDbEntity
  8
0
100
AcDbLine
 62
7
  6
CONTINUOUS
 10
31.4966590607
 20
76.8890682869
 11
18.2387199042
 21
69.9899132834
  0
LINE
  5
259
100
AcDbEntity
  8
0
100
AcDbLine
 62
7
  6
CONTINUOUS
 10
30.5336066327
 20
78.7779454958
 11
17.2661077676
 21
71.8975403702
  0
LINE
  5
25A
100
AcDbEntity
  8
0
100
AcDbLine
 62
7
  6
CONTINUOUS
 10
80.6480159799
 20
93.0695678264
 11
81.09557736
 21
93.015708175
  0
LINE
  5
25B
100
AcDbEntity
  8
0
100
AcDbLine
 62
7
  6
CONTINUOUS
 10
79.4480109838
 20
95.1480259109
 11
78.8253064652
 21
95.2229623325
  0
LINE
  5
25C
100
AcDbEntity
  8
0
100
AcDbLine
 62
7
  6
CONTINUOUS
 10
111.1606058706
 20
67.249938419
 11
111.4432341842
 21
67.0867665775
  0
LINE
  5
25D
100
AcDbEntity
  8
0
100
AcDbLine
 62
7
  6
CONTINUOUS
 10
77.1252285359
 20
87.200298096
 11
80.0950893815
 21
85.485686927
  0
LINE
  5
25E
100
AcDbEntity
  8
0
100
AcDbLine
 62
7
  6
CONTINUOUS
 10
80.9885832031
 20
89.4308670075
 11
77.3116126323
 21
91.553718931
  0
LINE
  5
25F
100
AcDbEntity
  8
0
100
AcDbLine
 62
7
  6
CONTINUOUS
 10
33.7796741105
 20
116.9613230149
 11
29.3955938146
 21
119.4924156929
  0
LINE
  5
260
100
AcDbEntity
  8
0
100
AcDbLine
 62
7
  6
CONTINUOUS
 10
80.4015624561
 20
41.2210508628
 11
80.1551148206
 21
42.0823736414
  0
LINE
  5
261
100
AcDbEntity
  8
0
100
AcDbLine
 62
7
  6
CONTINUOUS
 10
80.6480159795
 20
42.3669725039
 11
80.401568344
 21
43.2282952825
  0
LWPOLYLINE
  5
262
100
AcDbEntity
  8
0
100
AcDbPolyline
 62
7
  6
CONTINUOUS
 90
9
 70
0
 10
72.6393307391
 20
76.5842247121
 10
70.7205252867
 20
83.7544734254
 10
67.5780547202
 20
90.522894199
 10
63.2620313961
 20
96.6106119568
 10
58.2362870988
 20
101.1692034649
 10
55.587685277
 20
102.7477058746
 10
50.1577143752
 20
104.3687888631
 10
45.0361737132
 20
103.6487397315
 10
43.9307058179
 20
103.1073459618
  0
LINE
  5
263
100
AcDbEntity
  8
0
100
AcDbLine
 62
7
  6
CONTINUOUS
 10
72.206026098
 20
99.0571879809
 11
73.3373636033
 21
86.5646731793
  0
LINE
  5
264
100
AcDbEntity
  8
0
100
AcDbLine
 62
7
  6
CONTINUOUS
 10
74.0444733284
 20
86.1564324247
 11
72.9834052334
 21
97.87301463
  0
LINE
  5
265
100
AcDbEntity
  8
0
100
AcDbLine
 62
7
  6
CONTINUOUS
 10
74.6804685738
 20
96.8932368191
 11
75.7415366688
 21
85.1766546139
  0
LINE
  5
266
100
AcDbEntity
  8
0
100
AcDbLine
 62
7
  6
CONTINUOUS
 10
40.055954765
 20
78.3198120257
 11
40.1807159832
 21
78.3918425186
  0
LINE
  5
267
100
AcDbEntity
  8
0
100
AcDbLine
 62
7
  6
CONTINUOUS
 10
83.3714250681
 20
102.0743406535
 11
121.201480359
 21
123.9154028856
  0
LINE
  5
268
100
AcDbEntity
  8
0
100
AcDbLine
 62
7
  6
CONTINUOUS
 10
77.7285320904
 20
98.775513962
 11
75.2112424299
 21
97.3221647742
  0
LINE
  5
269
100
AcDbEntity
  8
black
100
AcDbLine
 62
7
  6
CONTINUOUS
 10
19.42082337
 20
63.1398208944
 11
18.939513671
 21
62.8619382688
  0
LINE
  5
26A
100
AcDbEntity
  8
0
100
AcDbLine
 62
7
  6
CONTINUOUS
 10
38.6443850368
 20
79.6879353653
 11
31.4966590607
 21
76.8890682869
  0
LINE
  5
26B
100
AcDbEntity
  8
0
100
AcDbLine
 62
7
  6
CONTINUOUS
 10
55.580564952
 20
90.2734999888
 11
37.5879071558
 21
83.3273467559
  0
LINE
  5
26C
100
AcDbEntity
  8
0
100
AcDbLine
 62
7
  6
CONTINUOUS
 10
43.5644344799
 20
83.8085600945
 11
30.5336066327
 21
78.7779454958
  0
LINE
  5
26D
100
AcDbEntity
  8
0
100
AcDbLine
 62
7
  6
CONTINUOUS
 10
15.7864299741
 20
71.3263035465
 11
17.2661077676
 21
71.8975403702
  0
LINE
  5
26E
100
AcDbEntity
  8
0
100
AcDbLine
 62
7
  6
CONTINUOUS
 10
38.4472335774
 20
80.0746172194
 11
39.9055387614
 21
80.637603043
  0
LINE
  5
26F
100
AcDbEntity
  8
0
100
AcDbLine
 62
7
  6
CONTINUOUS
 10
80.4015683445
 20
92.4928118274
 11
79.6944586193
 21
92.9010525819
  0
LINE
  5
270
100
AcDbEntity
  8
0
100
AcDbLine
 62
7
  6
CONTINUOUS
 10
33.0252167592
 20
119.9312009618
 11
32.318107034
 21
120.3394417164
  0
LINE
  5
271
100
AcDbEntity
  8
0
100
AcDbLine
 62
7
  6
CONTINUOUS
 10
80.7324045378
 20
93.1182892922
 11
80.4015624565
 21
93.3092967358
  0
LINE
  5
272
100
AcDbEntity
  8
0
100
AcDbLine
 62
7
  6
CONTINUOUS
 10
33.3560529525
 20
120.5566784267
 11
33.0252108712
 21
120.7476858702
  0
LINE
  5
273
100
AcDbEntity
  8
0
100
AcDbLine
 62
7
  6
CONTINUOUS
 10
78.8253064653
 20
94.4064599154
 11
78.2964789491
 21
94.7117717171
  0
LINE
  5
274
100
AcDbEntity
  8
0
100
AcDbLine
 62
7
  6
CONTINUOUS
 10
31.4489548799
 20
121.8448490499
 11
30.9035340642
 21
122.1597407808
  0
LINE
  5
275
100
AcDbEntity
  8
0
100
AcDbLine
 62
7
  6
CONTINUOUS
 10
74.6804685738
 20
96.8932368191
 11
72.9834052334
 21
97.87301463
  0
LINE
  5
276
100
AcDbEntity
  8
0
100
AcDbLine
 62
7
  6
CONTINUOUS
 10
121.201480359
 20
70.2711940802
 11
119.0801511836
 21
71.4959163437
  0
LINE
  5
277
100
AcDbEntity
  8
0
100
AcDbLine
 62
7
  6
CONTINUOUS
 10
79.5324103025
 20
94.8147040692
 11
79.0035827863
 21
95.120015871
  0
LINE
  5
278
100
AcDbEntity
  8
0
100
AcDbLine
 62
7
  6
CONTINUOUS
 10
78.2665763937
 20
95.5455379921
 11
78.8253064652
 21
95.2229623325
  0
LINE
  5
279
100
AcDbEntity
  8
0
100
AcDbLine
 62
7
  6
CONTINUOUS
 10
72.206026098
 20
99.0571879809
 11
75.2112424299
 21
97.3221647742
  0
LINE
  5
27A
100
AcDbEntity
  8
0
100
AcDbLine
 62
7
  6
CONTINUOUS
 10
32.1560587171
 20
122.2530932037
 11
31.6105767262
 21
122.5680202534
  0
LINE
  5
27B
100
AcDbEntity
  8
0
100
AcDbLine
 62
7
  6
CONTINUOUS
 10
31.4489548799
 20
122.661351467
 11
30.9035340642
 21
122.976243198
  0
LINE
  5
27C
100
AcDbEntity
  8
0
100
AcDbLine
 62
7
  6
CONTINUOUS
 10
79.6944586193
 20
95.72478191
 11
80.4015683445
 21
95.3165411554
  0
LINE
  5
27D
100
AcDbEntity
  8
0
100
AcDbLine
 62
7
  6
CONTINUOUS
 10
32.318107034
 20
123.1631710444
 11
32.569781977
 21
123.0178697355
  0
LINE
  5
27E
100
AcDbEntity
  8
0
100
AcDbLine
 62
7
  6
CONTINUOUS
 10
78.8253064653
 20
94.4064599154
 11
79.4480109838
 21
93.7623753605
  0
LINE
  5
27F
100
AcDbEntity
  8
0
100
AcDbLine
 62
7
  6
CONTINUOUS
 10
73.0330396068
 20
73.3096658883
 11
72.6393307391
 21
76.5842247121
  0
LINE
  5
280
100
AcDbEntity
  8
0
100
AcDbLine
 62
7
  6
CONTINUOUS
 10
76.3425799351
 20
84.8296499726
 11
75.2112424299
 21
97.3221647742
  0
LINE
  5
281
100
AcDbEntity
  8
0
100
AcDbLine
 62
7
  6
CONTINUOUS
 10
77.4267118926
 20
90.6640558523
 11
77.4025592376
 21
90.4083016464
  0
LINE
  5
282
100
AcDbEntity
  8
0
100
AcDbLine
 62
7
  6
CONTINUOUS
 10
77.5021732589
 20
91.4435941425
 11
77.4835445841
 21
91.2537918829
  0
LINE
  5
283
100
AcDbEntity
  8
0
100
AcDbLine
 62
7
  6
CONTINUOUS
 10
79.6944586193
 20
95.72478191
 11
79.4480109838
 21
95.1480259109
  0
LINE
  5
284
100
AcDbEntity
  8
0
100
AcDbLine
 62
7
  6
CONTINUOUS
 10
45.7121345724
 20
65.825646432
 11
46.0321264408
 21
66.0575339023
  0
LINE
  5
285
100
AcDbEntity
  8
0
100
AcDbLine
 62
7
  6
CONTINUOUS
 10
79.0035827863
 20
95.120015871
 11
78.2964789491
 21
94.7117717171
  0
LINE
  5
286
100
AcDbEntity
  8
0
100
AcDbLine
 62
7
  6
CONTINUOUS
 10
80.0707262631
 20
95.507548599
 11
79.4480109838
 21
95.1480259109
  0
LINE
  5
287
100
AcDbEntity
  8
0
100
AcDbLine
 62
7
  6
CONTINUOUS
 10
79.5324103025
 20
94.8147040692
 11
78.8253064653
 21
94.4064599154
  0
LINE
  5
288
100
AcDbEntity
  8
0
100
AcDbLine
 62
7
  6
CONTINUOUS
 10
25.4911589886
 20
63.5165725644
 11
25.4204486049
 21
63.475748149
  0
LINE
  5
289
100
AcDbEntity
  8
black
100
AcDbLine
 62
7
  6
CONTINUOUS
 10
80.6268371316
 20
94.5292374457
 11
80.0480134814
 21
94.1950554503
  0
LINE
  5
28A
100
AcDbEntity
  8
0
100
AcDbLine
 62
7
  6
CONTINUOUS
 10
80.1551148211
 20
94.1706195144
 11
79.4480109838
 21
93.7623753605
  0
LINE
  5
28B
100
AcDbEntity
  8
0
100
AcDbLine
 62
7
  6
CONTINUOUS
 10
80.4015624565
 20
93.3092967358
 11
79.6944586193
 21
92.9010525819
  0
LINE
  5
28C
100
AcDbEntity
  8
0
100
AcDbLine
 62
7
  6
CONTINUOUS
 10
81.0684319083
 20
93.3122936269
 11
80.6480159799
 21
93.0695678264
  0
LINE
  5
28D
100
AcDbEntity
  8
0
100
AcDbLine
 62
7
  6
CONTINUOUS
 10
121.201480359
 20
116.2228305803
 11
122.0928742171
 21
116.7374739921
  0
LINE
  5
28E
100
AcDbEntity
  8
0
100
AcDbLine
 62
7
  6
CONTINUOUS
 10
77.7678701251
 20
90.6192127267
 11
77.4025592376
 21
90.4083016464
  0
LINE
  5
28F
100
AcDbEntity
  8
0
100
AcDbLine
 62
7
  6
CONTINUOUS
 10
75.4253272368
 20
88.6683191176
 11
74.1722775761
 21
87.944874877
  0
LINE
  5
290
100
AcDbEntity
  8
0
100
AcDbLine
 62
7
  6
CONTINUOUS
 10
19.403999352
 20
61.9781339927
 11
19.439413607
 21
61.9960808548
  0
LINE
  5
291
100
AcDbEntity
  8
0
100
AcDbLine
 62
7
  6
CONTINUOUS
 10
23.8296238098
 20
66.5833604828
 11
23.7501827072
 21
66.544854002
  0
LINE
  5
292
100
AcDbEntity
  8
0
100
AcDbLine
 62
7
  6
CONTINUOUS
 10
40.0806958919
 20
78.5426736612
 11
39.3701578647
 21
78.2644451031
  0
LINE
  5
293
100
AcDbEntity
  8
0
100
AcDbLine
 62
7
  6
CONTINUOUS
 10
18.2387199042
 20
69.9899132834
 11
17.485536932
 21
69.6949860531
  0
LINE
  5
294
100
AcDbEntity
  8
0
100
AcDbLine
 62
7
  6
CONTINUOUS
 10
17.6920866071
 20
69.5626919929
 11
40.055954765
 21
78.3198120257
  0
LINE
  5
295
100
AcDbEntity
  8
0
100
AcDbLine
 62
7
  6
CONTINUOUS
 10
77.7285320904
 20
98.775513962
 11
74.7233157585
 21
100.5105371687
  0
LINE
  5
296
100
AcDbEntity
  8
0
100
AcDbLine
 62
7
  6
CONTINUOUS
 10
74.612419807
 20
105.1822116533
 11
35.1556971438
 21
127.9620457555
  0
LINE
  5
297
100
AcDbEntity
  8
0
100
AcDbLine
 62
7
  6
CONTINUOUS
 10
80.1551148211
 20
94.1706195144
 11
79.5324103025
 21
94.8147040692
  0
LINE
  5
298
100
AcDbEntity
  8
0
100
AcDbLine
 62
7
  6
CONTINUOUS
 10
80.8882771023
 20
94.2067080907
 11
80.6480159799
 21
94.4552183768
  0
LINE
  5
299
100
AcDbEntity
  8
0
100
AcDbLine
 62
7
  6
CONTINUOUS
 10
79.4480109838
 20
93.7623753605
 11
79.6944586193
 21
92.9010525819
  0
LINE
  5
29A
100
AcDbEntity
  8
0
100
AcDbLine
 62
7
  6
CONTINUOUS
 10
80.4015624565
 20
93.3092967358
 11
80.1551148211
 21
94.1706195144
  0
LINE
  5
29B
100
AcDbEntity
  8
0
100
AcDbLine
 62
7
  6
CONTINUOUS
 10
80.6480159799
 20
94.4552183768
 11
80.4562220217
 21
95.1255291496
  0
LINE
  5
29C
100
AcDbEntity
  8
0
100
AcDbLine
 62
7
  6
CONTINUOUS
 10
82.1430986847
 20
93.1362163924
 11
82.1711888962
 21
93.3733167862
  0
LINE
  5
29D
100
AcDbEntity
  8
0
100
AcDbLine
 62
7
  6
CONTINUOUS
 10
82.1941813213
 20
93.157088023
 11
82.2256538498
 21
93.3954825685
  0
LINE
  5
29E
100
AcDbEntity
  8
0
100
AcDbLine
 62
7
  6
CONTINUOUS
 10
80.4015683445
 20
92.4928118274
 11
80.6480159799
 21
93.0695678264
  0
LINE
  5
29F
100
AcDbEntity
  8
0
100
AcDbLine
 62
7
  6
CONTINUOUS
 10
24.4225857834
 20
57.5957892679
 11
23.8488361122
 21
57.2645367181
  0
LINE
  5
2A0
100
AcDbEntity
  8
0
100
AcDbLine
 62
7
  6
CONTINUOUS
 10
80.2791136765
 20
89.0211836617
 11
77.1252285359
 21
87.200298096
  0
LINE
  5
2A1
100
AcDbEntity
  8
0
100
AcDbLine
 62
7
  6
CONTINUOUS
 10
76.944313168
 20
84.7279901735
 11
76.731490284
 21
84.6051175576
  0
LINE
  5
2A2
100
AcDbEntity
  8
0
100
AcDbLine
 62
7
  6
CONTINUOUS
 10
46.401979981
 20
66.224481335
 11
46.282897534
 21
66.1557294626
  0
LINE
  5
2A3
100
AcDbEntity
  8
0
100
AcDbLine
 62
7
  6
CONTINUOUS
 10
25.4082040858
 20
57.9817322417
 11
24.5806966119
 21
57.5511146123
  0
LINE
  5
2A4
100
AcDbEntity
  8
0
100
AcDbLine
 62
7
  6
CONTINUOUS
 10
25.5140807707
 20
55.7204270887
 11
38.7815796357
 21
62.6008322143
  0
LINE
  5
2A5
100
AcDbEntity
  8
0
100
AcDbLine
 62
7
  6
CONTINUOUS
 10
40.0999081943
 20
69.2238498966
 11
40.1793492969
 21
69.2623563774
  0
LINE
  5
2A6
100
AcDbEntity
  8
0
100
AcDbLine
 62
7
  6
CONTINUOUS
 10
38.5090833992
 20
72.3314622303
 11
23.8296238098
 21
66.5833604828
  0
LINE
  5
2A7
100
AcDbEntity
  8
0
100
AcDbLine
 62
7
  6
CONTINUOUS
 10
40.170618578
 20
69.264674312
 11
25.4911589886
 21
63.5165725644
  0
LINE
  5
2A8
100
AcDbEntity
  8
0
100
AcDbLine
 62
7
  6
CONTINUOUS
 10
25.4204486049
 20
63.475748149
 11
40.0999081943
 21
69.2238498966
  0
LINE
  5
2A9
100
AcDbEntity
  8
0
100
AcDbLine
 62
7
  6
CONTINUOUS
 10
30.3381956821
 20
132.6923972425
 11
83.3714250681
 21
102.0743406535
  0
LINE
  5
2AA
100
AcDbEntity
  8
0
100
AcDbLine
 62
7
  6
CONTINUOUS
 10
121.201480359
 20
107.3404038179
 11
111.1606058706
 21
101.5433368329
  0
LINE
  5
2AB
100
AcDbEntity
  8
0
100
AcDbLine
 62
7
  6
CONTINUOUS
 10
72.1724853461
 20
78.3287463228
 11
48.1483966787
 21
64.4585150577
  0
LINE
  5
2AC
100
AcDbEntity
  8
0
100
AcDbLine
 62
7
  6
CONTINUOUS
 10
46.282897534
 20
66.1557294626
 11
23.9190293761
 21
57.3986094299
  0
LINE
  5
2AD
100
AcDbEntity
  8
0
100
AcDbLine
 62
7
  6
CONTINUOUS
 10
23.8488361122
 20
57.2645367181
 11
24.5806966119
 21
57.5511146123
  0
LINE
  5
2AE
100
AcDbEntity
  8
0
100
AcDbLine
 62
7
  6
CONTINUOUS
 10
45.7121345724
 20
65.8256464321
 11
46.4439950721
 21
66.1122243263
  0
LINE
  5
2AF
100
AcDbEntity
  8
0
100
AcDbLine
 62
7
  6
CONTINUOUS
 10
45.946112567
 20
65.3667350702
 11
38.7815796357
 21
62.6008322143
  0
LINE
  5
2B0
100
AcDbEntity
  8
0
100
AcDbLine
 62
7
  6
CONTINUOUS
 10
33.2716643946
 20
120.5079569609
 11
33.7112428962
 21
120.4550579712
  0
LINE
  5
2B1
100
AcDbEntity
  8
0
100
AcDbLine
 62
7
  6
CONTINUOUS
 10
32.0716593985
 20
122.5864150454
 11
31.4489548799
 21
122.661351467
  0
LINE
  5
2B2
100
AcDbEntity
  8
0
100
AcDbLine
 62
7
  6
CONTINUOUS
 10
52.1171805175
 20
61.2487734841
 11
52.2170038077
 21
61.3064061435
  0
LINE
  5
2B3
100
AcDbEntity
  8
0
100
AcDbLine
 62
7
  6
CONTINUOUS
 10
48.1483966787
 20
64.4585150577
 11
46.6952065804
 21
63.8975039379
  0
LINE
  5
2B4
100
AcDbEntity
  8
0
100
AcDbLine
 62
7
  6
CONTINUOUS
 10
25.5140807707
 20
55.7204270887
 11
24.0395180629
 21
55.1511649688
  0
LINE
  5
2B5
100
AcDbEntity
  8
0
100
AcDbLine
 62
7
  6
CONTINUOUS
 10
79.6944586189
 20
43.636536037
 11
79.4480109834
 21
43.059780038
  0
LINE
  5
2B6
100
AcDbEntity
  8
0
100
AcDbLine
 62
7
  6
CONTINUOUS
 10
70.427851586
 20
62.3973738846
 11
69.208319268
 21
61.6932807754
  0
LINE
  5
2B7
100
AcDbEntity
  8
0
100
AcDbLine
 62
7
  6
CONTINUOUS
 10
60.3196533256
 20
56.5131807337
 11
60.4194753943
 21
56.5708126879
  0
LINE
  5
2B8
100
AcDbEntity
  8
0
100
AcDbLine
 62
7
  6
CONTINUOUS
 10
80.401568344
 20
40.4045659544
 11
80.6480159795
 21
40.9813219534
  0
LINE
  5
2B9
100
AcDbEntity
  8
0
100
AcDbLine
 62
7
  6
CONTINUOUS
 10
60.3196533256
 20
52.7572696168
 11
60.9875558766
 21
53.1428810326
  0
LINE
  5
2BA
100
AcDbEntity
  8
0
100
AcDbLine
 62
7
  6
CONTINUOUS
 10
111.1606058706
 20
101.5433368329
 11
111.1606058706
 21
64.4741270952
  0
LINE
  5
2BB
100
AcDbEntity
  8
0
100
AcDbLine
 62
7
  6
CONTINUOUS
 10
81.8161413138
 20
40.5914938009
 11
81.3229889496
 21
39.8122155688
  0
LINE
  5
2BC
100
AcDbEntity
  8
0
100
AcDbLine
 62
7
  6
CONTINUOUS
 10
77.2847954218
 20
48.8351455745
 11
77.0703790593
 21
48.7113529688
  0
LINE
  5
2BD
100
AcDbEntity
  8
0
100
AcDbLine
 62
7
  6
CONTINUOUS
 10
111.1606058706
 20
66.9235920185
 11
119.0801511836
 21
71.4959163437
  0
LINE
  5
2BE
100
AcDbEntity
  8
0
100
AcDbLine
 62
7
  6
CONTINUOUS
 10
121.201480359
 20
70.2711940802
 11
121.201480359
 21
60.2282143495
  0
LINE
  5
2BF
100
AcDbEntity
  8
0
100
AcDbLine
 62
7
  6
CONTINUOUS
 10
121.201480359
 20
107.3404038179
 11
121.201480359
 21
123.9154028856
  0
LINE
  5
2C0
100
AcDbEntity
  8
0
100
AcDbLine
 62
7
  6
CONTINUOUS
 10
111.1606058706
 20
64.4741270952
 11
121.201480359
 21
70.2711940802
  0
LINE
  5
2C1
100
AcDbEntity
  8
0
100
AcDbLine
 62
7
  6
CONTINUOUS
 10
79.0360925552
 20
44.3808036428
 11
78.7730191894
 21
44.2289190709
  0
LINE
  5
2C2
100
AcDbEntity
  8
0
100
AcDbLine
 62
7
  6
CONTINUOUS
 10
78.4570227095
 20
43.3473403746
 11
78.2194474573
 21
43.2101770576
  0
LINE
  5
2C3
100
AcDbEntity
  8
0
100
AcDbLine
 62
7
  6
CONTINUOUS
 10
78.9869894863
 20
43.0413499273
 11
78.279885649
 21
42.6331057734
  0
LINE
  5
2C4
100
AcDbEntity
  8
0
100
AcDbLine
 62
7
  6
CONTINUOUS
 10
80.0707262627
 20
43.419302726
 11
79.4480109834
 21
43.059780038
  0
LINE
  5
2C5
100
AcDbEntity
  8
0
100
AcDbLine
 62
7
  6
CONTINUOUS
 10
79.532410302
 20
42.7264581963
 11
78.8253064648
 21
42.3182140424
  0
LINE
  5
2C6
100
AcDbEntity
  8
black
100
AcDbLine
 62
7
  6
CONTINUOUS
 10
80.6480211636
 20
42.3669635247
 11
80.0480134814
 21
42.0205509957
  0
LINE
  5
2C7
100
AcDbEntity
  8
0
100
AcDbLine
 62
7
  6
CONTINUOUS
 10
80.1551148206
 20
42.0823736414
 11
79.4480109834
 21
41.6741294875
  0
LINE
  5
2C8
100
AcDbEntity
  8
0
100
AcDbLine
 62
7
  6
CONTINUOUS
 10
78.8067521493
 20
41.2630487876
 11
78.5984344233
 21
41.1427772104
  0
LINE
  5
2C9
100
AcDbEntity
  8
0
100
AcDbLine
 62
7
  6
CONTINUOUS
 10
68.168250973
 20
154.5334594746
 11
121.201480359
 21
123.9154028856
  0
LINE
  5
2CA
100
AcDbEntity
  8
0
100
AcDbLine
 62
7
  6
CONTINUOUS
 10
80.4015624561
 20
41.2210508628
 11
79.6944586189
 21
40.8128067089
  0
LINE
  5
2CB
100
AcDbEntity
  8
0
100
AcDbLine
 62
7
  6
CONTINUOUS
 10
81.3551198167
 20
41.3895661073
 11
80.6480159795
 21
40.9813219534
  0
LINE
  5
2CC
100
AcDbEntity
  8
0
100
AcDbLine
 62
7
  6
CONTINUOUS
 10
81.9210685049
 20
41.4685755984
 11
81.8161413138
 21
41.407996218
  0
LINE
  5
2CD
100
AcDbEntity
  8
0
100
AcDbLine
 62
7
  6
CONTINUOUS
 10
121.201480359
 20
64.0483261257
 11
122.0928742171
 21
64.5629695376
  0
LINE
  5
2CE
100
AcDbEntity
  8
0
100
AcDbLine
 62
7
  6
CONTINUOUS
 10
81.9778243353
 20
41.3146296857
 11
81.2707204981
 21
40.9063855318
  0
LINE
  5
2CF
100
AcDbEntity
  8
0
100
AcDbLine
 62
7
  6
CONTINUOUS
 10
81.8161413138
 20
40.5914938009
 11
82.1415856353
 21
40.7793880459
  0
LINE
  5
2D0
100
AcDbEntity
  8
0
100
AcDbLine
 62
7
  6
CONTINUOUS
 10
82.2214684445
 20
40.3309063345
 11
81.3230077734
 21
39.8121829205
  0
LINE
  5
2D1
100
AcDbEntity
  8
0
100
AcDbLine
 62
7
  6
CONTINUOUS
 10
83.3714250681
 20
38.3871521174
 11
121.201480359
 21
60.2282143495
  0
ARC
  5
2D2
100
AcDbEntity
  8
0
100
AcDbCircle
 62
7
  6
CONTINUOUS
 10
310.7432411864
 20
69.9905655433
 40
238.7388044731
100
AcDbArc
 50
171.5233421112
 51
172.7693728374
  0
ARC
  5
2D3
100
AcDbEntity
  8
0
100
AcDbCircle
 62
7
  6
CONTINUOUS
 10
317.8941529844
 20
65.2889076012
 40
237.3901387888
100
AcDbArc
 50
171.0856562314
 51
173.0767303713
  0
ARC
  5
2D4
100
AcDbEntity
  8
0
100
AcDbCircle
 62
7
  6
CONTINUOUS
 10
269.6132558273
 20
93.1156073372
 40
236.8377924091
100
AcDbArc
 50
171.5652796832
 51
173.2539206951
  0
ARC
  5
2D5
100
AcDbEntity
  8
0
100
AcDbCircle
 62
7
  6
CONTINUOUS
 10
268.0907986354
 20
93.2109123338
 40
235.513062867
100
AcDbArc
 50
171.5147374476
 51
173.2332509678
  0
ARC
  5
2D6
100
AcDbEntity
  8
0
100
AcDbCircle
 62
7
  6
CONTINUOUS
 10
308.2734874701
 20
68.6574911025
 40
232.5039177132
100
AcDbArc
 50
172.5571213773
 51
173.5383653584
  0
ARC
  5
2D7
100
AcDbEntity
  8
0
100
AcDbCircle
 62
7
  6
CONTINUOUS
 10
311.9058980563
 20
66.0350532203
 40
231.3556077722
100
AcDbArc
 50
173.0814062255
 51
173.213756709
  0
ARC
  5
2D8
100
AcDbEntity
  8
0
100
AcDbCircle
 62
7
  6
CONTINUOUS
 10
260.3168935238
 20
94.2520411423
 40
227.4723001796
100
AcDbArc
 50
173.2631211769
 51
174.2391960165
  0
ARC
  5
2D9
100
AcDbEntity
  8
0
100
AcDbCircle
 62
7
  6
CONTINUOUS
 10
259.4161861628
 20
94.2394822482
 40
226.7776832472
100
AcDbArc
 50
173.2330729462
 51
174.2496383371
  0
ARC
  5
2DA
100
AcDbEntity
  8
0
100
AcDbCircle
 62
7
  6
CONTINUOUS
 10
298.4723626951
 20
69.6595565791
 40
222.0413671558
100
AcDbArc
 50
174.4189802148
 51
174.5718613492
  0
ARC
  5
2DB
100
AcDbEntity
  8
0
100
AcDbCircle
 62
7
  6
CONTINUOUS
 10
297.4081436453
 20
69.869868518
 40
221.571159043
100
AcDbArc
 50
173.5336882221
 51
176.1286257093
  0
ARC
  5
2DC
100
AcDbEntity
  8
0
100
AcDbCircle
 62
7
  6
CONTINUOUS
 10
298.19348704
 20
68.2470911078
 40
218.7786101223
100
AcDbArc
 50
174.6519624407
 51
175.4807113487
  0
ARC
  5
2DD
100
AcDbEntity
  8
0
100
AcDbCircle
 62
7
  6
CONTINUOUS
 10
292.8646107548
 20
70.0591900421
 40
216.6220435961
100
AcDbArc
 50
174.3054007905
 51
176.1497554563
  0
ARC
  5
2DE
100
AcDbEntity
  8
0
100
AcDbCircle
 62
7
  6
CONTINUOUS
 10
287.7358138094
 20
72.4967108449
 40
215.5921203783
100
AcDbArc
 50
175.1129222758
 51
176.1499062797
  0
ARC
  5
2DF
100
AcDbEntity
  8
0
100
AcDbCircle
 62
7
  6
CONTINUOUS
 10
290.3513104906
 20
70.3543408822
 40
213.8905053999
100
AcDbArc
 50
175.4827217898
 51
176.1467641762
  0
ARC
  5
2E0
100
AcDbEntity
  8
0
100
AcDbCircle
 62
7
  6
CONTINUOUS
 10
287.056580318
 20
71.8331189298
 40
213.4931264318
100
AcDbArc
 50
175.6719256325
 51
176.1531205887
  0
ARC
  5
2E1
100
AcDbEntity
  8
0
100
AcDbCircle
 62
7
  6
CONTINUOUS
 10
220.9263510411
 20
68.4701022995
 40
145.2065730259
100
AcDbArc
 50
187.8206928804
 51
190.1818617524
  0
ARC
  5
2E2
100
AcDbEntity
  8
0
100
AcDbCircle
 62
7
  6
CONTINUOUS
 10
194.4097780632
 20
83.2662830598
 40
144.1332449236
100
AcDbArc
 50
188.7961968804
 51
189.165703431
  0
ARC
  5
2E3
100
AcDbEntity
  8
0
100
AcDbCircle
 62
7
  6
CONTINUOUS
 10
201.821023443
 20
78.2003720186
 40
143.046271819
100
AcDbArc
 50
188.6968640727
 51
190.0888753591
  0
ARC
  5
2E4
100
AcDbEntity
  8
0
100
AcDbCircle
 62
7
  6
CONTINUOUS
 10
216.182108617
 20
67.4269518724
 40
140.0719388625
100
AcDbArc
 50
189.9557833738
 51
190.1863975853
  0
ARC
  5
2E5
100
AcDbEntity
  8
0
100
AcDbCircle
 62
7
  6
CONTINUOUS
 10
219.1241239885
 20
65.0135292083
 40
139.1100502771
100
AcDbArc
 50
189.9550309179
 51
190.8207359989
  0
ARC
  5
2E6
100
AcDbEntity
  8
0
100
AcDbCircle
 62
7
  6
CONTINUOUS
 10
214.1329696043
 20
67.053908803
 40
137.9891190172
100
AcDbArc
 50
190.2973636823
 51
190.8230591523
  0
ARC
  5
2E7
100
AcDbEntity
  8
0
100
AcDbCircle
 62
7
  6
CONTINUOUS
 10
52.2183358673
 20
79.3682341587
 40
35.9638979659
100
AcDbArc
 50
217.8098187006
 51
217.9234384326
  0
ARC
  5
2E8
100
AcDbEntity
  8
0
100
AcDbCircle
 62
7
  6
CONTINUOUS
 10
48.4867998145
 20
78.510577543
 40
32.2303111004
100
AcDbArc
 50
195.8737553832
 51
196.210424301
  0
ARC
  5
2E9
100
AcDbEntity
  8
0
100
AcDbCircle
 62
7
  6
CONTINUOUS
 10
15.4935251745
 20
57.3111628144
 40
32.1774807997
100
AcDbArc
 50
15.8736074623
 51
16.0793248853
  0
ARC
  5
2EA
100
AcDbEntity
  8
0
100
AcDbCircle
 62
7
  6
CONTINUOUS
 10
45.3717032785
 20
71.4027417697
 40
27.7269884239
100
AcDbArc
 50
0.5059032435
 51
3.9436313228
  0
ARC
  5
2EB
100
AcDbEntity
  8
0
100
AcDbCircle
 62
7
  6
CONTINUOUS
 10
57.3871832407
 20
91.8568255026
 40
18.9386190024
100
AcDbArc
 50
175.7902483336
 51
179.6394846789
  0
ARC
  5
2EC
100
AcDbEntity
  8
0
100
AcDbCircle
 62
7
  6
CONTINUOUS
 10
52.3795717561
 20
97.6817857594
 40
8.9361923301
100
AcDbArc
 50
136.6963054845
 51
137.8213340795
  0
ARC
  5
2ED
100
AcDbEntity
  8
0
100
AcDbCircle
 62
7
  6
CONTINUOUS
 10
67.9823880039
 20
70.6009688404
 40
8.8406305468
100
AcDbArc
 50
282.1667881297
 51
284.8459231959
  0
ARC
  5
2EE
100
AcDbEntity
  8
0
100
AcDbCircle
 62
7
  6
CONTINUOUS
 10
78.3860183669
 20
40.2035711351
 40
3.8037097305
100
AcDbArc
 50
18.757549792
 51
19.0645686215
  0
ARC
  5
2EF
100
AcDbEntity
  8
0
100
AcDbCircle
 62
7
  6
CONTINUOUS
 10
77.4110659541
 20
93.1125459417
 40
3.6681195259
100
AcDbArc
 50
35.194204624
 51
36.2819977086
  0
ARC
  5
2F0
100
AcDbEntity
  8
0
100
AcDbCircle
 62
7
  6
CONTINUOUS
 10
30.0488537638
 20
120.4748454626
 40
3.6507038896
100
AcDbArc
 50
35.191679732
 51
37.2598885959
  0
ARC
  5
2F1
100
AcDbEntity
  8
0
100
AcDbCircle
 62
7
  6
CONTINUOUS
 10
82.1635512188
 20
95.7165212137
 40
3.2157765965
100
AcDbArc
 50
189.1783689452
 51
190.6899001933
  0
ARC
  5
2F2
100
AcDbEntity
  8
0
100
AcDbCircle
 62
7
  6
CONTINUOUS
 10
34.5820357067
 20
123.0359020854
 40
3.0080694609
100
AcDbArc
 50
187.4960117368
 51
188.9482451592
  0
ARC
  5
2F3
100
AcDbEntity
  8
0
100
AcDbCircle
 62
7
  6
CONTINUOUS
 10
81.9583872913
 20
43.5092670779
 40
3.0080694606
100
AcDbArc
 50
187.4960117369
 51
188.9482451594
  0
ARC
  5
2F4
100
AcDbEntity
  8
0
100
AcDbCircle
 62
7
  6
CONTINUOUS
 10
79.1970421538
 20
43.4937998974
 40
0.8486176123
100
AcDbArc
 50
119.9767130408
 51
122.4010001942
  0
ARC
  5
2F5
100
AcDbEntity
  8
0
100
AcDbCircle
 62
7
  6
CONTINUOUS
 10
19.2722058005
 20
62.2851611759
 40
0.3341287976
100
AcDbArc
 50
300.0456290792
 51
302.0436728535
  0
SPLINE
  5
2F6
100
AcDbEntity
  8
0
100
AcDbSpline
 62
7
  6
CONTINUOUS
 70
0
 71
3
 72
11
 73
7
 74
0
 42
0.0000001
 43
0.0000001
 44
0.0000000001
 40
0.0
 40
0.0
 40
0.0
 40
0.0
 40
0.2650807683
 40
0.5176395018
 40
0.761185457
 40
1.0
 40
1.0
 40
1.0
 40
1.0
 10
41.4648520069
 20
98.8833534544
 30
0.0
 10
41.6717380692
 20
99.3575405002
 30
0.0
 10
42.1366533423
 20
100.2588471804
 30
0.0
 10
43.0090090304
 20
101.468584991
 30
0.0
 10
44.0293378514
 20
102.4858384181
 30
0.0
 10
44.8047797633
 20
103.0295179177
 30
0.0
 10
45.2084267131
 20
103.2625621903
 30
0.0
  0
SPLINE
  5
2F7
100
AcDbEntity
  8
0
100
AcDbSpline
 62
7
  6
CONTINUOUS
 70
0
 71
3
 72
17
 73
13
 74
0
 42
0.0000001
 43
0.0000001
 44
0.0000000001
 40
0.0
 40
0.0
 40
0.0
 40
0.0
 40
0.0428874893
 40
0.0875271718
 40
0.1353542118
 40
0.187320678
 40
0.3045834777
 40
0.4382488089
 40
0.5825863847
 40
0.7297365119
 40
0.8713122496
 40
1.0
 40
1.0
 40
1.0
 40
1.0
 10
40.1794767049
 20
69.2621357582
 30
0.0
 10
40.2226400629
 20
69.2870760739
 30
0.0
 10
40.3044918021
 20
69.3496583879
 30
0.0
 10
40.4029008283
 20
69.4741763018
 30
0.0
 10
40.4764341567
 20
69.6263964128
 30
0.0
 10
40.5424394183
 20
69.8711250625
 30
0.0
 10
40.5507234325
 20
70.2279234084
 30
0.0
 10
40.4583269829
 20
70.6807290404
 30
0.0
 10
40.2722264814
 20
71.1412737124
 30
0.0
 10
40.0073037419
 20
71.5721064853
 30
0.0
 10
39.6854869816
 20
71.9382608782
 30
0.0
 10
39.4340379633
 20
72.1317457806
 30
0.0
 10
39.3044957967
 20
72.2065352934
 30
0.0
  0
SPLINE
  5
2F8
100
AcDbEntity
  8
0
100
AcDbSpline
 62
7
  6
CONTINUOUS
 70
0
 71
3
 72
10
 73
6
 74
0
 42
0.0000001
 43
0.0000001
 44
0.0000000001
 40
0.0
 40
0.0
 40
0.0
 40
0.0
 40
0.472646345
 40
0.7295464554
 40
1.0
 40
1.0
 40
1.0
 40
1.0
 10
55.6923313595
 20
61.5254380174
 30
0.0
 10
54.8590064361
 20
61.6193355169
 30
0.0
 10
53.5888838223
 20
61.9360974703
 30
0.0
 10
51.9486253437
 20
62.6147533702
 30
0.0
 10
51.1185869892
 20
63.0502559635
 30
0.0
 10
50.7030176882
 20
63.2901795835
 30
0.0
  0
SPLINE
  5
2F9
100
AcDbEntity
  8
0
100
AcDbSpline
 62
7
  6
CONTINUOUS
 70
0
 71
3
 72
11
 73
7
 74
0
 42
0.0000001
 43
0.0000001
 44
0.0000000001
 40
0.0
 40
0.0
 40
0.0
 40
0.0
 40
0.2388145427
 40
0.4823604979
 40
0.7349192312
 40
1.0
 40
1.0
 40
1.0
 40
1.0
 10
69.208319268
 20
61.6932807754
 30
0.0
 10
68.8046723183
 20
61.4602365029
 30
0.0
 10
67.9461090577
 20
61.0605282598
 30
0.0
 10
66.5549753886
 20
60.6855315058
 30
0.0
 10
65.0711330913
 20
60.5349259036
 30
0.0
 10
64.0581212184
 20
60.5829560294
 30
0.0
 10
63.5440204588
 20
60.6408836347
 30
0.0
  0
SPLINE
  5
2FA
100
AcDbEntity
  8
0
100
AcDbSpline
 62
7
  6
CONTINUOUS
 70
0
 71
3
 72
9
 73
5
 74
0
 42
0.0000001
 43
0.0000001
 44
0.0000000001
 40
0.0
 40
0.0
 40
0.0
 40
0.0
 40
0.2466931435
 40
1.0
 40
1.0
 40
1.0
 40
1.0
 10
19.4494830205
 20
62.0019389298
 30
0.0
 10
19.4574780455
 20
62.0069431339
 30
0.0
 10
19.4890266224
 20
62.0285846407
 30
0.0
 10
19.5168280522
 20
62.0555833128
 30
0.0
 10
19.5350417608
 20
62.0778947309
 30
0.0
  0
SPLINE
  5
2FB
100
AcDbEntity
  8
0
100
AcDbSpline
 62
7
  6
CONTINUOUS
 70
0
 71
3
 72
9
 73
5
 74
0
 42
0.0000001
 43
0.0000001
 44
0.0000000001
 40
0.0
 40
0.0
 40
0.0
 40
0.0
 40
0.4598543325
 40
1.0
 40
1.0
 40
1.0
 40
1.0
 10
19.5350417608
 20
62.0778947309
 30
0.0
 10
19.5735902608
 20
62.1251158499
 30
0.0
 10
19.6322053073
 20
62.2485750138
 30
0.0
 10
19.6466233961
 20
62.3820966931
 30
0.0
 10
19.6466233961
 20
62.4536975143
 30
0.0
  0
SPLINE
  5
2FC
100
AcDbEntity
  8
0
100
AcDbSpline
 62
7
  6
CONTINUOUS
 70
0
 71
3
 72
11
 73
7
 74
0
 42
0.0000001
 43
0.0000001
 44
0.0000000001
 40
0.0
 40
0.0
 40
0.0
 40
0.0
 40
0.2782599791
 40
0.5381822496
 40
0.7786301608
 40
1.0
 40
1.0
 40
1.0
 40
1.0
 10
37.5879071558
 20
83.3273467559
 30
0.0
 10
37.4682833218
 20
84.1015517957
 30
0.0
 10
37.3124718629
 20
85.612260895
 30
0.0
 10
37.3457700946
 20
87.8099086509
 30
0.0
 10
37.653430281
 20
89.8253058965
 30
0.0
 10
38.0557725489
 20
91.0701219435
 30
0.0
 10
38.3050000464
 20
91.6413476004
 30
0.0
  0
SPLINE
  5
2FD
100
AcDbEntity
  8
0
100
AcDbSpline
 62
7
  6
CONTINUOUS
 70
0
 71
3
 72
11
 73
7
 74
0
 42
0.0000001
 43
0.0000001
 44
0.0000000001
 40
0.0
 40
0.0
 40
0.0
 40
0.0
 40
0.2864439774
 40
0.5461831899
 40
0.7817302935
 40
1.0
 40
1.0
 40
1.0
 40
1.0
 10
39.3044957967
 20
72.2065352934
 30
0.0
 10
39.2358061671
 20
72.2461923724
 30
0.0
 10
39.0990716439
 20
72.3126013024
 30
0.0
 10
38.8892173776
 20
72.3711998812
 30
0.0
 10
38.6900193637
 20
72.3812299973
 30
0.0
 10
38.5653609195
 20
72.353499071
 30
0.0
 10
38.5090833992
 20
72.3314622303
 30
0.0
  0
SPLINE
  5
2FE
100
AcDbEntity
  8
0
100
AcDbSpline
 62
7
  6
CONTINUOUS
 70
0
 71
3
 72
15
 73
11
 74
0
 42
0.0000001
 43
0.0000001
 44
0.0000000001
 40
0.0
 40
0.0
 40
0.0
 40
0.0
 40
0.1264656052
 40
0.2653443653
 40
0.4101604463
 40
0.5534447113
 40
0.6879758151
 40
0.8080712235
 40
0.9111814132
 40
1.0
 40
1.0
 40
1.0
 40
1.0
 10
19.6466233961
 20
62.4536975143
 30
0.0
 10
19.6466233961
 20
62.5349563422
 30
0.0
 10
19.6249900912
 20
62.7056451749
 30
0.0
 10
19.5435015023
 20
62.957493543
 30
0.0
 10
19.4171237742
 20
63.2023644586
 30
0.0
 10
19.255230702
 20
63.4218647096
 30
0.0
 10
19.0697584673
 20
63.5999287075
 30
0.0
 10
18.87354486
 20
63.7234430714
 30
0.0
 10
18.67907319
 20
63.7834965932
 30
0.0
 10
18.5515580917
 20
63.7732003447
 30
0.0
 10
18.4976412752
 20
63.7544954389
 30
0.0
  0
SPLINE
  5
2FF
100
AcDbEntity
  8
0
100
AcDbSpline
 62
7
  6
CONTINUOUS
 70
0
 71
3
 72
9
 73
5
 74
0
 42
0.0000001
 43
0.0000001
 44
0.0000000001
 40
0.0
 40
0.0
 40
0.0
 40
0.0
 40
0.5088173586
 40
1.0
 40
1.0
 40
1.0
 40
1.0
 10
18.4976412752
 20
63.7544954389
 30
0.0
 10
17.9064944122
 20
64.9859771236
 30
0.0
 10
16.8647323713
 20
67.4659543351
 30
0.0
 10
16.0903160008
 20
70.0431232123
 30
0.0
 10
15.7864299741
 20
71.3263035465
 30
0.0
  0
SPLINE
  5
300
100
AcDbEntity
  8
0
100
AcDbSpline
 62
7
  6
CONTINUOUS
 70
0
 71
3
 72
9
 73
5
 74
0
 42
0.0000001
 43
0.0000001
 44
0.0000000001
 40
0.0
 40
0.0
 40
0.0
 40
0.0
 40
0.4963579249
 40
1.0
 40
1.0
 40
1.0
 40
1.0
 10
24.0395180629
 20
55.1511649688
 30
0.0
 10
23.1587892794
 20
56.1967341399
 30
0.0
 10
21.4965527078
 20
58.3997379355
 30
0.0
 10
20.0640773641
 20
60.7581133033
 30
0.0
 10
19.403999352
 20
61.9781339927
 30
0.0
  0
SPLINE
  5
301
100
AcDbEntity
  8
0
100
AcDbSpline
 62
7
  6
CONTINUOUS
 70
0
 71
3
 72
11
 73
7
 74
0
 42
0.0000001
 43
0.0000001
 44
0.0000000001
 40
0.0
 40
0.0
 40
0.0
 40
0.0
 40
0.2513415308
 40
0.5046376733
 40
0.7555847461
 40
1.0
 40
1.0
 40
1.0
 40
1.0
 10
23.9190293761
 20
57.3986094299
 30
0.0
 10
23.2133534602
 20
58.308156104
 30
0.0
 10
21.8837944463
 20
60.2037093306
 30
0.0
 10
20.1634929346
 20
63.2119896749
 30
0.0
 10
18.7406902624
 20
66.337126188
 30
0.0
 10
18.0006518308
 20
68.4865846996
 30
0.0
 10
17.6920866071
 20
69.5626919929
 30
0.0
  0
SPLINE
  5
302
100
AcDbEntity
  8
0
100
AcDbSpline
 62
7
  6
CONTINUOUS
 70
0
 71
3
 72
9
 73
5
 74
0
 42
0.0000001
 43
0.0000001
 44
0.0000000001
 40
0.0
 40
0.0
 40
0.0
 40
0.0
 40
0.2431334064
 40
1.0
 40
1.0
 40
1.0
 40
1.0
 10
50.7030176882
 20
63.2901795835
 30
0.0
 10
50.5251822933
 20
63.3928505739
 30
0.0
 10
49.801099405
 20
63.8277992891
 30
0.0
 10
49.1063187576
 20
64.3110089543
 30
0.0
 10
48.5977596534
 20
64.6982913481
 30
0.0
  0
SPLINE
  5
303
100
AcDbEntity
  8
0
100
AcDbSpline
 62
7
  6
CONTINUOUS
 70
0
 71
3
 72
11
 73
7
 74
0
 42
0.0000001
 43
0.0000001
 44
0.0000000001
 40
0.0
 40
0.0
 40
0.0
 40
0.0
 40
0.2445141724
 40
0.4955038484
 40
0.7487725975
 40
1.0
 40
1.0
 40
1.0
 40
1.0
 10
46.4121959049
 20
66.223293361
 30
0.0
 10
46.0977884327
 20
67.3140670693
 30
0.0
 10
45.3443787514
 20
69.492377065
 30
0.0
 10
43.8971163576
 20
72.6583704716
 30
0.0
 10
42.1484789546
 20
75.7043142677
 30
0.0
 10
40.7975437873
 20
77.6226193247
 30
0.0
 10
40.0806958919
 20
78.5426736612
 30
0.0
  0
SPLINE
  5
304
100
AcDbEntity
  8
0
100
AcDbSpline
 62
7
  6
CONTINUOUS
 70
0
 71
3
 72
9
 73
5
 74
0
 42
0.0000001
 43
0.0000001
 44
0.0000000001
 40
0.0
 40
0.0
 40
0.0
 40
0.0
 40
0.4959666183
 40
1.0
 40
1.0
 40
1.0
 40
1.0
 10
45.2084267131
 20
103.2625621903
 30
0.0
 10
45.5732560342
 20
103.4731952294
 30
0.0
 10
46.3437926775
 20
103.8399782181
 30
0.0
 10
47.1617198875
 20
104.0822797708
 30
0.0
 10
47.5799970378
 20
104.173552878
 30
0.0
  0
SPLINE
  5
305
100
AcDbEntity
  8
0
100
AcDbSpline
 62
7
  6
CONTINUOUS
 70
0
 71
3
 72
18
 73
14
 74
0
 42
0.0000001
 43
0.0000001
 44
0.0000000001
 40
0.0
 40
0.0
 40
0.0
 40
0.0
 40
0.1271459819
 40
0.266849004
 40
0.4123814166
 40
0.4849650638
 40
0.5560893553
 40
0.6902801881
 40
0.8093685797
 40
0.8625126591
 40
0.9114768581
 40
0.9569189722
 40
1.0
 40
1.0
 40
1.0
 40
1.0
 10
24.6957465911
 20
63.6414995013
 30
0.0
 10
24.5704159063
 20
63.7138575689
 30
0.0
 10
24.3266601856
 20
63.89984159
 30
0.0
 10
24.0123712486
 20
64.2512292112
 30
0.0
 10
23.7935189357
 20
64.5971133238
 30
0.0
 10
23.65261536
 20
64.8950105545
 30
0.0
 10
23.54195403
 20
65.1916774706
 30
0.0
 10
23.4580915733
 20
65.5534112606
 30
0.0
 10
23.4516277426
 20
65.9061371787
 30
0.0
 10
23.5019707951
 20
66.1537986563
 30
0.0
 10
23.5628652442
 20
66.3113376813
 30
0.0
 10
23.6475380309
 20
66.4442807234
 30
0.0
 10
23.7203979427
 20
66.515518775
 30
0.0
 10
23.7594649298
 20
66.5451535354
 30
0.0
  0
SPLINE
  5
306
100
AcDbEntity
  8
0
100
AcDbSpline
 62
7
  6
CONTINUOUS
 70
0
 71
3
 72
11
 73
7
 74
0
 42
0.0000001
 43
0.0000001
 44
0.0000000001
 40
0.0
 40
0.0
 40
0.0
 40
0.0
 40
0.2182697065
 40
0.4538168101
 40
0.7135560226
 40
1.0
 40
1.0
 40
1.0
 40
1.0
 10
25.4911589886
 20
63.5165725644
 30
0.0
 10
25.4348814683
 20
63.4945357237
 30
0.0
 10
25.3102230241
 20
63.4668047975
 30
0.0
 10
25.1110250102
 20
63.4768349136
 30
0.0
 10
24.9011707439
 20
63.5354334924
 30
0.0
 10
24.7644362207
 20
63.6018424223
 30
0.0
 10
24.6957465911
 20
63.6414995013
 30
0.0
  0
SPLINE
  5
307
100
AcDbEntity
  8
0
100
AcDbSpline
 62
7
  6
CONTINUOUS
 70
0
 71
3
 72
17
 73
13
 74
0
 42
0.0000001
 43
0.0000001
 44
0.0000000001
 40
0.0
 40
0.0
 40
0.0
 40
0.0
 40
0.0428874893
 40
0.0875271718
 40
0.1353542118
 40
0.187320678
 40
0.3045834777
 40
0.4382488089
 40
0.5825863847
 40
0.7297365119
 40
0.8713122496
 40
1.0
 40
1.0
 40
1.0
 40
1.0
 10
23.7500552992
 20
66.5450746211
 30
0.0
 10
23.7068919412
 20
66.5201343054
 30
0.0
 10
23.625040202
 20
66.4575519915
 30
0.0
 10
23.5266311758
 20
66.3330340775
 30
0.0
 10
23.4530978473
 20
66.1808139666
 30
0.0
 10
23.3870925858
 20
65.9360853168
 30
0.0
 10
23.3788085715
 20
65.579286971
 30
0.0
 10
23.4712050212
 20
65.1264813389
 30
0.0
 10
23.6573055227
 20
64.665936667
 30
0.0
 10
23.9222282621
 20
64.235103894
 30
0.0
 10
24.2440450225
 20
63.8689495011
 30
0.0
 10
24.4954940407
 20
63.6754645987
 30
0.0
 10
24.6250362073
 20
63.6006750859
 30
0.0
  0
SPLINE
  5
308
100
AcDbEntity
  8
0
100
AcDbSpline
 62
7
  6
CONTINUOUS
 70
0
 71
3
 72
19
 73
15
 74
0
 42
0.0000001
 43
0.0000001
 44
0.0000000001
 40
0.0
 40
0.0
 40
0.0
 40
0.0
 40
0.1223546078
 40
0.1805772862
 40
0.2373909753
 40
0.2933474487
 40
0.3490446937
 40
0.4050940371
 40
0.4620872983
 40
0.5205689368
 40
0.5810107383
 40
0.7090833167
 40
0.8485146318
 40
1.0
 40
1.0
 40
1.0
 40
1.0
 10
38.3050000464
 20
91.6413476004
 30
0.0
 10
38.5422451132
 20
92.1851097075
 30
0.0
 10
38.9709547
 20
92.9587441206
 30
0.0
 10
39.6966762259
 20
93.8549255047
 30
0.0
 10
40.293974038
 20
94.4331420355
 30
0.0
 10
40.9496476167
 20
94.9240077675
 30
0.0
 10
41.6597592858
 20
95.3248121592
 30
0.0
 10
42.4201151625
 20
95.6328787342
 30
0.0
 10
43.2259880025
 20
95.8467523056
 30
0.0
 10
44.0726991534
 20
95.9651771626
 30
0.0
 10
45.2720960549
 20
95.9962273014
 30
0.0
 10
46.858962844
 20
95.7806287005
 30
0.0
 10
48.799637246
 20
95.1526633745
 30
0.0
 10
50.0669085831
 20
94.5212204058
 30
0.0
 10
50.7030176882
 20
94.153970951
 30
0.0
  0
SPLINE
  5
309
100
AcDbEntity
  8
0
100
AcDbSpline
 62
7
  6
CONTINUOUS
 70
0
 71
3
 72
9
 73
5
 74
0
 42
0.0000001
 43
0.0000001
 44
0.0000000001
 40
0.0
 40
0.0
 40
0.0
 40
0.0
 40
0.250145409
 40
1.0
 40
1.0
 40
1.0
 40
1.0
 10
55.580564952
 20
90.2734999888
 30
0.0
 10
56.3241546988
 20
90.6563182856
 30
0.0
 10
59.2963056359
 20
92.1876319033
 30
0.0
 10
62.2669558797
 20
93.7218566141
 30
0.0
 10
64.4940413279
 20
94.8732104877
 30
0.0
  0
SPLINE
  5
30A
100
AcDbEntity
  8
0
100
AcDbSpline
 62
7
  6
CONTINUOUS
 70
0
 71
3
 72
11
 73
7
 74
0
 42
0.0000001
 43
0.0000001
 44
0.0000000001
 40
0.0
 40
0.0
 40
0.0
 40
0.0
 40
0.2446010192
 40
0.4955576078
 40
0.7487652596
 40
1.0
 40
1.0
 40
1.0
 40
1.0
 10
17.5378720741
 20
69.5129764547
 30
0.0
 10
17.851583918
 20
68.4338894464
 30
0.0
 10
18.6006653951
 20
66.2793258272
 30
0.0
 10
20.0345368101
 20
63.147208229
 30
0.0
 10
21.7634485928
 20
60.1326767783
 30
0.0
 10
23.0974607921
 20
58.2327452996
 30
0.0
 10
23.8050594404
 20
57.3208379499
 30
0.0
  0
SPLINE
  5
30B
100
AcDbEntity
  8
0
100
AcDbSpline
 62
7
  6
CONTINUOUS
 70
0
 71
3
 72
11
 73
7
 74
0
 42
0.0000001
 43
0.0000001
 44
0.0000000001
 40
0.0
 40
0.0
 40
0.0
 40
0.0
 40
0.2864439774
 40
0.5461831899
 40
0.7817302935
 40
1.0
 40
1.0
 40
1.0
 40
1.0
 10
24.6250362073
 20
63.6006750859
 30
0.0
 10
24.693725837
 20
63.5610180069
 30
0.0
 10
24.8304603602
 20
63.494609077
 30
0.0
 10
25.0403146265
 20
63.4360104982
 30
0.0
 10
25.2395126404
 20
63.4259803821
 30
0.0
 10
25.3641710845
 20
63.4537113083
 30
0.0
 10
25.4204486049
 20
63.475748149
 30
0.0
  0
SPLINE
  5
30C
100
AcDbEntity
  8
0
100
AcDbSpline
 62
7
  6
CONTINUOUS
 70
0
 71
3
 72
11
 73
7
 74
0
 42
0.0000001
 43
0.0000001
 44
0.0000000001
 40
0.0
 40
0.0
 40
0.0
 40
0.0
 40
0.2513415308
 40
0.5046376733
 40
0.7555847461
 40
1.0
 40
1.0
 40
1.0
 40
1.0
 10
40.055954765
 20
78.3198120257
 30
0.0
 10
40.7616306809
 20
77.4102653515
 30
0.0
 10
42.0911896948
 20
75.514712125
 30
0.0
 10
43.8114912065
 20
72.5064317806
 30
0.0
 10
45.2342938787
 20
69.3812952675
 30
0.0
 10
45.9743323103
 20
67.231836756
 30
0.0
 10
46.282897534
 20
66.1557294626
 30
0.0
  0
SPLINE
  5
30D
100
AcDbEntity
  8
0
100
AcDbSpline
 62
7
  6
CONTINUOUS
 70
0
 71
3
 72
9
 73
5
 74
0
 42
0.0000001
 43
0.0000001
 44
0.0000000001
 40
0.0
 40
0.0
 40
0.0
 40
0.0
 40
0.5032873284
 40
1.0
 40
1.0
 40
1.0
 40
1.0
 10
71.0063849022
 20
63.1031885074
 30
0.0
 10
70.7394234068
 20
62.826798781
 30
0.0
 10
70.1714748476
 20
62.3124668104
 30
0.0
 10
69.53675587
 20
61.8829025947
 30
0.0
 10
69.208319268
 20
61.6932807754
 30
0.0
  0
SPLINE
  5
30E
100
AcDbEntity
  8
0
100
AcDbSpline
 62
7
  6
CONTINUOUS
 70
0
 71
3
 72
11
 73
7
 74
0
 42
0.0000001
 43
0.0000001
 44
0.0000000001
 40
0.0
 40
0.0
 40
0.0
 40
0.0
 40
0.2780717808
 40
0.410407831
 40
0.5380416206
 40
1.0
 40
1.0
 40
1.0
 40
1.0
 10
63.9053425142
 20
73.4956085161
 30
0.0
 10
63.9978056479
 20
72.7625879398
 30
0.0
 10
64.0805500521
 20
71.6725388179
 30
0.0
 10
64.0613887136
 20
70.2418735757
 30
0.0
 10
63.9158039167
 20
68.3307711475
 30
0.0
 10
63.5452584568
 20
66.7709765723
 30
0.0
 10
63.0348842661
 20
65.6547078885
 30
0.0
  0
SPLINE
  5
30F
100
AcDbEntity
  8
0
100
AcDbSpline
 62
7
  6
CONTINUOUS
 70
0
 71
3
 72
15
 73
11
 74
0
 42
0.0000001
 43
0.0000001
 44
0.0000000001
 40
0.0
 40
0.0
 40
0.0
 40
0.0
 40
0.1318829306
 40
0.2577718311
 40
0.3794105644
 40
0.4989013593
 40
0.6185456763
 40
0.7406295496
 40
0.8672173122
 40
1.0
 40
1.0
 40
1.0
 40
1.0
 10
63.0348842661
 20
65.6547078885
 30
0.0
 10
62.8692724573
 20
65.2924887967
 30
0.0
 10
62.4990258724
 20
64.604315145
 30
0.0
 10
61.8109178284
 20
63.6826422185
 30
0.0
 10
61.0105459037
 20
62.9084754866
 30
0.0
 10
60.1060719631
 20
62.2914022572
 30
0.0
 10
59.1076932338
 20
61.8386596477
 30
0.0
 10
58.0269263924
 20
61.5549749091
 30
0.0
 10
56.876103808
 20
61.4424925104
 30
0.0
 10
56.0908107123
 20
61.4805381065
 30
0.0
 10
55.6923313595
 20
61.5254380174
 30
0.0
  0
SPLINE
  5
310
100
AcDbEntity
  8
0
100
AcDbSpline
 62
7
  6
CONTINUOUS
 70
0
 71
3
 72
9
 73
5
 74
0
 42
0.0000001
 43
0.0000001
 44
0.0000000001
 40
0.0
 40
0.0
 40
0.0
 40
0.0
 40
0.4816480995
 40
1.0
 40
1.0
 40
1.0
 40
1.0
 10
50.7030176882
 20
94.153970951
 30
0.0
 10
51.5716779967
 20
93.6524610338
 30
0.0
 10
53.2894506038
 20
92.4595243897
 30
0.0
 10
54.828620652
 20
91.0479943134
 30
0.0
 10
55.580564952
 20
90.2734999888
 30
0.0
  0
SPLINE
  5
311
100
AcDbEntity
  8
0
100
AcDbSpline
 62
7
  6
CONTINUOUS
 70
0
 71
3
 72
11
 73
7
 74
0
 42
0.0000001
 43
0.0000001
 44
0.0000000001
 40
0.0
 40
0.0
 40
0.0
 40
0.0
 40
0.2512167468
 40
0.5058326875
 40
0.757475092
 40
1.0
 40
1.0
 40
1.0
 40
1.0
 10
39.9055387614
 20
80.637603043
 30
0.0
 10
40.8924289677
 20
79.4644939018
 30
0.0
 10
42.7390455446
 20
76.9809344353
 30
0.0
 10
45.0699552843
 20
72.9786592181
 30
0.0
 10
46.9189597749
 20
68.7899157213
 30
0.0
 10
47.8083414221
 20
65.8988929437
 30
0.0
 10
48.1483966787
 20
64.4585150577
 30
0.0
  0
SPLINE
  5
312
100
AcDbEntity
  8
0
100
AcDbSpline
 62
7
  6
CONTINUOUS
 70
0
 71
3
 72
11
 73
7
 74
0
 42
0.0000001
 43
0.0000001
 44
0.0000000001
 40
0.0
 40
0.0
 40
0.0
 40
0.0
 40
0.217745073
 40
0.4508830113
 40
0.7104597664
 40
1.0
 40
1.0
 40
1.0
 40
1.0
 10
122.092832252
 20
64.5630422224
 30
0.0
 10
122.142302469
 20
64.5916037186
 30
0.0
 10
122.2349548657
 20
64.6693177312
 30
0.0
 10
122.3335144818
 20
64.8305395578
 30
0.0
 10
122.3919441783
 20
65.0291557523
 30
0.0
 10
122.4035421624
 20
65.1736905047
 30
0.0
 10
122.4035421624
 20
65.24964845
 30
0.0
  0
SPLINE
  5
313
100
AcDbEntity
  8
0
100
AcDbSpline
 62
7
  6
CONTINUOUS
 70
0
 71
3
 72
14
 73
10
 74
0
 42
0.0000001
 43
0.0000001
 44
0.0000000001
 40
0.0
 40
0.0
 40
0.0
 40
0.0
 40
0.1969540407
 40
0.3163128345
 40
0.4470688185
 40
0.585543057
 40
0.7271036169
 40
0.8668711625
 40
1.0
 40
1.0
 40
1.0
 40
1.0
 10
80.927178426
 20
91.869669556
 30
0.0
 10
80.6564560031
 20
91.8514184326
 30
0.0
 10
80.2137461269
 20
91.9901246659
 30
0.0
 10
79.7033330147
 20
92.3324502585
 30
0.0
 10
79.3105893977
 20
92.700905991
 30
0.0
 10
78.9570784341
 20
93.1447150016
 30
0.0
 10
78.6585419636
 20
93.6421216748
 30
0.0
 10
78.4309678395
 20
94.167508329
 30
0.0
 10
78.3304841896
 20
94.5315446075
 30
0.0
 10
78.2964789491
 20
94.7117717171
 30
0.0
  0
SPLINE
  5
314
100
AcDbEntity
  8
0
100
AcDbSpline
 62
7
  6
CONTINUOUS
 70
0
 71
3
 72
11
 73
7
 74
0
 42
0.0000001
 43
0.0000001
 44
0.0000000001
 40
0.0
 40
0.0
 40
0.0
 40
0.0
 40
0.2223744418
 40
0.4597043454
 40
0.7184038209
 40
1.0
 40
1.0
 40
1.0
 40
1.0
 10
80.3807096527
 20
91.2116698746
 30
0.0
 10
80.4843614006
 20
91.271535234
 30
0.0
 10
80.6801175678
 20
91.4296478677
 30
0.0
 10
80.905411331
 20
91.7487640353
 30
0.0
 10
81.0630615991
 20
92.1398140995
 30
0.0
 10
81.1186209953
 20
92.4270542534
 30
0.0
 10
81.1356697261
 20
92.5776674812
 30
0.0
  0
SPLINE
  5
315
100
AcDbEntity
  8
0
100
AcDbSpline
 62
7
  6
CONTINUOUS
 70
0
 71
3
 72
15
 73
11
 74
0
 42
0.0000001
 43
0.0000001
 44
0.0000000001
 40
0.0
 40
0.0
 40
0.0
 40
0.0
 40
0.1974905877
 40
0.2559717561
 40
0.3176804608
 40
0.4491480467
 40
0.5880812099
 40
0.7295784293
 40
0.8685464333
 40
1.0
 40
1.0
 40
1.0
 40
1.0
 10
33.5486645113
 20
119.2216623645
 30
0.0
 10
33.2709330836
 20
119.203541063
 30
0.0
 10
32.9030951722
 20
119.3226925916
 30
0.0
 10
32.5218920152
 20
119.55408633
 30
0.0
 10
32.2362833905
 20
119.7658918607
 30
0.0
 10
31.8981593363
 20
120.0922689133
 30
0.0
 10
31.5418297709
 20
120.5528297436
 30
0.0
 10
31.2453711327
 20
121.0662617585
 30
0.0
 10
31.024784023
 20
121.6050812131
 30
0.0
 10
30.932344243
 20
121.9767381872
 30
0.0
 10
30.9035340642
 20
122.1597407808
 30
0.0
  0
SPLINE
  5
316
100
AcDbEntity
  8
0
100
AcDbSpline
 62
7
  6
CONTINUOUS
 70
0
 71
3
 72
9
 73
5
 74
0
 42
0.0000001
 43
0.0000001
 44
0.0000000001
 40
0.0
 40
0.0
 40
0.0
 40
0.0
 40
0.237101481
 40
1.0
 40
1.0
 40
1.0
 40
1.0
 10
82.1085509456
 20
40.9648529077
 30
0.0
 10
82.1020239267
 20
41.0020367763
 30
0.0
 10
82.0709231135
 20
41.1582318955
 30
0.0
 10
82.0267650339
 20
41.311687417
 30
0.0
 10
81.9877045746
 20
41.4267081573
 30
0.0
  0
SPLINE
  5
317
100
AcDbEntity
  8
0
100
AcDbSpline
 62
7
  6
CONTINUOUS
 70
0
 71
3
 72
11
 73
7
 74
0
 42
0.0000001
 43
0.0000001
 44
0.0000000001
 40
0.0
 40
0.0
 40
0.0
 40
0.0
 40
0.232937943
 40
0.4841258921
 40
0.7435821192
 40
1.0
 40
1.0
 40
1.0
 40
1.0
 10
81.981098731
 20
41.4459901022
 30
0.0
 10
81.9178128618
 20
41.6291182938
 30
0.0
 10
81.7579038552
 20
42.0002035226
 30
0.0
 10
81.4464520555
 20
42.5359585361
 30
0.0
 10
81.0678780997
 20
43.0509813445
 30
0.0
 10
80.7769416654
 20
43.367904333
 30
0.0
 10
80.6233568829
 20
43.515898896
 30
0.0
  0
SPLINE
  5
318
100
AcDbEntity
  8
0
100
AcDbSpline
 62
7
  6
CONTINUOUS
 70
0
 71
3
 72
11
 73
7
 74
0
 42
0.0000001
 43
0.0000001
 44
0.0000000001
 40
0.0
 40
0.0
 40
0.0
 40
0.0
 40
0.2993092684
 40
0.5702624478
 40
0.8044785841
 40
1.0
 40
1.0
 40
1.0
 40
1.0
 10
80.6233568829
 20
43.515898896
 30
0.0
 10
80.4811391539
 20
43.6529401465
 30
0.0
 10
80.1954400141
 20
43.8993776354
 30
0.0
 10
79.749175346
 20
44.1908912006
 30
0.0
 10
79.3220187171
 20
44.3737795087
 30
0.0
 10
79.0378447492
 20
44.4236419038
 30
0.0
 10
78.9088509989
 20
44.4212888297
 30
0.0
  0
SPLINE
  5
319
100
AcDbEntity
  8
0
100
AcDbSpline
 62
7
  6
CONTINUOUS
 70
0
 71
3
 72
9
 73
5
 74
0
 42
0.0000001
 43
0.0000001
 44
0.0000000001
 40
0.0
 40
0.0
 40
0.0
 40
0.0
 40
0.2594524316
 40
1.0
 40
1.0
 40
1.0
 40
1.0
 10
78.9088509989
 20
44.4212888297
 30
0.0
 10
78.8924867544
 20
44.4209903169
 30
0.0
 10
78.8294626189
 20
44.4182446444
 30
0.0
 10
78.7666595533
 20
44.4088514309
 30
0.0
 10
78.7213018988
 20
44.3976690601
 30
0.0
  0
SPLINE
  5
31A
100
AcDbEntity
  8
0
100
AcDbSpline
 62
7
  6
CONTINUOUS
 70
0
 71
3
 72
9
 73
5
 74
0
 42
0.0000001
 43
0.0000001
 44
0.0000000001
 40
0.0
 40
0.0
 40
0.0
 40
0.0
 40
0.256743503
 40
1.0
 40
1.0
 40
1.0
 40
1.0
 10
78.7213018988
 20
44.3976690601
 30
0.0
 10
78.7053405838
 20
44.3937339946
 30
0.0
 10
78.6436960219
 20
44.376388931
 30
0.0
 10
78.5843645202
 20
44.3505809345
 30
0.0
 10
78.5431564137
 20
44.3267743664
 30
0.0
  0
SPLINE
  5
31B
100
AcDbEntity
  8
0
100
AcDbSpline
 62
7
  6
CONTINUOUS
 70
0
 71
3
 72
10
 73
6
 74
0
 42
0.0000001
 43
0.0000001
 44
0.0000000001
 40
0.0
 40
0.0
 40
0.0
 40
0.0
 40
0.2348951292
 40
0.4833781517
 40
1.0
 40
1.0
 40
1.0
 40
1.0
 10
33.7593181412
 20
119.929798034
 30
0.0
 10
33.7776257764
 20
120.0915327732
 30
0.0
 10
33.786882907
 20
120.428005369
 30
0.0
 10
33.7082136393
 20
121.1178452134
 30
0.0
 10
33.5429644765
 20
121.6298224159
 30
0.0
 10
33.3919728922
 20
121.9544082043
 30
0.0
  0
SPLINE
  5
31C
100
AcDbEntity
  8
0
100
AcDbSpline
 62
7
  6
CONTINUOUS
 70
0
 71
3
 72
9
 73
5
 74
0
 42
0.0000001
 43
0.0000001
 44
0.0000000001
 40
0.0
 40
0.0
 40
0.0
 40
0.0
 40
0.2528604051
 40
1.0
 40
1.0
 40
1.0
 40
1.0
 10
33.3919728922
 20
121.9544082043
 30
0.0
 10
33.3663376728
 20
122.0095160962
 30
0.0
 10
33.260329041
 20
122.2252539162
 30
0.0
 10
33.1358198831
 20
122.4320394724
 30
0.0
 10
33.0323133814
 20
122.5787959373
 30
0.0
  0
SPLINE
  5
31D
100
AcDbEntity
  8
0
100
AcDbSpline
 62
7
  6
CONTINUOUS
 70
0
 71
3
 72
9
 73
5
 74
0
 42
0.0000001
 43
0.0000001
 44
0.0000000001
 40
0.0
 40
0.0
 40
0.0
 40
0.0
 40
0.2591373294
 40
1.0
 40
1.0
 40
1.0
 40
1.0
 10
32.9544399499
 20
122.685096083
 30
0.0
 10
32.9114150999
 20
122.7416490193
 30
0.0
 10
32.7390131508
 20
122.954877975
 30
0.0
 10
32.5410316099
 20
123.1480909693
 30
0.0
 10
32.3809070304
 20
123.2731184349
 30
0.0
  0
SPLINE
  5
31E
100
AcDbEntity
  8
0
100
AcDbSpline
 62
7
  6
CONTINUOUS
 70
0
 71
3
 72
11
 73
7
 74
0
 42
0.0000001
 43
0.0000001
 44
0.0000000001
 40
0.0
 40
0.0
 40
0.0
 40
0.0
 40
0.2834134331
 40
0.5397747114
 40
0.7746407532
 40
1.0
 40
1.0
 40
1.0
 40
1.0
 10
32.3809070304
 20
123.2731184349
 30
0.0
 10
32.2418469911
 20
123.3816984189
 30
0.0
 10
31.9551530845
 20
123.5634580288
 30
0.0
 10
31.4907347835
 20
123.7135119398
 30
0.0
 10
31.036600283
 20
123.7197065622
 30
0.0
 10
30.7605653164
 20
123.6189278109
 30
0.0
 10
30.6390898981
 20
123.5487500544
 30
0.0
  0
SPLINE
  5
31F
100
AcDbEntity
  8
0
100
AcDbSpline
 62
7
  6
CONTINUOUS
 70
0
 71
3
 72
10
 73
6
 74
0
 42
0.0000001
 43
0.0000001
 44
0.0000000001
 40
0.0
 40
0.0
 40
0.0
 40
0.0
 40
0.2349709303
 40
0.4832269086
 40
1.0
 40
1.0
 40
1.0
 40
1.0
 10
81.1356697261
 20
92.5776674812
 30
0.0
 10
81.1532755641
 20
92.7332023492
 30
0.0
 10
81.1631974697
 20
93.0564329823
 30
0.0
 10
81.0927200837
 20
93.7201052439
 30
0.0
 10
80.9409818798
 20
94.2139555985
 30
0.0
 10
80.8016821523
 20
94.5287666015
 30
0.0
  0
SPLINE
  5
320
100
AcDbEntity
  8
0
100
AcDbSpline
 62
7
  6
CONTINUOUS
 70
0
 71
3
 72
9
 73
5
 74
0
 42
0.0000001
 43
0.0000001
 44
0.0000000001
 40
0.0
 40
0.0
 40
0.0
 40
0.0
 40
0.2529043
 40
1.0
 40
1.0
 40
1.0
 40
1.0
 10
80.8016821523
 20
94.5287666015
 30
0.0
 10
80.7743356793
 20
94.5905683777
 30
0.0
 10
80.6604625686
 20
94.8323301239
 30
0.0
 10
80.5237304154
 20
95.0635200913
 30
0.0
 10
80.4086649662
 20
95.2266653844
 30
0.0
  0
SPLINE
  5
321
100
AcDbEntity
  8
0
100
AcDbSpline
 62
7
  6
CONTINUOUS
 70
0
 71
3
 72
9
 73
5
 74
0
 42
0.0000001
 43
0.0000001
 44
0.0000000001
 40
0.0
 40
0.0
 40
0.0
 40
0.0
 40
0.2587431908
 40
1.0
 40
1.0
 40
1.0
 40
1.0
 10
80.367989384
 20
95.2831920864
 30
0.0
 10
80.3258254466
 20
95.3406272146
 30
0.0
 10
80.1564325214
 20
95.5577320516
 30
0.0
 10
79.96129998
 20
95.7553401023
 30
0.0
 10
79.8031334817
 20
95.8843687593
 30
0.0
  0
SPLINE
  5
322
100
AcDbEntity
  8
0
100
AcDbSpline
 62
7
  6
CONTINUOUS
 70
0
 71
3
 72
11
 73
7
 74
0
 42
0.0000001
 43
0.0000001
 44
0.0000000001
 40
0.0
 40
0.0
 40
0.0
 40
0.0
 40
0.2845851538
 40
0.5413391756
 40
0.7757214914
 40
1.0
 40
1.0
 40
1.0
 40
1.0
 10
79.8031334817
 20
95.8843687593
 30
0.0
 10
79.6615781776
 20
95.9998463792
 30
0.0
 10
79.3692056265
 20
96.1942652349
 30
0.0
 10
78.8923985469
 20
96.3580144918
 30
0.0
 10
78.4246708433
 20
96.3709505329
 30
0.0
 10
78.1401039216
 20
96.2686384367
 30
0.0
 10
78.0154414829
 20
96.1966195016
 30
0.0
  0
SPLINE
  5
323
100
AcDbEntity
  8
0
100
AcDbSpline
 62
7
  6
CONTINUOUS
 70
0
 71
3
 72
11
 73
7
 74
0
 42
0.0000001
 43
0.0000001
 44
0.0000000001
 40
0.0
 40
0.0
 40
0.0
 40
0.0
 40
0.2223744418
 40
0.4597043454
 40
0.7184038209
 40
1.0
 40
1.0
 40
1.0
 40
1.0
 10
33.0043580679
 20
118.5638004275
 30
0.0
 10
33.1080098158
 20
118.6236657868
 30
0.0
 10
33.3037659829
 20
118.7817784206
 30
0.0
 10
33.5290597461
 20
119.1008945882
 30
0.0
 10
33.6867100143
 20
119.4919446523
 30
0.0
 10
33.7422694104
 20
119.7791848063
 30
0.0
 10
33.7593181412
 20
119.929798034
 30
0.0
  0
SPLINE
  5
324
100
AcDbEntity
  8
0
100
AcDbSpline
 62
7
  6
CONTINUOUS
 70
0
 71
3
 72
17
 73
13
 74
0
 42
0.0000001
 43
0.0000001
 44
0.0000000001
 40
0.0
 40
0.0
 40
0.0
 40
0.0
 40
0.0428551795
 40
0.0872056723
 40
0.1343099919
 40
0.1850316268
 40
0.2986114374
 40
0.4280689144
 40
0.5693998766
 40
0.7164748668
 40
0.862288255
 40
1.0
 40
1.0
 40
1.0
 40
1.0
 10
81.3229948818
 20
39.8122052907
 30
0.0
 10
81.2654203643
 20
39.7789957239
 30
0.0
 10
81.1397798067
 20
39.7251471199
 30
0.0
 10
80.9331773001
 20
39.6882214344
 30
0.0
 10
80.7113791752
 20
39.6947187839
 30
0.0
 10
80.3891330563
 20
39.7624754825
 30
0.0
 10
79.9717404123
 20
39.959575006
 30
0.0
 10
79.4991139653
 20
40.3284278791
 30
0.0
 10
79.064802274
 20
40.8135823347
 30
0.0
 10
78.6985415309
 20
41.3819253328
 30
0.0
 10
78.4254256071
 20
41.994090942
 30
0.0
 10
78.3131009552
 20
42.4221217593
 30
0.0
 10
78.279885649
 20
42.6331057734
 30
0.0
  0
SPLINE
  5
325
100
AcDbEntity
  8
0
100
AcDbSpline
 62
7
  6
CONTINUOUS
 70
0
 71
3
 72
9
 73
5
 74
0
 42
0.0000001
 43
0.0000001
 44
0.0000000001
 40
0.0
 40
0.0
 40
0.0
 40
0.0
 40
0.5109540423
 40
1.0
 40
1.0
 40
1.0
 40
1.0
 10
30.3381956821
 20
132.6923972425
 30
0.0
 10
29.4541733288
 20
127.0476675671
 30
0.0
 10
28.108553063
 20
115.9356296689
 30
0.0
 10
27.6233754681
 20
104.7499657999
 30
0.0
 10
27.6233754681
 20
99.2814101492
 30
0.0
  0
SPLINE
  5
326
100
AcDbEntity
  8
0
100
AcDbSpline
 62
7
  6
CONTINUOUS
 70
0
 71
3
 72
9
 73
5
 74
0
 42
0.0000001
 43
0.0000001
 44
0.0000000001
 40
0.0
 40
0.0
 40
0.0
 40
0.0
 40
0.2564636671
 40
1.0
 40
1.0
 40
1.0
 40
1.0
 10
27.6233754681
 20
99.2814101492
 30
0.0
 10
27.6233754681
 20
97.5308494258
 30
0.0
 10
27.7184724261
 20
90.7056632538
 30
0.0
 10
28.202435068
 20
83.8839662945
 30
0.0
 10
28.8113319101
 20
78.8454205603
 30
0.0
  0
SPLINE
  5
327
100
AcDbEntity
  8
0
100
AcDbSpline
 62
7
  6
CONTINUOUS
 70
0
 71
3
 72
15
 73
11
 74
0
 42
0.0000001
 43
0.0000001
 44
0.0000000001
 40
0.0
 40
0.0
 40
0.0
 40
0.0
 40
0.102582899
 40
0.2079191309
 40
0.3185700364
 40
0.4365089478
 40
0.5630872288
 40
0.699110535
 40
0.8448523841
 40
1.0
 40
1.0
 40
1.0
 40
1.0
 10
68.6787921995
 20
60.810566928
 30
0.0
 10
69.0413231762
 20
61.0199067708
 30
0.0
 10
69.7375903524
 20
61.5150783661
 30
0.0
 10
70.6444808378
 20
62.4557772933
 30
0.0
 10
71.4135604218
 20
63.5878694542
 30
0.0
 10
72.0426745873
 20
64.8987447786
 30
0.0
 10
72.5295680757
 20
66.377320127
 30
0.0
 10
72.8719157299
 20
68.0112172933
 30
0.0
 10
73.0693995345
 20
69.7855254321
 30
0.0
 10
73.1031299215
 20
71.0144404851
 30
0.0
 10
73.0976108671
 20
71.6475589487
 30
0.0
  0
SPLINE
  5
328
100
AcDbEntity
  8
0
100
AcDbSpline
 62
7
  6
CONTINUOUS
 70
0
 71
3
 72
11
 73
7
 74
0
 42
0.0000001
 43
0.0000001
 44
0.0000000001
 40
0.0
 40
0.0
 40
0.0
 40
0.0
 40
0.217774664
 40
0.4508986886
 40
0.7103692515
 40
1.0
 40
1.0
 40
1.0
 40
1.0
 10
122.0928524391
 20
116.7375115185
 30
0.0
 10
122.1423157175
 20
116.7661018117
 30
0.0
 10
122.2349485436
 20
116.8438399102
 30
0.0
 10
122.3334952832
 20
117.0050367808
 30
0.0
 10
122.3919868187
 20
117.2036313589
 30
0.0
 10
122.4035421624
 20
117.3481703709
 30
0.0
 10
122.4035421624
 20
117.4241529046
 30
0.0
  0
SPLINE
  5
329
100
AcDbEntity
  8
0
100
AcDbSpline
 62
7
  6
CONTINUOUS
 70
0
 71
3
 72
9
 73
5
 74
0
 42
0.0000001
 43
0.0000001
 44
0.0000000001
 40
0.0
 40
0.0
 40
0.0
 40
0.0
 40
0.2565024373
 40
1.0
 40
1.0
 40
1.0
 40
1.0
 10
121.3428775747
 20
67.0867632075
 30
0.0
 10
121.3307692112
 20
67.0937538163
 30
0.0
 10
121.2831570115
 20
67.1202926547
 30
0.0
 10
121.2339020182
 20
67.1439190305
 30
0.0
 10
121.1964854748
 20
67.1594885346
 30
0.0
  0
SPLINE
  5
32A
100
AcDbEntity
  8
0
100
AcDbSpline
 62
7
  6
CONTINUOUS
 70
0
 71
3
 72
11
 73
7
 74
0
 42
0.0000001
 43
0.0000001
 44
0.0000000001
 40
0.0
 40
0.0
 40
0.0
 40
0.0
 40
0.2372539654
 40
0.5000012591
 40
0.7627478695
 40
1.0
 40
1.0
 40
1.0
 40
1.0
 10
122.4035421624
 20
65.24964845
 30
0.0
 10
122.4035421624
 20
65.4235372747
 30
0.0
 10
122.338345764
 20
65.7902468115
 30
0.0
 10
122.1109371311
 20
66.3054612592
 30
0.0
 10
121.7784512739
 20
66.7600074583
 30
0.0
 10
121.4934694014
 20
66.9998209427
 30
0.0
 10
121.3428775747
 20
67.0867632075
 30
0.0
  0
SPLINE
  5
32B
100
AcDbEntity
  8
0
100
AcDbSpline
 62
7
  6
CONTINUOUS
 70
0
 71
3
 72
11
 73
7
 74
0
 42
0.0000001
 43
0.0000001
 44
0.0000000001
 40
0.0
 40
0.0
 40
0.0
 40
0.0
 40
0.2771235131
 40
0.5340765185
 40
0.773240734
 40
1.0
 40
1.0
 40
1.0
 40
1.0
 10
78.2665763937
 20
95.5455379921
 30
0.0
 10
78.278636861
 20
95.6275422574
 30
0.0
 10
78.3124668129
 20
95.7843425398
 30
0.0
 10
78.3969008982
 20
96.000881286
 30
0.0
 10
78.512478581
 20
96.1852455174
 30
0.0
 10
78.6108930764
 20
96.2858567345
 30
0.0
 10
78.663708185
 20
96.328406465
 30
0.0
  0
SPLINE
  5
32C
100
AcDbEntity
  8
0
100
AcDbSpline
 62
7
  6
CONTINUOUS
 70
0
 71
3
 72
10
 73
6
 74
0
 42
0.0000001
 43
0.0000001
 44
0.0000000001
 40
0.0
 40
0.0
 40
0.0
 40
0.0
 40
0.530220775
 40
0.7706653548
 40
1.0
 40
1.0
 40
1.0
 40
1.0
 10
30.9035340642
 20
122.976243198
 30
0.0
 10
30.9313648224
 20
123.1208890357
 30
0.0
 10
30.9992492297
 20
123.3291671595
 30
0.0
 10
31.1557968431
 20
123.5604102808
 30
0.0
 10
31.2503485667
 20
123.6521066588
 30
0.0
 10
31.3007238585
 20
123.6911115937
 30
0.0
  0
SPLINE
  5
32D
100
AcDbEntity
  8
0
100
AcDbSpline
 62
7
  6
CONTINUOUS
 70
0
 71
3
 72
11
 73
7
 74
0
 42
0.0000001
 43
0.0000001
 44
0.0000000001
 40
0.0
 40
0.0
 40
0.0
 40
0.0
 40
0.2764818977
 40
0.5323977872
 40
0.7712665748
 40
1.0
 40
1.0
 40
1.0
 40
1.0
 10
78.279885649
 20
43.4496081905
 30
0.0
 10
78.2958028147
 20
43.5323350691
 30
0.0
 10
78.3381558774
 20
43.6897787708
 30
0.0
 10
78.4384991404
 20
43.9038545153
 30
0.0
 10
78.5723356898
 20
44.0812081053
 30
0.0
 10
78.6834728223
 20
44.1729575463
 30
0.0
 10
78.7423175906
 20
44.2103035077
 30
0.0
  0
SPLINE
  5
32E
100
AcDbEntity
  8
0
100
AcDbSpline
 62
7
  6
CONTINUOUS
 70
0
 71
3
 72
12
 73
8
 74
0
 42
0.0000001
 43
0.0000001
 44
0.0000000001
 40
0.0
 40
0.0
 40
0.0
 40
0.0
 40
0.2414337254
 40
0.5086492519
 40
0.7708434463
 40
0.8910307641
 40
1.0
 40
1.0
 40
1.0
 40
1.0
 10
122.4035421624
 20
117.4241529046
 30
0.0
 10
122.4035421624
 20
117.6138170518
 30
0.0
 10
122.3263280402
 20
118.0136400419
 30
0.0
 10
122.0642742134
 20
118.5644540197
 30
0.0
 10
121.7402473865
 20
118.9671661078
 30
0.0
 10
121.4387126914
 20
119.2100801216
 30
0.0
 10
121.2804616734
 20
119.2986280444
 30
0.0
 10
121.2015974515
 20
119.3319204352
 30
0.0
  0
SPLINE
  5
32F
100
AcDbEntity
  8
0
100
AcDbSpline
 62
7
  6
CONTINUOUS
 70
0
 71
3
 72
11
 73
7
 74
0
 42
0.0000001
 43
0.0000001
 44
0.0000000001
 40
0.0
 40
0.0
 40
0.0
 40
0.0
 40
0.2537633795
 40
0.5259824624
 40
0.7832539762
 40
1.0
 40
1.0
 40
1.0
 40
1.0
 10
80.3672413256
 20
88.6384354722
 30
0.0
 10
80.3739334859
 20
88.7099344057
 30
0.0
 10
80.3573914287
 20
88.861282694
 30
0.0
 10
80.2694912794
 20
89.0677481965
 30
0.0
 10
80.1340733932
 20
89.2335427398
 30
0.0
 10
80.0118663655
 20
89.302335573
 30
0.0
 10
79.9517896244
 20
89.3147006957
 30
0.0
  0
SPLINE
  5
330
100
AcDbEntity
  8
0
100
AcDbSpline
 62
7
  6
CONTINUOUS
 70
0
 71
3
 72
10
 73
6
 74
0
 42
0.0000001
 43
0.0000001
 44
0.0000000001
 40
0.0
 40
0.0
 40
0.0
 40
0.0
 40
0.2253315013
 40
0.5943779689
 40
1.0
 40
1.0
 40
1.0
 40
1.0
 10
79.9517896244
 20
89.3147006957
 30
0.0
 10
79.7740240292
 20
89.3512887888
 30
0.0
 10
79.3143043564
 20
89.4954370927
 30
0.0
 10
78.6079616633
 20
89.8970736712
 30
0.0
 10
78.1360922108
 20
90.3115103012
 30
0.0
 10
77.9093305529
 20
90.5467034076
 30
0.0
  0
SPLINE
  5
331
100
AcDbEntity
  8
0
100
AcDbSpline
 62
7
  6
CONTINUOUS
 70
0
 71
3
 72
11
 73
7
 74
0
 42
0.0000001
 43
0.0000001
 44
0.0000000001
 40
0.0
 40
0.0
 40
0.0
 40
0.0
 40
0.2937282197
 40
0.5553382434
 40
0.785929486
 40
1.0
 40
1.0
 40
1.0
 40
1.0
 10
77.9093305529
 20
90.5467034076
 30
0.0
 10
77.8809614174
 20
90.5761273638
 30
0.0
 10
77.8215297549
 20
90.626693615
 30
0.0
 10
77.7219305495
 20
90.6752925896
 30
0.0
 10
77.6221291296
 20
90.6877285497
 30
0.0
 10
77.560818864
 20
90.6686893358
 30
0.0
 10
77.5350086185
 20
90.6538175911
 30
0.0
  0
SPLINE
  5
332
100
AcDbEntity
  8
0
100
AcDbSpline
 62
7
  6
CONTINUOUS
 70
0
 71
3
 72
9
 73
5
 74
0
 42
0.0000001
 43
0.0000001
 44
0.0000000001
 40
0.0
 40
0.0
 40
0.0
 40
0.0
 40
0.2553174389
 40
1.0
 40
1.0
 40
1.0
 40
1.0
 10
80.9885832031
 20
89.4308670075
 30
0.0
 10
80.8167662771
 20
87.7040524948
 30
0.0
 10
80.2226190692
 20
80.9331794712
 30
0.0
 10
79.9494951289
 20
74.1330519544
 30
0.0
 10
79.9494951289
 20
69.0715943147
 30
0.0
  0
SPLINE
  5
333
100
AcDbEntity
  8
0
100
AcDbSpline
 62
7
  6
CONTINUOUS
 70
0
 71
3
 72
9
 73
5
 74
0
 42
0.0000001
 43
0.0000001
 44
0.0000000001
 40
0.0
 40
0.0
 40
0.0
 40
0.0
 40
0.5097303219
 40
1.0
 40
1.0
 40
1.0
 40
1.0
 10
79.9494951289
 20
69.0715943147
 30
0.0
 10
79.9494951289
 20
65.1714610741
 30
0.0
 10
80.1864883273
 20
57.5177747012
 30
0.0
 10
80.9435862087
 20
49.8965427944
 30
0.0
 10
81.4544593552
 20
46.1802602908
 30
0.0
  0
SPLINE
  5
334
100
AcDbEntity
  8
0
100
AcDbSpline
 62
7
  6
CONTINUOUS
 70
0
 71
3
 72
18
 73
14
 74
0
 42
0.0000001
 43
0.0000001
 44
0.0000000001
 40
0.0
 40
0.0
 40
0.0
 40
0.0
 40
0.1320907554
 40
0.2734394541
 40
0.4178413216
 40
0.558243426
 40
0.6882061672
 40
0.7479914658
 40
0.8039632486
 40
0.8563390474
 40
0.9057426902
 40
0.9531873524
 40
1.0
 40
1.0
 40
1.0
 40
1.0
 10
29.8702146529
 20
122.1751221839
 30
0.0
 10
29.8424430889
 20
121.9297804663
 30
0.0
 10
29.8512740007
 20
121.4133796441
 30
0.0
 10
30.0263741818
 20
120.6475362511
 30
0.0
 10
30.3490160637
 20
119.9138151845
 30
0.0
 10
30.7929577258
 20
119.2724387149
 30
0.0
 10
31.2475109361
 20
118.8454960867
 30
0.0
 10
31.6394250137
 20
118.6033069616
 30
0.0
 10
31.9296986876
 20
118.4793277229
 30
0.0
 10
32.2182330602
 20
118.411049362
 30
0.0
 10
32.4989940021
 20
118.4005760216
 30
0.0
 10
32.7653145728
 20
118.4490864665
 30
0.0
 10
32.9285845268
 20
118.5200364741
 30
0.0
 10
33.0043580679
 20
118.5638004275
 30
0.0
  0
SPLINE
  5
335
100
AcDbEntity
  8
0
100
AcDbSpline
 62
7
  6
CONTINUOUS
 70
0
 71
3
 72
11
 73
7
 74
0
 42
0.0000001
 43
0.0000001
 44
0.0000000001
 40
0.0
 40
0.0
 40
0.0
 40
0.0
 40
0.2198181185
 40
0.4502848975
 40
0.7074006822
 40
1.0
 40
1.0
 40
1.0
 40
1.0
 10
78.5431564137
 20
44.3267743664
 30
0.0
 10
78.4827716583
 20
44.291889148
 30
0.0
 10
78.370264178
 20
44.1985334709
 30
0.0
 10
78.2541821743
 20
44.0022227661
 30
0.0
 10
78.1920261318
 20
43.7601119381
 30
0.0
 10
78.1851738858
 20
43.5847217908
 30
0.0
 10
78.1886368593
 20
43.4919592127
 30
0.0
  0
SPLINE
  5
336
100
AcDbEntity
  8
0
100
AcDbSpline
 62
7
  6
CONTINUOUS
 70
0
 71
3
 72
9
 73
5
 74
0
 42
0.0000001
 43
0.0000001
 44
0.0000000001
 40
0.0
 40
0.0
 40
0.0
 40
0.0
 40
0.2403487189
 40
1.0
 40
1.0
 40
1.0
 40
1.0
 10
78.1886368593
 20
43.4919592127
 30
0.0
 10
78.1894844413
 20
43.4692550544
 30
0.0
 10
78.194815662
 20
43.3748620306
 30
0.0
 10
78.2070323397
 20
43.2809049213
 30
0.0
 10
78.2194474573
 20
43.2101770576
 30
0.0
  0
SPLINE
  5
337
100
AcDbEntity
  8
0
100
AcDbSpline
 62
7
  6
CONTINUOUS
 70
0
 71
3
 72
18
 73
14
 74
0
 42
0.0000001
 43
0.0000001
 44
0.0000000001
 40
0.0
 40
0.0
 40
0.0
 40
0.0
 40
0.1320907554
 40
0.2734394541
 40
0.4178413216
 40
0.558243426
 40
0.6882061672
 40
0.7479914658
 40
0.8039632486
 40
0.8563390474
 40
0.9057426902
 40
0.9531873524
 40
1.0
 40
1.0
 40
1.0
 40
1.0
 10
77.2465662378
 20
94.822991631
 30
0.0
 10
77.2187946738
 20
94.5776499135
 30
0.0
 10
77.2276255855
 20
94.0612490912
 30
0.0
 10
77.4027257666
 20
93.2954056982
 30
0.0
 10
77.7253676485
 20
92.5616846317
 30
0.0
 10
78.1693093107
 20
91.9203081621
 30
0.0
 10
78.6238625209
 20
91.4933655338
 30
0.0
 10
79.0157765986
 20
91.2511764088
 30
0.0
 10
79.3060502725
 20
91.12719717
 30
0.0
 10
79.5945846451
 20
91.0589188091
 30
0.0
 10
79.875345587
 20
91.0484454687
 30
0.0
 10
80.1416661577
 20
91.0969559137
 30
0.0
 10
80.3049361116
 20
91.1679059212
 30
0.0
 10
80.3807096527
 20
91.2116698746
 30
0.0
  0
SPLINE
  5
338
100
AcDbEntity
  8
0
100
AcDbSpline
 62
7
  6
CONTINUOUS
 70
0
 71
3
 72
9
 73
5
 74
0
 42
0.0000001
 43
0.0000001
 44
0.0000000001
 40
0.0
 40
0.0
 40
0.0
 40
0.0
 40
0.4866886313
 40
1.0
 40
1.0
 40
1.0
 40
1.0
 10
83.3714250681
 20
38.3871521174
 30
0.0
 10
82.4443677971
 20
43.2362046237
 30
0.0
 10
81.0754653002
 20
53.306736385
 30
0.0
 10
80.6566048541
 20
63.456421545
 30
0.0
 10
80.6566048541
 20
68.6633535601
 30
0.0
  0
SPLINE
  5
339
100
AcDbEntity
  8
0
100
AcDbSpline
 62
7
  6
CONTINUOUS
 70
0
 71
3
 72
9
 73
5
 74
0
 42
0.0000001
 43
0.0000001
 44
0.0000000001
 40
0.0
 40
0.0
 40
0.0
 40
0.0
 40
0.4916328086
 40
1.0
 40
1.0
 40
1.0
 40
1.0
 10
80.6566048541
 20
68.6633535601
 30
0.0
 10
80.6566048541
 20
72.683025513
 30
0.0
 10
80.9176710367
 20
80.860771624
 30
0.0
 10
81.6562189873
 20
89.0083356577
 30
0.0
 10
82.1430986847
 20
93.1362163924
 30
0.0
  0
SPLINE
  5
33A
100
AcDbEntity
  8
0
100
AcDbSpline
 62
7
  6
CONTINUOUS
 70
0
 71
3
 72
13
 73
9
 74
0
 42
0.0000001
 43
0.0000001
 44
0.0000000001
 40
0.0
 40
0.0
 40
0.0
 40
0.0
 40
0.1144536306
 40
0.2300080228
 40
0.3477976359
 40
0.4688571024
 40
0.7237183719
 40
1.0
 40
1.0
 40
1.0
 40
1.0
 10
43.9326710819
 20
103.1035861111
 30
0.0
 10
43.5460027806
 20
102.8802430663
 30
0.0
 10
42.7997718688
 20
102.3754955185
 30
0.0
 10
41.7904681927
 20
101.4623637105
 30
0.0
 10
40.8987235003
 20
100.4000480175
 30
0.0
 10
39.8617129672
 20
98.7710463958
 30
0.0
 10
38.9158195362
 20
96.3820541452
 30
0.0
 10
38.5791650521
 20
94.3220357429
 30
0.0
 10
38.4996606753
 20
93.2470704661
 30
0.0
  0
SPLINE
  5
33B
100
AcDbEntity
  8
0
100
AcDbSpline
 62
7
  6
CONTINUOUS
 70
0
 71
3
 72
9
 73
5
 74
0
 42
0.0000001
 43
0.0000001
 44
0.0000000001
 40
0.0
 40
0.0
 40
0.0
 40
0.0
 40
0.4583453722
 40
1.0
 40
1.0
 40
1.0
 40
1.0
 10
77.5350086185
 20
90.6538175911
 30
0.0
 10
77.497010027
 20
90.6319229776
 30
0.0
 10
77.4301279269
 20
90.5555889227
 30
0.0
 10
77.4074019135
 20
90.4599011034
 30
0.0
 10
77.4025592376
 20
90.4083016464
 30
0.0
  0
SPLINE
  5
33C
100
AcDbEntity
  8
0
100
AcDbSpline
 62
7
  6
CONTINUOUS
 70
0
 71
3
 72
11
 73
7
 74
0
 42
0.0000001
 43
0.0000001
 44
0.0000000001
 40
0.0
 40
0.0
 40
0.0
 40
0.0
 40
0.224006083
 40
0.4620333572
 40
0.7202465845
 40
1.0
 40
1.0
 40
1.0
 40
1.0
 10
30.6390898981
 20
123.5487500544
 30
0.0
 10
30.5337658476
 20
123.4879031303
 30
0.0
 10
30.334442217
 20
123.3288810332
 30
0.0
 10
30.1047085963
 20
123.0073587967
 30
0.0
 10
29.9440707399
 20
122.6144817657
 30
0.0
 10
29.8873008229
 20
122.3260661601
 30
0.0
 10
29.8702146529
 20
122.1751221839
 30
0.0
  0
SPLINE
  5
33D
100
AcDbEntity
  8
0
100
AcDbSpline
 62
7
  6
CONTINUOUS
 70
0
 71
3
 72
11
 73
7
 74
0
 42
0.0000001
 43
0.0000001
 44
0.0000000001
 40
0.0
 40
0.0
 40
0.0
 40
0.0
 40
0.224006083
 40
0.4620333572
 40
0.7202465845
 40
1.0
 40
1.0
 40
1.0
 40
1.0
 10
78.0154414829
 20
96.1966195016
 30
0.0
 10
77.9101174325
 20
96.1357725774
 30
0.0
 10
77.7107938019
 20
95.9767504804
 30
0.0
 10
77.4810601811
 20
95.6552282439
 30
0.0
 10
77.3204223248
 20
95.2623512128
 30
0.0
 10
77.2636524078
 20
94.9739356072
 30
0.0
 10
77.2465662378
 20
94.822991631
 30
0.0
  0
SPLINE
  5
33E
100
AcDbEntity
  8
0
100
AcDbSpline
 62
7
  6
CONTINUOUS
 70
0
 71
3
 72
9
 73
5
 74
0
 42
0.0000001
 43
0.0000001
 44
0.0000000001
 40
0.0
 40
0.0
 40
0.0
 40
0.0
 40
0.2562173265
 40
1.0
 40
1.0
 40
1.0
 40
1.0
 10
28.5426163444
 20
98.9956426408
 30
0.0
 10
28.5426163444
 20
97.3120942144
 30
0.0
 10
28.6307545813
 20
90.7418170552
 30
0.0
 10
29.0792397864
 20
84.1747349524
 30
0.0
 10
29.6423802025
 20
79.3200533321
 30
0.0
  0
SPLINE
  5
33F
100
AcDbEntity
  8
0
100
AcDbSpline
 62
7
  6
CONTINUOUS
 70
0
 71
3
 72
9
 73
5
 74
0
 42
0.0000001
 43
0.0000001
 44
0.0000000001
 40
0.0
 40
0.0
 40
0.0
 40
0.0
 40
0.255331017
 40
1.0
 40
1.0
 40
1.0
 40
1.0
 10
29.5855727791
 20
119.3788512459
 30
0.0
 10
29.4131199352
 20
117.6499434317
 30
0.0
 10
28.8167895806
 20
110.8711876424
 30
0.0
 10
28.5426163444
 20
104.0629977011
 30
0.0
 10
28.5426163444
 20
98.9956426408
 30
0.0
  0
SPLINE
  5
340
100
AcDbEntity
  8
0
100
AcDbSpline
 62
7
  6
CONTINUOUS
 70
0
 71
3
 72
9
 73
5
 74
0
 42
0.0000001
 43
0.0000001
 44
0.0000000001
 40
0.0
 40
0.0
 40
0.0
 40
0.0
 40
0.244617827
 40
1.0
 40
1.0
 40
1.0
 40
1.0
 10
28.3304851932
 20
98.8731693946
 30
0.0
 10
28.3304851932
 20
100.5570917363
 30
0.0
 10
28.422714577
 20
107.4408077472
 30
0.0
 10
28.8747010174
 20
114.3186028041
 30
0.0
 10
29.3955938146
 20
119.4924156929
 30
0.0
  0
SPLINE
  5
341
100
AcDbEntity
  8
0
100
AcDbSpline
 62
7
  6
CONTINUOUS
 70
0
 71
3
 72
9
 73
5
 74
0
 42
0.0000001
 43
0.0000001
 44
0.0000000001
 40
0.0
 40
0.0
 40
0.0
 40
0.0
 40
0.2438595137
 40
1.0
 40
1.0
 40
1.0
 40
1.0
 10
29.4285845219
 20
79.1966370243
 30
0.0
 10
29.2442377405
 20
80.7884297648
 30
0.0
 10
28.5896694456
 20
87.3274680295
 30
0.0
 10
28.3304851932
 20
93.9044741519
 30
0.0
 10
28.3304851932
 20
98.8731693946
 30
0.0
  0
SPLINE
  5
342
100
AcDbEntity
  8
0
100
AcDbSpline
 62
7
  6
CONTINUOUS
 70
0
 71
3
 72
9
 73
5
 74
0
 42
0.0000001
 43
0.0000001
 44
0.0000000001
 40
0.0
 40
0.0
 40
0.0
 40
0.0
 40
0.4846623706
 40
1.0
 40
1.0
 40
1.0
 40
1.0
 10
78.7730320811
 20
44.2288967006
 30
0.0
 10
78.8521763835
 20
44.2745479387
 30
0.0
 10
79.0320416161
 20
44.3421711173
 30
0.0
 10
79.223033446
 20
44.3522191015
 30
0.0
 10
79.3199606897
 20
44.3456531764
 30
0.0
  0
SPLINE
  5
343
100
AcDbEntity
  8
0
100
AcDbSpline
 62
7
  6
CONTINUOUS
 70
0
 71
3
 72
9
 73
5
 74
0
 42
0.0000001
 43
0.0000001
 44
0.0000000001
 40
0.0
 40
0.0
 40
0.0
 40
0.0
 40
0.2595280472
 40
1.0
 40
1.0
 40
1.0
 40
1.0
 10
81.479165782
 20
42.4608207483
 30
0.0
 10
81.5206154029
 20
42.3744380911
 30
0.0
 10
81.6692117641
 20
42.0365218476
 30
0.0
 10
81.7736285891
 20
41.6780375434
 30
0.0
 10
81.8161413138
 20
41.407996218
 30
0.0
  0
ENDSEC
  0
SECTION
  2
OBJECTS
  0
DICTIONARY
  5
C
100
AcDbDictionary
280
0
281
1
  3
ACAD_GROUP
350
D
  3
ACAD_MLINESTYLE
350
17
  3
ACAD_LAYOUT
350
1A
  3
ACAD_PLOTSETTINGS
350
19
  3
ACAD_PLOTSTYLENAME
350
E
  0
DICTIONARY
  5
D
102
{ACAD_REACTORS
330
C
102
}
100
AcDbDictionary
280
0
281
1
  0
ACDBDICTIONARYWDFLT
  5
E
102
{ACAD_REACTORS
330
C
102
}
100
AcDbDictionary
281
1
  3
Normal
350
F
100
AcDbDictionaryWithDefault
340
F
  0
DICTIONARY
  5
17
102
{ACAD_REACTORS
330
C
102
}
100
AcDbDictionary
280
0
281
1
  3
Standard
350
18
  0
DICTIONARY
  5
19
102
{ACAD_REACTORS
330
C
102
}
100
AcDbDictionary
281
1
  0
DICTIONARY
  5
1A
102
{ACAD_REACTORS
330
C
102
}
100
AcDbDictionary
281
1
  3
Model
350
344
  3
Layout1
350
345
  0
ACDBPLACEHOLDER
  5
F
102
{ACAD_REACTORS
330
E
102
}
  0
MLINESTYLE
  5
18
102
{ACAD_REACTORS
330
17
102
}
100
AcDbMlineStyle
  2
STANDARD
 70
0
  3

 62
256
 51
90.0
 52
90.0
 71
2
 49
0.5
 62
256
  6
BYLAYER
 49
-0.5
 62
256
  6
BYLAYER
  0
LAYOUT
  5
344
102
{ACAD_REACTORS
330
1A
102
}
100
AcDbPlotSettings
  1

  2
none_device
  4

  6

 40
0.0
 41
0.0
 42
0.0
 43
0.0
 44
210.0
 45
297.0
 46
0.0
 47
0.0
 48
0.0
 49
0.0
140
0.0
141
0.0
142
1.0
143
1.0
 70
1024
 72
1
 73
0
 74
0
  7

 75
0
147
1.0
148
0.0
149
0.0
100
AcDbLayout
  1
Model
 70
0
 71
0
 10
0.0
 20
0.0
 11
210.0
 21
297.0
 12
0.0
 22
0.0
 32
0.0
 14
0.0
 24
0.0
 34
0.0
 15
0.0
 25
0.0
 35
0.0
146
0.0
 13
0.0
 23
0.0
 33
0.0
 16
1.0
 26
0.0
 36
0.0
 17
0.0
 27
1.0
 37
0.0
 76
0
330
211
345
0
346
0
  0
LAYOUT
  5
345
102
{ACAD_REACTORS
330
1A
102
}
100
AcDbPlotSettings
  1

  2
none_device
  4

  6

 40
0.0
 41
0.0
 42
0.0
 43
0.0
 44
210.0
 45
297.0
 46
0.0
 47
0.0
 48
0.0
 49
0.0
140
0.0
141
0.0
142
1.0
143
1.0
 70
0
 72
1
 73
0
 74
0
  7

 75
0
147
1.0
148
0.0
149
0.0
100
AcDbLayout
  1
Layout1
 70
0
 71
1
 10
0.0
 20
0.0
 11
210.0
 21
297.0
 12
0.0
 22
0.0
 32
0.0
 14
0.0
 24
0.0
 34
0.0
 15
0.0
 25
0.0
 35
0.0
146
0.0
 13
0.0
 23
0.0
 33
0.0
 16
1.0
 26
0.0
 36
0.0
 17
0.0
 27
1.0
 37
0.0
 76
0
330
212
345
0
346
0
  0
ENDSEC
  0
EOF
