999
DXF file: C:\Users\SESA621925\Desktop\Projects\Drawing_creation_tool\Gen2D (3) (1)\CAD\G20ROTE_3D-CAD\drw0001_1.dxf
999
Pro/ENGINEER 2019471 by Parametric Technology Corporation
  0
SECTION
  2
HEADER
  9
$ACADVER
  1
AC1024
  9
$DWGCODEPAGE
  3
ANSI_1252
  9
$EXTMAX
 10
402.028125528
 20
568.5826346753
 30
0.0
  9
$EXTMIN
 10
0.0
 20
0.0
 30
0.0
  9
$LIMMIN
 10
0.0
 20
0.0
  9
$LIMMAX
 10
402.028125528
 20
568.5826346753
  9
$VIEWCTR
 10
201.014062764
 20
284.2913173376
  9
$VIEWSIZE
 40
568.5826346753
  9
$CLAYER
  8
0
  9
$LTSCALE
 40
37.0631643344
  9
$CELTYPE
  6
BYLAYER
  9
$DIMSCALE
 40
1.0
  9
$DIMASZ
 40
4.7860491134
  9
$DIMEXO
 40
1.0
  9
$DIMDLI
 40
25.6072771765
  9
$DIMEXE
 40
1.0
  9
$DIMCEN
 40
6.0648814365
  9
$DIMLFAC
 40
1.0
  9
$DIMBLK
  1
_FILLED
  9
$DIMALT
 70
0
  9
$DIMALTF
 40
0.0393700787
  9
$DIMTXT
 40
6.7004687588
  9
$DIMTOL
 70
1
  9
$DIMLIM
 70
0
  9
$DIMTFAC
 40
1.0
  9
$DIMTP
 40
0.01
  9
$DIMTM
 40
0.01
  9
$DIMGAP
 40
0.625
  9
$DIMDSEP
 70
46
  9
$AUNITS
 70
0
  9
$PDMODE
 70
3
  9
$PDSIZE
 40
0.3125
  9
$HANDSEED
  5
3A6
  9
$TILEMODE
 70
1
  9
$MEASUREMENT
 70
1
  9
$INSUNITS
 70
4
  0
ENDSEC
  0
SECTION
  2
CLASSES
  0
CLASS
  1
ACDBDICTIONARYWDFLT
  2
AcDbDictionaryWithDefault
  3
AutoCAD 2000
 90
0
 91
1
280
0
281
0
  0
CLASS
  1
ACDBPLACEHOLDER
  2
AcDbPlaceHolder
  3
AutoCAD 2000
 90
0
 91
1
280
0
281
0
  0
CLASS
  1
LAYOUT
  2
AcDbLayout
  3
AutoCAD 2000
 90
0
 91
0
280
0
281
0
  0
ENDSEC
  0
SECTION
  2
TABLES
  0
TABLE
  2
VPORT
  5
8
100
AcDbSymbolTable
 70
2
  0
VPORT
  5
1F4
100
AcDbSymbolTableRecord
100
AcDbViewportTableRecord
  2
*ACTIVE
 70
0
 10
0.0
 20
0.0
 11
1.0
 21
1.0
 12
201.014062764
 22
284.2913173376
 13
0.0
 23
0.0
 14
1.0
 24
1.0
 15
0.0
 25
0.0
 16
0.0
 26
0.0
 36
1.0
 17
0.0
 27
0.0
 37
0.0
 40
568.5826346753
 41
0.7070707071
 42
50.0
 43
0.0
 44
0.0
 50
0.0
 51
0.0
 71
0
 72
100
 73
1
 74
1
 75
0
 76
0
 77
0
 78
0
  0
ENDTAB
  0
TABLE
  2
LTYPE
  5
5
100
AcDbSymbolTable
 70
6
  0
LTYPE
  5
14
100
AcDbSymbolTableRecord
100
AcDbLinetypeTableRecord
  2
BYBLOCK
 70
0
  3

 72
65
 73
0
 40
0.0
  0
LTYPE
  5
15
100
AcDbSymbolTableRecord
100
AcDbLinetypeTableRecord
  2
BYLAYER
 70
0
  3

 72
65
 73
0
 40
0.0
  0
LTYPE
  5
16
100
AcDbSymbolTableRecord
100
AcDbLinetypeTableRecord
  2
CONTINUOUS
 70
64
  3
Solid line
 72
65
 73
0
 40
0.0
  0
LTYPE
  5
1F5
100
AcDbSymbolTableRecord
100
AcDbLinetypeTableRecord
  2
CENTER
 70
64
  3
____ _ ____ _ ____ _ ____ _ ____ _ ____ _ ____
 72
65
 73
4
 40
0.6
 49
0.375
 74
0
 49
-0.075
 74
0
 49
0.075
 74
0
 49
-0.075
 74
0
  0
LTYPE
  5
1F6
100
AcDbSymbolTableRecord
100
AcDbLinetypeTableRecord
  2
HIDDEN
 70
64
  3
- - - - - - - - - - - - - - - - - - - -
 72
65
 73
2
 40
0.2
 49
0.1
 74
0
 49
-0.1
 74
0
  0
LTYPE
  5
1F7
100
AcDbSymbolTableRecord
100
AcDbLinetypeTableRecord
  2
PHANTOM
 70
64
  3
_____ _ _ _____ _ _ _____ _ _ _____
 72
65
 73
6
 40
0.8
 49
0.45
 74
0
 49
-0.05
 74
0
 49
0.1
 74
0
 49
-0.05
 74
0
 49
0.1
 74
0
 49
-0.05
 74
0
  0
LTYPE
  5
1F8
100
AcDbSymbolTableRecord
100
AcDbLinetypeTableRecord
  2
DOT
 70
64
  3
. . . . . . . . . . . . . . . . . . . .
 72
65
 73
2
 40
0.2
 49
0.1
 74
0
 49
-0.1
 74
0
  0
LTYPE
  5
1F9
100
AcDbSymbolTableRecord
100
AcDbLinetypeTableRecord
  2
DASHED
 70
64
  3
- - - - - - - - - - - - - - - - - - - -
 72
65
 73
2
 40
0.2
 49
0.1
 74
0
 49
-0.1
 74
0
  0
ENDTAB
  0
TABLE
  2
LAYER
  5
2
100
AcDbSymbolTable
 70
36
  0
LAYER
  5
10
100
AcDbSymbolTableRecord
100
AcDbLayerTableRecord
  2
0
 70
0
 62
7
  6
CONTINUOUS
370
-3
390
F
  0
LAYER
  5
1FA
100
AcDbSymbolTableRecord
100
AcDbLayerTableRecord
  2
DEFAULT_1
 70
0
 62
7
  6
CENTER
370
-3
390
F
  0
LAYER
  5
1FB
100
AcDbSymbolTableRecord
100
AcDbLayerTableRecord
  2
DEFAULT_2
 70
0
 62
8
  6
HIDDEN
370
-3
390
F
  0
LAYER
  5
1FC
100
AcDbSymbolTableRecord
100
AcDbLayerTableRecord
  2
DEFAULT_3
 70
0
 62
7
  6
PHANTOM
370
-3
390
F
  0
LAYER
  5
1FD
100
AcDbSymbolTableRecord
100
AcDbLayerTableRecord
  2
00_COMPONENTS
 70
0
 62
7
  6
CONTINUOUS
370
-3
390
F
  0
LAYER
  5
1FE
100
AcDbSymbolTableRecord
100
AcDbLayerTableRecord
  2
01_1_DEFAULT_DATUMS
 70
0
 62
7
  6
CONTINUOUS
370
-3
390
F
  0
LAYER
  5
1FF
100
AcDbSymbolTableRecord
100
AcDbLayerTableRecord
  2
01_PLANES
 70
0
 62
7
  6
CONTINUOUS
370
-3
390
F
  0
LAYER
  5
200
100
AcDbSymbolTableRecord
100
AcDbLayerTableRecord
  2
02_COORD_SYS
 70
0
 62
7
  6
CONTINUOUS
370
-3
390
F
  0
LAYER
  5
201
100
AcDbSymbolTableRecord
100
AcDbLayerTableRecord
  2
03_AXES
 70
0
 62
7
  6
CONTINUOUS
370
-3
390
F
  0
LAYER
  5
202
100
AcDbSymbolTableRecord
100
AcDbLayerTableRecord
  2
04_POINTS
 70
0
 62
7
  6
CONTINUOUS
370
-3
390
F
  0
LAYER
  5
203
100
AcDbSymbolTableRecord
100
AcDbLayerTableRecord
  2
05_CURVES
 70
0
 62
7
  6
CONTINUOUS
370
-3
390
F
  0
LAYER
  5
204
100
AcDbSymbolTableRecord
100
AcDbLayerTableRecord
  2
06_SURFS
 70
0
 62
7
  6
CONTINUOUS
370
-3
390
F
  0
LAYER
  5
205
100
AcDbSymbolTableRecord
100
AcDbLayerTableRecord
  2
07_COSMETICS
 70
0
 62
7
  6
CONTINUOUS
370
-3
390
F
  0
LAYER
  5
206
100
AcDbSymbolTableRecord
100
AcDbLayerTableRecord
  2
10_NOTES
 70
0
 62
7
  6
CONTINUOUS
370
-3
390
F
  0
LAYER
  5
207
100
AcDbSymbolTableRecord
100
AcDbLayerTableRecord
  2
11_NOTES_PUB
 70
0
 62
7
  6
CONTINUOUS
370
-3
390
F
  0
LAYER
  5
208
100
AcDbSymbolTableRecord
100
AcDbLayerTableRecord
  2
13_REF_GTOL
 70
0
 62
7
  6
CONTINUOUS
370
-3
390
F
  0
LAYER
  5
209
100
AcDbSymbolTableRecord
100
AcDbLayerTableRecord
  2
16_MISC
 70
0
 62
7
  6
CONTINUOUS
370
-3
390
F
  0
LAYER
  5
20A
100
AcDbSymbolTableRecord
100
AcDbLayerTableRecord
  2
17_NO_PRINT
 70
0
 62
7
  6
CONTINUOUS
370
-3
390
F
  0
LAYER
  5
20B
100
AcDbSymbolTableRecord
100
AcDbLayerTableRecord
  2
18_DATUM_CAMS_JOINTS
 70
0
 62
7
  6
CONTINUOUS
370
-3
390
F
  0
LAYER
  5
20C
100
AcDbSymbolTableRecord
100
AcDbLayerTableRecord
  2
19_DATUM_FUNCTIONAL
 70
0
 62
7
  6
CONTINUOUS
370
-3
390
F
  0
LAYER
  5
20D
100
AcDbSymbolTableRecord
100
AcDbLayerTableRecord
  2
20_DATUM_KINEMATIC_SCHEME
 70
0
 62
7
  6
CONTINUOUS
370
-3
390
F
  0
LAYER
  5
20E
100
AcDbSymbolTableRecord
100
AcDbLayerTableRecord
  2
black
 70
0
 62
7
  6
CONTINUOUS
370
-3
390
F
  0
ENDTAB
  0
TABLE
  2
STYLE
  5
3
100
AcDbSymbolTable
 70
1
  0
STYLE
  5
11
100
AcDbSymbolTableRecord
100
AcDbTextStyleTableRecord
  2
STANDARD
 70
0
 40
0.0
 41
0.8
 50
0.0
 71
0
 42
0.2
  3
txt
  4

  0
STYLE
  5
20F
100
AcDbSymbolTableRecord
100
AcDbTextStyleTableRecord
  2
TEXTSTYLE_1
 70
0
 40
0.0
 41
0.8
 50
0.0
 71
0
 42
0.2
  3
gdt
  4

  0
ENDTAB
  0
TABLE
  2
VIEW
  5
6
100
AcDbSymbolTable
 70
0
  0
ENDTAB
  0
TABLE
  2
UCS
  5
7
100
AcDbSymbolTable
 70
0
  0
ENDTAB
  0
TABLE
  2
APPID
  5
9
100
AcDbSymbolTable
 70
1
  0
APPID
  5
210
100
AcDbSymbolTableRecord
100
AcDbRegAppTableRecord
  2
ACAD
 70
0
  0
ENDTAB
  0
TABLE
  2
BLOCK_RECORD
  5
1
100
AcDbSymbolTable
 70
0
  0
BLOCK_RECORD
  5
211
100
AcDbSymbolTableRecord
100
AcDbBlockTableRecord
  2
*Model_Space
  0
BLOCK_RECORD
  5
212
100
AcDbSymbolTableRecord
100
AcDbBlockTableRecord
  2
*Paper_Space
  0
BLOCK_RECORD
  5
213
100
AcDbSymbolTableRecord
100
AcDbBlockTableRecord
  2
_FILLED
  0
ENDTAB
  0
TABLE
  2
DIMSTYLE
  5
A
100
AcDbSymbolTable
 70
1
100
AcDbDimStyleTable
 71
0
  0
DIMSTYLE
105
214
100
AcDbSymbolTableRecord
100
AcDbDimStyleTableRecord
  2
STANDARD
 70
0
  3

  4

 40
1.0
 41
4.7860491134
 42
1.0
 43
0.38
 44
1.0
 45
0.0
 46
0.0
 47
0.01
 48
0.01
140
6.7004687588
141
0.09
142
0.0
143
25.4
144
1.0
145
0.0
146
1.0
147
0.625
 71
1
 72
0
 73
0
 74
0
 75
0
 76
0
 77
1
 78
8
 79
2
170
0
171
1
172
0
173
0
174
0
175
0
176
0
177
0
178
0
270
2
179
2
271
2
272
2
273
2
274
2
275
0
280
0
281
0
282
0
283
1
284
8
285
0
286
0
287
3
288
0
340
11
278
46
341
213
342
213
343
213
344
213
  0
ENDTAB
  0
ENDSEC
  0
SECTION
  2
BLOCKS
  0
BLOCK
  5
20
100
AcDbEntity
  8
0
100
AcDbBlockBegin
  2
*Model_Space
 70
0
 10
0.0
 20
0.0
 30
0.0
  3
*Model_Space
  1

  0
ENDBLK
  5
21
100
AcDbEntity
  8
0
100
AcDbBlockEnd
  0
BLOCK
  5
1C
100
AcDbEntity
  8
0
100
AcDbBlockBegin
  2
*Paper_Space
 70
0
 10
0.0
 20
0.0
 30
0.0
  3
*Paper_Space
  1

  0
ENDBLK
  5
1D
100
AcDbEntity
  8
0
100
AcDbBlockEnd
  0
BLOCK
  5
215
100
AcDbEntity
  8
0
100
AcDbBlockBegin
  2
_FILLED
 70
64
 10
0.0
 20
0.0
  3
_FILLED
  1

  0
SOLID
  5
216
100
AcDbEntity
  8
0
  6
BYBLOCK
 62
0
100
AcDbTrace
 10
0.0
 20
0.0
 11
-1.0
 21
0.25
 12
-1.0
 22
-0.25
 13
-1.0
 23
-0.25
  0
ENDBLK
  5
217
100
AcDbEntity
  8
0
  6
BYBLOCK
 62
0
100
AcDbBlockEnd
  0
ENDSEC
  0
SECTION
  2
ENTITIES
  0
LINE
  5
218
100
AcDbEntity
  8
0
100
AcDbLine
 62
7
  6
CONTINUOUS
 10
49.9946743261
 20
198.9945214057
 11
50.780106788
 21
197.7800476156
  0
LINE
  5
219
100
AcDbEntity
  8
0
100
AcDbLine
 62
7
  6
CONTINUOUS
 10
58.1697872953
 20
186.3537618875
 11
58.955219781
 21
185.1392881164
  0
LINE
  5
21A
100
AcDbEntity
  8
0
100
AcDbLine
 62
7
  6
CONTINUOUS
 10
55.3796670041
 20
195.4518581628
 11
57.6635862687
 21
191.9203505223
  0
LINE
  5
21B
100
AcDbEntity
  8
0
100
AcDbLine
 62
7
  6
CONTINUOUS
 10
57.7696518443
 20
191.9815871454
 11
55.4857325797
 21
195.5130947859
  0
LINE
  5
21C
100
AcDbEntity
  8
0
100
AcDbLine
 62
7
  6
CONTINUOUS
 10
50.6948986694
 20
186.7826268288
 11
47.6971436982
 21
191.6355478294
  0
LINE
  5
21D
100
AcDbEntity
  8
0
100
AcDbLine
 62
7
  6
CONTINUOUS
 10
70.7735351672
 20
194.3859186919
 11
71.5589676529
 21
193.1714449208
  0
LINE
  5
21E
100
AcDbEntity
  8
0
100
AcDbLine
 62
7
  6
CONTINUOUS
 10
125.7820024268
 20
164.163866626
 11
74.682015781
 21
193.6657902488
  0
LINE
  5
21F
100
AcDbEntity
  8
0
100
AcDbLine
 62
7
  6
CONTINUOUS
 10
71.4430298383
 20
202.9271690576
 11
69.1591105738
 21
206.4586766981
  0
LINE
  5
220
100
AcDbEntity
  8
0
100
AcDbLine
 62
7
  6
CONTINUOUS
 10
76.6865968966
 20
199.3028645068
 11
75.9011644109
 21
200.5173382779
  0
LINE
  5
221
100
AcDbEntity
  8
0
100
AcDbLine
 62
7
  6
CONTINUOUS
 10
68.5114846673
 20
211.943622825
 11
67.7260522054
 21
213.1580966151
  0
LINE
  5
222
100
AcDbEntity
  8
0
100
AcDbLine
 62
7
  6
CONTINUOUS
 10
92.1096100408
 20
191.2345800906
 11
86.3215127471
 21
193.3427424203
  0
LINE
  5
223
100
AcDbEntity
  8
0
100
AcDbLine
 62
7
  6
CONTINUOUS
 10
92.1097883
 20
191.2339373843
 11
101.2189783769
 21
189.9923456185
  0
LINE
  5
224
100
AcDbEntity
  8
0
100
AcDbLine
 62
7
  6
CONTINUOUS
 10
71.1669728505
 20
227.5081743231
 11
74.6463618685
 21
236.0177422341
  0
LINE
  5
225
100
AcDbEntity
  8
0
100
AcDbLine
 62
7
  6
CONTINUOUS
 10
69.2132244151
 20
266.2258324436
 11
125.7820024268
 21
233.566572082
  0
LINE
  5
226
100
AcDbEntity
  8
0
100
AcDbLine
 62
7
  6
CONTINUOUS
 10
137.7989076136
 20
240.5044941126
 11
137.7989076136
 21
171.1017886566
  0
LINE
  5
227
100
AcDbEntity
  8
0
100
AcDbLine
 62
7
  6
CONTINUOUS
 10
81.2301296018
 20
273.1637544742
 11
137.7989076136
 21
240.5044941126
  0
LINE
  5
228
100
AcDbEntity
  8
0
100
AcDbLine
 62
7
  6
CONTINUOUS
 10
269.5672396849
 20
383.9653388487
 11
307.3972949758
 21
405.8064010808
  0
LINE
  5
229
100
AcDbEntity
  8
0
100
AcDbLine
 62
7
  6
CONTINUOUS
 10
69.2132244151
 20
266.2258324436
 11
81.2301296018
 21
273.1637544742
  0
LINE
  5
22A
100
AcDbEntity
  8
0
100
AcDbLine
 62
7
  6
CONTINUOUS
 10
270.8396819042
 20
373.8409265409
 11
270.132578067
 21
373.4326823871
  0
LINE
  5
22B
100
AcDbEntity
  8
0
100
AcDbLine
 62
7
  6
CONTINUOUS
 10
271.9234186806
 20
374.2188793397
 11
271.3007034013
 21
373.8593566516
  0
LINE
  5
22C
100
AcDbEntity
  8
0
100
AcDbLine
 62
7
  6
CONTINUOUS
 10
271.3851027199
 20
373.5260348099
 11
270.6779988827
 21
373.1177906561
  0
LINE
  5
22D
100
AcDbEntity
  8
black
100
AcDbLine
 62
7
  6
CONTINUOUS
 10
272.5007135815
 20
373.1665401383
 11
271.9007058994
 21
372.8201276093
  0
LINE
  5
22E
100
AcDbEntity
  8
0
100
AcDbLine
 62
7
  6
CONTINUOUS
 10
272.0078072386
 20
372.8819502551
 11
271.3007034013
 21
372.4737061012
  0
LINE
  5
22F
100
AcDbEntity
  8
0
100
AcDbLine
 62
7
  6
CONTINUOUS
 10
272.254254874
 20
372.0206274764
 11
271.5471510368
 21
371.6123833226
  0
LINE
  5
230
100
AcDbEntity
  8
0
100
AcDbLine
 62
7
  6
CONTINUOUS
 10
272.9136256241
 20
372.019295016
 11
272.5007083974
 21
371.7808985671
  0
LINE
  5
231
100
AcDbEntity
  8
0
100
AcDbLine
 62
7
  6
CONTINUOUS
 10
47.5952022373
 20
197.0778568564
 11
49.9946743261
 21
198.9945214057
  0
LINE
  5
232
100
AcDbEntity
  8
0
100
AcDbLine
 62
7
  6
CONTINUOUS
 10
67.7260522054
 20
213.1580966151
 11
70.1255492303
 21
215.074781083
  0
LINE
  5
233
100
AcDbEntity
  8
0
100
AcDbLine
 62
7
  6
CONTINUOUS
 10
50.780106788
 20
197.7800476156
 11
68.5114846673
 21
211.943622825
  0
LINE
  5
234
100
AcDbEntity
  8
0
100
AcDbLine
 62
7
  6
CONTINUOUS
 10
71.4559409918
 20
214.2464919336
 11
47.8775389751
 21
195.4124080042
  0
LINE
  5
235
100
AcDbEntity
  8
0
100
AcDbLine
 62
7
  6
CONTINUOUS
 10
47.9482493588
 20
195.4532324196
 11
50.8116907296
 21
197.7405076584
  0
LINE
  5
236
100
AcDbEntity
  8
0
100
AcDbLine
 62
7
  6
CONTINUOUS
 10
273.2224614975
 20
368.3576686848
 11
273.0087181133
 21
368.2342646211
  0
LINE
  5
237
100
AcDbEntity
  8
0
100
AcDbLine
 62
7
  6
CONTINUOUS
 10
79.3202406034
 20
241.6448961085
 11
81.3899019836
 21
242.8398085308
  0
LINE
  5
238
100
AcDbEntity
  8
0
100
AcDbLine
 62
7
  6
CONTINUOUS
 10
283.6978317696
 20
341.8724721552
 11
282.2376588931
 21
341.3900249733
  0
LINE
  5
239
100
AcDbEntity
  8
0
100
AcDbLine
 62
7
  6
CONTINUOUS
 10
282.2699067415
 20
340.7080419179
 11
283.5750434544
 21
341.1392645075
  0
LINE
  5
23A
100
AcDbEntity
  8
0
100
AcDbLine
 62
7
  6
CONTINUOUS
 10
283.8086435459
 20
339.5290056132
 11
285.2688164224
 21
340.011452795
  0
LINE
  5
23B
100
AcDbEntity
  8
0
100
AcDbLine
 62
7
  6
CONTINUOUS
 10
69.1591105738
 20
206.4586766981
 11
55.3796670041
 21
195.4518581628
  0
LINE
  5
23C
100
AcDbEntity
  8
0
100
AcDbLine
 62
7
  6
CONTINUOUS
 10
55.4857325797
 20
195.5130947859
 11
69.1705638194
 21
206.444338372
  0
LINE
  5
23D
100
AcDbEntity
  8
0
100
AcDbLine
 62
7
  6
CONTINUOUS
 10
57.6635862687
 20
191.9203505223
 11
71.4430298383
 21
202.9271690576
  0
LINE
  5
23E
100
AcDbEntity
  8
0
100
AcDbLine
 62
7
  6
CONTINUOUS
 10
55.2253350755
 20
184.0508864647
 11
78.8037370951
 21
202.8849703963
  0
LINE
  5
23F
100
AcDbEntity
  8
0
100
AcDbLine
 62
7
  6
CONTINUOUS
 10
75.9011644109
 20
200.5173382779
 11
58.1697872953
 21
186.3537618875
  0
LINE
  5
240
100
AcDbEntity
  8
0
100
AcDbLine
 62
7
  6
CONTINUOUS
 10
79.0627586799
 20
201.200909352
 11
76.6865968966
 21
199.3028645068
  0
LINE
  5
241
100
AcDbEntity
  8
0
100
AcDbLine
 62
7
  6
CONTINUOUS
 10
58.955219781
 20
185.1392881164
 11
56.5557476063
 21
183.2226232561
  0
LINE
  5
242
100
AcDbEntity
  8
0
100
AcDbLine
 62
7
  6
CONTINUOUS
 10
77.2366308155
 20
199.5485487862
 11
70.7735351672
 21
194.3859186919
  0
LINE
  5
243
100
AcDbEntity
  8
0
100
AcDbLine
 62
7
  6
CONTINUOUS
 10
70.1255492303
 20
215.074781083
 11
70.3345116264
 21
215.2161375806
  0
LINE
  5
244
100
AcDbEntity
  8
0
100
AcDbLine
 62
7
  6
CONTINUOUS
 10
282.0686738431
 20
352.8016204493
 11
286.2157258356
 21
355.1959077415
  0
LINE
  5
245
100
AcDbEntity
  8
0
100
AcDbLine
 62
7
  6
CONTINUOUS
 10
82.4674989976
 20
201.8850266576
 11
71.5589676529
 21
193.1714449208
  0
LINE
  5
246
100
AcDbEntity
  8
0
100
AcDbLine
 62
7
  6
CONTINUOUS
 10
80.8833305156
 20
197.5662899578
 11
100.428747306
 21
213.1788959042
  0
LINE
  5
247
100
AcDbEntity
  8
0
100
AcDbLine
 62
7
  6
CONTINUOUS
 10
56.5557476063
 20
183.2226232561
 11
56.3467824939
 21
183.0812649111
  0
LINE
  5
248
100
AcDbEntity
  8
0
100
AcDbLine
 62
7
  6
CONTINUOUS
 10
61.3992240426
 20
206.2624490915
 11
49.9946743261
 21
198.9945214058
  0
LINE
  5
249
100
AcDbEntity
  8
0
100
AcDbLine
 62
7
  6
CONTINUOUS
 10
270.3664077284
 20
333.5002345902
 11
279.7518784713
 21
339.4678397838
  0
LINE
  5
24A
100
AcDbEntity
  8
0
100
AcDbLine
 62
7
  6
CONTINUOUS
 10
98.1933290539
 20
231.3016006435
 11
70.3339645752
 21
215.2170850739
  0
LINE
  5
24B
100
AcDbEntity
  8
0
100
AcDbLine
 62
7
  6
CONTINUOUS
 10
105.0581794775
 20
234.3850715676
 11
102.5757530273
 21
232.9518505435
  0
LINE
  5
24C
100
AcDbEntity
  8
0
100
AcDbLine
 62
7
  6
CONTINUOUS
 10
271.0271474027
 20
327.395901936
 11
129.1623398652
 21
245.4907060238
  0
LINE
  5
24D
100
AcDbEntity
  8
0
100
AcDbLine
 62
7
  6
CONTINUOUS
 10
313.9523597613
 20
351.7834787749
 11
311.4350701008
 21
350.3301295871
  0
LINE
  5
24E
100
AcDbEntity
  8
0
100
AcDbLine
 62
7
  6
CONTINUOUS
 10
107.6995138301
 20
232.2661016481
 11
74.7337766621
 21
213.2334380297
  0
LINE
  5
24F
100
AcDbEntity
  8
0
100
AcDbLine
 62
7
  6
CONTINUOUS
 10
47.8775389751
 20
195.4124080042
 11
47.9482493588
 21
195.4532324196
  0
LINE
  5
250
100
AcDbEntity
  8
0
100
AcDbLine
 62
7
  6
CONTINUOUS
 10
322.6004690709
 20
353.3472822597
 11
360.4305243618
 21
375.1883444918
  0
LINE
  5
251
100
AcDbEntity
  8
0
100
AcDbLine
 62
7
  6
CONTINUOUS
 10
316.9575760932
 20
350.0484555682
 11
314.4402864327
 21
348.5951063804
  0
LINE
  5
252
100
AcDbEntity
  8
0
100
AcDbLine
 62
7
  6
CONTINUOUS
 10
70.7735351672
 20
194.3859186919
 11
58.1697872953
 21
186.3537618875
  0
LINE
  5
253
100
AcDbEntity
  8
0
100
AcDbLine
 62
7
  6
CONTINUOUS
 10
58.955219781
 20
185.1392881164
 11
71.5589676529
 21
193.1714449208
  0
LINE
  5
254
100
AcDbEntity
  8
0
100
AcDbLine
 62
7
  6
CONTINUOUS
 10
55.4857325797
 20
195.5130947859
 11
55.3796670041
 21
195.4518581628
  0
LINE
  5
255
100
AcDbEntity
  8
0
100
AcDbLine
 62
7
  6
CONTINUOUS
 10
318.2326267891
 20
346.3929574772
 11
317.5255229519
 21
345.9847133233
  0
LINE
  5
256
100
AcDbEntity
  8
0
100
AcDbLine
 62
7
  6
CONTINUOUS
 10
319.2997702659
 20
346.7804902052
 11
318.6770549866
 21
346.4209675171
  0
LINE
  5
257
100
AcDbEntity
  8
0
100
AcDbLine
 62
7
  6
CONTINUOUS
 10
318.7614543053
 20
346.0876456754
 11
318.0543504681
 21
345.6794015216
  0
LINE
  5
258
100
AcDbEntity
  8
black
100
AcDbLine
 62
7
  6
CONTINUOUS
 10
319.8558811344
 20
345.8021790519
 11
319.2770574842
 21
345.4679970565
  0
LINE
  5
259
100
AcDbEntity
  8
0
100
AcDbLine
 62
7
  6
CONTINUOUS
 10
111.5939115573
 20
225.4890970014
 11
78.9839253181
 21
206.6618250516
  0
LINE
  5
25A
100
AcDbEntity
  8
0
100
AcDbLine
 62
7
  6
CONTINUOUS
 10
319.3841588239
 20
345.4435611206
 11
318.6770549866
 21
345.0353169667
  0
LINE
  5
25B
100
AcDbEntity
  8
0
100
AcDbLine
 62
7
  6
CONTINUOUS
 10
137.7146922872
 20
240.553114754
 11
278.297515599
 21
321.7181611465
  0
LINE
  5
25C
100
AcDbEntity
  8
0
100
AcDbLine
 62
7
  6
CONTINUOUS
 10
125.7820024269
 20
233.566572082
 11
137.7989076136
 21
240.5044941126
  0
LINE
  5
25D
100
AcDbEntity
  8
0
100
AcDbLine
 62
7
  6
CONTINUOUS
 10
319.6306064593
 20
344.582238342
 11
318.9235026221
 21
344.1739941881
  0
LINE
  5
25E
100
AcDbEntity
  8
0
100
AcDbLine
 62
7
  6
CONTINUOUS
 10
320.2974759111
 20
344.5852352331
 11
319.8770599827
 21
344.3425094326
  0
LINE
  5
25F
100
AcDbEntity
  8
0
100
AcDbLine
 62
7
  6
CONTINUOUS
 10
360.4305243618
 20
367.4957721865
 11
361.3219182199
 21
368.0104155984
  0
LINE
  5
260
100
AcDbEntity
  8
0
100
AcDbLine
 62
7
  6
CONTINUOUS
 10
316.9969141279
 20
341.8921543329
 11
316.6316032403
 21
341.6812432526
  0
LINE
  5
261
100
AcDbEntity
  8
0
100
AcDbLine
 62
7
  6
CONTINUOUS
 10
314.6543712396
 20
339.9412607238
 11
313.4013215789
 21
339.2178164833
  0
LINE
  5
262
100
AcDbEntity
  8
0
100
AcDbLine
 62
7
  6
CONTINUOUS
 10
112.3077299911
 20
222.0745697227
 11
110.4337829549
 21
220.9926523551
  0
LINE
  5
263
100
AcDbEntity
  8
0
100
AcDbLine
 62
7
  6
CONTINUOUS
 10
319.5081576793
 20
340.294125268
 11
316.3542725387
 21
338.4732397022
  0
LINE
  5
264
100
AcDbEntity
  8
0
100
AcDbLine
 62
7
  6
CONTINUOUS
 10
106.1575600044
 20
216.8440068137
 11
79.0627586799
 21
201.200909352
  0
LINE
  5
265
100
AcDbEntity
  8
0
100
AcDbLine
 62
7
  6
CONTINUOUS
 10
137.7989076136
 20
233.6868742136
 11
277.0155535263
 21
314.0631624252
  0
LINE
  5
266
100
AcDbEntity
  8
0
100
AcDbLine
 62
7
  6
CONTINUOUS
 10
316.1733571707
 20
336.0009317797
 11
315.9605342868
 21
335.8780591638
  0
LINE
  5
267
100
AcDbEntity
  8
0
100
AcDbLine
 62
7
  6
CONTINUOUS
 10
56.5557476063
 20
183.2226232561
 11
81.083095772
 21
197.3834097935
  0
LINE
  5
268
100
AcDbEntity
  8
0
100
AcDbLine
 62
7
  6
CONTINUOUS
 10
81.0978171162
 20
197.369932766
 11
56.347329552
 21
183.0803174058
  0
LINE
  5
269
100
AcDbEntity
  8
0
100
AcDbLine
 62
7
  6
CONTINUOUS
 10
360.4305243618
 20
358.6133454241
 11
350.3896498734
 21
352.8162784391
  0
LINE
  5
26A
100
AcDbEntity
  8
0
100
AcDbLine
 62
7
  6
CONTINUOUS
 10
283.5019403579
 20
310.7486888837
 11
291.076455599
 21
314.7001537369
  0
LINE
  5
26B
100
AcDbEntity
  8
0
100
AcDbLine
 62
7
  6
CONTINUOUS
 10
271.5471510368
 20
374.4361126506
 11
271.3007034013
 21
373.8593566516
  0
LINE
  5
26C
100
AcDbEntity
  8
0
100
AcDbLine
 62
7
  6
CONTINUOUS
 10
291.3462245203
 20
312.5217150903
 11
291.4460478105
 21
312.5793477497
  0
LINE
  5
26D
100
AcDbEntity
  8
0
100
AcDbLine
 62
7
  6
CONTINUOUS
 10
299.5486973284
 20
307.7861223399
 11
299.6485193971
 21
307.8437542941
  0
LINE
  5
26E
100
AcDbEntity
  8
0
100
AcDbLine
 62
7
  6
CONTINUOUS
 10
306.068566398
 20
311.2323390343
 11
308.8813674909
 21
312.8563008088
  0
LINE
  5
26F
100
AcDbEntity
  8
0
100
AcDbLine
 62
7
  6
CONTINUOUS
 10
82.4674989976
 20
201.8850266576
 11
76.6865968966
 21
199.3028645068
  0
LINE
  5
270
100
AcDbEntity
  8
0
100
AcDbLine
 62
7
  6
CONTINUOUS
 10
319.8770599823
 20
292.2542635596
 11
320.4997645009
 21
292.179327138
  0
LINE
  5
271
100
AcDbEntity
  8
0
100
AcDbLine
 62
7
  6
CONTINUOUS
 10
321.2068683381
 20
292.5875712919
 11
320.5841638195
 21
292.6625077135
  0
LINE
  5
272
100
AcDbEntity
  8
0
100
AcDbLine
 62
7
  6
CONTINUOUS
 10
318.6770549862
 20
294.3327216442
 11
318.0543504676
 21
294.4076580657
  0
LINE
  5
273
100
AcDbEntity
  8
0
100
AcDbLine
 62
7
  6
CONTINUOUS
 10
272.2542607619
 20
371.204142568
 11
272.5007083974
 21
371.7808985671
  0
LINE
  5
274
100
AcDbEntity
  8
0
100
AcDbLine
 62
7
  6
CONTINUOUS
 10
267.0972556485
 20
328.2020120481
 11
268.5288412194
 21
331.3153481853
  0
LINE
  5
275
100
AcDbEntity
  8
0
100
AcDbLine
 62
7
  6
CONTINUOUS
 10
295.5077345109
 20
315.2361952778
 11
294.2875882805
 21
314.1230480811
  0
LINE
  5
276
100
AcDbEntity
  8
0
100
AcDbLine
 62
7
  6
CONTINUOUS
 10
295.2229312083
 20
314.1610614401
 11
294.0027849779
 21
313.0479142434
  0
LINE
  5
277
100
AcDbEntity
  8
0
100
AcDbLine
 62
7
  6
CONTINUOUS
 10
294.6991521174
 20
312.5040914265
 11
295.9192983478
 21
313.6172386232
  0
LINE
  5
278
100
AcDbEntity
  8
0
100
AcDbLine
 62
7
  6
CONTINUOUS
 10
299.5486973284
 20
304.030211223
 11
300.2165998794
 21
304.4158226388
  0
LINE
  5
279
100
AcDbEntity
  8
0
100
AcDbLine
 62
7
  6
CONTINUOUS
 10
108.4291823302
 20
191.2264291272
 11
110.0653576375
 21
192.1710697426
  0
LINE
  5
27A
100
AcDbEntity
  8
0
100
AcDbLine
 62
7
  6
CONTINUOUS
 10
277.2789680606
 20
310.5666635742
 11
280.6909873932
 21
310.2497673394
  0
LINE
  5
27B
100
AcDbEntity
  8
0
100
AcDbLine
 62
7
  6
CONTINUOUS
 10
316.5138394246
 20
300.1080871807
 11
316.2994230621
 21
299.9842945751
  0
LINE
  5
27C
100
AcDbEntity
  8
0
100
AcDbLine
 62
7
  6
CONTINUOUS
 10
350.3896498734
 20
318.1965336247
 11
358.3091951864
 21
322.7688579499
  0
LINE
  5
27D
100
AcDbEntity
  8
0
100
AcDbLine
 62
7
  6
CONTINUOUS
 10
350.3896498734
 20
315.7470687014
 11
360.4305243618
 21
321.5441356864
  0
LINE
  5
27E
100
AcDbEntity
  8
0
100
AcDbLine
 62
7
  6
CONTINUOUS
 10
318.265136558
 20
295.653745249
 11
318.0020631922
 21
295.5018606771
  0
LINE
  5
27F
100
AcDbEntity
  8
0
100
AcDbLine
 62
7
  6
CONTINUOUS
 10
317.6860667123
 20
294.6202819808
 11
317.4484914601
 21
294.4831186638
  0
LINE
  5
280
100
AcDbEntity
  8
0
100
AcDbLine
 62
7
  6
CONTINUOUS
 10
318.2160334891
 20
294.3142915335
 11
317.5089296518
 21
293.9060473796
  0
LINE
  5
281
100
AcDbEntity
  8
0
100
AcDbLine
 62
7
  6
CONTINUOUS
 10
319.2997702655
 20
294.6922443322
 11
318.6770549862
 21
294.3327216442
  0
LINE
  5
282
100
AcDbEntity
  8
0
100
AcDbLine
 62
7
  6
CONTINUOUS
 10
318.7614543048
 20
293.9993998025
 11
318.0543504676
 21
293.5911556486
  0
LINE
  5
283
100
AcDbEntity
  8
black
100
AcDbLine
 62
7
  6
CONTINUOUS
 10
319.8770651663
 20
293.6399051309
 11
319.2770574842
 21
293.2934926019
  0
LINE
  5
284
100
AcDbEntity
  8
0
100
AcDbLine
 62
7
  6
CONTINUOUS
 10
319.3841588234
 20
293.3553152476
 11
318.6770549862
 21
292.9470710937
  0
LINE
  5
285
100
AcDbEntity
  8
0
100
AcDbLine
 62
7
  6
CONTINUOUS
 10
318.0357961521
 20
292.5359903938
 11
317.8274784261
 21
292.4157188166
  0
LINE
  5
286
100
AcDbEntity
  8
0
100
AcDbLine
 62
7
  6
CONTINUOUS
 10
319.6306064589
 20
292.493992469
 11
318.9235026217
 21
292.0857483151
  0
LINE
  5
287
100
AcDbEntity
  8
0
100
AcDbLine
 62
7
  6
CONTINUOUS
 10
320.5841638195
 20
292.6625077135
 11
319.8770599823
 21
292.2542635596
  0
LINE
  5
288
100
AcDbEntity
  8
0
100
AcDbLine
 62
7
  6
CONTINUOUS
 10
321.1501125076
 20
292.7415172046
 11
321.0451853166
 21
292.6809378242
  0
LINE
  5
289
100
AcDbEntity
  8
0
100
AcDbLine
 62
7
  6
CONTINUOUS
 10
360.4305243618
 20
315.3212677319
 11
361.3219182199
 21
315.8359111438
  0
LINE
  5
28A
100
AcDbEntity
  8
0
100
AcDbLine
 62
7
  6
CONTINUOUS
 10
321.2068683381
 20
292.5875712919
 11
320.4997645009
 21
292.179327138
  0
LINE
  5
28B
100
AcDbEntity
  8
0
100
AcDbLine
 62
7
  6
CONTINUOUS
 10
321.0451853166
 20
291.8644354071
 11
321.3706296381
 21
292.0523296521
  0
LINE
  5
28C
100
AcDbEntity
  8
0
100
AcDbLine
 62
7
  6
CONTINUOUS
 10
321.4505124473
 20
291.6038479407
 11
320.5520517762
 21
291.0851245267
  0
LINE
  5
28D
100
AcDbEntity
  8
0
100
AcDbLine
 62
7
  6
CONTINUOUS
 10
293.8832970838
 20
312.7569961555
 11
294.6991521174
 21
312.5040914265
  0
LINE
  5
28E
100
AcDbEntity
  8
0
100
AcDbLine
 62
7
  6
CONTINUOUS
 10
294.0027849779
 20
313.0479142434
 11
293.976047289
 21
313.0562025884
  0
LINE
  5
28F
100
AcDbEntity
  8
0
100
AcDbLine
 62
7
  6
CONTINUOUS
 10
277.2786900923
 20
310.5675908571
 11
274.2697126785
 21
311.604616845
  0
LINE
  5
290
100
AcDbEntity
  8
0
100
AcDbLine
 62
7
  6
CONTINUOUS
 10
280.4260759927
 20
338.9966176797
 11
280.7944409383
 21
341.1962406227
  0
LINE
  5
291
100
AcDbEntity
  8
0
100
AcDbLine
 62
7
  6
CONTINUOUS
 10
277.0155535263
 20
314.0631624252
 11
278.297515599
 21
321.7181611465
  0
LINE
  5
292
100
AcDbEntity
  8
0
100
AcDbLine
 62
7
  6
CONTINUOUS
 10
281.2449963367
 20
334.8049448538
 11
281.6332553815
 21
337.1233617203
  0
LINE
  5
293
100
AcDbEntity
  8
0
100
AcDbLine
 62
7
  6
CONTINUOUS
 10
322.6004690709
 20
289.6600937236
 11
360.4305243618
 21
311.5011559557
  0
LINE
  5
294
100
AcDbEntity
  8
0
100
AcDbLine
 62
7
  6
CONTINUOUS
 10
125.7820024268
 20
164.163866626
 11
137.7989076136
 21
171.1017886566
  0
LINE
  5
295
100
AcDbEntity
  8
0
100
AcDbLine
 62
7
  6
CONTINUOUS
 10
296.3235895446
 20
314.9832905488
 11
295.5077345109
 21
315.2361952778
  0
LINE
  5
296
100
AcDbEntity
  8
0
100
AcDbLine
 62
7
  6
CONTINUOUS
 10
322.6004690709
 20
289.6600937236
 11
321.7165819144
 21
290.1703946667
  0
LINE
  5
297
100
AcDbEntity
  8
0
100
AcDbLine
 62
7
  6
CONTINUOUS
 10
317.8274784261
 20
292.4157188166
 11
284.8526396086
 21
311.4533201963
  0
LINE
  5
298
100
AcDbEntity
  8
0
100
AcDbLine
 62
7
  6
CONTINUOUS
 10
319.6306123468
 20
291.6775075606
 11
318.9235026216
 21
292.0857483151
  0
LINE
  5
299
100
AcDbEntity
  8
0
100
AcDbLine
 62
7
  6
CONTINUOUS
 10
299.5486973284
 20
304.030211223
 11
291.3462245203
 21
308.7658039734
  0
LINE
  5
29A
100
AcDbEntity
  8
0
100
AcDbLine
 62
7
  6
CONTINUOUS
 10
319.9614485402
 20
292.3029850254
 11
319.6306064589
 21
292.493992469
  0
LINE
  5
29B
100
AcDbEntity
  8
0
100
AcDbLine
 62
7
  6
CONTINUOUS
 10
318.0543504676
 20
293.5911556486
 11
317.5089296518
 21
293.9060473796
  0
LINE
  5
29C
100
AcDbEntity
  8
0
100
AcDbLine
 62
7
  6
CONTINUOUS
 10
320.4997645009
 20
292.179327138
 11
321.0451853166
 21
291.8644354071
  0
LINE
  5
29D
100
AcDbEntity
  8
0
100
AcDbLine
 62
7
  6
CONTINUOUS
 10
286.050966916
 20
312.0784622796
 11
291.3462245203
 21
309.0213130383
  0
LINE
  5
29E
100
AcDbEntity
  8
0
100
AcDbLine
 62
7
  6
CONTINUOUS
 10
299.7699778329
 20
304.1579668193
 11
317.2355904905
 21
294.0744187702
  0
LINE
  5
29F
100
AcDbEntity
  8
0
100
AcDbLine
 62
7
  6
CONTINUOUS
 10
317.1877746618
 20
294.3512780837
 11
300.2686870806
 21
304.119296871
  0
LINE
  5
2A0
100
AcDbEntity
  8
0
100
AcDbLine
 62
7
  6
CONTINUOUS
 10
291.3462245203
 20
309.2705664948
 11
286.2777638232
 21
312.1967774429
  0
LINE
  5
2A1
100
AcDbEntity
  8
0
100
AcDbLine
 62
7
  6
CONTINUOUS
 10
318.7614543048
 20
293.9993998025
 11
318.2159723138
 21
294.3143268522
  0
LINE
  5
2A2
100
AcDbEntity
  8
0
100
AcDbLine
 62
7
  6
CONTINUOUS
 10
317.5089296518
 20
294.7225497967
 11
318.0543504676
 21
294.4076580657
  0
LINE
  5
2A3
100
AcDbEntity
  8
0
100
AcDbLine
 62
7
  6
CONTINUOUS
 10
320.4997645009
 20
292.9958295552
 11
321.0451853166
 21
292.6809378242
  0
LINE
  5
2A4
100
AcDbEntity
  8
0
100
AcDbLine
 62
7
  6
CONTINUOUS
 10
318.9235026216
 20
294.9094776432
 11
319.6306123468
 21
294.5012368887
  0
LINE
  5
2A5
100
AcDbEntity
  8
0
100
AcDbLine
 62
7
  6
CONTINUOUS
 10
291.3462245203
 20
312.5217150903
 11
299.5486973284
 21
307.7861223399
  0
LINE
  5
2A6
100
AcDbEntity
  8
0
100
AcDbLine
 62
7
  6
CONTINUOUS
 10
299.6485181756
 20
307.8437564097
 11
293.3065177456
 21
311.5052292316
  0
LINE
  5
2A7
100
AcDbEntity
  8
0
100
AcDbLine
 62
7
  6
CONTINUOUS
 10
293.1188443734
 20
311.6135800524
 11
291.1632014739
 21
312.7426454639
  0
LINE
  5
2A8
100
AcDbEntity
  8
0
100
AcDbLine
 62
7
  6
CONTINUOUS
 10
282.2376588931
 20
341.3900249733
 11
282.2930647813
 21
340.2182917024
  0
LINE
  5
2A9
100
AcDbEntity
  8
0
100
AcDbLine
 62
7
  6
CONTINUOUS
 10
277.0980158094
 20
337.7804226006
 11
277.0979867176
 21
341.8145946734
  0
LINE
  5
2AA
100
AcDbEntity
  8
0
100
AcDbLine
 62
7
  6
CONTINUOUS
 10
283.5750434544
 20
341.1392645075
 11
283.6978317696
 21
341.8724721552
  0
LINE
  5
2AB
100
AcDbEntity
  8
black
100
AcDbLine
 62
7
  6
CONTINUOUS
 10
283.5748196513
 20
339.6353488542
 11
283.7532376578
 21
340.7007388842
  0
LINE
  5
2AC
100
AcDbEntity
  8
0
100
AcDbLine
 62
7
  6
CONTINUOUS
 10
285.0906222191
 20
340.4499784183
 11
285.2134105342
 21
341.183186066
  0
LINE
  5
2AD
100
AcDbEntity
  8
0
100
AcDbLine
 62
7
  6
CONTINUOUS
 10
284.2193743028
 20
334.402483639
 11
284.5938693445
 21
336.638711314
  0
LINE
  5
2AE
100
AcDbEntity
  8
0
100
AcDbLine
 62
7
  6
CONTINUOUS
 10
286.3436694317
 20
338.0056142026
 11
286.7120343772
 21
340.2052371456
  0
LINE
  5
2AF
100
AcDbEntity
  8
0
100
AcDbLine
 62
7
  6
CONTINUOUS
 10
294.2875882805
 20
314.1230480811
 11
293.8832970838
 21
312.7569961555
  0
LINE
  5
2B0
100
AcDbEntity
  8
0
100
AcDbLine
 62
7
  6
CONTINUOUS
 10
295.5384344594
 20
315.2271094454
 11
295.2229312083
 21
314.1610614401
  0
LINE
  5
2B1
100
AcDbEntity
  8
0
100
AcDbLine
 62
7
  6
CONTINUOUS
 10
295.9192983478
 20
313.6172386232
 11
296.3235895446
 21
314.9832905488
  0
LINE
  5
2B2
100
AcDbEntity
  8
0
100
AcDbLine
 62
7
  6
CONTINUOUS
 10
319.8770599827
 20
344.3425094326
 11
320.3246213628
 21
344.2886497812
  0
LINE
  5
2B3
100
AcDbEntity
  8
0
100
AcDbLine
 62
7
  6
CONTINUOUS
 10
318.6770549866
 20
346.4209675171
 11
318.054350468
 21
346.4959039387
  0
LINE
  5
2B4
100
AcDbEntity
  8
0
100
AcDbLine
 62
7
  6
CONTINUOUS
 10
290.5745150218
 20
314.4383019238
 11
290.883297156
 21
314.2600213781
  0
LINE
  5
2B5
100
AcDbEntity
  8
0
100
AcDbLine
 62
7
  6
CONTINUOUS
 10
316.2994230621
 20
299.9842945751
 11
320.683503358
 21
297.453201897
  0
LINE
  5
2B6
100
AcDbEntity
  8
0
100
AcDbLine
 62
7
  6
CONTINUOUS
 10
320.6536310186
 20
297.7180314598
 11
316.5138394246
 21
300.1080871807
  0
LINE
  5
2B7
100
AcDbEntity
  8
0
100
AcDbLine
 62
7
  6
CONTINUOUS
 10
278.297515599
 20
321.7181611465
 11
271.0271474027
 21
327.395901936
  0
LINE
  5
2B8
100
AcDbEntity
  8
0
100
AcDbLine
 62
7
  6
CONTINUOUS
 10
291.1678610379
 20
313.1371861978
 11
293.2569624565
 21
311.505717747
  0
LINE
  5
2B9
100
AcDbEntity
  8
0
100
AcDbLine
 62
7
  6
CONTINUOUS
 10
289.649957562
 20
316.2257924521
 11
291.2097300407
 21
315.0076995597
  0
LINE
  5
2BA
100
AcDbEntity
  8
0
100
AcDbLine
 62
7
  6
CONTINUOUS
 10
294.0027849779
 20
313.0479142434
 11
294.6991521174
 21
312.5040914265
  0
LINE
  5
2BB
100
AcDbEntity
  8
black
100
AcDbLine
 62
7
  6
CONTINUOUS
 10
294.5145078121
 20
314.3300682187
 11
295.1034433142
 21
313.8701433521
  0
LINE
  5
2BC
100
AcDbEntity
  8
0
100
AcDbLine
 62
7
  6
CONTINUOUS
 10
295.2229312083
 20
314.1610614401
 11
295.9192983478
 21
313.6172386232
  0
LINE
  5
2BD
100
AcDbEntity
  8
0
100
AcDbLine
 62
7
  6
CONTINUOUS
 10
291.5580660074
 20
318.542090444
 11
292.9854889965
 21
317.4273549161
  0
LINE
  5
2BE
100
AcDbEntity
  8
0
100
AcDbLine
 62
7
  6
CONTINUOUS
 10
285.0906222191
 20
340.4499784183
 11
285.1117093602
 21
340.0040239232
  0
LINE
  5
2BF
100
AcDbEntity
  8
0
100
AcDbLine
 62
7
  6
CONTINUOUS
 10
285.2688164224
 20
340.011452795
 11
285.2134105342
 21
341.183186066
  0
LINE
  5
2C0
100
AcDbEntity
  8
0
100
AcDbLine
 62
7
  6
CONTINUOUS
 10
291.3462245203
 20
308.7658039734
 11
291.3462245203
 21
312.5217150903
  0
LINE
  5
2C1
100
AcDbEntity
  8
0
100
AcDbLine
 62
7
  6
CONTINUOUS
 10
318.9235026221
 20
346.9977235162
 11
318.6770549866
 21
346.4209675171
  0
LINE
  5
2C2
100
AcDbEntity
  8
0
100
AcDbLine
 62
7
  6
CONTINUOUS
 10
319.6306123473
 20
343.7657534336
 11
319.8770599827
 21
344.3425094326
  0
LINE
  5
2C3
100
AcDbEntity
  8
0
100
AcDbLine
 62
7
  6
CONTINUOUS
 10
272.5007083974
 20
371.7808985671
 11
272.940286899
 21
371.7279995774
  0
LINE
  5
2C4
100
AcDbEntity
  8
0
100
AcDbLine
 62
7
  6
CONTINUOUS
 10
282.2930647813
 20
340.2182917024
 11
283.8086435459
 21
339.5290056132
  0
LINE
  5
2C5
100
AcDbEntity
  8
0
100
AcDbLine
 62
7
  6
CONTINUOUS
 10
283.5750434544
 20
341.1392645075
 11
285.0906222191
 21
340.4499784183
  0
LINE
  5
2C6
100
AcDbEntity
  8
0
100
AcDbLine
 62
7
  6
CONTINUOUS
 10
285.2134105342
 20
341.183186066
 11
283.6978317696
 21
341.8724721552
  0
LINE
  5
2C7
100
AcDbEntity
  8
0
100
AcDbLine
 62
7
  6
CONTINUOUS
 10
294.8608227531
 20
317.8660374082
 11
296.9499241718
 21
316.2345689573
  0
LINE
  5
2C8
100
AcDbEntity
  8
0
100
AcDbLine
 62
7
  6
CONTINUOUS
 10
318.0543504676
 20
293.5911556486
 11
318.6770549862
 21
292.9470710937
  0
LINE
  5
2C9
100
AcDbEntity
  8
0
100
AcDbLine
 62
7
  6
CONTINUOUS
 10
319.3841588234
 20
293.3553152476
 11
318.7614543048
 21
293.9993998025
  0
LINE
  5
2CA
100
AcDbEntity
  8
0
100
AcDbLine
 62
7
  6
CONTINUOUS
 10
320.4997645009
 20
292.9958295552
 11
319.8770599823
 21
293.6399141101
  0
LINE
  5
2CB
100
AcDbEntity
  8
0
100
AcDbLine
 62
7
  6
CONTINUOUS
 10
271.3007034013
 20
372.4737061012
 11
271.5471510368
 21
371.6123833226
  0
LINE
  5
2CC
100
AcDbEntity
  8
0
100
AcDbLine
 62
7
  6
CONTINUOUS
 10
272.254254874
 20
372.0206274764
 11
272.0078072386
 21
372.8819502551
  0
LINE
  5
2CD
100
AcDbEntity
  8
0
100
AcDbLine
 62
7
  6
CONTINUOUS
 10
272.5007083974
 20
373.1665491175
 11
272.3719540708
 21
373.6165393725
  0
LINE
  5
2CE
100
AcDbEntity
  8
0
100
AcDbLine
 62
7
  6
CONTINUOUS
 10
289.6497704337
 20
316.2259385886
 11
289.5319819117
 21
316.7804577507
  0
LINE
  5
2CF
100
AcDbEntity
  8
0
100
AcDbLine
 62
7
  6
CONTINUOUS
 10
291.2015809253
 20
312.498936518
 11
291.1632014739
 21
312.7426454639
  0
LINE
  5
2D0
100
AcDbEntity
  8
0
100
AcDbLine
 62
7
  6
CONTINUOUS
 10
299.5486973284
 20
307.7861223399
 11
299.5486973284
 21
304.030211223
  0
LINE
  5
2D1
100
AcDbEntity
  8
0
100
AcDbLine
 62
7
  6
CONTINUOUS
 10
316.6557558954
 20
341.9369974585
 11
316.6316032403
 21
341.6812432526
  0
LINE
  5
2D2
100
AcDbEntity
  8
0
100
AcDbLine
 62
7
  6
CONTINUOUS
 10
316.7312172617
 20
342.7165357487
 11
316.7125885869
 21
342.5267334891
  0
LINE
  5
2D3
100
AcDbEntity
  8
0
100
AcDbLine
 62
7
  6
CONTINUOUS
 10
318.9235026216
 20
294.9094776432
 11
318.6770549862
 21
294.3327216442
  0
LINE
  5
2D4
100
AcDbEntity
  8
0
100
AcDbLine
 62
7
  6
CONTINUOUS
 10
319.6306123468
 20
291.6775075606
 11
319.8770599823
 21
292.2542635596
  0
LINE
  5
2D5
100
AcDbEntity
  8
0
100
AcDbLine
 62
7
  6
CONTINUOUS
 10
321.0451853166
 20
291.8644354071
 11
320.5520329524
 21
291.085157175
  0
LINE
  5
2D6
100
AcDbEntity
  8
0
100
AcDbLine
 62
7
  6
CONTINUOUS
 10
271.3007034013
 20
373.8593566516
 11
270.6779988827
 21
373.9342930732
  0
LINE
  5
2D7
100
AcDbEntity
  8
0
100
AcDbLine
 62
7
  6
CONTINUOUS
 10
315.9605342868
 20
335.8780591638
 11
311.8592978809
 21
338.24585554
  0
LINE
  5
2D8
100
AcDbEntity
  8
0
100
AcDbLine
 62
7
  6
CONTINUOUS
 10
313.4013215789
 20
339.2178164833
 11
314.7926309716
 21
338.4145618029
  0
LINE
  5
2D9
100
AcDbEntity
  8
0
100
AcDbLine
 62
7
  6
CONTINUOUS
 10
350.3896498734
 20
318.5228800252
 11
350.672278187
 21
318.3597081837
  0
LINE
  5
2DA
100
AcDbEntity
  8
0
100
AcDbLine
 62
7
  6
CONTINUOUS
 10
316.3542725387
 20
338.4732397022
 11
319.3241333843
 21
336.7586285332
  0
LINE
  5
2DB
100
AcDbEntity
  8
0
100
AcDbLine
 62
7
  6
CONTINUOUS
 10
320.2176272059
 20
340.7038086137
 11
316.5406566351
 21
342.8266605372
  0
LINE
  5
2DC
100
AcDbEntity
  8
0
100
AcDbLine
 62
7
  6
CONTINUOUS
 10
273.0087181133
 20
368.2342646211
 11
268.6246378174
 21
370.7653572991
  0
LINE
  5
2DD
100
AcDbEntity
  8
0
100
AcDbLine
 62
7
  6
CONTINUOUS
 10
300.215689959
 20
304.4151014134
 11
300.2686870806
 21
304.119296871
  0
LINE
  5
2DE
100
AcDbEntity
  8
0
100
AcDbLine
 62
7
  6
CONTINUOUS
 10
311.4350701008
 20
350.3301295871
 11
312.5664076061
 21
337.8376147855
  0
LINE
  5
2DF
100
AcDbEntity
  8
0
100
AcDbLine
 62
7
  6
CONTINUOUS
 10
313.2735173312
 20
337.429374031
 11
312.2124492362
 21
349.1459562362
  0
LINE
  5
2E0
100
AcDbEntity
  8
0
100
AcDbLine
 62
7
  6
CONTINUOUS
 10
313.9095125766
 20
348.1661784254
 11
314.9705806716
 21
336.4495962201
  0
LINE
  5
2E1
100
AcDbEntity
  8
0
100
AcDbLine
 62
7
  6
CONTINUOUS
 10
315.5716239379
 20
336.1025915788
 11
314.4402864327
 21
348.5951063804
  0
LINE
  5
2E2
100
AcDbEntity
  8
0
100
AcDbLine
 62
7
  6
CONTINUOUS
 10
321.3721426875
 20
344.4091579986
 11
321.400232899
 21
344.6462583924
  0
LINE
  5
2E3
100
AcDbEntity
  8
0
100
AcDbLine
 62
7
  6
CONTINUOUS
 10
321.423225324
 20
344.4300296292
 11
321.4546978526
 21
344.6684241747
  0
LINE
  5
2E4
100
AcDbEntity
  8
0
100
AcDbLine
 62
7
  6
CONTINUOUS
 10
319.6306123472
 20
343.7657534336
 11
318.9235026221
 21
344.1739941881
  0
LINE
  5
2E5
100
AcDbEntity
  8
0
100
AcDbLine
 62
7
  6
CONTINUOUS
 10
272.2542607619
 20
371.204142568
 11
271.5471510368
 21
371.6123833226
  0
LINE
  5
2E6
100
AcDbEntity
  8
0
100
AcDbLine
 62
7
  6
CONTINUOUS
 10
319.9614485406
 20
344.3912308984
 11
319.6306064593
 21
344.582238342
  0
LINE
  5
2E7
100
AcDbEntity
  8
0
100
AcDbLine
 62
7
  6
CONTINUOUS
 10
272.5850969553
 20
371.8296200329
 11
272.254254874
 21
372.0206274764
  0
LINE
  5
2E8
100
AcDbEntity
  8
0
100
AcDbLine
 62
7
  6
CONTINUOUS
 10
318.0543504681
 20
345.6794015216
 11
317.5255229519
 21
345.9847133233
  0
LINE
  5
2E9
100
AcDbEntity
  8
0
100
AcDbLine
 62
7
  6
CONTINUOUS
 10
270.6779988827
 20
373.1177906561
 11
270.132578067
 21
373.4326823871
  0
LINE
  5
2EA
100
AcDbEntity
  8
0
100
AcDbLine
 62
7
  6
CONTINUOUS
 10
313.9095125766
 20
348.1661784254
 11
312.2124492362
 21
349.1459562362
  0
LINE
  5
2EB
100
AcDbEntity
  8
0
100
AcDbLine
 62
7
  6
CONTINUOUS
 10
360.4305243618
 20
321.5441356864
 11
358.3091951864
 21
322.7688579499
  0
LINE
  5
2EC
100
AcDbEntity
  8
0
100
AcDbLine
 62
7
  6
CONTINUOUS
 10
318.7614543053
 20
346.0876456754
 11
318.2326267891
 21
346.3929574772
  0
LINE
  5
2ED
100
AcDbEntity
  8
0
100
AcDbLine
 62
7
  6
CONTINUOUS
 10
317.4956203965
 20
346.8184795983
 11
318.054350468
 21
346.4959039387
  0
LINE
  5
2EE
100
AcDbEntity
  8
0
100
AcDbLine
 62
7
  6
CONTINUOUS
 10
311.4350701008
 20
350.3301295871
 11
314.4402864327
 21
348.5951063804
  0
LINE
  5
2EF
100
AcDbEntity
  8
0
100
AcDbLine
 62
7
  6
CONTINUOUS
 10
271.3851027199
 20
373.5260348099
 11
270.839620729
 21
373.8409618596
  0
LINE
  5
2F0
100
AcDbEntity
  8
0
100
AcDbLine
 62
7
  6
CONTINUOUS
 10
270.6779988827
 20
373.9342930732
 11
270.132578067
 21
374.2491848042
  0
LINE
  5
2F1
100
AcDbEntity
  8
0
100
AcDbLine
 62
7
  6
CONTINUOUS
 10
318.9235026221
 20
346.9977235162
 11
319.6306123472
 21
346.5894827616
  0
LINE
  5
2F2
100
AcDbEntity
  8
0
100
AcDbLine
 62
7
  6
CONTINUOUS
 10
271.5471510368
 20
374.4361126506
 11
271.7988259798
 21
374.2908113417
  0
LINE
  5
2F3
100
AcDbEntity
  8
0
100
AcDbLine
 62
7
  6
CONTINUOUS
 10
316.9575760932
 20
350.0484555682
 11
313.9523597613
 21
351.7834787749
  0
LINE
  5
2F4
100
AcDbEntity
  8
0
100
AcDbLine
 62
7
  6
CONTINUOUS
 10
313.8414638098
 20
356.4551532595
 11
274.3847411466
 21
379.2349873617
  0
LINE
  5
2F5
100
AcDbEntity
  8
0
100
AcDbLine
 62
7
  6
CONTINUOUS
 10
269.5672396849
 20
383.9653388487
 11
322.6004690709
 21
353.3472822597
  0
LINE
  5
2F6
100
AcDbEntity
  8
0
100
AcDbLine
 62
7
  6
CONTINUOUS
 10
270.6779988827
 20
373.1177906561
 11
271.3007034013
 21
372.4737061012
  0
LINE
  5
2F7
100
AcDbEntity
  8
0
100
AcDbLine
 62
7
  6
CONTINUOUS
 10
272.0078072386
 20
372.8819502551
 11
271.3851027199
 21
373.5260348099
  0
LINE
  5
2F8
100
AcDbEntity
  8
0
100
AcDbLine
 62
7
  6
CONTINUOUS
 10
272.6619995001
 20
372.9997202203
 11
272.5007083974
 21
373.1665491175
  0
LINE
  5
2F9
100
AcDbEntity
  8
0
100
AcDbLine
 62
7
  6
CONTINUOUS
 10
318.6770549862
 20
292.9470710937
 11
318.9235026217
 21
292.0857483151
  0
LINE
  5
2FA
100
AcDbEntity
  8
0
100
AcDbLine
 62
7
  6
CONTINUOUS
 10
319.6306064589
 20
292.493992469
 11
319.3841588234
 21
293.3553152476
  0
LINE
  5
2FB
100
AcDbEntity
  8
0
100
AcDbLine
 62
7
  6
CONTINUOUS
 10
319.8770599823
 20
293.6399141101
 11
319.6306123468
 21
294.5012368887
  0
LINE
  5
2FC
100
AcDbEntity
  8
0
100
AcDbLine
 62
7
  6
CONTINUOUS
 10
318.0543504681
 20
345.6794015216
 11
318.6770549866
 21
345.0353169667
  0
LINE
  5
2FD
100
AcDbEntity
  8
0
100
AcDbLine
 62
7
  6
CONTINUOUS
 10
319.3841588239
 20
345.4435611206
 11
318.7614543053
 21
346.0876456754
  0
LINE
  5
2FE
100
AcDbEntity
  8
0
100
AcDbLine
 62
7
  6
CONTINUOUS
 10
320.1173211051
 20
345.4796496969
 11
319.8770599827
 21
345.728159983
  0
LINE
  5
2FF
100
AcDbEntity
  8
0
100
AcDbLine
 62
7
  6
CONTINUOUS
 10
318.6770549866
 20
345.0353169667
 11
318.9235026221
 21
344.1739941881
  0
LINE
  5
300
100
AcDbEntity
  8
0
100
AcDbLine
 62
7
  6
CONTINUOUS
 10
319.6306064593
 20
344.582238342
 11
319.3841588239
 21
345.4435611206
  0
LINE
  5
301
100
AcDbEntity
  8
0
100
AcDbLine
 62
7
  6
CONTINUOUS
 10
319.8770599827
 20
345.728159983
 11
319.6852660245
 21
346.3984707558
  0
LINE
  5
302
100
AcDbEntity
  8
0
100
AcDbLine
 62
7
  6
CONTINUOUS
 10
350.3896498734
 20
352.8162784391
 11
350.3896498734
 21
315.7470687014
  0
LINE
  5
303
100
AcDbEntity
  8
0
100
AcDbLine
 62
7
  6
CONTINUOUS
 10
360.4305243618
 20
321.5441356864
 11
360.4305243618
 21
311.5011559557
  0
LINE
  5
304
100
AcDbEntity
  8
0
100
AcDbLine
 62
7
  6
CONTINUOUS
 10
360.4305243618
 20
358.6133454241
 11
360.4305243618
 21
375.1883444918
  0
LINE
  5
305
100
AcDbEntity
  8
0
100
AcDbLine
 62
7
  6
CONTINUOUS
 10
307.3972949758
 20
405.8064010808
 11
360.4305243618
 21
375.1883444918
  0
ARC
  5
306
100
AcDbEntity
  8
0
100
AcDbCircle
 62
7
  6
CONTINUOUS
 10
295.4944526428
 20
229.0893714205
 40
228.5925275485
100
AcDbArc
 50
184.0107331489
 51
184.3277496141
  0
ARC
  5
307
100
AcDbEntity
  8
0
100
AcDbCircle
 62
7
  6
CONTINUOUS
 10
293.8888132649
 20
228.9686154302
 40
226.9823538775
100
AcDbArc
 50
184.3279395784
 51
184.4838835353
  0
ARC
  5
308
100
AcDbEntity
  8
0
100
AcDbCircle
 62
7
  6
CONTINUOUS
 10
34.0035934523
 20
182.2312704824
 40
51.1867390182
100
AcDbArc
 50
28.5080929295
 51
37.2755438569
  0
ARC
  5
309
100
AcDbEntity
  8
0
100
AcDbCircle
 62
7
  6
CONTINUOUS
 10
91.8904170531
 20
215.4906535271
 40
50.211766866
100
AcDbArc
 50
214.8715825907
 51
217.2970246692
  0
ARC
  5
30A
100
AcDbEntity
  8
0
100
AcDbCircle
 62
7
  6
CONTINUOUS
 10
101.1725784945
 20
222.5311974969
 40
31.1557745892
100
AcDbArc
 50
192.5968262835
 51
193.0985546295
  0
ARC
  5
30B
100
AcDbEntity
  8
0
100
AcDbCircle
 62
7
  6
CONTINUOUS
 10
284.6007472817
 20
322.6756833759
 40
27.7269884236
100
AcDbArc
 50
0.5059032435
 51
3.9436313228
  0
ARC
  5
30C
100
AcDbEntity
  8
0
100
AcDbCircle
 62
7
  6
CONTINUOUS
 10
280.4552874663
 20
328.0350473587
 40
12.5393866999
100
AcDbArc
 50
59.9975690894
 51
61.1633597012
  0
ARC
  5
30D
100
AcDbEntity
  8
0
100
AcDbCircle
 62
7
  6
CONTINUOUS
 10
279.7543459247
 20
321.0946114742
 40
10.9608941199
100
AcDbArc
 50
235.6142191057
 51
239.9747291487
  0
ARC
  5
30E
100
AcDbEntity
  8
0
100
AcDbCircle
 62
7
  6
CONTINUOUS
 10
287.9252723433
 20
346.1318321266
 40
9.5218949342
100
AcDbArc
 50
120.0181348563
 51
131.1642821059
  0
ARC
  5
30F
100
AcDbEntity
  8
0
100
AcDbCircle
 62
7
  6
CONTINUOUS
 10
291.7950317006
 20
348.7868777012
 40
9.1869765597
100
AcDbArc
 50
136.731899383
 51
141.6646620109
  0
ARC
  5
310
100
AcDbEntity
  8
0
100
AcDbCircle
 62
7
  6
CONTINUOUS
 10
282.2108155284
 20
335.5908350681
 40
4.5912387505
100
AcDbArc
 50
112.5016070045
 51
115.8939695086
  0
ARC
  5
311
100
AcDbEntity
  8
0
100
AcDbCircle
 62
7
  6
CONTINUOUS
 10
282.1956064169
 20
335.6228937588
 40
4.5557567162
100
AcDbArc
 50
115.8979699173
 51
122.4387880311
  0
ARC
  5
312
100
AcDbEntity
  8
0
100
AcDbCircle
 62
7
  6
CONTINUOUS
 10
269.2778977669
 20
371.7477870691
 40
3.6507038892
100
AcDbArc
 50
35.1916797319
 51
37.259888596
  0
ARC
  5
313
100
AcDbEntity
  8
0
100
AcDbCircle
 62
7
  6
CONTINUOUS
 10
273.8110797102
 20
374.3088436917
 40
3.0080694615
100
AcDbArc
 50
187.496011737
 51
188.9482451591
  0
ARC
  5
314
100
AcDbEntity
  8
0
100
AcDbCircle
 62
7
  6
CONTINUOUS
 10
549.9722851884
 20
321.2635071496
 40
238.7388044723
100
AcDbArc
 50
171.5233421112
 51
172.7693728374
  0
ARC
  5
315
100
AcDbEntity
  8
0
100
AcDbCircle
 62
7
  6
CONTINUOUS
 10
557.1231969863
 20
316.5618492076
 40
237.3901387879
100
AcDbArc
 50
171.0856562314
 51
173.0767303713
  0
ARC
  5
316
100
AcDbEntity
  8
0
100
AcDbCircle
 62
7
  6
CONTINUOUS
 10
508.8422998294
 20
344.3885489435
 40
236.8377924084
100
AcDbArc
 50
171.5652796832
 51
173.2539206951
  0
ARC
  5
317
100
AcDbEntity
  8
0
100
AcDbCircle
 62
7
  6
CONTINUOUS
 10
507.3198426379
 20
344.48385394
 40
235.5130628667
100
AcDbArc
 50
171.5147374476
 51
173.2332509678
  0
ARC
  5
318
100
AcDbEntity
  8
0
100
AcDbCircle
 62
7
  6
CONTINUOUS
 10
547.5025314703
 20
319.930432709
 40
232.5039177106
100
AcDbArc
 50
172.5571213773
 51
173.5383653584
  0
ARC
  5
319
100
AcDbEntity
  8
0
100
AcDbCircle
 62
7
  6
CONTINUOUS
 10
551.1349420506
 20
317.3079948276
 40
231.3556077637
100
AcDbArc
 50
173.0814062255
 51
173.213756709
  0
ARC
  5
31A
100
AcDbEntity
  8
0
100
AcDbCircle
 62
7
  6
CONTINUOUS
 10
499.5459375247
 20
345.5249827487
 40
227.4723001777
100
AcDbArc
 50
173.2631211769
 51
174.2391960165
  0
ARC
  5
31B
100
AcDbEntity
  8
0
100
AcDbCircle
 62
7
  6
CONTINUOUS
 10
498.6452301638
 20
345.5124238546
 40
226.7776832453
100
AcDbArc
 50
173.2330729462
 51
174.2496383371
  0
ARC
  5
31C
100
AcDbEntity
  8
0
100
AcDbCircle
 62
7
  6
CONTINUOUS
 10
537.7014067505
 20
320.9324981802
 40
222.0413672087
100
AcDbArc
 50
174.4189802148
 51
174.5718613492
  0
ARC
  5
31D
100
AcDbEntity
  8
0
100
AcDbCircle
 62
7
  6
CONTINUOUS
 10
536.6371876489
 20
321.1428101242
 40
221.5711590438
100
AcDbArc
 50
173.5336882221
 51
176.1286257093
  0
ARC
  5
31E
100
AcDbEntity
  8
0
100
AcDbCircle
 62
7
  6
CONTINUOUS
 10
537.4225310438
 20
319.5200327139
 40
218.7786101233
100
AcDbArc
 50
174.6519624407
 51
175.4807113487
  0
ARC
  5
31F
100
AcDbEntity
  8
0
100
AcDbCircle
 62
7
  6
CONTINUOUS
 10
532.0936547586
 20
321.3321316482
 40
216.6220435971
100
AcDbArc
 50
174.3054007905
 51
176.1497554563
  0
ARC
  5
320
100
AcDbEntity
  8
0
100
AcDbCircle
 62
7
  6
CONTINUOUS
 10
526.964857813
 20
323.769652451
 40
215.5921203791
100
AcDbArc
 50
175.1129222758
 51
176.1499062797
  0
ARC
  5
321
100
AcDbEntity
  8
0
100
AcDbCircle
 62
7
  6
CONTINUOUS
 10
529.5803544874
 20
321.6272824888
 40
213.8905053938
100
AcDbArc
 50
175.4827217898
 51
176.1467641762
  0
ARC
  5
322
100
AcDbEntity
  8
0
100
AcDbCircle
 62
7
  6
CONTINUOUS
 10
526.0308151312
 20
323.124269507
 40
213.2376697082
100
AcDbArc
 50
175.6716373972
 51
176.1534088239
  0
ARC
  5
323
100
AcDbEntity
  8
0
100
AcDbCircle
 62
7
  6
CONTINUOUS
 10
421.4042735742
 20
348.6503665018
 40
154.4795151219
100
AcDbArc
 50
186.4717860345
 51
186.8465297576
  0
ARC
  5
324
100
AcDbEntity
  8
0
100
AcDbCircle
 62
7
  6
CONTINUOUS
 10
460.1553950437
 20
319.7430439057
 40
145.2065730258
100
AcDbArc
 50
187.8206928804
 51
190.1818617524
  0
ARC
  5
325
100
AcDbEntity
  8
0
100
AcDbCircle
 62
7
  6
CONTINUOUS
 10
433.7640124717
 20
334.5590102128
 40
144.2599885177
100
AcDbArc
 50
188.7963592011
 51
189.1655411103
  0
ARC
  5
326
100
AcDbEntity
  8
0
100
AcDbCircle
 62
7
  6
CONTINUOUS
 10
441.0500674463
 20
329.4733136249
 40
143.0462718196
100
AcDbArc
 50
188.6968640727
 51
190.0888753591
  0
ARC
  5
327
100
AcDbEntity
  8
0
100
AcDbCircle
 62
7
  6
CONTINUOUS
 10
455.4111526468
 20
318.6998934834
 40
140.07193889
100
AcDbArc
 50
189.9557833738
 51
190.1863975853
  0
ARC
  5
328
100
AcDbEntity
  8
0
100
AcDbCircle
 62
7
  6
CONTINUOUS
 10
458.3531679921
 20
316.2864708147
 40
139.1100502779
100
AcDbArc
 50
189.9550309179
 51
190.8207359989
  0
ARC
  5
329
100
AcDbEntity
  8
0
100
AcDbCircle
 62
7
  6
CONTINUOUS
 10
453.5286170665
 20
318.3579096663
 40
138.1585910987
100
AcDbArc
 50
190.2976861064
 51
190.8227367282
  0
ARC
  5
32A
100
AcDbEntity
  8
0
100
AcDbCircle
 62
7
  6
CONTINUOUS
 10
304.5195515166
 20
317.9612609667
 40
6.7844267827
100
AcDbArc
 50
289.7628960513
 51
299.961695962
  0
ARC
  5
32B
100
AcDbEntity
  8
0
100
AcDbCircle
 62
7
  6
CONTINUOUS
 10
317.6150623674
 20
291.4765127405
 40
3.8037097329
100
AcDbArc
 50
18.7575497917
 51
19.064568621
  0
ARC
  5
32C
100
AcDbEntity
  8
0
100
AcDbCircle
 62
7
  6
CONTINUOUS
 10
316.640109958
 20
344.3854875487
 40
3.6681195245
100
AcDbArc
 50
35.1942046238
 51
36.2819977088
  0
ARC
  5
32D
100
AcDbEntity
  8
0
100
AcDbCircle
 62
7
  6
CONTINUOUS
 10
321.3925952222
 20
346.98946282
 40
3.2157765971
100
AcDbArc
 50
189.1783689453
 51
190.6899001931
  0
ARC
  5
32E
100
AcDbEntity
  8
0
100
AcDbCircle
 62
7
  6
CONTINUOUS
 10
321.1874312936
 20
294.782208684
 40
3.0080694601
100
AcDbArc
 50
187.4960117367
 51
188.9482451595
  0
ARC
  5
32F
100
AcDbEntity
  8
0
100
AcDbCircle
 62
7
  6
CONTINUOUS
 10
318.4260861567
 20
294.7667415036
 40
0.8486176123
100
AcDbArc
 50
119.9767130409
 51
122.4010001942
  0
SPLINE
  5
330
100
AcDbEntity
  8
0
100
AcDbSpline
 62
7
  6
CONTINUOUS
 70
0
 71
3
 72
11
 73
7
 74
0
 42
0.0000001
 43
0.0000001
 44
0.0000000001
 40
0.0
 40
0.0
 40
0.0
 40
0.0
 40
0.217745073
 40
0.4508830113
 40
0.7104597664
 40
1.0
 40
1.0
 40
1.0
 40
1.0
 10
361.3218762548
 20
315.8359838286
 30
0.0
 10
361.3713464718
 20
315.8645453248
 30
0.0
 10
361.4639988685
 20
315.9422593374
 30
0.0
 10
361.5625584846
 20
316.103481164
 30
0.0
 10
361.6209881811
 20
316.3020973585
 30
0.0
 10
361.6325861652
 20
316.4466321109
 30
0.0
 10
361.6325861652
 20
316.5225900562
 30
0.0
  0
SPLINE
  5
331
100
AcDbEntity
  8
0
100
AcDbSpline
 62
7
  6
CONTINUOUS
 70
0
 71
3
 72
12
 73
8
 74
0
 42
0.0000001
 43
0.0000001
 44
0.0000000001
 40
0.0
 40
0.0
 40
0.0
 40
0.0
 40
0.1972160063
 40
0.3167335575
 40
0.447663458
 40
0.7274320824
 40
1.0
 40
1.0
 40
1.0
 40
1.0
 10
320.1562224288
 20
343.1426111622
 30
0.0
 10
319.8855000059
 20
343.1243600388
 30
0.0
 10
319.4428223315
 20
343.2630699034
 30
0.0
 10
318.9323085417
 20
343.6053841429
 30
0.0
 10
318.3976289466
 20
344.1075169007
 30
0.0
 10
317.8599845601
 20
344.8914780206
 30
0.0
 10
317.5950527842
 20
345.6162065715
 30
0.0
 10
317.5255229519
 20
345.9847133233
 30
0.0
  0
SPLINE
  5
332
100
AcDbEntity
  8
0
100
AcDbSpline
 62
7
  6
CONTINUOUS
 70
0
 71
3
 72
11
 73
7
 74
0
 42
0.0000001
 43
0.0000001
 44
0.0000000001
 40
0.0
 40
0.0
 40
0.0
 40
0.0
 40
0.2223744418
 40
0.4597043454
 40
0.7184038209
 40
1.0
 40
1.0
 40
1.0
 40
1.0
 10
319.6097536555
 20
342.4846114808
 30
0.0
 10
319.7134054034
 20
342.5444768402
 30
0.0
 10
319.9091615706
 20
342.702589474
 30
0.0
 10
320.1344553338
 20
343.0217056415
 30
0.0
 10
320.2921056019
 20
343.4127557057
 30
0.0
 10
320.3476649981
 20
343.6999958596
 30
0.0
 10
320.3647137289
 20
343.8506090874
 30
0.0
  0
SPLINE
  5
333
100
AcDbEntity
  8
0
100
AcDbSpline
 62
7
  6
CONTINUOUS
 70
0
 71
3
 72
12
 73
8
 74
0
 42
0.0000001
 43
0.0000001
 44
0.0000000001
 40
0.0
 40
0.0
 40
0.0
 40
0.0
 40
0.1977940832
 40
0.318034767
 40
0.449704387
 40
0.7299034007
 40
1.0
 40
1.0
 40
1.0
 40
1.0
 10
272.7777085141
 20
370.4946039707
 30
0.0
 10
272.4999770864
 20
370.4764826692
 30
0.0
 10
272.0459063335
 20
370.6235753019
 30
0.0
 10
271.5256582107
 20
370.9812867742
 30
0.0
 10
270.9835068469
 20
371.5038150702
 30
0.0
 10
270.4465626212
 20
372.3123233871
 30
0.0
 10
270.1916832821
 20
373.057245368
 30
0.0
 10
270.132578067
 20
373.4326823871
 30
0.0
  0
SPLINE
  5
334
100
AcDbEntity
  8
0
100
AcDbSpline
 62
7
  6
CONTINUOUS
 70
0
 71
3
 72
9
 73
5
 74
0
 42
0.0000001
 43
0.0000001
 44
0.0000000001
 40
0.0
 40
0.0
 40
0.0
 40
0.0
 40
0.237101481
 40
1.0
 40
1.0
 40
1.0
 40
1.0
 10
321.3375949484
 20
292.2377945139
 30
0.0
 10
321.3310679295
 20
292.2749783825
 30
0.0
 10
321.2999671163
 20
292.4311735018
 30
0.0
 10
321.2558090367
 20
292.5846290232
 30
0.0
 10
321.2167485774
 20
292.6996497635
 30
0.0
  0
SPLINE
  5
335
100
AcDbEntity
  8
0
100
AcDbSpline
 62
7
  6
CONTINUOUS
 70
0
 71
3
 72
9
 73
5
 74
0
 42
0.0000001
 43
0.0000001
 44
0.0000000001
 40
0.0
 40
0.0
 40
0.0
 40
0.0
 40
0.4840466145
 40
1.0
 40
1.0
 40
1.0
 40
1.0
 10
321.2101427337
 20
292.7189317085
 30
0.0
 10
321.0788573083
 20
293.0988279298
 30
0.0
 10
320.6903601024
 20
293.8430499224
 30
0.0
 10
320.1609136687
 20
294.4915570491
 30
0.0
 10
319.8524008856
 20
294.7888405022
 30
0.0
  0
SPLINE
  5
336
100
AcDbEntity
  8
0
100
AcDbSpline
 62
7
  6
CONTINUOUS
 70
0
 71
3
 72
11
 73
7
 74
0
 42
0.0000001
 43
0.0000001
 44
0.0000000001
 40
0.0
 40
0.0
 40
0.0
 40
0.0
 40
0.2993092684
 40
0.5702624478
 40
0.8044785841
 40
1.0
 40
1.0
 40
1.0
 40
1.0
 10
319.8524008856
 20
294.7888405022
 30
0.0
 10
319.7101831567
 20
294.9258817527
 30
0.0
 10
319.4244840169
 20
295.1723192416
 30
0.0
 10
318.9782193488
 20
295.4638328068
 30
0.0
 10
318.5510627199
 20
295.6467211149
 30
0.0
 10
318.266888752
 20
295.69658351
 30
0.0
 10
318.1378950017
 20
295.6942304359
 30
0.0
  0
SPLINE
  5
337
100
AcDbEntity
  8
0
100
AcDbSpline
 62
7
  6
CONTINUOUS
 70
0
 71
3
 72
9
 73
5
 74
0
 42
0.0000001
 43
0.0000001
 44
0.0000000001
 40
0.0
 40
0.0
 40
0.0
 40
0.0
 40
0.2594524316
 40
1.0
 40
1.0
 40
1.0
 40
1.0
 10
318.1378950017
 20
295.6942304359
 30
0.0
 10
318.1215307572
 20
295.6939319231
 30
0.0
 10
318.0585066217
 20
295.6911862506
 30
0.0
 10
317.9957035561
 20
295.6817930371
 30
0.0
 10
317.9503459016
 20
295.6706106663
 30
0.0
  0
SPLINE
  5
338
100
AcDbEntity
  8
0
100
AcDbSpline
 62
7
  6
CONTINUOUS
 70
0
 71
3
 72
9
 73
5
 74
0
 42
0.0000001
 43
0.0000001
 44
0.0000000001
 40
0.0
 40
0.0
 40
0.0
 40
0.0
 40
0.256743503
 40
1.0
 40
1.0
 40
1.0
 40
1.0
 10
317.9503459016
 20
295.6706106663
 30
0.0
 10
317.9343845866
 20
295.6666756008
 30
0.0
 10
317.8727400247
 20
295.6493305372
 30
0.0
 10
317.813408523
 20
295.6235225407
 30
0.0
 10
317.7722004165
 20
295.5997159726
 30
0.0
  0
SPLINE
  5
339
100
AcDbEntity
  8
0
100
AcDbSpline
 62
7
  6
CONTINUOUS
 70
0
 71
3
 72
9
 73
5
 74
0
 42
0.0000001
 43
0.0000001
 44
0.0000000001
 40
0.0
 40
0.0
 40
0.0
 40
0.0
 40
0.4827301496
 40
1.0
 40
1.0
 40
1.0
 40
1.0
 10
272.988362144
 20
371.2027396402
 30
0.0
 10
273.0259388119
 20
371.5347023709
 30
0.0
 10
272.9869021485
 20
372.2368309841
 30
0.0
 10
272.7720084793
 20
372.9027640221
 30
0.0
 10
272.621016895
 20
373.2273498105
 30
0.0
  0
SPLINE
  5
33A
100
AcDbEntity
  8
0
100
AcDbSpline
 62
7
  6
CONTINUOUS
 70
0
 71
3
 72
9
 73
5
 74
0
 42
0.0000001
 43
0.0000001
 44
0.0000000001
 40
0.0
 40
0.0
 40
0.0
 40
0.0
 40
0.2528604051
 40
1.0
 40
1.0
 40
1.0
 40
1.0
 10
272.621016895
 20
373.2273498105
 30
0.0
 10
272.5953816756
 20
373.2824577025
 30
0.0
 10
272.4893730438
 20
373.4981955224
 30
0.0
 10
272.3648638859
 20
373.7049810786
 30
0.0
 10
272.2613573842
 20
373.8517375435
 30
0.0
  0
SPLINE
  5
33B
100
AcDbEntity
  8
0
100
AcDbSpline
 62
7
  6
CONTINUOUS
 70
0
 71
3
 72
9
 73
5
 74
0
 42
0.0000001
 43
0.0000001
 44
0.0000000001
 40
0.0
 40
0.0
 40
0.0
 40
0.0
 40
0.2591373294
 40
1.0
 40
1.0
 40
1.0
 40
1.0
 10
272.1834839527
 20
373.9580376892
 30
0.0
 10
272.1404591027
 20
374.0145906255
 30
0.0
 10
271.9680571535
 20
374.2278195812
 30
0.0
 10
271.7700756127
 20
374.4210325756
 30
0.0
 10
271.6099510332
 20
374.5460600411
 30
0.0
  0
SPLINE
  5
33C
100
AcDbEntity
  8
0
100
AcDbSpline
 62
7
  6
CONTINUOUS
 70
0
 71
3
 72
11
 73
7
 74
0
 42
0.0000001
 43
0.0000001
 44
0.0000000001
 40
0.0
 40
0.0
 40
0.0
 40
0.0
 40
0.2834134331
 40
0.5397747114
 40
0.7746407532
 40
1.0
 40
1.0
 40
1.0
 40
1.0
 10
271.6099510332
 20
374.5460600411
 30
0.0
 10
271.4708909938
 20
374.6546400252
 30
0.0
 10
271.1841970873
 20
374.836399635
 30
0.0
 10
270.7197787863
 20
374.986453546
 30
0.0
 10
270.2656442858
 20
374.9926481685
 30
0.0
 10
269.9896093192
 20
374.8918694171
 30
0.0
 10
269.8681339009
 20
374.8216916607
 30
0.0
  0
SPLINE
  5
33D
100
AcDbEntity
  8
0
100
AcDbSpline
 62
7
  6
CONTINUOUS
 70
0
 71
3
 72
9
 73
5
 74
0
 42
0.0000001
 43
0.0000001
 44
0.0000000001
 40
0.0
 40
0.0
 40
0.0
 40
0.0
 40
0.4826216171
 40
1.0
 40
1.0
 40
1.0
 40
1.0
 10
320.3647137289
 20
343.8506090874
 30
0.0
 10
320.400833164
 20
344.1696982187
 30
0.0
 10
320.3674225405
 20
344.8442592729
 30
0.0
 10
320.1700258826
 20
345.4868972047
 30
0.0
 10
320.0307261551
 20
345.8017082077
 30
0.0
  0
SPLINE
  5
33E
100
AcDbEntity
  8
0
100
AcDbSpline
 62
7
  6
CONTINUOUS
 70
0
 71
3
 72
9
 73
5
 74
0
 42
0.0000001
 43
0.0000001
 44
0.0000000001
 40
0.0
 40
0.0
 40
0.0
 40
0.0
 40
0.2529043
 40
1.0
 40
1.0
 40
1.0
 40
1.0
 10
320.0307261551
 20
345.8017082077
 30
0.0
 10
320.0033796821
 20
345.8635099839
 30
0.0
 10
319.8895065714
 20
346.1052717301
 30
0.0
 10
319.7527744182
 20
346.3364616975
 30
0.0
 10
319.637708969
 20
346.4996069907
 30
0.0
  0
SPLINE
  5
33F
100
AcDbEntity
  8
0
100
AcDbSpline
 62
7
  6
CONTINUOUS
 70
0
 71
3
 72
9
 73
5
 74
0
 42
0.0000001
 43
0.0000001
 44
0.0000000001
 40
0.0
 40
0.0
 40
0.0
 40
0.0
 40
0.2587431908
 40
1.0
 40
1.0
 40
1.0
 40
1.0
 10
319.5970333868
 20
346.5561336926
 30
0.0
 10
319.5548694494
 20
346.6135688208
 30
0.0
 10
319.3854765242
 20
346.8306736578
 30
0.0
 10
319.1903439828
 20
347.0282817085
 30
0.0
 10
319.0321774845
 20
347.1573103655
 30
0.0
  0
SPLINE
  5
340
100
AcDbEntity
  8
0
100
AcDbSpline
 62
7
  6
CONTINUOUS
 70
0
 71
3
 72
11
 73
7
 74
0
 42
0.0000001
 43
0.0000001
 44
0.0000000001
 40
0.0
 40
0.0
 40
0.0
 40
0.0
 40
0.2845851538
 40
0.5413391756
 40
0.7757214914
 40
1.0
 40
1.0
 40
1.0
 40
1.0
 10
319.0321774845
 20
347.1573103655
 30
0.0
 10
318.8906221804
 20
347.2727879854
 30
0.0
 10
318.5982496293
 20
347.4672068411
 30
0.0
 10
318.1214425497
 20
347.630956098
 30
0.0
 10
317.6537148461
 20
347.6438921391
 30
0.0
 10
317.3691479244
 20
347.5415800429
 30
0.0
 10
317.2444854857
 20
347.4695611078
 30
0.0
  0
SPLINE
  5
341
100
AcDbEntity
  8
0
100
AcDbSpline
 62
7
  6
CONTINUOUS
 70
0
 71
3
 72
11
 73
7
 74
0
 42
0.0000001
 43
0.0000001
 44
0.0000000001
 40
0.0
 40
0.0
 40
0.0
 40
0.0
 40
0.2223744418
 40
0.4597043454
 40
0.7184038209
 40
1.0
 40
1.0
 40
1.0
 40
1.0
 10
272.2334020707
 20
369.8367420337
 30
0.0
 10
272.3370538186
 20
369.896607393
 30
0.0
 10
272.5328099857
 20
370.0547200268
 30
0.0
 10
272.7581037489
 20
370.3738361944
 30
0.0
 10
272.9157540171
 20
370.7648862585
 30
0.0
 10
272.9713134132
 20
371.0521264125
 30
0.0
 10
272.988362144
 20
371.2027396402
 30
0.0
  0
SPLINE
  5
342
100
AcDbEntity
  8
0
100
AcDbSpline
 62
7
  6
CONTINUOUS
 70
0
 71
3
 72
15
 73
11
 74
0
 42
0.0000001
 43
0.0000001
 44
0.0000000001
 40
0.0
 40
0.0
 40
0.0
 40
0.0
 40
0.0867376233
 40
0.1842673821
 40
0.2979537033
 40
0.4275325804
 40
0.5689960771
 40
0.7162089883
 40
0.8621591144
 40
1.0
 40
1.0
 40
1.0
 40
1.0
 10
320.5520388846
 20
291.0851468969
 30
0.0
 10
320.4356189282
 20
291.0179946828
 30
0.0
 10
320.1497943974
 20
290.9367669826
 30
0.0
 10
319.6836468461
 20
291.0045899882
 30
0.0
 10
319.2010829329
 20
291.232346475
 30
0.0
 10
318.7280651089
 20
291.6014224095
 30
0.0
 10
318.2938732605
 20
292.0865085618
 30
0.0
 10
317.9275782031
 20
292.654871117
 30
0.0
 10
317.6544715726
 20
293.2670314296
 30
0.0
 10
317.542144958
 20
293.6950633655
 30
0.0
 10
317.5089296518
 20
293.9060473796
 30
0.0
  0
SPLINE
  5
343
100
AcDbEntity
  8
0
100
AcDbSpline
 62
7
  6
CONTINUOUS
 70
0
 71
3
 72
9
 73
5
 74
0
 42
0.0000001
 43
0.0000001
 44
0.0000000001
 40
0.0
 40
0.0
 40
0.0
 40
0.0
 40
0.5109540423
 40
1.0
 40
1.0
 40
1.0
 40
1.0
 10
269.5672396849
 20
383.9653388487
 30
0.0
 10
268.6832173315
 20
378.3206091734
 30
0.0
 10
267.3375970658
 20
367.2085712751
 30
0.0
 10
266.8524194709
 20
356.0229074061
 30
0.0
 10
266.8524194709
 20
350.5543517554
 30
0.0
  0
SPLINE
  5
344
100
AcDbEntity
  8
0
100
AcDbSpline
 62
7
  6
CONTINUOUS
 70
0
 71
3
 72
9
 73
5
 74
0
 42
0.0000001
 43
0.0000001
 44
0.0000000001
 40
0.0
 40
0.0
 40
0.0
 40
0.0
 40
0.256073415
 40
1.0
 40
1.0
 40
1.0
 40
1.0
 10
266.8524194709
 20
350.5543517554
 30
0.0
 10
266.8524194709
 20
348.9026315351
 30
0.0
 10
266.9372145134
 20
342.4529216619
 30
0.0
 10
267.3683000077
 20
336.0062524437
 30
0.0
 10
267.9091823317
 20
331.2383718795
 30
0.0
  0
SPLINE
  5
345
100
AcDbEntity
  8
0
100
AcDbSpline
 62
7
  6
CONTINUOUS
 70
0
 71
3
 72
13
 73
9
 74
0
 42
0.0000001
 43
0.0000001
 44
0.0000000001
 40
0.0
 40
0.0
 40
0.0
 40
0.0
 40
0.1026524919
 40
0.2080601847
 40
0.3187861565
 40
0.4368050785
 40
0.6991726526
 40
1.0
 40
1.0
 40
1.0
 40
1.0
 10
307.9078362023
 20
312.0835085342
 30
0.0
 10
308.270367179
 20
312.292848377
 30
0.0
 10
308.9666375397
 20
312.7880197898
 30
0.0
 10
309.8735131254
 20
313.728719571
 30
0.0
 10
310.6426516259
 20
314.8608083549
 30
0.0
 10
311.511642051
 20
316.6722254499
 30
0.0
 10
312.2000043647
 20
319.3905586746
 30
0.0
 10
312.3373489235
 20
321.6937319347
 30
0.0
 10
312.3266548699
 20
322.9205005549
 30
0.0
  0
SPLINE
  5
346
100
AcDbEntity
  8
0
100
AcDbSpline
 62
7
  6
CONTINUOUS
 70
0
 71
3
 72
11
 73
7
 74
0
 42
0.0000001
 43
0.0000001
 44
0.0000000001
 40
0.0
 40
0.0
 40
0.0
 40
0.0
 40
0.217774664
 40
0.4508986886
 40
0.7103692515
 40
1.0
 40
1.0
 40
1.0
 40
1.0
 10
361.3218964419
 20
368.0104531247
 30
0.0
 10
361.3713597203
 20
368.0390434179
 30
0.0
 10
361.4639925464
 20
368.1167815164
 30
0.0
 10
361.562539286
 20
368.277978387
 30
0.0
 10
361.6210308215
 20
368.4765729651
 30
0.0
 10
361.6325861652
 20
368.6211119771
 30
0.0
 10
361.6325861652
 20
368.6970945108
 30
0.0
  0
SPLINE
  5
347
100
AcDbEntity
  8
0
100
AcDbSpline
 62
7
  6
CONTINUOUS
 70
0
 71
3
 72
9
 73
5
 74
0
 42
0.0000001
 43
0.0000001
 44
0.0000000001
 40
0.0
 40
0.0
 40
0.0
 40
0.0
 40
0.2565024373
 40
1.0
 40
1.0
 40
1.0
 40
1.0
 10
360.5719215775
 20
318.3597048137
 30
0.0
 10
360.559813214
 20
318.3666954225
 30
0.0
 10
360.5122010143
 20
318.393234261
 30
0.0
 10
360.462946021
 20
318.4168606367
 30
0.0
 10
360.4255294776
 20
318.4324301408
 30
0.0
  0
SPLINE
  5
348
100
AcDbEntity
  8
0
100
AcDbSpline
 62
7
  6
CONTINUOUS
 70
0
 71
3
 72
11
 73
7
 74
0
 42
0.0000001
 43
0.0000001
 44
0.0000000001
 40
0.0
 40
0.0
 40
0.0
 40
0.0
 40
0.2372539654
 40
0.5000012591
 40
0.7627478695
 40
1.0
 40
1.0
 40
1.0
 40
1.0
 10
361.6325861652
 20
316.5225900562
 30
0.0
 10
361.6325861652
 20
316.6964788809
 30
0.0
 10
361.5673897668
 20
317.0631884177
 30
0.0
 10
361.3399811339
 20
317.5784028654
 30
0.0
 10
361.0074952767
 20
318.0329490645
 30
0.0
 10
360.7225134042
 20
318.2727625489
 30
0.0
 10
360.5719215775
 20
318.3597048137
 30
0.0
  0
SPLINE
  5
349
100
AcDbEntity
  8
0
100
AcDbSpline
 62
7
  6
CONTINUOUS
 70
0
 71
3
 72
9
 73
5
 74
0
 42
0.0000001
 43
0.0000001
 44
0.0000000001
 40
0.0
 40
0.0
 40
0.0
 40
0.0
 40
0.5346775987
 40
1.0
 40
1.0
 40
1.0
 40
1.0
 10
317.4956203965
 20
346.8184795983
 30
0.0
 10
317.5187885097
 20
346.9760094886
 30
0.0
 10
317.5987430709
 20
347.268514928
 30
0.0
 10
317.784843848
 20
347.5144132737
 30
0.0
 10
317.8927521878
 20
347.6013480712
 30
0.0
  0
SPLINE
  5
34A
100
AcDbEntity
  8
0
100
AcDbSpline
 62
7
  6
CONTINUOUS
 70
0
 71
3
 72
9
 73
5
 74
0
 42
0.0000001
 43
0.0000001
 44
0.0000000001
 40
0.0
 40
0.0
 40
0.0
 40
0.0
 40
0.5315110797
 40
1.0
 40
1.0
 40
1.0
 40
1.0
 10
270.132578067
 20
374.2491848042
 30
0.0
 10
270.1604088252
 20
374.3938306419
 30
0.0
 10
270.2468318072
 20
374.6623475377
 30
0.0
 10
270.427110133
 20
374.8845666527
 30
0.0
 10
270.5297678613
 20
374.9640531999
 30
0.0
  0
SPLINE
  5
34B
100
AcDbEntity
  8
0
100
AcDbSpline
 62
7
  6
CONTINUOUS
 70
0
 71
3
 72
9
 73
5
 74
0
 42
0.0000001
 43
0.0000001
 44
0.0000000001
 40
0.0
 40
0.0
 40
0.0
 40
0.0
 40
0.533084956
 40
1.0
 40
1.0
 40
1.0
 40
1.0
 10
317.5089296518
 20
294.7225497967
 30
0.0
 10
317.5394600585
 20
294.8812266181
 30
0.0
 10
317.6374605828
 20
295.1754707961
 30
0.0
 10
317.8518656342
 20
295.407406741
 30
0.0
 10
317.9713615934
 20
295.4832451139
 30
0.0
  0
SPLINE
  5
34C
100
AcDbEntity
  8
0
100
AcDbSpline
 62
7
  6
CONTINUOUS
 70
0
 71
3
 72
11
 73
7
 74
0
 42
0.0000001
 43
0.0000001
 44
0.0000000001
 40
0.0
 40
0.0
 40
0.0
 40
0.0
 40
0.2416365474
 40
0.5090765547
 40
0.7714910115
 40
1.0
 40
1.0
 40
1.0
 40
1.0
 10
361.6325861652
 20
368.6970945108
 30
0.0
 10
361.6325861652
 20
368.886758658
 30
0.0
 10
361.5554738931
 20
369.2864651988
 30
0.0
 10
361.2929240484
 20
369.837846294
 30
0.0
 10
360.916705748
 20
370.3055974248
 30
0.0
 10
360.5958812765
 20
370.5351063448
 30
0.0
 10
360.4306414543
 20
370.6048620414
 30
0.0
  0
SPLINE
  5
34D
100
AcDbEntity
  8
0
100
AcDbSpline
 62
7
  6
CONTINUOUS
 70
0
 71
3
 72
11
 73
7
 74
0
 42
0.0000001
 43
0.0000001
 44
0.0000000001
 40
0.0
 40
0.0
 40
0.0
 40
0.0
 40
0.2537633795
 40
0.5259824624
 40
0.7832539762
 40
1.0
 40
1.0
 40
1.0
 40
1.0
 10
319.5962853284
 20
339.9113770784
 30
0.0
 10
319.6029774887
 20
339.9828760119
 30
0.0
 10
319.5864354315
 20
340.1342243002
 30
0.0
 10
319.4985352822
 20
340.3406898027
 30
0.0
 10
319.363117396
 20
340.506484346
 30
0.0
 10
319.2409103683
 20
340.5752771792
 30
0.0
 10
319.1808336272
 20
340.5876423019
 30
0.0
  0
SPLINE
  5
34E
100
AcDbEntity
  8
0
100
AcDbSpline
 62
7
  6
CONTINUOUS
 70
0
 71
3
 72
9
 73
5
 74
0
 42
0.0000001
 43
0.0000001
 44
0.0000000001
 40
0.0
 40
0.0
 40
0.0
 40
0.0
 40
0.2262711402
 40
1.0
 40
1.0
 40
1.0
 40
1.0
 10
319.1808336272
 20
340.5876423019
 30
0.0
 10
319.003068032
 20
340.624230395
 30
0.0
 10
318.2336274769
 20
340.8657232151
 30
0.0
 10
317.5691288635
 20
341.3728744059
 30
0.0
 10
317.1383745557
 20
341.8196450138
 30
0.0
  0
SPLINE
  5
34F
100
AcDbEntity
  8
0
100
AcDbSpline
 62
7
  6
CONTINUOUS
 70
0
 71
3
 72
11
 73
7
 74
0
 42
0.0000001
 43
0.0000001
 44
0.0000000001
 40
0.0
 40
0.0
 40
0.0
 40
0.0
 40
0.2937282197
 40
0.5553382434
 40
0.785929486
 40
1.0
 40
1.0
 40
1.0
 40
1.0
 10
317.1383745557
 20
341.8196450138
 30
0.0
 10
317.1100054202
 20
341.84906897
 30
0.0
 10
317.0505737577
 20
341.8996352212
 30
0.0
 10
316.9509745523
 20
341.9482341958
 30
0.0
 10
316.8511731324
 20
341.9606701559
 30
0.0
 10
316.7898628668
 20
341.941630942
 30
0.0
 10
316.7640526213
 20
341.9267591974
 30
0.0
  0
SPLINE
  5
350
100
AcDbEntity
  8
0
100
AcDbSpline
 62
7
  6
CONTINUOUS
 70
0
 71
3
 72
18
 73
14
 74
0
 42
0.0000001
 43
0.0000001
 44
0.0000000001
 40
0.0
 40
0.0
 40
0.0
 40
0.0
 40
0.0618493471
 40
0.1269511163
 40
0.2639320119
 40
0.4049127974
 40
0.5438161443
 40
0.675383701
 40
0.7957841246
 40
0.8513177374
 40
0.9036661206
 40
0.9530732434
 40
1.0
 40
1.0
 40
1.0
 40
1.0
 10
312.2620836096
 20
324.5826074945
 30
0.0
 10
312.2009066235
 20
325.4804116489
 30
0.0
 10
311.9917723122
 20
327.3182348055
 30
0.0
 10
311.2623894447
 20
331.0913600145
 30
0.0
 10
309.7776560313
 20
335.8757775433
 30
0.0
 10
307.2058257082
 20
341.3891614622
 30
0.0
 10
303.910385612
 20
346.4153488183
 30
0.0
 10
300.0448408156
 20
350.6246412721
 30
0.0
 10
296.3986517579
 20
353.2882383607
 30
0.0
 10
293.3902534349
 20
354.7162504111
 30
0.0
 10
291.1990699231
 20
355.4054921592
 30
0.0
 10
289.0509362718
 20
355.7284222297
 30
0.0
 10
287.6407575784
 20
355.6976767854
 30
0.0
 10
286.962641543
 20
355.6181134468
 30
0.0
  0
SPLINE
  5
351
100
AcDbEntity
  8
0
100
AcDbSpline
 62
7
  6
CONTINUOUS
 70
0
 71
3
 72
9
 73
5
 74
0
 42
0.0000001
 43
0.0000001
 44
0.0000000001
 40
0.0
 40
0.0
 40
0.0
 40
0.0
 40
0.5058467438
 40
1.0
 40
1.0
 40
1.0
 40
1.0
 10
286.962641543
 20
355.6181134468
 30
0.0
 10
286.2894979997
 20
355.5391335307
 30
0.0
 10
284.9696574711
 20
355.2562571636
 30
0.0
 10
283.7350406533
 20
354.7076856572
 30
0.0
 10
283.1617150847
 20
354.3765277173
 30
0.0
  0
SPLINE
  5
352
100
AcDbEntity
  8
0
100
AcDbSpline
 62
7
  6
CONTINUOUS
 70
0
 71
3
 72
9
 73
5
 74
0
 42
0.0000001
 43
0.0000001
 44
0.0000000001
 40
0.0
 40
0.0
 40
0.0
 40
0.0
 40
0.2553174389
 40
1.0
 40
1.0
 40
1.0
 40
1.0
 10
320.2176272059
 20
340.7038086137
 30
0.0
 10
320.0458102799
 20
338.976994101
 30
0.0
 10
319.451663072
 20
332.2061210774
 30
0.0
 10
319.1785391317
 20
325.4059935606
 30
0.0
 10
319.1785391317
 20
320.3445359209
 30
0.0
  0
SPLINE
  5
353
100
AcDbEntity
  8
0
100
AcDbSpline
 62
7
  6
CONTINUOUS
 70
0
 71
3
 72
9
 73
5
 74
0
 42
0.0000001
 43
0.0000001
 44
0.0000000001
 40
0.0
 40
0.0
 40
0.0
 40
0.0
 40
0.2573438371
 40
1.0
 40
1.0
 40
1.0
 40
1.0
 10
319.1785391317
 20
320.3445359209
 30
0.0
 10
319.1785391317
 20
318.3758067722
 30
0.0
 10
319.2983448828
 20
310.7264917793
 30
0.0
 10
319.9097562225
 20
303.0817281987
 30
0.0
 10
320.683503358
 20
297.453201897
 30
0.0
  0
SPLINE
  5
354
100
AcDbEntity
  8
0
100
AcDbSpline
 62
7
  6
CONTINUOUS
 70
0
 71
3
 72
14
 73
10
 74
0
 42
0.0000001
 43
0.0000001
 44
0.0000000001
 40
0.0
 40
0.0
 40
0.0
 40
0.0
 40
0.2727014136
 40
0.4175314967
 40
0.5583499558
 40
0.6886980942
 40
0.8044699372
 40
0.9060686929
 40
1.0
 40
1.0
 40
1.0
 40
1.0
 10
269.0992586557
 20
373.4480637901
 30
0.0
 10
269.0420937707
 20
372.9430533032
 30
0.0
 10
269.1576560923
 20
372.1419283131
 30
0.0
 10
269.5778020458
 20
371.187431399
 30
0.0
 10
270.0222664162
 20
370.5450437271
 30
0.0
 10
270.5524470954
 20
370.047118339
 30
0.0
 10
271.1305107498
 20
369.7341519702
 30
0.0
 10
271.7179306197
 20
369.6409084534
 30
0.0
 10
272.0818092011
 20
369.7491876817
 30
0.0
 10
272.2334020707
 20
369.8367420337
 30
0.0
  0
SPLINE
  5
355
100
AcDbEntity
  8
0
100
AcDbSpline
 62
7
  6
CONTINUOUS
 70
0
 71
3
 72
11
 73
7
 74
0
 42
0.0000001
 43
0.0000001
 44
0.0000000001
 40
0.0
 40
0.0
 40
0.0
 40
0.0
 40
0.2198181185
 40
0.4502848975
 40
0.7074006822
 40
1.0
 40
1.0
 40
1.0
 40
1.0
 10
317.7722004165
 20
295.5997159726
 30
0.0
 10
317.7118156611
 20
295.5648307542
 30
0.0
 10
317.5993081808
 20
295.4714750771
 30
0.0
 10
317.4832261771
 20
295.2751643723
 30
0.0
 10
317.4210701346
 20
295.0330535443
 30
0.0
 10
317.4142178886
 20
294.857663397
 30
0.0
 10
317.4176808621
 20
294.7649008189
 30
0.0
  0
SPLINE
  5
356
100
AcDbEntity
  8
0
100
AcDbSpline
 62
7
  6
CONTINUOUS
 70
0
 71
3
 72
9
 73
5
 74
0
 42
0.0000001
 43
0.0000001
 44
0.0000000001
 40
0.0
 40
0.0
 40
0.0
 40
0.0
 40
0.2403487189
 40
1.0
 40
1.0
 40
1.0
 40
1.0
 10
317.4176808621
 20
294.7649008189
 30
0.0
 10
317.4185284441
 20
294.7421966606
 30
0.0
 10
317.4238596648
 20
294.6478036368
 30
0.0
 10
317.4360763425
 20
294.5538465275
 30
0.0
 10
317.4484914601
 20
294.4831186638
 30
0.0
  0
SPLINE
  5
357
100
AcDbEntity
  8
0
100
AcDbSpline
 62
7
  6
CONTINUOUS
 70
0
 71
3
 72
14
 73
10
 74
0
 42
0.0000001
 43
0.0000001
 44
0.0000000001
 40
0.0
 40
0.0
 40
0.0
 40
0.0
 40
0.2727014136
 40
0.4175314967
 40
0.5583499558
 40
0.6886980942
 40
0.8044699372
 40
0.9060686929
 40
1.0
 40
1.0
 40
1.0
 40
1.0
 10
316.4756102406
 20
346.0959332372
 30
0.0
 10
316.4184453556
 20
345.5909227504
 30
0.0
 10
316.5340076771
 20
344.7897977602
 30
0.0
 10
316.9541536306
 20
343.8353008462
 30
0.0
 10
317.3986180011
 20
343.1929131743
 30
0.0
 10
317.9287986802
 20
342.6949877861
 30
0.0
 10
318.5068623346
 20
342.3820214173
 30
0.0
 10
319.0942822046
 20
342.2887779005
 30
0.0
 10
319.4581607859
 20
342.3970571289
 30
0.0
 10
319.6097536555
 20
342.4846114808
 30
0.0
  0
SPLINE
  5
358
100
AcDbEntity
  8
0
100
AcDbSpline
 62
7
  6
CONTINUOUS
 70
0
 71
3
 72
9
 73
5
 74
0
 42
0.0000001
 43
0.0000001
 44
0.0000000001
 40
0.0
 40
0.0
 40
0.0
 40
0.0
 40
0.4866886313
 40
1.0
 40
1.0
 40
1.0
 40
1.0
 10
322.6004690709
 20
289.6600937236
 30
0.0
 10
321.6734117999
 20
294.5091462299
 30
0.0
 10
320.304509303
 20
304.5796779912
 30
0.0
 10
319.8856488569
 20
314.7293631512
 30
0.0
 10
319.8856488569
 20
319.9362951663
 30
0.0
  0
SPLINE
  5
359
100
AcDbEntity
  8
0
100
AcDbSpline
 62
7
  6
CONTINUOUS
 70
0
 71
3
 72
9
 73
5
 74
0
 42
0.0000001
 43
0.0000001
 44
0.0000000001
 40
0.0
 40
0.0
 40
0.0
 40
0.0
 40
0.2437126728
 40
1.0
 40
1.0
 40
1.0
 40
1.0
 10
319.8856488569
 20
319.9362951663
 30
0.0
 10
319.8856488569
 20
321.9287275335
 30
0.0
 10
320.0152980936
 20
330.1037989592
 30
0.0
 10
320.6478957042
 20
338.2688215138
 30
0.0
 10
321.3721426875
 20
344.4091579986
 30
0.0
  0
SPLINE
  5
35A
100
AcDbEntity
  8
0
100
AcDbSpline
 62
7
  6
CONTINUOUS
 70
0
 71
3
 72
9
 73
5
 74
0
 42
0.0000001
 43
0.0000001
 44
0.0000000001
 40
0.0
 40
0.0
 40
0.0
 40
0.0
 40
0.4903592979
 40
1.0
 40
1.0
 40
1.0
 40
1.0
 10
281.6577679881
 20
353.3001563587
 30
0.0
 10
281.152481978
 20
352.8589979317
 30
0.0
 10
280.2136897717
 20
351.849594679
 30
0.0
 10
279.4905618608
 20
350.6779750184
 30
0.0
 10
279.1774662585
 20
350.0550903941
 30
0.0
  0
SPLINE
  5
35B
100
AcDbEntity
  8
0
100
AcDbSpline
 62
7
  6
CONTINUOUS
 70
0
 71
3
 72
9
 73
5
 74
0
 42
0.0000001
 43
0.0000001
 44
0.0000000001
 40
0.0
 40
0.0
 40
0.0
 40
0.0
 40
0.4583453722
 40
1.0
 40
1.0
 40
1.0
 40
1.0
 10
316.7640526213
 20
341.9267591974
 30
0.0
 10
316.7260540298
 20
341.9048645838
 30
0.0
 10
316.6591719297
 20
341.8285305289
 30
0.0
 10
316.6364459163
 20
341.7328427096
 30
0.0
 10
316.6316032403
 20
341.6812432526
 30
0.0
  0
SPLINE
  5
35C
100
AcDbEntity
  8
0
100
AcDbSpline
 62
7
  6
CONTINUOUS
 70
0
 71
3
 72
11
 73
7
 74
0
 42
0.0000001
 43
0.0000001
 44
0.0000000001
 40
0.0
 40
0.0
 40
0.0
 40
0.0
 40
0.224006083
 40
0.4620333572
 40
0.7202465845
 40
1.0
 40
1.0
 40
1.0
 40
1.0
 10
269.8681339009
 20
374.8216916607
 30
0.0
 10
269.7628098504
 20
374.7608447365
 30
0.0
 10
269.5634862198
 20
374.6018226394
 30
0.0
 10
269.3337525991
 20
374.2803004029
 30
0.0
 10
269.1731147427
 20
373.8874233719
 30
0.0
 10
269.1163448257
 20
373.5990077663
 30
0.0
 10
269.0992586557
 20
373.4480637901
 30
0.0
  0
SPLINE
  5
35D
100
AcDbEntity
  8
0
100
AcDbSpline
 62
7
  6
CONTINUOUS
 70
0
 71
3
 72
11
 73
7
 74
0
 42
0.0000001
 43
0.0000001
 44
0.0000000001
 40
0.0
 40
0.0
 40
0.0
 40
0.0
 40
0.224006083
 40
0.4620333572
 40
0.7202465845
 40
1.0
 40
1.0
 40
1.0
 40
1.0
 10
317.2444854857
 20
347.4695611078
 30
0.0
 10
317.1391614353
 20
347.4087141836
 30
0.0
 10
316.9398378047
 20
347.2496920866
 30
0.0
 10
316.7101041839
 20
346.9281698501
 30
0.0
 10
316.5494663276
 20
346.535292819
 30
0.0
 10
316.4926964106
 20
346.2468772134
 30
0.0
 10
316.4756102406
 20
346.0959332372
 30
0.0
  0
SPLINE
  5
35E
100
AcDbEntity
  8
0
100
AcDbSpline
 62
7
  6
CONTINUOUS
 70
0
 71
3
 72
9
 73
5
 74
0
 42
0.0000001
 43
0.0000001
 44
0.0000000001
 40
0.0
 40
0.0
 40
0.0
 40
0.0
 40
0.2558556077
 40
1.0
 40
1.0
 40
1.0
 40
1.0
 10
267.7716603472
 20
350.268584247
 30
0.0
 10
267.7716603472
 20
348.6770266229
 30
0.0
 10
267.8505452987
 20
342.456912207
 30
0.0
 10
268.2515450819
 20
336.2395862759
 30
0.0
 10
268.7537994695
 20
331.6379419088
 30
0.0
  0
SPLINE
  5
35F
100
AcDbEntity
  8
0
100
AcDbSpline
 62
7
  6
CONTINUOUS
 70
0
 71
3
 72
9
 73
5
 74
0
 42
0.0000001
 43
0.0000001
 44
0.0000000001
 40
0.0
 40
0.0
 40
0.0
 40
0.0
 40
0.255331017
 40
1.0
 40
1.0
 40
1.0
 40
1.0
 10
268.8146167819
 20
370.6517928521
 30
0.0
 10
268.642163938
 20
368.9228850379
 30
0.0
 10
268.0458335834
 20
362.1441292486
 30
0.0
 10
267.7716603472
 20
355.3359393073
 30
0.0
 10
267.7716603472
 20
350.268584247
 30
0.0
  0
SPLINE
  5
360
100
AcDbEntity
  8
0
100
AcDbSpline
 62
7
  6
CONTINUOUS
 70
0
 71
3
 72
9
 73
5
 74
0
 42
0.0000001
 43
0.0000001
 44
0.0000000001
 40
0.0
 40
0.0
 40
0.0
 40
0.0
 40
0.244617827
 40
1.0
 40
1.0
 40
1.0
 40
1.0
 10
267.559529196
 20
350.1461110008
 30
0.0
 10
267.559529196
 20
351.8300333425
 30
0.0
 10
267.6517585797
 20
358.7137493534
 30
0.0
 10
268.1037450202
 20
365.5915444103
 30
0.0
 10
268.6246378174
 20
370.7653572991
 30
0.0
  0
SPLINE
  5
361
100
AcDbEntity
  8
0
100
AcDbSpline
 62
7
  6
CONTINUOUS
 70
0
 71
3
 72
9
 73
5
 74
0
 42
0.0000001
 43
0.0000001
 44
0.0000000001
 40
0.0
 40
0.0
 40
0.0
 40
0.0
 40
0.2441639292
 40
1.0
 40
1.0
 40
1.0
 40
1.0
 10
268.5554101045
 20
331.3754702
 30
0.0
 10
268.3882744618
 20
332.8966043083
 30
0.0
 10
267.7952604209
 20
339.1364500356
 30
0.0
 10
267.559529196
 20
345.4089356494
 30
0.0
 10
267.559529196
 20
350.1461110008
 30
0.0
  0
SPLINE
  5
362
100
AcDbEntity
  8
0
100
AcDbSpline
 62
7
  6
CONTINUOUS
 70
0
 71
3
 72
9
 73
5
 74
0
 42
0.0000001
 43
0.0000001
 44
0.0000000001
 40
0.0
 40
0.0
 40
0.0
 40
0.0
 40
0.4846623706
 40
1.0
 40
1.0
 40
1.0
 40
1.0
 10
318.0020760839
 20
295.5018383069
 30
0.0
 10
318.0812203863
 20
295.5474895449
 30
0.0
 10
318.2610856189
 20
295.6151127235
 30
0.0
 10
318.4520774488
 20
295.6251607077
 30
0.0
 10
318.5490046925
 20
295.6185947826
 30
0.0
  0
SPLINE
  5
363
100
AcDbEntity
  8
0
100
AcDbSpline
 62
7
  6
CONTINUOUS
 70
0
 71
3
 72
9
 73
5
 74
0
 42
0.0000001
 43
0.0000001
 44
0.0000000001
 40
0.0
 40
0.0
 40
0.0
 40
0.0
 40
0.2595280472
 40
1.0
 40
1.0
 40
1.0
 40
1.0
 10
320.7082097848
 20
293.7337623545
 30
0.0
 10
320.7496594057
 20
293.6473796973
 30
0.0
 10
320.8982557669
 20
293.3094634538
 30
0.0
 10
321.0026725919
 20
292.9509791497
 30
0.0
 10
321.0451853166
 20
292.6809378242
 30
0.0
  0
SPLINE
  5
364
100
AcDbEntity
  8
0
100
AcDbSpline
 62
7
  6
CONTINUOUS
 70
0
 71
3
 72
10
 73
6
 74
0
 42
0.0000001
 43
0.0000001
 44
0.0000000001
 40
0.0
 40
0.0
 40
0.0
 40
0.0
 40
0.4307533095
 40
0.6955294038
 40
1.0
 40
1.0
 40
1.0
 40
1.0
 10
296.949901389
 20
316.2345397568
 30
0.0
 10
297.0877972979
 20
316.1269844548
 30
0.0
 10
297.231600429
 20
315.8529484395
 30
0.0
 10
297.2666036749
 20
315.4487182205
 30
0.0
 10
297.2451714399
 20
315.2167898379
 30
0.0
 10
297.2247548258
 20
315.0948758138
 30
0.0
  0
SPLINE
  5
365
100
AcDbEntity
  8
0
100
AcDbSpline
 62
7
  6
CONTINUOUS
 70
0
 71
3
 72
11
 73
7
 74
0
 42
0.0000001
 43
0.0000001
 44
0.0000000001
 40
0.0
 40
0.0
 40
0.0
 40
0.0
 40
0.1959115354
 40
0.4196243759
 40
0.6866076095
 40
1.0
 40
1.0
 40
1.0
 40
1.0
 10
294.8608002452
 20
317.866008552
 30
0.0
 10
294.7799426827
 20
317.9290667014
 30
0.0
 10
294.5714597398
 20
318.0217321927
 30
0.0
 10
294.2056338735
 20
318.0260258437
 30
0.0
 10
293.7957667376
 20
317.916218324
 30
0.0
 10
293.5216571371
 20
317.7815227527
 30
0.0
 10
293.379684435
 20
317.699370744
 30
0.0
  0
SPLINE
  5
366
100
AcDbEntity
  8
0
100
AcDbSpline
 62
7
  6
CONTINUOUS
 70
0
 71
3
 72
11
 73
7
 74
0
 42
0.0000001
 43
0.0000001
 44
0.0000000001
 40
0.0
 40
0.0
 40
0.0
 40
0.0
 40
0.2361321211
 40
0.4971542194
 40
0.7595853486
 40
1.0
 40
1.0
 40
1.0
 40
1.0
 10
293.379684435
 20
317.699370744
 30
0.0
 10
293.1147183853
 20
317.5460490638
 30
0.0
 10
292.5972598944
 20
317.1528855238
 30
0.0
 10
291.9234351955
 20
316.4296853297
 30
0.0
 10
291.3663687435
 20
315.6063782925
 30
0.0
 10
291.0943934548
 20
315.0083726675
 30
0.0
 10
290.9999810893
 20
314.7113357686
 30
0.0
  0
SPLINE
  5
367
100
AcDbEntity
  8
0
100
AcDbSpline
 62
7
  6
CONTINUOUS
 70
0
 71
3
 72
9
 73
5
 74
0
 42
0.0000001
 43
0.0000001
 44
0.0000000001
 40
0.0
 40
0.0
 40
0.0
 40
0.0
 40
0.261480501
 40
1.0
 40
1.0
 40
1.0
 40
1.0
 10
290.9999810893
 20
314.7113357686
 30
0.0
 10
290.9881627713
 20
314.6741533879
 30
0.0
 10
290.9451803299
 20
314.5312749079
 30
0.0
 10
290.9112308596
 20
314.3855601062
 30
0.0
 10
290.8930303839
 20
314.2768793414
 30
0.0
  0
SPLINE
  5
368
100
AcDbEntity
  8
0
100
AcDbSpline
 62
7
  6
CONTINUOUS
 70
0
 71
3
 72
9
 73
5
 74
0
 42
0.0000001
 43
0.0000001
 44
0.0000000001
 40
0.0
 40
0.0
 40
0.0
 40
0.0
 40
0.2728966727
 40
1.0
 40
1.0
 40
1.0
 40
1.0
 10
266.4929110286
 20
324.9110664352
 30
0.0
 10
266.488123419
 20
325.2167170493
 30
0.0
 10
266.5180606339
 20
326.3350267778
 30
0.0
 10
266.7569499837
 20
327.4620217301
 30
0.0
 10
267.0972871749
 20
328.2019785384
 30
0.0
  0
SPLINE
  5
369
100
AcDbEntity
  8
0
100
AcDbSpline
 62
7
  6
CONTINUOUS
 70
0
 71
3
 72
13
 73
9
 74
0
 42
0.0000001
 43
0.0000001
 44
0.0000000001
 40
0.0
 40
0.0
 40
0.0
 40
0.0
 40
0.0965722478
 40
0.2014305974
 40
0.3189798809
 40
0.4490657892
 40
0.7295004997
 40
1.0
 40
1.0
 40
1.0
 40
1.0
 10
280.7946178243
 20
341.1962110681
 30
0.0
 10
280.8259506009
 20
341.3835319531
 30
0.0
 10
280.9795683246
 20
341.7632546478
 30
0.0
 10
281.4285500476
 20
342.2187283496
 30
0.0
 10
282.0492414451
 20
342.5465464886
 30
0.0
 10
283.0655449796
 20
342.7962085972
 30
0.0
 10
284.4337523077
 20
342.708032436
 30
0.0
 10
285.4552763052
 20
342.252899418
 30
0.0
 10
285.8745491694
 20
341.9254713458
 30
0.0
  0
SPLINE
  5
36A
100
AcDbEntity
  8
0
100
AcDbSpline
 62
7
  6
CONTINUOUS
 70
0
 71
3
 72
10
 73
6
 74
0
 42
0.0000001
 43
0.0000001
 44
0.0000000001
 40
0.0
 40
0.0
 40
0.0
 40
0.0
 40
0.2246548756
 40
0.4619333785
 40
1.0
 40
1.0
 40
1.0
 40
1.0
 10
280.4262668381
 20
338.9965856316
 30
0.0
 10
280.401598193
 20
338.8491615345
 30
0.0
 10
280.402699919
 20
338.5350941804
 30
0.0
 10
280.6170759484
 20
337.8962701266
 30
0.0
 10
280.9814050143
 20
337.4967312865
 30
0.0
 10
281.2635612006
 20
337.2763834795
 30
0.0
  0
SPLINE
  5
36B
100
AcDbEntity
  8
0
100
AcDbSpline
 62
7
  6
CONTINUOUS
 70
0
 71
3
 72
9
 73
5
 74
0
 42
0.0000001
 43
0.0000001
 44
0.0000000001
 40
0.0
 40
0.0
 40
0.0
 40
0.0
 40
0.257955284
 40
1.0
 40
1.0
 40
1.0
 40
1.0
 10
122.6710409724
 20
249.6220137851
 30
0.0
 10
122.4051174658
 20
249.8333053008
 30
0.0
 10
121.3604864362
 20
250.6348121732
 30
0.0
 10
120.2601182411
 20
251.3648492645
 30
0.0
 10
119.4139723287
 20
251.8533607832
 30
0.0
  0
SPLINE
  5
36C
100
AcDbEntity
  8
0
100
AcDbSpline
 62
7
  6
CONTINUOUS
 70
0
 71
3
 72
9
 73
5
 74
0
 42
0.0000001
 43
0.0000001
 44
0.0000000001
 40
0.0
 40
0.0
 40
0.0
 40
0.0
 40
0.2592608734
 40
1.0
 40
1.0
 40
1.0
 40
1.0
 10
119.4139723287
 20
251.8533607832
 30
0.0
 10
119.144479122
 20
252.0089492387
 30
0.0
 10
118.0932214762
 20
252.5881281273
 30
0.0
 10
116.9934993868
 20
253.081589487
 30
0.0
 10
116.1570040069
 20
253.3828314654
 30
0.0
  0
SPLINE
  5
36D
100
AcDbEntity
  8
0
100
AcDbSpline
 62
7
  6
CONTINUOUS
 70
0
 71
3
 72
9
 73
5
 74
0
 42
0.0000001
 43
0.0000001
 44
0.0000000001
 40
0.0
 40
0.0
 40
0.0
 40
0.0
 40
0.5192674285
 40
1.0
 40
1.0
 40
1.0
 40
1.0
 10
74.6464145957
 20
236.0176885355
 30
0.0
 10
75.1323785962
 20
237.2061185477
 30
0.0
 10
76.3719951358
 20
239.3952633361
 30
0.0
 10
78.2909008838
 20
241.0504292787
 30
0.0
 10
79.3202717994
 20
241.6448420783
 30
0.0
  0
SPLINE
  5
36E
100
AcDbEntity
  8
0
100
AcDbSpline
 62
7
  6
CONTINUOUS
 70
0
 71
3
 72
11
 73
7
 74
0
 42
0.0000001
 43
0.0000001
 44
0.0000000001
 40
0.0
 40
0.0
 40
0.0
 40
0.0
 40
0.2179021609
 40
0.4510312862
 40
0.7104362311
 40
1.0
 40
1.0
 40
1.0
 40
1.0
 10
56.347250247
 20
183.0804542429
 30
0.0
 10
56.1821427899
 20
182.9853032183
 30
0.0
 10
55.8032380849
 20
182.8473642196
 30
0.0
 10
55.1735296455
 20
182.831583172
 30
0.0
 10
54.5028776618
 20
182.9939187649
 30
0.0
 10
54.0664207889
 20
183.2013468375
 30
0.0
 10
53.847113053
 20
183.3279613534
 30
0.0
  0
SPLINE
  5
36F
100
AcDbEntity
  8
0
100
AcDbSpline
 62
7
  6
CONTINUOUS
 70
0
 71
3
 72
9
 73
5
 74
0
 42
0.0000001
 43
0.0000001
 44
0.0000000001
 40
0.0
 40
0.0
 40
0.0
 40
0.0
 40
0.4807309091
 40
1.0
 40
1.0
 40
1.0
 40
1.0
 10
108.4291529402
 20
191.2264800293
 30
0.0
 10
107.3997879692
 20
190.6320639558
 30
0.0
 10
105.0067992102
 20
189.7979955471
 30
0.0
 10
102.4911772566
 20
189.8189909835
 30
0.0
 10
101.2189790883
 20
189.9923430577
 30
0.0
  0
SPLINE
  5
370
100
AcDbEntity
  8
0
100
AcDbSpline
 62
7
  6
CONTINUOUS
 70
0
 71
3
 72
9
 73
5
 74
0
 42
0.0000001
 43
0.0000001
 44
0.0000000001
 40
0.0
 40
0.0
 40
0.0
 40
0.0
 40
0.5165101084
 40
1.0
 40
1.0
 40
1.0
 40
1.0
 10
268.5288861164
 20
331.3153005218
 30
0.0
 10
268.7363612048
 20
331.7666044449
 30
0.0
 10
269.2430487526
 20
332.5990563252
 30
0.0
 10
269.9740453975
 20
333.2507609787
 30
0.0
 10
270.3664328493
 20
333.5001924749
 30
0.0
  0
SPLINE
  5
371
100
AcDbEntity
  8
0
100
AcDbSpline
 62
7
  6
CONTINUOUS
 70
0
 71
3
 72
9
 73
5
 74
0
 42
0.0000001
 43
0.0000001
 44
0.0000000001
 40
0.0
 40
0.0
 40
0.0
 40
0.0
 40
0.4835428074
 40
1.0
 40
1.0
 40
1.0
 40
1.0
 10
283.5019313075
 20
310.748705087
 30
0.0
 10
283.089690335
 20
310.5335681197
 30
0.0
 10
282.1597316448
 20
310.2266052481
 30
0.0
 10
281.1855111135
 20
310.2038297274
 30
0.0
 10
280.6909864862
 20
310.2497703591
 30
0.0
  0
SPLINE
  5
372
100
AcDbEntity
  8
0
100
AcDbSpline
 62
7
  6
CONTINUOUS
 70
0
 71
3
 72
11
 73
7
 74
0
 42
0.0000001
 43
0.0000001
 44
0.0000000001
 40
0.0
 40
0.0
 40
0.0
 40
0.0
 40
0.2897987679
 40
0.5490485402
 40
0.7822277403
 40
1.0
 40
1.0
 40
1.0
 40
1.0
 10
277.098002966
 20
341.8145852937
 30
0.0
 10
277.0979426614
 20
343.0310587377
 30
0.0
 10
277.2817101292
 20
345.3437372085
 30
0.0
 10
278.2192720873
 20
348.5209579562
 30
0.0
 10
279.7952930146
 20
351.0995131397
 30
0.0
 10
281.2770508003
 20
352.3444888625
 30
0.0
 10
282.068679059
 20
352.8016114154
 30
0.0
  0
SPLINE
  5
373
100
AcDbEntity
  8
0
100
AcDbSpline
 62
7
  6
CONTINUOUS
 70
0
 71
3
 72
9
 73
5
 74
0
 42
0.0000001
 43
0.0000001
 44
0.0000000001
 40
0.0
 40
0.0
 40
0.0
 40
0.0
 40
0.2566591786
 40
1.0
 40
1.0
 40
1.0
 40
1.0
 10
69.2132244151
 20
266.2258324436
 30
0.0
 10
68.8276322028
 20
263.1581308234
 30
0.0
 10
67.4982903982
 20
251.1850824663
 30
0.0
 10
66.8759217064
 20
239.1296867422
 30
0.0
 10
66.8759217064
 20
230.1750454226
 30
0.0
  0
SPLINE
  5
374
100
AcDbEntity
  8
0
100
AcDbSpline
 62
7
  6
CONTINUOUS
 70
0
 71
3
 72
9
 73
5
 74
0
 42
0.0000001
 43
0.0000001
 44
0.0000000001
 40
0.0
 40
0.0
 40
0.0
 40
0.0
 40
0.2537723752
 40
1.0
 40
1.0
 40
1.0
 40
1.0
 10
66.8759217064
 20
230.1750454226
 30
0.0
 10
66.8759217064
 20
228.7297112276
 30
0.0
 10
66.92358869
 20
223.0344554085
 30
0.0
 10
67.1644740777
 20
217.3404974613
 30
0.0
 10
67.4617561125
 20
213.1008454056
 30
0.0
  0
SPLINE
  5
375
100
AcDbEntity
  8
0
100
AcDbSpline
 62
7
  6
CONTINUOUS
 70
0
 71
3
 72
11
 73
7
 74
0
 42
0.0000001
 43
0.0000001
 44
0.0000000001
 40
0.0
 40
0.0
 40
0.0
 40
0.0
 40
0.2215666772
 40
0.4563906159
 40
0.7141758686
 40
1.0
 40
1.0
 40
1.0
 40
1.0
 10
306.0685663986
 20
311.2323390333
 30
0.0
 10
305.346624658
 20
310.8155186015
 30
0.0
 10
303.7120870173
 20
310.1920450544
 30
0.0
 10
300.9988017421
 20
310.0119236509
 30
0.0
 10
298.0947830093
 20
310.5474302682
 30
0.0
 10
296.1868504547
 20
311.3195995545
 30
0.0
 10
295.2243710157
 20
311.7992940377
 30
0.0
  0
SPLINE
  5
376
100
AcDbEntity
  8
0
100
AcDbSpline
 62
7
  6
CONTINUOUS
 70
0
 71
3
 72
9
 73
5
 74
0
 42
0.0000001
 43
0.0000001
 44
0.0000000001
 40
0.0
 40
0.0
 40
0.0
 40
0.0
 40
0.2369451614
 40
1.0
 40
1.0
 40
1.0
 40
1.0
 10
86.3215127471
 20
193.3427424203
 30
0.0
 10
85.8497916082
 20
193.6150845856
 30
0.0
 10
83.9025707026
 20
194.8396799401
 30
0.0
 10
82.1310242366
 20
196.3333222022
 30
0.0
 10
80.8833305156
 20
197.5662899578
 30
0.0
  0
SPLINE
  5
377
100
AcDbEntity
  8
0
100
AcDbSpline
 62
7
  6
CONTINUOUS
 70
0
 71
3
 72
9
 73
5
 74
0
 42
0.0000001
 43
0.0000001
 44
0.0000000001
 40
0.0
 40
0.0
 40
0.0
 40
0.0
 40
0.2316778408
 40
1.0
 40
1.0
 40
1.0
 40
1.0
 10
53.847113053
 20
183.3279613534
 30
0.0
 10
53.674276556
 20
183.427746294
 30
0.0
 10
52.9557723308
 20
183.9058191164
 30
0.0
 10
52.3477466221
 20
184.5384656174
 30
0.0
 10
51.9467080459
 20
185.064979458
 30
0.0
  0
SPLINE
  5
378
100
AcDbEntity
  8
0
100
AcDbSpline
 62
7
  6
CONTINUOUS
 70
0
 71
3
 72
13
 73
9
 74
0
 42
0.0000001
 43
0.0000001
 44
0.0000000001
 40
0.0
 40
0.0
 40
0.0
 40
0.0
 40
0.305826577
 40
0.5835014577
 40
0.7048252055
 40
0.8129502588
 40
0.9098154336
 40
1.0
 40
1.0
 40
1.0
 40
1.0
 10
47.6971436982
 20
191.6355478294
 30
0.0
 10
47.3783599558
 20
192.1516114613
 30
0.0
 10
46.8806345342
 20
193.2084295563
 30
0.0
 10
46.6017287444
 20
194.600381298
 30
0.0
 10
46.6636051298
 20
195.6100133709
 30
0.0
 10
46.8398424576
 20
196.2392543532
 30
0.0
 10
47.1466848425
 20
196.7478670992
 30
0.0
 10
47.4391041898
 20
196.9905100365
 30
0.0
 10
47.5952022373
 20
197.0778568564
 30
0.0
  0
SPLINE
  5
379
100
AcDbEntity
  8
0
100
AcDbSpline
 62
7
  6
CONTINUOUS
 70
0
 71
3
 72
9
 73
5
 74
0
 42
0.0000001
 43
0.0000001
 44
0.0000000001
 40
0.0
 40
0.0
 40
0.0
 40
0.0
 40
0.5037201077
 40
1.0
 40
1.0
 40
1.0
 40
1.0
 10
78.8037370951
 20
202.8849703963
 30
0.0
 10
77.8629427813
 20
204.9598192574
 30
0.0
 10
75.6837915698
 20
208.9435523676
 30
0.0
 10
72.9476472705
 20
212.5693766818
 30
0.0
 10
71.4559409918
 20
214.2464919336
 30
0.0
  0
SPLINE
  5
37A
100
AcDbEntity
  8
0
100
AcDbSpline
 62
7
  6
CONTINUOUS
 70
0
 71
3
 72
9
 73
5
 74
0
 42
0.0000001
 43
0.0000001
 44
0.0000000001
 40
0.0
 40
0.0
 40
0.0
 40
0.0
 40
0.541752458
 40
1.0
 40
1.0
 40
1.0
 40
1.0
 10
70.7667594223
 20
215.7364600625
 30
0.0
 10
70.297796975
 20
217.8351280253
 30
0.0
 10
69.8152331689
 20
221.8115863172
 30
0.0
 10
70.478458971
 20
225.8245234198
 30
0.0
 10
71.1670244693
 20
227.5081216537
 30
0.0
  0
SPLINE
  5
37B
100
AcDbEntity
  8
0
100
AcDbSpline
 62
7
  6
CONTINUOUS
 70
0
 71
3
 72
15
 73
11
 74
0
 42
0.0000001
 43
0.0000001
 44
0.0000000001
 40
0.0
 40
0.0
 40
0.0
 40
0.0
 40
0.1259243447
 40
0.2702125332
 40
0.4233553571
 40
0.5746303475
 40
0.7134768807
 40
0.8315168457
 40
0.9251093015
 40
1.0
 40
1.0
 40
1.0
 40
1.0
 10
297.2247548258
 20
315.0948758138
 30
0.0
 10
297.1838381023
 20
314.850549189
 30
0.0
 10
297.0250275838
 20
314.3381576427
 30
0.0
 10
296.6441565739
 20
313.5944364702
 30
0.0
 10
296.1308740129
 20
312.8724785618
 30
0.0
 10
295.5305175918
 20
312.2361986914
 30
0.0
 10
294.8947233077
 20
311.7391070975
 30
0.0
 10
294.2757691706
 20
311.4244262329
 30
0.0
 10
293.711432551
 20
311.309369368
 30
0.0
 10
293.373157764
 20
311.4151353327
 30
0.0
 10
293.2569852394
 20
311.5057469475
 30
0.0
  0
SPLINE
  5
37C
100
AcDbEntity
  8
0
100
AcDbSpline
 62
7
  6
CONTINUOUS
 70
0
 71
3
 72
10
 73
6
 74
0
 42
0.0000001
 43
0.0000001
 44
0.0000000001
 40
0.0
 40
0.0
 40
0.0
 40
0.0
 40
0.3044904201
 40
0.5692655164
 40
1.0
 40
1.0
 40
1.0
 40
1.0
 10
290.8930303839
 20
314.2768793414
 30
0.0
 10
290.872612393
 20
314.1549570964
 30
0.0
 10
290.8511768028
 20
313.9230199514
 30
0.0
 10
290.8861893144
 20
313.5187914377
 30
0.0
 10
291.0299861541
 20
313.2447566873
 30
0.0
 10
291.1678835458
 20
313.137215054
 30
0.0
  0
SPLINE
  5
37D
100
AcDbEntity
  8
0
100
AcDbSpline
 62
7
  6
CONTINUOUS
 70
0
 71
3
 72
10
 73
6
 74
0
 42
0.0000001
 43
0.0000001
 44
0.0000000001
 40
0.0
 40
0.0
 40
0.0
 40
0.0
 40
0.5380769373
 40
0.7753450828
 40
1.0
 40
1.0
 40
1.0
 40
1.0
 10
285.8745491694
 20
341.9254713458
 30
0.0
 10
286.1567114577
 20
341.7051187735
 30
0.0
 10
286.5210425314
 20
341.305578948
 30
0.0
 10
286.7354163757
 20
340.6667516545
 30
0.0
 10
286.7365171335
 20
340.3526927035
 30
0.0
 10
286.7118574912
 20
340.2052667002
 30
0.0
  0
SPLINE
  5
37E
100
AcDbEntity
  8
0
100
AcDbSpline
 62
7
  6
CONTINUOUS
 70
0
 71
3
 72
13
 73
9
 74
0
 42
0.0000001
 43
0.0000001
 44
0.0000000001
 40
0.0
 40
0.0
 40
0.0
 40
0.0
 40
0.2704876744
 40
0.5509108824
 40
0.6810030327
 40
0.7985584821
 40
0.9034208117
 40
1.0
 40
1.0
 40
1.0
 40
1.0
 10
281.2635612006
 20
337.2763834795
 30
0.0
 10
281.6828159261
 20
336.9489695726
 30
0.0
 10
282.7042872605
 20
336.4938357457
 30
0.0
 10
284.0724564801
 20
336.4056488892
 30
0.0
 10
285.0887720847
 20
336.6552717309
 30
0.0
 10
285.7095041951
 20
336.9830768149
 30
0.0
 10
286.1585390278
 20
337.4385598191
 30
0.0
 10
286.3121320211
 20
337.8183137457
 30
0.0
 10
286.3434785863
 20
338.0056462507
 30
0.0
  0
SPLINE
  5
37F
100
AcDbEntity
  8
0
100
AcDbSpline
 62
7
  6
CONTINUOUS
 70
0
 71
3
 72
9
 73
5
 74
0
 42
0.0000001
 43
0.0000001
 44
0.0000000001
 40
0.0
 40
0.0
 40
0.0
 40
0.0
 40
0.2644885155
 40
1.0
 40
1.0
 40
1.0
 40
1.0
 10
105.0582257498
 20
234.385380462
 30
0.0
 10
104.4248584941
 20
235.1510268598
 30
0.0
 10
101.9267192971
 20
237.9547719717
 30
0.0
 10
98.9754537282
 20
240.3848010364
 30
0.0
 10
96.5824222031
 20
241.7664754656
 30
0.0
  0
SPLINE
  5
380
100
AcDbEntity
  8
0
100
AcDbSpline
 62
7
  6
CONTINUOUS
 70
0
 71
3
 72
11
 73
7
 74
0
 42
0.0000001
 43
0.0000001
 44
0.0000000001
 40
0.0
 40
0.0
 40
0.0
 40
0.0
 40
0.2803250598
 40
0.536510655
 40
0.7735117431
 40
1.0
 40
1.0
 40
1.0
 40
1.0
 10
96.5824222031
 20
241.7664754656
 30
0.0
 10
95.2944103732
 20
242.51014014
 30
0.0
 10
92.6897368128
 20
243.7152879253
 30
0.0
 10
88.6334029279
 20
244.5672939915
 30
0.0
 10
84.771640896
 20
244.3351581314
 30
0.0
 10
82.4305654861
 20
243.4406196271
 30
0.0
 10
81.389959999
 20
242.8397041034
 30
0.0
  0
SPLINE
  5
381
100
AcDbEntity
  8
0
100
AcDbSpline
 62
7
  6
CONTINUOUS
 70
0
 71
3
 72
15
 73
11
 74
0
 42
0.0000001
 43
0.0000001
 44
0.0000000001
 40
0.0
 40
0.0
 40
0.0
 40
0.0
 40
0.1234671405
 40
0.2389216109
 40
0.3505057164
 40
0.463143593
 40
0.5815380309
 40
0.7092670473
 40
0.8485579554
 40
1.0
 40
1.0
 40
1.0
 40
1.0
 10
71.1670244693
 20
227.5081216537
 30
0.0
 10
71.4460610644
 20
228.1903886563
 30
0.0
 10
72.1124666585
 20
229.4656550885
 30
0.0
 10
73.4928635756
 20
231.0654515919
 30
0.0
 10
75.1850749834
 20
232.2257545997
 30
0.0
 10
77.1382620479
 20
232.9065959194
 30
0.0
 10
79.2911999777
 20
233.0949422674
 30
0.0
 10
81.5882588819
 20
232.7990260308
 30
0.0
 10
83.9783159184
 20
232.0345377888
 30
0.0
 10
85.5385017318
 20
231.2590136419
 30
0.0
 10
86.3215127471
 20
230.8069522484
 30
0.0
  0
SPLINE
  5
382
100
AcDbEntity
  8
0
100
AcDbSpline
 62
7
  6
CONTINUOUS
 70
0
 71
3
 72
9
 73
5
 74
0
 42
0.0000001
 43
0.0000001
 44
0.0000000001
 40
0.0
 40
0.0
 40
0.0
 40
0.0
 40
0.2382380474
 40
1.0
 40
1.0
 40
1.0
 40
1.0
 10
86.3215127471
 20
230.8069522484
 30
0.0
 10
86.7331355927
 20
230.5693070639
 30
0.0
 10
88.4278809524
 20
229.5148509099
 30
0.0
 10
89.9897196574
 20
228.2532767483
 30
0.0
 10
91.1007688006
 20
227.2163412374
 30
0.0
  0
SPLINE
  5
383
100
AcDbEntity
  8
0
100
AcDbSpline
 62
7
  6
CONTINUOUS
 70
0
 71
3
 72
15
 73
11
 74
0
 42
0.0000001
 43
0.0000001
 44
0.0000000001
 40
0.0
 40
0.0
 40
0.0
 40
0.0
 40
0.1259243447
 40
0.2702125332
 40
0.4233553571
 40
0.5746303475
 40
0.7134768807
 40
0.8315168457
 40
0.9251093015
 40
1.0
 40
1.0
 40
1.0
 40
1.0
 10
292.9821318025
 20
312.6454108905
 30
0.0
 10
293.023048526
 20
312.8897375153
 30
0.0
 10
293.1818590445
 20
313.4021290616
 30
0.0
 10
293.5627300544
 20
314.1458502341
 30
0.0
 10
294.0760126154
 20
314.8678081425
 30
0.0
 10
294.6763690365
 20
315.5040880129
 30
0.0
 10
295.3121633207
 20
316.0011796068
 30
0.0
 10
295.9311174577
 20
316.3158604714
 30
0.0
 10
296.4954540774
 20
316.4309173363
 30
0.0
 10
296.8337288643
 20
316.3251513716
 30
0.0
 10
296.949901389
 20
316.2345397568
 30
0.0
  0
SPLINE
  5
384
100
AcDbEntity
  8
0
100
AcDbSpline
 62
7
  6
CONTINUOUS
 70
0
 71
3
 72
9
 73
5
 74
0
 42
0.0000001
 43
0.0000001
 44
0.0000000001
 40
0.0
 40
0.0
 40
0.0
 40
0.0
 40
0.242276771
 40
1.0
 40
1.0
 40
1.0
 40
1.0
 10
125.7820024269
 20
164.163866626
 30
0.0
 10
125.3890221426
 20
166.8365745673
 30
0.0
 10
123.9882921795
 20
177.9002793209
 30
0.0
 10
123.4446997181
 20
189.0669887518
 30
0.0
 10
123.4446997181
 20
197.515785061
 30
0.0
  0
SPLINE
  5
385
100
AcDbEntity
  8
0
100
AcDbSpline
 62
7
  6
CONTINUOUS
 70
0
 71
3
 72
9
 73
5
 74
0
 42
0.0000001
 43
0.0000001
 44
0.0000000001
 40
0.0
 40
0.0
 40
0.0
 40
0.0
 40
0.4962798923
 40
1.0
 40
1.0
 40
1.0
 40
1.0
 10
55.2960454592
 20
184.0917108801
 30
0.0
 10
53.8043391809
 20
185.7688261324
 30
0.0
 10
51.0681948825
 20
189.3946504475
 30
0.0
 10
48.889043672
 20
193.3783835583
 30
0.0
 10
47.9482493588
 20
195.4532324196
 30
0.0
  0
SPLINE
  5
386
100
AcDbEntity
  8
0
100
AcDbSpline
 62
7
  6
CONTINUOUS
 70
0
 71
3
 72
9
 73
5
 74
0
 42
0.0000001
 43
0.0000001
 44
0.0000000001
 40
0.0
 40
0.0
 40
0.0
 40
0.0
 40
0.2433242173
 40
1.0
 40
1.0
 40
1.0
 40
1.0
 10
123.4446997181
 20
197.515785061
 30
0.0
 10
123.4446997181
 20
200.4470238314
 30
0.0
 10
123.649144446
 20
212.4932419801
 30
0.0
 10
124.645194905
 20
224.5223378754
 30
0.0
 10
125.7820024269
 20
233.566572082
 30
0.0
  0
SPLINE
  5
387
100
AcDbEntity
  8
0
100
AcDbSpline
 62
7
  6
CONTINUOUS
 70
0
 71
3
 72
9
 73
5
 74
0
 42
0.0000001
 43
0.0000001
 44
0.0000000001
 40
0.0
 40
0.0
 40
0.0
 40
0.0
 40
0.5487753622
 40
1.0
 40
1.0
 40
1.0
 40
1.0
 10
281.67136452
 20
333.9903624861
 30
0.0
 10
281.5315991868
 20
334.095200694
 30
0.0
 10
281.2965867766
 20
334.3265590963
 30
0.0
 10
281.221228662
 20
334.6633022589
 30
0.0
 10
281.2450823083
 20
334.804965714
 30
0.0
  0
SPLINE
  5
388
100
AcDbEntity
  8
0
100
AcDbSpline
 62
7
  6
CONTINUOUS
 70
0
 71
3
 72
11
 73
7
 74
0
 42
0.0000001
 43
0.0000001
 44
0.0000000001
 40
0.0
 40
0.0
 40
0.0
 40
0.0
 40
0.2179021609
 40
0.4510312862
 40
0.7104362311
 40
1.0
 40
1.0
 40
1.0
 40
1.0
 10
70.3340438792
 20
215.2169482385
 30
0.0
 10
70.499149255
 20
215.3120980637
 30
0.0
 10
70.8780491837
 20
215.4500353234
 30
0.0
 10
71.5077496852
 20
215.4658161723
 30
0.0
 10
72.1783932151
 20
215.3034826257
 30
0.0
 10
72.6148445861
 20
215.0960571678
 30
0.0
 10
72.8341495575
 20
214.9694442479
 30
0.0
  0
SPLINE
  5
389
100
AcDbEntity
  8
0
100
AcDbSpline
 62
7
  6
CONTINUOUS
 70
0
 71
3
 72
14
 73
10
 74
0
 42
0.0000001
 43
0.0000001
 44
0.0000000001
 40
0.0
 40
0.0
 40
0.0
 40
0.0
 40
0.1230131999
 40
0.2575964188
 40
0.3985458391
 40
0.5396993302
 40
0.6748856493
 40
0.7987840421
 40
1.0
 40
1.0
 40
1.0
 40
1.0
 10
286.7254415479
 20
338.8942087722
 30
0.0
 10
287.6056581387
 20
338.3860269832
 30
0.0
 10
289.3266160851
 20
337.1052339629
 30
0.0
 10
291.5929305062
 20
334.6986352242
 30
0.0
 10
293.5497122371
 20
331.8493456078
 30
0.0
 10
295.0708740508
 20
328.7437440371
 30
0.0
 10
296.0586522347
 20
325.56393522
 30
0.0
 10
296.5547047496
 20
321.807075311
 30
0.0
 10
296.0791492774
 20
318.9557679289
 30
0.0
 10
295.1701868587
 20
317.563732102
 30
0.0
  0
SPLINE
  5
38A
100
AcDbEntity
  8
0
100
AcDbSpline
 62
7
  6
CONTINUOUS
 70
0
 71
3
 72
9
 73
5
 74
0
 42
0.0000001
 43
0.0000001
 44
0.0000000001
 40
0.0
 40
0.0
 40
0.0
 40
0.0
 40
0.5001318066
 40
1.0
 40
1.0
 40
1.0
 40
1.0
 10
98.1933074489
 20
231.3016384822
 30
0.0
 10
98.8721823522
 20
231.6936060957
 30
0.0
 10
100.2825533518
 20
232.3888610037
 30
0.0
 10
101.8012220473
 20
232.8336817008
 30
0.0
 10
102.5757530273
 20
232.9518505435
 30
0.0
  0
SPLINE
  5
38B
100
AcDbEntity
  8
0
100
AcDbSpline
 62
7
  6
CONTINUOUS
 70
0
 71
3
 72
9
 73
5
 74
0
 42
0.0000001
 43
0.0000001
 44
0.0000000001
 40
0.0
 40
0.0
 40
0.0
 40
0.0
 40
0.2476193947
 40
1.0
 40
1.0
 40
1.0
 40
1.0
 10
107.699736083
 20
232.2662298671
 30
0.0
 10
108.0656155119
 20
231.7343945689
 30
0.0
 10
109.4966854351
 20
229.5548686579
 30
0.0
 10
110.7515150919
 20
227.2604198198
 30
0.0
 10
111.5939115573
 20
225.4890970014
 30
0.0
  0
SPLINE
  5
38C
100
AcDbEntity
  8
0
100
AcDbSpline
 62
7
  6
CONTINUOUS
 70
0
 71
3
 72
9
 73
5
 74
0
 42
0.0000001
 43
0.0000001
 44
0.0000000001
 40
0.0
 40
0.0
 40
0.0
 40
0.0
 40
0.5209962776
 40
1.0
 40
1.0
 40
1.0
 40
1.0
 10
111.5939975612
 20
225.4891466555
 30
0.0
 10
111.8527722497
 20
224.9362914446
 30
0.0
 10
112.2344319197
 20
223.8175824899
 30
0.0
 10
112.3451943797
 20
222.6345381911
 30
0.0
 10
112.3077299911
 20
222.0745697227
 30
0.0
  0
SPLINE
  5
38D
100
AcDbEntity
  8
0
100
AcDbSpline
 62
7
  6
CONTINUOUS
 70
0
 71
3
 72
10
 73
6
 74
0
 42
0.0000001
 43
0.0000001
 44
0.0000000001
 40
0.0
 40
0.0
 40
0.0
 40
0.0
 40
0.5380769373
 40
0.7753450828
 40
1.0
 40
1.0
 40
1.0
 40
1.0
 10
281.6319261461
 20
339.4760064226
 30
0.0
 10
281.3497638578
 20
339.6963589949
 30
0.0
 10
280.9854327841
 20
340.0958988203
 30
0.0
 10
280.7710589398
 20
340.7347261139
 30
0.0
 10
280.769958182
 20
341.0487850648
 30
0.0
 10
280.7946178243
 20
341.1962110681
 30
0.0
  0
SPLINE
  5
38E
100
AcDbEntity
  8
0
100
AcDbSpline
 62
7
  6
CONTINUOUS
 70
0
 71
3
 72
9
 73
5
 74
0
 42
0.0000001
 43
0.0000001
 44
0.0000000001
 40
0.0
 40
0.0
 40
0.0
 40
0.0
 40
0.4999721695
 40
1.0
 40
1.0
 40
1.0
 40
1.0
 10
110.4337829549
 20
220.9926523551
 30
0.0
 10
109.9252448974
 20
220.1324120854
 30
0.0
 10
108.5998101279
 20
218.5940587528
 30
0.0
 10
106.9995634668
 20
217.3824089025
 30
0.0
 10
106.1575600044
 20
216.8440068137
 30
0.0
  0
SPLINE
  5
38F
100
AcDbEntity
  8
0
100
AcDbSpline
 62
7
  6
CONTINUOUS
 70
0
 71
3
 72
16
 73
12
 74
0
 42
0.0000001
 43
0.0000001
 44
0.0000000001
 40
0.0
 40
0.0
 40
0.0
 40
0.0
 40
0.129257201
 40
0.2715212092
 40
0.4192679187
 40
0.5638965407
 40
0.6973988649
 40
0.8140563478
 40
0.9126746747
 40
0.9571008534
 40
1.0
 40
1.0
 40
1.0
 40
1.0
 10
277.0964050332
 20
332.9466388
 30
0.0
 10
278.0798185761
 20
332.3788775707
 30
0.0
 10
279.9874104686
 20
330.9067674201
 30
0.0
 10
282.4225840174
 20
328.1198348112
 30
0.0
 10
284.4179461327
 20
324.8423962592
 30
0.0
 10
285.8058359797
 20
321.3476365507
 30
0.0
 10
286.4701497106
 20
317.9184452673
 30
0.0
 10
286.3581870889
 20
314.8245229659
 30
0.0
 10
285.5411072282
 20
312.6247411297
 30
0.0
 10
284.4725483314
 20
311.3691692523
 30
0.0
 10
283.8360445294
 20
310.923069379
 30
0.0
 10
283.5019313075
 20
310.748705087
 30
0.0
  0
SPLINE
  5
390
100
AcDbEntity
  8
0
100
AcDbSpline
 62
7
  6
CONTINUOUS
 70
0
 71
3
 72
8
 73
4
 74
0
 42
0.0000001
 43
0.0000001
 44
0.0000000001
 40
0.0
 40
0.0
 40
0.0
 40
0.0
 40
1.0
 40
1.0
 40
1.0
 40
1.0
 10
100.428747306
 20
213.1788959042
 30
0.0
 10
102.3380114679
 20
214.4011309314
 30
0.0
 10
104.2476626041
 20
215.6227615388
 30
0.0
 10
106.1575600044
 20
216.8440068137
 30
0.0
  0
SPLINE
  5
391
100
AcDbEntity
  8
0
100
AcDbSpline
 62
7
  6
CONTINUOUS
 70
0
 71
3
 72
14
 73
10
 74
0
 42
0.0000001
 43
0.0000001
 44
0.0000000001
 40
0.0
 40
0.0
 40
0.0
 40
0.0
 40
0.3072892609
 40
0.4494936974
 40
0.5809306239
 40
0.7005060955
 40
0.8085020496
 40
0.9069858849
 40
1.0
 40
1.0
 40
1.0
 40
1.0
 10
110.4337829549
 20
220.9926523551
 30
0.0
 10
111.8342455356
 20
217.9938235596
 30
0.0
 10
113.4618964622
 20
213.3775406005
 30
0.0
 10
114.4403702715
 20
207.1836634268
 30
0.0
 10
114.520008857
 20
202.9328075925
 30
0.0
 10
113.9572385256
 20
199.086266103
 30
0.0
 10
112.7549663061
 20
195.7552091908
 30
0.0
 10
110.9284927879
 20
193.0503400115
 30
0.0
 10
109.296720632
 20
191.7274648067
 30
0.0
 10
108.4291529402
 20
191.2264800293
 30
0.0
  0
SPLINE
  5
392
100
AcDbEntity
  8
0
100
AcDbSpline
 62
7
  6
CONTINUOUS
 70
0
 71
3
 72
11
 73
7
 74
0
 42
0.0000001
 43
0.0000001
 44
0.0000000001
 40
0.0
 40
0.0
 40
0.0
 40
0.0
 40
0.217772569
 40
0.4509556873
 40
0.7101951718
 40
1.0
 40
1.0
 40
1.0
 40
1.0
 10
79.3202717994
 20
241.6448420783
 30
0.0
 10
80.2803797073
 20
242.1992587816
 30
0.0
 10
82.486713421
 20
243.0004855472
 30
0.0
 10
86.1507060861
 20
243.0922331139
 30
0.0
 10
90.0564869894
 20
242.1504643412
 30
0.0
 10
92.5969665282
 20
240.9409799982
 30
0.0
 10
93.8747114668
 20
240.2032903027
 30
0.0
  0
SPLINE
  5
393
100
AcDbEntity
  8
0
100
AcDbSpline
 62
7
  6
CONTINUOUS
 70
0
 71
3
 72
11
 73
7
 74
0
 42
0.0000001
 43
0.0000001
 44
0.0000000001
 40
0.0
 40
0.0
 40
0.0
 40
0.0
 40
0.2177730634
 40
0.4509542719
 40
0.7101995683
 40
1.0
 40
1.0
 40
1.0
 40
1.0
 10
282.068679059
 20
352.8016114154
 30
0.0
 10
282.8602790329
 20
353.2587176354
 30
0.0
 10
284.6793714129
 20
353.9192928247
 30
0.0
 10
287.7003014694
 20
353.9949655554
 30
0.0
 10
290.9205518366
 20
353.2184298697
 30
0.0
 10
293.0151527366
 20
352.2212436711
 30
0.0
 10
294.0686201205
 20
351.6130377529
 30
0.0
  0
SPLINE
  5
394
100
AcDbEntity
  8
0
100
AcDbSpline
 62
7
  6
CONTINUOUS
 70
0
 71
3
 72
15
 73
11
 74
0
 42
0.0000001
 43
0.0000001
 44
0.0000000001
 40
0.0
 40
0.0
 40
0.0
 40
0.0
 40
0.1643870799
 40
0.3177976969
 40
0.4569663032
 40
0.5805722405
 40
0.6901859757
 40
0.7910467191
 40
0.8914874519
 40
1.0
 40
1.0
 40
1.0
 40
1.0
 10
100.428747306
 20
213.1788959042
 30
0.0
 10
100.9893302158
 20
211.715149557
 30
0.0
 10
101.8960407348
 20
208.8124608992
 30
0.0
 10
102.591750425
 20
204.4944421636
 30
0.0
 10
102.5569985263
 20
200.5032172573
 30
0.0
 10
101.7800109714
 20
197.0048269523
 30
0.0
 10
100.2583974016
 20
194.1489940381
 30
0.0
 10
98.0076040937
 20
192.1140459067
 30
0.0
 10
95.1658912015
 20
191.0842766738
 30
0.0
 10
93.1349637897
 20
191.0941995716
 30
0.0
 10
92.1097849807
 20
191.2339501923
 30
0.0
  0
SPLINE
  5
395
100
AcDbEntity
  8
0
100
AcDbSpline
 62
7
  6
CONTINUOUS
 70
0
 71
3
 72
13
 73
9
 74
0
 42
0.0000001
 43
0.0000001
 44
0.0000000001
 40
0.0
 40
0.0
 40
0.0
 40
0.0
 40
0.0965722478
 40
0.2014305974
 40
0.3189798809
 40
0.4490657892
 40
0.7295004997
 40
1.0
 40
1.0
 40
1.0
 40
1.0
 10
286.7118574912
 20
340.2052667002
 30
0.0
 10
286.6805247146
 20
340.0179458153
 30
0.0
 10
286.5269069909
 20
339.6382231205
 30
0.0
 10
286.0779252679
 20
339.1827494188
 30
0.0
 10
285.4572338705
 20
338.8549312797
 30
0.0
 10
284.4409303359
 20
338.6052691712
 30
0.0
 10
283.0727230078
 20
338.6934453324
 30
0.0
 10
282.0511990103
 20
339.1485783504
 30
0.0
 10
281.6319261461
 20
339.4760064226
 30
0.0
  0
SPLINE
  5
396
100
AcDbEntity
  8
0
100
AcDbSpline
 62
7
  6
CONTINUOUS
 70
0
 71
3
 72
12
 73
8
 74
0
 42
0.0000001
 43
0.0000001
 44
0.0000000001
 40
0.0
 40
0.0
 40
0.0
 40
0.0
 40
0.1020757289
 40
0.2104423099
 40
0.4556508859
 40
0.7327757452
 40
1.0
 40
1.0
 40
1.0
 40
1.0
 10
284.2192932508
 20
334.4025259506
 30
0.0
 10
284.2024499611
 20
334.302399115
 30
0.0
 10
284.1254637957
 20
334.1010980516
 30
0.0
 10
283.8131949092
 20
333.7605055186
 30
0.0
 10
283.1899206516
 20
333.5388539457
 30
0.0
 10
282.3936172227
 20
333.6055551716
 30
0.0
 10
281.8839982349
 20
333.8308655844
 30
0.0
 10
281.67136452
 20
333.9903624861
 30
0.0
  0
SPLINE
  5
397
100
AcDbEntity
  8
0
100
AcDbSpline
 62
7
  6
CONTINUOUS
 70
0
 71
3
 72
14
 73
10
 74
0
 42
0.0000001
 43
0.0000001
 44
0.0000000001
 40
0.0
 40
0.0
 40
0.0
 40
0.0
 40
0.0882438676
 40
0.1834266224
 40
0.2901205758
 40
0.4102406422
 40
0.543541012
 40
0.6882325461
 40
1.0
 40
1.0
 40
1.0
 40
1.0
 10
110.0652523972
 20
192.1712408755
 30
0.0
 10
110.8839756738
 20
192.6438550363
 30
0.0
 10
112.4268392859
 20
193.9250509864
 30
0.0
 10
114.1263323169
 20
196.5713966103
 30
0.0
 10
115.2501237743
 20
199.860184265
 30
0.0
 10
115.8014997581
 20
203.695634739
 30
0.0
 10
115.7815541278
 20
207.9736723191
 30
0.0
 10
114.9791753231
 20
214.2509552904
 30
0.0
 10
113.5643975873
 20
218.9801824006
 30
0.0
 10
112.3077017527
 20
222.0746520117
 30
0.0
  0
SPLINE
  5
398
100
AcDbEntity
  8
0
100
AcDbSpline
 62
7
  6
CONTINUOUS
 70
0
 71
3
 72
18
 73
14
 74
0
 42
0.0000001
 43
0.0000001
 44
0.0000000001
 40
0.0
 40
0.0
 40
0.0
 40
0.0
 40
0.1353841348
 40
0.2850674079
 40
0.438192471
 40
0.583028326
 40
0.7099606636
 40
0.7653967083
 40
0.8156853208
 40
0.8620598907
 40
0.9065792677
 40
0.9517797008
 40
1.0
 40
1.0
 40
1.0
 40
1.0
 10
274.2697126785
 20
329.5676700218
 30
0.0
 10
275.2264064439
 20
329.0153351143
 30
0.0
 10
277.0620982508
 20
327.537935939
 30
0.0
 10
279.3124838255
 20
324.7328913668
 30
0.0
 10
281.0217605588
 20
321.4771127747
 30
0.0
 10
282.0016518981
 20
318.1279042545
 30
0.0
 10
282.1287742525
 20
315.4183551553
 30
0.0
 10
281.7197392069
 20
313.553323882
 30
0.0
 10
281.2021892195
 20
312.413073191
 30
0.0
 10
280.4680929572
 20
311.5063810131
 30
0.0
 10
279.5349727389
 20
310.8732050608
 30
0.0
 10
278.442363332
 20
310.5438559576
 30
0.0
 10
277.6707388027
 20
310.530286382
 30
0.0
 10
277.2789641373
 20
310.5666783879
 30
0.0
  0
SPLINE
  5
399
100
AcDbEntity
  8
0
100
AcDbSpline
 62
7
  6
CONTINUOUS
 70
0
 71
3
 72
17
 73
13
 74
0
 42
0.0000001
 43
0.0000001
 44
0.0000000001
 40
0.0
 40
0.0
 40
0.0
 40
0.0
 40
0.1286854552
 40
0.2702722714
 40
0.4174277376
 40
0.5617746319
 40
0.6954449761
 40
0.8127112377
 40
0.8646758598
 40
0.9125095887
 40
0.9571394813
 40
1.0
 40
1.0
 40
1.0
 40
1.0
 10
294.0686201205
 20
351.6130377529
 30
0.0
 10
295.8451732576
 20
350.5873675247
 30
0.0
 10
299.2936460788
 20
347.9336761321
 30
0.0
 10
303.7076528554
 20
342.9122342398
 30
0.0
 10
307.3407282311
 20
337.0030518084
 30
0.0
 10
309.8931366056
 20
330.6866960541
 30
0.0
 10
311.1597673375
 20
324.4763956112
 30
0.0
 10
311.0462311703
 20
319.5829994141
 30
0.0
 10
310.140484532
 20
316.2267065069
 30
0.0
 10
309.1315962312
 20
314.1393470857
 30
0.0
 10
307.7818916763
 20
312.4325140349
 30
0.0
 10
306.6602667632
 20
311.5739632775
 30
0.0
 10
306.0685663986
 20
311.2323390333
 30
0.0
  0
SPLINE
  5
39A
100
AcDbEntity
  8
0
100
AcDbSpline
 62
7
  6
CONTINUOUS
 70
0
 71
3
 72
9
 73
5
 74
0
 42
0.0000001
 43
0.0000001
 44
0.0000000001
 40
0.0
 40
0.0
 40
0.0
 40
0.0
 40
0.2316778842
 40
1.0
 40
1.0
 40
1.0
 40
1.0
 10
72.8341495575
 20
214.9694442479
 30
0.0
 10
73.0069830931
 20
214.869661017
 30
0.0
 10
73.7254749977
 20
214.391596689
 30
0.0
 10
74.3334907919
 20
213.7589618989
 30
0.0
 10
74.7345231763
 20
213.2324578005
 30
0.0
  0
SPLINE
  5
39B
100
AcDbEntity
  8
0
100
AcDbSpline
 62
7
  6
CONTINUOUS
 70
0
 71
3
 72
13
 73
9
 74
0
 42
0.0000001
 43
0.0000001
 44
0.0000000001
 40
0.0
 40
0.0
 40
0.0
 40
0.0
 40
0.153522002
 40
0.3030928047
 40
0.5128947596
 40
0.6993701155
 40
0.859974952
 40
1.0
 40
1.0
 40
1.0
 40
1.0
 10
78.9839253181
 20
206.6618250516
 30
0.0
 10
79.1252194881
 20
206.3985797354
 30
0.0
 10
79.3776814008
 20
205.8640345571
 30
0.0
 10
79.7071077662
 20
204.920159832
 30
0.0
 10
79.9147301476
 20
203.8719831875
 30
0.0
 10
79.9054141237
 20
202.77876623
 30
0.0
 10
79.6441323818
 20
201.852104999
 30
0.0
 10
79.2756725543
 20
201.3709819812
 30
0.0
 10
79.0627586799
 20
201.200909352
 30
0.0
  0
SPLINE
  5
39C
100
AcDbEntity
  8
0
100
AcDbSpline
 62
7
  6
CONTINUOUS
 70
0
 71
3
 72
9
 73
5
 74
0
 42
0.0000001
 43
0.0000001
 44
0.0000000001
 40
0.0
 40
0.0
 40
0.0
 40
0.0
 40
0.5037201077
 40
1.0
 40
1.0
 40
1.0
 40
1.0
 10
47.8775389751
 20
195.4124080042
 30
0.0
 10
48.8183332883
 20
193.337559143
 30
0.0
 10
50.9974844987
 20
189.3538260321
 30
0.0
 10
53.7336287972
 20
185.728001717
 30
0.0
 10
55.2253350755
 20
184.0508864647
 30
0.0
  0
SPLINE
  5
39D
100
AcDbEntity
  8
0
100
AcDbSpline
 62
7
  6
CONTINUOUS
 70
0
 71
3
 72
12
 73
8
 74
0
 42
0.0000001
 43
0.0000001
 44
0.0000000001
 40
0.0
 40
0.0
 40
0.0
 40
0.0
 40
0.2354723827
 40
0.3473586254
 40
0.4609317537
 40
0.7082106136
 40
1.0
 40
1.0
 40
1.0
 40
1.0
 10
267.0972871749
 20
328.2019785384
 30
0.0
 10
267.3702628514
 20
328.7954787953
 30
0.0
 10
267.9559594256
 20
329.6168049536
 30
0.0
 10
269.0499417807
 20
330.3028045504
 30
0.0
 10
270.3143033421
 20
330.7006832295
 30
0.0
 10
272.1789778096
 20
330.5822898559
 30
0.0
 10
273.5686552818
 20
329.9724165419
 30
0.0
 10
274.2697126785
 20
329.5676700218
 30
0.0
  0
SPLINE
  5
39E
100
AcDbEntity
  8
0
100
AcDbSpline
 62
7
  6
CONTINUOUS
 70
0
 71
3
 72
11
 73
7
 74
0
 42
0.0000001
 43
0.0000001
 44
0.0000000001
 40
0.0
 40
0.0
 40
0.0
 40
0.0
 40
0.217918805
 40
0.4504206717
 40
0.7094401404
 40
1.0
 40
1.0
 40
1.0
 40
1.0
 10
270.3664328493
 20
333.5001924749
 30
0.0
 10
270.8004093554
 20
333.7760611571
 30
0.0
 10
271.8088446054
 20
334.1861280612
 30
0.0
 10
273.5063900459
 20
334.2666908013
 30
0.0
 10
275.3221013709
 20
333.8481416919
 30
0.0
 10
276.5026095874
 20
333.2894590048
 30
0.0
 10
277.0964050332
 20
332.9466388
 30
0.0
  0
SPLINE
  5
39F
100
AcDbEntity
  8
0
100
AcDbSpline
 62
7
  6
CONTINUOUS
 70
0
 71
3
 72
10
 73
6
 74
0
 42
0.0000001
 43
0.0000001
 44
0.0000000001
 40
0.0
 40
0.0
 40
0.0
 40
0.0
 40
0.4307533095
 40
0.6955294038
 40
1.0
 40
1.0
 40
1.0
 40
1.0
 10
293.2569852394
 20
311.5057469475
 30
0.0
 10
293.1190893304
 20
311.6133022495
 30
0.0
 10
292.9752861993
 20
311.8873382649
 30
0.0
 10
292.9402829534
 20
312.2915684838
 30
0.0
 10
292.9617151884
 20
312.5234968664
 30
0.0
 10
292.9821318025
 20
312.6454108905
 30
0.0
  0
SPLINE
  5
3A0
100
AcDbEntity
  8
0
100
AcDbSpline
 62
7
  6
CONTINUOUS
 70
0
 71
3
 72
9
 73
5
 74
0
 42
0.0000001
 43
0.0000001
 44
0.0000000001
 40
0.0
 40
0.0
 40
0.0
 40
0.0
 40
0.4796352089
 40
1.0
 40
1.0
 40
1.0
 40
1.0
 10
93.8747114668
 20
240.2032903027
 30
0.0
 10
95.4477959311
 20
239.29509011
 30
0.0
 10
98.5447152997
 20
237.0782853935
 30
0.0
 10
101.2606041908
 20
234.4194873177
 30
0.0
 10
102.5757530273
 20
232.9518505435
 30
0.0
  0
SPLINE
  5
3A1
100
AcDbEntity
  8
0
100
AcDbSpline
 62
7
  6
CONTINUOUS
 70
0
 71
3
 72
13
 73
9
 74
0
 42
0.0000001
 43
0.0000001
 44
0.0000000001
 40
0.0
 40
0.0
 40
0.0
 40
0.0
 40
0.2653470321
 40
0.5632367452
 40
0.6999211568
 40
0.8184053287
 40
0.9167256689
 40
1.0
 40
1.0
 40
1.0
 40
1.0
 10
289.5319819117
 20
316.7804577507
 30
0.0
 10
289.577197918
 20
317.0427157881
 30
0.0
 10
289.8032741452
 20
317.5737511572
 30
0.0
 10
290.2357664067
 20
318.1387845847
 30
0.0
 10
290.6793616864
 20
318.4781095648
 30
0.0
 10
291.0061895358
 20
318.6253925109
 30
0.0
 10
291.3120874182
 20
318.6606634902
 30
0.0
 10
291.4922614086
 20
318.5935100159
 30
0.0
 10
291.5580666228
 20
318.5420791522
 30
0.0
  0
SPLINE
  5
3A2
100
AcDbEntity
  8
0
100
AcDbSpline
 62
7
  6
CONTINUOUS
 70
0
 71
3
 72
9
 73
5
 74
0
 42
0.0000001
 43
0.0000001
 44
0.0000000001
 40
0.0
 40
0.0
 40
0.0
 40
0.0
 40
0.2404230761
 40
1.0
 40
1.0
 40
1.0
 40
1.0
 10
105.0586085227
 20
234.3853192754
 30
0.0
 10
105.1260272503
 20
234.3657980454
 30
0.0
 10
105.4036461582
 20
234.27502777
 30
0.0
 10
105.6689657295
 20
234.148266679
 30
0.0
 10
105.8610058267
 20
234.0373947854
 30
0.0
  0
SPLINE
  5
3A3
100
AcDbEntity
  8
0
100
AcDbSpline
 62
7
  6
CONTINUOUS
 70
0
 71
3
 72
9
 73
5
 74
0
 42
0.0000001
 43
0.0000001
 44
0.0000000001
 40
0.0
 40
0.0
 40
0.0
 40
0.0
 40
0.2326526023
 40
1.0
 40
1.0
 40
1.0
 40
1.0
 10
105.8610058267
 20
234.0373947854
 30
0.0
 10
106.0332809131
 20
233.9379339681
 30
0.0
 10
106.7436139823
 20
233.4584176239
 30
0.0
 10
107.3277190858
 20
232.8066964488
 30
0.0
 10
107.6995138301
 20
232.2661016481
 30
0.0
  0
ENDSEC
  0
SECTION
  2
OBJECTS
  0
DICTIONARY
  5
C
100
AcDbDictionary
280
0
281
1
  3
ACAD_GROUP
350
D
  3
ACAD_MLINESTYLE
350
17
  3
ACAD_LAYOUT
350
1A
  3
ACAD_PLOTSETTINGS
350
19
  3
ACAD_PLOTSTYLENAME
350
E
  0
DICTIONARY
  5
D
102
{ACAD_REACTORS
330
C
102
}
100
AcDbDictionary
280
0
281
1
  0
ACDBDICTIONARYWDFLT
  5
E
102
{ACAD_REACTORS
330
C
102
}
100
AcDbDictionary
281
1
  3
Normal
350
F
100
AcDbDictionaryWithDefault
340
F
  0
DICTIONARY
  5
17
102
{ACAD_REACTORS
330
C
102
}
100
AcDbDictionary
280
0
281
1
  3
Standard
350
18
  0
DICTIONARY
  5
19
102
{ACAD_REACTORS
330
C
102
}
100
AcDbDictionary
281
1
  0
DICTIONARY
  5
1A
102
{ACAD_REACTORS
330
C
102
}
100
AcDbDictionary
281
1
  3
Model
350
3A4
  3
Layout1
350
3A5
  0
ACDBPLACEHOLDER
  5
F
102
{ACAD_REACTORS
330
E
102
}
  0
MLINESTYLE
  5
18
102
{ACAD_REACTORS
330
17
102
}
100
AcDbMlineStyle
  2
STANDARD
 70
0
  3

 62
256
 51
90.0
 52
90.0
 71
2
 49
0.5
 62
256
  6
BYLAYER
 49
-0.5
 62
256
  6
BYLAYER
  0
LAYOUT
  5
3A4
102
{ACAD_REACTORS
330
1A
102
}
100
AcDbPlotSettings
  1

  2
none_device
  4

  6

 40
0.0
 41
0.0
 42
0.0
 43
0.0
 44
210.0
 45
297.0
 46
0.0
 47
0.0
 48
0.0
 49
0.0
140
0.0
141
0.0
142
1.0
143
1.0
 70
1024
 72
1
 73
0
 74
0
  7

 75
0
147
1.0
148
0.0
149
0.0
100
AcDbLayout
  1
Model
 70
0
 71
0
 10
0.0
 20
0.0
 11
210.0
 21
297.0
 12
0.0
 22
0.0
 32
0.0
 14
0.0
 24
0.0
 34
0.0
 15
0.0
 25
0.0
 35
0.0
146
0.0
 13
0.0
 23
0.0
 33
0.0
 16
1.0
 26
0.0
 36
0.0
 17
0.0
 27
1.0
 37
0.0
 76
0
330
211
345
0
346
0
  0
LAYOUT
  5
3A5
102
{ACAD_REACTORS
330
1A
102
}
100
AcDbPlotSettings
  1

  2
none_device
  4

  6

 40
0.0
 41
0.0
 42
0.0
 43
0.0
 44
210.0
 45
297.0
 46
0.0
 47
0.0
 48
0.0
 49
0.0
140
0.0
141
0.0
142
1.0
143
1.0
 70
0
 72
1
 73
0
 74
0
  7

 75
0
147
1.0
148
0.0
149
0.0
100
AcDbLayout
  1
Layout1
 70
0
 71
1
 10
0.0
 20
0.0
 11
210.0
 21
297.0
 12
0.0
 22
0.0
 32
0.0
 14
0.0
 24
0.0
 34
0.0
 15
0.0
 25
0.0
 35
0.0
146
0.0
 13
0.0
 23
0.0
 33
0.0
 16
1.0
 26
0.0
 36
0.0
 17
0.0
 27
1.0
 37
0.0
 76
0
330
212
345
0
346
0
  0
ENDSEC
  0
EOF
