999
DXF file: C:\Users\SESA621925\Desktop\Projects\Drawing_creation_tool\Gen2D (3) (1)\CAD\G25ROTDS_3D-CAD\drw0001_1.dxf
999
Pro/ENGINEER 2019471 by Parametric Technology Corporation
  0
SECTION
  2
HEADER
  9
$ACADVER
  1
AC1024
  9
$DWGCODEPAGE
  3
ANSI_1252
  9
$EXTMAX
 10
164.4635827451
 20
232.5984955966
 30
0.0
  9
$EXTMIN
 10
0.0
 20
0.0
 30
0.0
  9
$LIMMIN
 10
0.0
 20
0.0
  9
$LIMMAX
 10
164.4635827451
 20
232.5984955966
  9
$VIEWCTR
 10
82.2317913725
 20
116.2992477983
  9
$VIEWSIZE
 40
232.5984955966
  9
$CLAYER
  8
0
  9
$LTSCALE
 40
15.1619760093
  9
$CELTYPE
  6
BYLAYER
  9
$DIMSCALE
 40
1.0
  9
$DIMASZ
 40
1.9578997946
  9
$DIMEXO
 40
1.0
  9
$DIMDLI
 40
10.4755470609
  9
$DIMEXE
 40
1.0
  9
$DIMCEN
 40
2.4810506197
  9
$DIMLFAC
 40
1.0
  9
$DIMBLK
  1
_FILLED
  9
$DIMALT
 70
0
  9
$DIMALTF
 40
0.0393700787
  9
$DIMTXT
 40
2.7410597124
  9
$DIMTOL
 70
1
  9
$DIMLIM
 70
0
  9
$DIMTFAC
 40
1.0
  9
$DIMTP
 40
0.01
  9
$DIMTM
 40
0.01
  9
$DIMGAP
 40
0.625
  9
$DIMDSEP
 70
46
  9
$AUNITS
 70
0
  9
$PDMODE
 70
3
  9
$PDSIZE
 40
0.3125
  9
$HANDSEED
  5
30D
  9
$TILEMODE
 70
1
  9
$MEASUREMENT
 70
1
  9
$INSUNITS
 70
4
  0
ENDSEC
  0
SECTION
  2
CLASSES
  0
CLASS
  1
ACDBDICTIONARYWDFLT
  2
AcDbDictionaryWithDefault
  3
AutoCAD 2000
 90
0
 91
1
280
0
281
0
  0
CLASS
  1
ACDBPLACEHOLDER
  2
AcDbPlaceHolder
  3
AutoCAD 2000
 90
0
 91
1
280
0
281
0
  0
CLASS
  1
LAYOUT
  2
AcDbLayout
  3
AutoCAD 2000
 90
0
 91
0
280
0
281
0
  0
ENDSEC
  0
SECTION
  2
TABLES
  0
TABLE
  2
VPORT
  5
8
100
AcDbSymbolTable
 70
2
  0
VPORT
  5
1F4
100
AcDbSymbolTableRecord
100
AcDbViewportTableRecord
  2
*ACTIVE
 70
0
 10
0.0
 20
0.0
 11
1.0
 21
1.0
 12
82.2317913725
 22
116.2992477983
 13
0.0
 23
0.0
 14
1.0
 24
1.0
 15
0.0
 25
0.0
 16
0.0
 26
0.0
 36
1.0
 17
0.0
 27
0.0
 37
0.0
 40
232.5984955966
 41
0.7070707071
 42
50.0
 43
0.0
 44
0.0
 50
0.0
 51
0.0
 71
0
 72
100
 73
1
 74
1
 75
0
 76
0
 77
0
 78
0
  0
ENDTAB
  0
TABLE
  2
LTYPE
  5
5
100
AcDbSymbolTable
 70
6
  0
LTYPE
  5
14
100
AcDbSymbolTableRecord
100
AcDbLinetypeTableRecord
  2
BYBLOCK
 70
0
  3

 72
65
 73
0
 40
0.0
  0
LTYPE
  5
15
100
AcDbSymbolTableRecord
100
AcDbLinetypeTableRecord
  2
BYLAYER
 70
0
  3

 72
65
 73
0
 40
0.0
  0
LTYPE
  5
16
100
AcDbSymbolTableRecord
100
AcDbLinetypeTableRecord
  2
CONTINUOUS
 70
64
  3
Solid line
 72
65
 73
0
 40
0.0
  0
LTYPE
  5
1F5
100
AcDbSymbolTableRecord
100
AcDbLinetypeTableRecord
  2
CENTER
 70
64
  3
____ _ ____ _ ____ _ ____ _ ____ _ ____ _ ____
 72
65
 73
4
 40
0.6
 49
0.375
 74
0
 49
-0.075
 74
0
 49
0.075
 74
0
 49
-0.075
 74
0
  0
LTYPE
  5
1F6
100
AcDbSymbolTableRecord
100
AcDbLinetypeTableRecord
  2
HIDDEN
 70
64
  3
- - - - - - - - - - - - - - - - - - - -
 72
65
 73
2
 40
0.2
 49
0.1
 74
0
 49
-0.1
 74
0
  0
LTYPE
  5
1F7
100
AcDbSymbolTableRecord
100
AcDbLinetypeTableRecord
  2
PHANTOM
 70
64
  3
_____ _ _ _____ _ _ _____ _ _ _____
 72
65
 73
6
 40
0.8
 49
0.45
 74
0
 49
-0.05
 74
0
 49
0.1
 74
0
 49
-0.05
 74
0
 49
0.1
 74
0
 49
-0.05
 74
0
  0
LTYPE
  5
1F8
100
AcDbSymbolTableRecord
100
AcDbLinetypeTableRecord
  2
DOT
 70
64
  3
. . . . . . . . . . . . . . . . . . . .
 72
65
 73
2
 40
0.2
 49
0.1
 74
0
 49
-0.1
 74
0
  0
LTYPE
  5
1F9
100
AcDbSymbolTableRecord
100
AcDbLinetypeTableRecord
  2
DASHED
 70
64
  3
- - - - - - - - - - - - - - - - - - - -
 72
65
 73
2
 40
0.2
 49
0.1
 74
0
 49
-0.1
 74
0
  0
ENDTAB
  0
TABLE
  2
LAYER
  5
2
100
AcDbSymbolTable
 70
36
  0
LAYER
  5
10
100
AcDbSymbolTableRecord
100
AcDbLayerTableRecord
  2
0
 70
0
 62
7
  6
CONTINUOUS
370
-3
390
F
  0
LAYER
  5
1FA
100
AcDbSymbolTableRecord
100
AcDbLayerTableRecord
  2
DEFAULT_1
 70
0
 62
7
  6
CENTER
370
-3
390
F
  0
LAYER
  5
1FB
100
AcDbSymbolTableRecord
100
AcDbLayerTableRecord
  2
DEFAULT_2
 70
0
 62
8
  6
HIDDEN
370
-3
390
F
  0
LAYER
  5
1FC
100
AcDbSymbolTableRecord
100
AcDbLayerTableRecord
  2
DEFAULT_3
 70
0
 62
7
  6
PHANTOM
370
-3
390
F
  0
LAYER
  5
1FD
100
AcDbSymbolTableRecord
100
AcDbLayerTableRecord
  2
00_COMPONENTS
 70
0
 62
7
  6
CONTINUOUS
370
-3
390
F
  0
LAYER
  5
1FE
100
AcDbSymbolTableRecord
100
AcDbLayerTableRecord
  2
01_1_DEFAULT_DATUMS
 70
0
 62
7
  6
CONTINUOUS
370
-3
390
F
  0
LAYER
  5
1FF
100
AcDbSymbolTableRecord
100
AcDbLayerTableRecord
  2
01_PLANES
 70
0
 62
7
  6
CONTINUOUS
370
-3
390
F
  0
LAYER
  5
200
100
AcDbSymbolTableRecord
100
AcDbLayerTableRecord
  2
02_COORD_SYS
 70
0
 62
7
  6
CONTINUOUS
370
-3
390
F
  0
LAYER
  5
201
100
AcDbSymbolTableRecord
100
AcDbLayerTableRecord
  2
03_AXES
 70
0
 62
7
  6
CONTINUOUS
370
-3
390
F
  0
LAYER
  5
202
100
AcDbSymbolTableRecord
100
AcDbLayerTableRecord
  2
04_POINTS
 70
0
 62
7
  6
CONTINUOUS
370
-3
390
F
  0
LAYER
  5
203
100
AcDbSymbolTableRecord
100
AcDbLayerTableRecord
  2
05_CURVES
 70
0
 62
7
  6
CONTINUOUS
370
-3
390
F
  0
LAYER
  5
204
100
AcDbSymbolTableRecord
100
AcDbLayerTableRecord
  2
06_SURFS
 70
0
 62
7
  6
CONTINUOUS
370
-3
390
F
  0
LAYER
  5
205
100
AcDbSymbolTableRecord
100
AcDbLayerTableRecord
  2
07_COSMETICS
 70
0
 62
7
  6
CONTINUOUS
370
-3
390
F
  0
LAYER
  5
206
100
AcDbSymbolTableRecord
100
AcDbLayerTableRecord
  2
10_NOTES
 70
0
 62
7
  6
CONTINUOUS
370
-3
390
F
  0
LAYER
  5
207
100
AcDbSymbolTableRecord
100
AcDbLayerTableRecord
  2
11_NOTES_PUB
 70
0
 62
7
  6
CONTINUOUS
370
-3
390
F
  0
LAYER
  5
208
100
AcDbSymbolTableRecord
100
AcDbLayerTableRecord
  2
13_REF_GTOL
 70
0
 62
7
  6
CONTINUOUS
370
-3
390
F
  0
LAYER
  5
209
100
AcDbSymbolTableRecord
100
AcDbLayerTableRecord
  2
16_MISC
 70
0
 62
7
  6
CONTINUOUS
370
-3
390
F
  0
LAYER
  5
20A
100
AcDbSymbolTableRecord
100
AcDbLayerTableRecord
  2
17_NO_PRINT
 70
0
 62
7
  6
CONTINUOUS
370
-3
390
F
  0
LAYER
  5
20B
100
AcDbSymbolTableRecord
100
AcDbLayerTableRecord
  2
18_DATUM_CAMS_JOINTS
 70
0
 62
7
  6
CONTINUOUS
370
-3
390
F
  0
LAYER
  5
20C
100
AcDbSymbolTableRecord
100
AcDbLayerTableRecord
  2
19_DATUM_FUNCTIONAL
 70
0
 62
7
  6
CONTINUOUS
370
-3
390
F
  0
LAYER
  5
20D
100
AcDbSymbolTableRecord
100
AcDbLayerTableRecord
  2
20_DATUM_KINEMATIC_SCHEME
 70
0
 62
7
  6
CONTINUOUS
370
-3
390
F
  0
LAYER
  5
20E
100
AcDbSymbolTableRecord
100
AcDbLayerTableRecord
  2
black
 70
0
 62
7
  6
CONTINUOUS
370
-3
390
F
  0
ENDTAB
  0
TABLE
  2
STYLE
  5
3
100
AcDbSymbolTable
 70
1
  0
STYLE
  5
11
100
AcDbSymbolTableRecord
100
AcDbTextStyleTableRecord
  2
STANDARD
 70
0
 40
0.0
 41
0.8
 50
0.0
 71
0
 42
0.2
  3
txt
  4

  0
STYLE
  5
20F
100
AcDbSymbolTableRecord
100
AcDbTextStyleTableRecord
  2
TEXTSTYLE_1
 70
0
 40
0.0
 41
0.8
 50
0.0
 71
0
 42
0.2
  3
gdt
  4

  0
ENDTAB
  0
TABLE
  2
VIEW
  5
6
100
AcDbSymbolTable
 70
0
  0
ENDTAB
  0
TABLE
  2
UCS
  5
7
100
AcDbSymbolTable
 70
0
  0
ENDTAB
  0
TABLE
  2
APPID
  5
9
100
AcDbSymbolTable
 70
1
  0
APPID
  5
210
100
AcDbSymbolTableRecord
100
AcDbRegAppTableRecord
  2
ACAD
 70
0
  0
ENDTAB
  0
TABLE
  2
BLOCK_RECORD
  5
1
100
AcDbSymbolTable
 70
0
  0
BLOCK_RECORD
  5
211
100
AcDbSymbolTableRecord
100
AcDbBlockTableRecord
  2
*Model_Space
  0
BLOCK_RECORD
  5
212
100
AcDbSymbolTableRecord
100
AcDbBlockTableRecord
  2
*Paper_Space
  0
BLOCK_RECORD
  5
213
100
AcDbSymbolTableRecord
100
AcDbBlockTableRecord
  2
_FILLED
  0
ENDTAB
  0
TABLE
  2
DIMSTYLE
  5
A
100
AcDbSymbolTable
 70
1
100
AcDbDimStyleTable
 71
0
  0
DIMSTYLE
105
214
100
AcDbSymbolTableRecord
100
AcDbDimStyleTableRecord
  2
STANDARD
 70
0
  3

  4

 40
1.0
 41
1.9578997946
 42
1.0
 43
0.38
 44
1.0
 45
0.0
 46
0.0
 47
0.01
 48
0.01
140
2.7410597124
141
0.09
142
0.0
143
25.4
144
1.0
145
0.0
146
1.0
147
0.625
 71
1
 72
0
 73
0
 74
0
 75
0
 76
0
 77
1
 78
8
 79
2
170
0
171
1
172
0
173
0
174
0
175
0
176
0
177
0
178
0
270
2
179
2
271
2
272
2
273
2
274
2
275
0
280
0
281
0
282
0
283
1
284
8
285
0
286
0
287
3
288
0
340
11
278
46
341
213
342
213
343
213
344
213
  0
ENDTAB
  0
ENDSEC
  0
SECTION
  2
BLOCKS
  0
BLOCK
  5
20
100
AcDbEntity
  8
0
100
AcDbBlockBegin
  2
*Model_Space
 70
0
 10
0.0
 20
0.0
 30
0.0
  3
*Model_Space
  1

  0
ENDBLK
  5
21
100
AcDbEntity
  8
0
100
AcDbBlockEnd
  0
BLOCK
  5
1C
100
AcDbEntity
  8
0
100
AcDbBlockBegin
  2
*Paper_Space
 70
0
 10
0.0
 20
0.0
 30
0.0
  3
*Paper_Space
  1

  0
ENDBLK
  5
1D
100
AcDbEntity
  8
0
100
AcDbBlockEnd
  0
BLOCK
  5
215
100
AcDbEntity
  8
0
100
AcDbBlockBegin
  2
_FILLED
 70
64
 10
0.0
 20
0.0
  3
_FILLED
  1

  0
SOLID
  5
216
100
AcDbEntity
  8
0
  6
BYBLOCK
 62
0
100
AcDbTrace
 10
0.0
 20
0.0
 11
-1.0
 21
0.25
 12
-1.0
 22
-0.25
 13
-1.0
 23
-0.25
  0
ENDBLK
  5
217
100
AcDbEntity
  8
0
  6
BYBLOCK
 62
0
100
AcDbBlockEnd
  0
ENDSEC
  0
SECTION
  2
ENTITIES
  0
LINE
  5
218
100
AcDbEntity
  8
0
100
AcDbLine
 62
7
  6
CONTINUOUS
 10
73.6918617277
 20
186.4000335161
 11
30.5350987946
 21
161.4836135503
  0
LINE
  5
219
100
AcDbEntity
  8
0
100
AcDbLine
 62
7
  6
CONTINUOUS
 10
23.2601882645
 20
89.0145273809
 11
24.194602756
 21
87.5696899548
  0
LINE
  5
21A
100
AcDbEntity
  8
0
100
AcDbLine
 62
7
  6
CONTINUOUS
 10
31.7781140935
 20
75.8436935153
 11
32.7125536481
 21
74.3988173356
  0
LINE
  5
21B
100
AcDbEntity
  8
0
100
AcDbLine
 62
7
  6
CONTINUOUS
 10
30.0916655969
 20
83.235238708
 11
29.9744356093
 21
83.4165054468
  0
LINE
  5
21C
100
AcDbEntity
  8
0
100
AcDbLine
 62
7
  6
CONTINUOUS
 10
104.781619935
 20
46.7661216183
 11
45.6175442005
 21
80.9237439212
  0
LINE
  5
21D
100
AcDbEntity
  8
0
100
AcDbLine
 62
7
  6
CONTINUOUS
 10
45.3162999741
 20
82.4309713768
 11
44.3818596127
 21
83.875848804
  0
LINE
  5
21E
100
AcDbEntity
  8
0
100
AcDbLine
 62
7
  6
CONTINUOUS
 10
36.2107455298
 20
96.5104253714
 11
35.8639347857
 21
97.0466811202
  0
LINE
  5
21F
100
AcDbEntity
  8
0
100
AcDbLine
 62
7
  6
CONTINUOUS
 10
46.948446058
 20
81.6921358802
 11
102.8597832718
 21
49.4124405534
  0
LINE
  5
220
100
AcDbEntity
  8
0
100
AcDbLine
 62
7
  6
CONTINUOUS
 10
102.8313985451
 20
49.6761437813
 11
47.1626307721
 21
81.8157947444
  0
LINE
  5
221
100
AcDbEntity
  8
0
100
AcDbLine
 62
7
  6
CONTINUOUS
 10
72.3045425679
 20
67.6153094385
 11
62.4050064159
 21
73.3306800018
  0
LINE
  5
222
100
AcDbEntity
  8
0
100
AcDbLine
 62
7
  6
CONTINUOUS
 10
63.0157750403
 20
73.683319436
 11
71.5010917421
 21
68.7844303818
  0
LINE
  5
223
100
AcDbEntity
  8
0
100
AcDbLine
 62
7
  6
CONTINUOUS
 10
63.0280679851
 20
73.6904195505
 11
71.2305407968
 21
68.954826798
  0
LINE
  5
224
100
AcDbEntity
  8
0
100
AcDbLine
 62
7
  6
CONTINUOUS
 10
70.7968504433
 20
72.4603481691
 11
62.5943776316
 21
77.1959409215
  0
LINE
  5
225
100
AcDbEntity
  8
0
100
AcDbLine
 62
7
  6
CONTINUOUS
 10
71.0556422312
 20
72.6097636075
 11
62.5703255295
 21
77.5086526618
  0
LINE
  5
226
100
AcDbEntity
  8
0
100
AcDbLine
 62
7
  6
CONTINUOUS
 10
61.7813556451
 20
78.6861341306
 11
71.6808917972
 21
72.9707635673
  0
LINE
  5
227
100
AcDbEntity
  8
0
100
AcDbLine
 62
7
  6
CONTINUOUS
 10
43.7538791792
 20
94.4233239817
 11
43.8711091667
 21
94.2420572429
  0
LINE
  5
228
100
AcDbEntity
  8
0
100
AcDbLine
 62
7
  6
CONTINUOUS
 10
65.0726539765
 20
81.4256683829
 11
74.9297060448
 21
79.646335237
  0
LINE
  5
229
100
AcDbEntity
  8
0
100
AcDbLine
 62
7
  6
CONTINUOUS
 10
71.8943648116
 20
73.0940115339
 11
61.9948286595
 21
78.8093820972
  0
LINE
  5
22A
100
AcDbEntity
  8
0
100
AcDbLine
 62
7
  6
CONTINUOUS
 10
111.5621330665
 20
54.7106071541
 11
111.7285997847
 21
54.6144997237
  0
LINE
  5
22B
100
AcDbEntity
  8
0
100
AcDbLine
 62
7
  6
CONTINUOUS
 10
50.4439350116
 20
88.5623871576
 11
49.5094912636
 21
90.0072698214
  0
LINE
  5
22C
100
AcDbEntity
  8
0
100
AcDbLine
 62
7
  6
CONTINUOUS
 10
41.926011854
 20
101.7332168925
 11
40.9915706426
 21
103.178095634
  0
LINE
  5
22D
100
AcDbEntity
  8
0
100
AcDbLine
 62
7
  6
CONTINUOUS
 10
44.5861414371
 20
116.90956078
 11
47.973768493
 21
126.3356673384
  0
LINE
  5
22E
100
AcDbEntity
  8
0
100
AcDbLine
 62
7
  6
CONTINUOUS
 10
111.5621330665
 20
57.9766168226
 11
111.7285997847
 21
57.8805093922
  0
LINE
  5
22F
100
AcDbEntity
  8
0
100
AcDbLine
 62
7
  6
CONTINUOUS
 10
114.4612499672
 20
57.0086678777
 11
115.5219145549
 21
56.3963067459
  0
LINE
  5
230
100
AcDbEntity
  8
0
100
AcDbLine
 62
7
  6
CONTINUOUS
 10
62.6042548106
 20
77.1966686904
 11
62.5703255295
 21
77.5086526618
  0
LINE
  5
231
100
AcDbEntity
  8
0
100
AcDbLine
 62
7
  6
CONTINUOUS
 10
62.5943776316
 20
77.1959409215
 11
63.0280679851
 21
73.6904195505
  0
LINE
  5
232
100
AcDbEntity
  8
0
100
AcDbLine
 62
7
  6
CONTINUOUS
 10
62.6048630101
 20
77.1971033009
 11
62.5703255295
 21
77.5086526618
  0
LINE
  5
233
100
AcDbEntity
  8
0
100
AcDbLine
 62
7
  6
CONTINUOUS
 10
19.0796677986
 20
85.6751889272
 11
23.2601882645
 21
89.0145273809
  0
LINE
  5
234
100
AcDbEntity
  8
0
100
AcDbLine
 62
7
  6
CONTINUOUS
 10
40.9915706426
 20
103.178095634
 11
45.1720912981
 21
106.5174342448
  0
LINE
  5
235
100
AcDbEntity
  8
0
100
AcDbLine
 62
7
  6
CONTINUOUS
 10
35.8639347857
 20
97.0466811202
 11
41.8595897525
 21
101.8359219971
  0
LINE
  5
236
100
AcDbEntity
  8
0
100
AcDbLine
 62
7
  6
CONTINUOUS
 10
21.6572589016
 20
84.8853125318
 11
45.0241595933
 21
103.5504519718
  0
LINE
  5
237
100
AcDbEntity
  8
0
100
AcDbLine
 62
7
  6
CONTINUOUS
 10
44.9117971684
 20
104.1182078708
 11
41.926011854
 21
101.7332168925
  0
LINE
  5
238
100
AcDbEntity
  8
0
100
AcDbLine
 62
7
  6
CONTINUOUS
 10
24.194602756
 20
87.5696899548
 11
21.208825681
 21
85.184705558
  0
LINE
  5
239
100
AcDbEntity
  8
0
100
AcDbLine
 62
7
  6
CONTINUOUS
 10
71.2305407968
 20
68.954826798
 11
70.7968504433
 21
72.4603481691
  0
LINE
  5
23A
100
AcDbEntity
  8
0
100
AcDbLine
 62
7
  6
CONTINUOUS
 10
71.4632444435
 20
69.0890850049
 11
71.5010917421
 21
68.7844303818
  0
LINE
  5
23B
100
AcDbEntity
  8
0
100
AcDbLine
 62
7
  6
CONTINUOUS
 10
41.4955344789
 20
95.7367382877
 11
29.1870335947
 21
85.9048873148
  0
LINE
  5
23C
100
AcDbEntity
  8
0
100
AcDbLine
 62
7
  6
CONTINUOUS
 10
29.8001250574
 20
85.8177490667
 11
41.7615004541
 21
95.3723212635
  0
LINE
  5
23D
100
AcDbEntity
  8
0
100
AcDbLine
 62
7
  6
CONTINUOUS
 10
41.605653866
 20
95.8117216792
 11
41.4955344789
 21
95.7367382877
  0
LINE
  5
23E
100
AcDbEntity
  8
0
100
AcDbLine
 62
7
  6
CONTINUOUS
 10
41.7615004541
 20
95.3723212635
 11
41.8450531715
 21
95.4289199845
  0
LINE
  5
23F
100
AcDbEntity
  8
0
100
AcDbLine
 62
7
  6
CONTINUOUS
 10
35.8639347857
 20
97.0466811202
 11
23.2601882645
 21
89.0145273809
  0
LINE
  5
240
100
AcDbEntity
  8
0
100
AcDbLine
 62
7
  6
CONTINUOUS
 10
24.194602756
 20
87.5696899548
 11
28.2662486937
 21
90.1644771781
  0
LINE
  5
241
100
AcDbEntity
  8
0
100
AcDbLine
 62
7
  6
CONTINUOUS
 10
45.1720912995
 20
106.5174342368
 11
74.8116215924
 21
123.6297228841
  0
LINE
  5
242
100
AcDbEntity
  8
0
100
AcDbLine
 62
7
  6
CONTINUOUS
 10
45.0241595933
 20
103.5504519718
 11
45.2465339602
 21
103.678839106
  0
LINE
  5
243
100
AcDbEntity
  8
0
100
AcDbLine
 62
7
  6
CONTINUOUS
 10
91.207399294
 20
103.4517530152
 11
96.8102126659
 21
100.2170628245
  0
LINE
  5
244
100
AcDbEntity
  8
0
100
AcDbLine
 62
7
  6
CONTINUOUS
 10
91.5865231871
 20
104.1011855231
 11
96.1479762335
 21
101.4677113065
  0
LINE
  5
245
100
AcDbEntity
  8
0
100
AcDbLine
 62
7
  6
CONTINUOUS
 10
91.7991320404
 20
104.2239345691
 11
96.1631625134
 21
101.7044387838
  0
LINE
  5
246
100
AcDbEntity
  8
0
100
AcDbLine
 62
7
  6
CONTINUOUS
 10
95.3613261093
 20
103.0547752612
 11
91.9671994286
 21
105.0143308829
  0
LWPOLYLINE
  5
247
100
AcDbEntity
  8
0
100
AcDbPolyline
 62
7
  6
CONTINUOUS
 90
4
 70
0
 10
86.7657438929
 20
92.9888628445
 10
85.8924815459
 20
101.3136654048
 10
83.1896605576
 20
110.1410776748
 10
78.7940563347
 20
118.637024463
  0
LINE
  5
248
100
AcDbEntity
  8
0
100
AcDbLine
 62
7
  6
CONTINUOUS
 10
44.0454197186
 20
91.840813623
 11
32.084044322
 21
82.2862414262
  0
LINE
  5
249
100
AcDbEntity
  8
0
100
AcDbLine
 62
7
  6
CONTINUOUS
 10
32.0470906661
 20
81.4825272269
 11
44.3555915502
 21
91.3143781998
  0
LINE
  5
24A
100
AcDbEntity
  8
0
100
AcDbLine
 62
7
  6
CONTINUOUS
 10
52.046895188
 20
92.6915358807
 11
28.6800106441
 21
74.0264093394
  0
LINE
  5
24B
100
AcDbEntity
  8
0
100
AcDbLine
 62
7
  6
CONTINUOUS
 10
28.79233604
 20
73.4586957293
 11
31.7781140935
 21
75.8436935153
  0
LINE
  5
24C
100
AcDbEntity
  8
0
100
AcDbLine
 62
7
  6
CONTINUOUS
 10
49.5094912636
 20
90.0072698214
 11
52.4952710786
 21
92.3922690145
  0
LINE
  5
24D
100
AcDbEntity
  8
0
100
AcDbLine
 62
7
  6
CONTINUOUS
 10
32.084044322
 20
82.2862414262
 11
32.0004916045
 21
82.2296427052
  0
LINE
  5
24E
100
AcDbEntity
  8
0
100
AcDbLine
 62
7
  6
CONTINUOUS
 10
22.4665653374
 20
79.195301069
 11
22.4212031928
 21
79.1660802749
  0
LINE
  5
24F
100
AcDbEntity
  8
0
100
AcDbLine
 62
7
  6
CONTINUOUS
 10
21.208825681
 20
85.184705558
 11
24.1784749144
 21
86.899223108
  0
LINE
  5
250
100
AcDbEntity
  8
0
100
AcDbLine
 62
7
  6
CONTINUOUS
 10
41.8448705097
 20
95.4292363157
 11
42.5115743691
 21
95.8141556707
  0
LINE
  5
251
100
AcDbEntity
  8
0
100
AcDbLine
 62
7
  6
CONTINUOUS
 10
44.0176648177
 20
94.575619782
 11
43.7538791792
 21
94.4233239817
  0
LINE
  5
252
100
AcDbEntity
  8
0
100
AcDbLine
 62
7
  6
CONTINUOUS
 10
29.1870335948
 20
85.9048873148
 11
31.7921204644
 21
87.4089259423
  0
LINE
  5
253
100
AcDbEntity
  8
0
100
AcDbLine
 62
7
  6
CONTINUOUS
 10
43.8711091667
 20
94.2420572429
 11
44.1285238613
 21
94.390674799
  0
LINE
  5
254
100
AcDbEntity
  8
0
100
AcDbLine
 62
7
  6
CONTINUOUS
 10
43.7933718722
 20
102.5673166926
 11
41.926011854
 21
101.7332168925
  0
LINE
  5
255
100
AcDbEntity
  8
0
100
AcDbLine
 62
7
  6
CONTINUOUS
 10
92.8057029245
 20
105.5801039742
 11
94.6441882098
 21
104.5186780125
  0
LWPOLYLINE
  5
256
100
AcDbEntity
  8
0
100
AcDbPolyline
 62
7
  6
CONTINUOUS
 90
3
 70
0
 10
78.7940563347
 20
118.637024463
 10
73.1070027934
 20
125.7667692231
 10
72.1763645731
 20
126.4921709392
  0
LWPOLYLINE
  5
257
100
AcDbEntity
  8
0
100
AcDbPolyline
 62
7
  6
CONTINUOUS
 90
6
 70
0
 10
79.4730351301
 20
119.2170588639
 10
73.6076890125
 20
126.5868730686
 10
66.9056248592
 20
131.8148835597
 10
59.9942247446
 20
134.4041018664
 10
53.5607091147
 20
134.1509058269
 10
50.701947951
 20
132.9505664863
  0
LWPOLYLINE
  5
258
100
AcDbEntity
  8
0
100
AcDbPolyline
 62
7
  6
CONTINUOUS
 90
6
 70
0
 10
79.2792992125
 20
119.0638015863
 10
73.3912116266
 20
126.466639114
 10
66.677676914
 20
131.699807185
 10
59.7368670358
 20
134.2884313092
 10
53.2953924331
 20
134.0131551628
 10
50.4889515258
 20
132.8276599867
  0
LWPOLYLINE
  5
259
100
AcDbEntity
  8
0
100
AcDbPolyline
 62
7
  6
CONTINUOUS
 90
3
 70
0
 10
86.7862639998
 20
101.3067535622
 10
84.0037318208
 20
110.4307284354
 10
79.4730351301
 20
119.2170588639
  0
LWPOLYLINE
  5
25A
100
AcDbEntity
  8
0
100
AcDbPolyline
 62
7
  6
CONTINUOUS
 90
3
 70
0
 10
86.1254909598
 20
102.64985793
 10
83.807015503
 20
110.2684388002
 10
79.2792992125
 20
119.0638015863
  0
LINE
  5
25B
100
AcDbEntity
  8
0
100
AcDbLine
 62
7
  6
CONTINUOUS
 10
87.6849942395
 20
92.7031036315
 11
86.7862639998
 21
101.3067535622
  0
LINE
  5
25C
100
AcDbEntity
  8
0
100
AcDbLine
 62
7
  6
CONTINUOUS
 10
44.3818596127
 20
83.875848804
 11
50.3775128185
 21
88.665092404
  0
LINE
  5
25D
100
AcDbEntity
  8
0
100
AcDbLine
 62
7
  6
CONTINUOUS
 10
54.624455626
 20
91.9017263027
 11
50.4439350116
 21
88.5623871576
  0
LINE
  5
25E
100
AcDbEntity
  8
0
100
AcDbLine
 62
7
  6
CONTINUOUS
 10
32.7125536481
 20
74.3988173356
 11
28.5320336
 21
71.0594786629
  0
LINE
  5
25F
100
AcDbEntity
  8
0
100
AcDbLine
 62
7
  6
CONTINUOUS
 10
45.3162999741
 20
82.4309713768
 11
56.2248351736
 21
91.1445500853
  0
LINE
  5
260
100
AcDbEntity
  8
0
100
AcDbLine
 62
7
  6
CONTINUOUS
 10
54.9848572381
 20
87.1007560207
 11
74.1333814145
 21
102.3963189327
  0
LINE
  5
261
100
AcDbEntity
  8
0
100
AcDbLine
 62
7
  6
CONTINUOUS
 10
44.3818596127
 20
83.875848804
 11
31.7781140935
 21
75.8436935153
  0
LINE
  5
262
100
AcDbEntity
  8
0
100
AcDbLine
 62
7
  6
CONTINUOUS
 10
93.4894903792
 20
120.9168652019
 11
93.2754528617
 21
120.7932913212
  0
LINE
  5
263
100
AcDbEntity
  8
0
100
AcDbLine
 62
7
  6
CONTINUOUS
 10
86.3158039973
 20
116.6735027589
 11
86.102554195
 21
116.5503836631
  0
LINE
  5
264
100
AcDbEntity
  8
0
100
AcDbLine
 62
7
  6
CONTINUOUS
 10
44.7482015516
 20
92.2465624814
 11
44.0454197186
 21
91.840813623
  0
LINE
  5
265
100
AcDbEntity
  8
0
100
AcDbLine
 62
7
  6
CONTINUOUS
 10
32.0840443219
 20
82.2862414262
 11
35.5488531243
 21
84.2866377802
  0
LINE
  5
266
100
AcDbEntity
  8
0
100
AcDbLine
 62
7
  6
CONTINUOUS
 10
32.0006742663
 20
82.229326374
 11
35.4654830686
 21
84.229722728
  0
LINE
  5
267
100
AcDbEntity
  8
0
100
AcDbLine
 62
7
  6
CONTINUOUS
 10
96.8836170599
 20
118.9573095802
 11
96.6695795424
 21
118.8337356995
  0
LINE
  5
268
100
AcDbEntity
  8
0
100
AcDbLine
 62
7
  6
CONTINUOUS
 10
52.2641996126
 20
92.8169958999
 11
52.046895188
 21
92.6915358807
  0
LINE
  5
269
100
AcDbEntity
  8
0
100
AcDbLine
 62
7
  6
CONTINUOUS
 10
83.6442958885
 20
108.6562388653
 11
54.6244556357
 21
91.9017262954
  0
LINE
  5
26A
100
AcDbEntity
  8
0
100
AcDbLine
 62
7
  6
CONTINUOUS
 10
32.7125536481
 20
74.3988173356
 11
45.3162999741
 21
82.4309713768
  0
LINE
  5
26B
100
AcDbEntity
  8
0
100
AcDbLine
 62
7
  6
CONTINUOUS
 10
104.781619935
 20
118.6183343257
 11
147.9383828681
 21
143.5347542915
  0
LINE
  5
26C
100
AcDbEntity
  8
0
100
AcDbLine
 62
7
  6
CONTINUOUS
 10
28.6800106441
 20
74.0264093394
 11
31.648940975
 21
75.7405118333
  0
LINE
  5
26D
100
AcDbEntity
  8
0
100
AcDbLine
 62
7
  6
CONTINUOUS
 10
115.5219145549
 20
122.6146527752
 11
111.5621330665
 21
120.3284855135
  0
LINE
  5
26E
100
AcDbEntity
  8
0
100
AcDbLine
 62
7
  6
CONTINUOUS
 10
111.7285997847
 20
120.0163433358
 11
112.930676308
 21
120.7103583974
  0
LINE
  5
26F
100
AcDbEntity
  8
0
100
AcDbLine
 62
7
  6
CONTINUOUS
 10
28.5320336016
 20
71.0594786593
 11
55.5132192695
 21
86.6369804828
  0
LINE
  5
270
100
AcDbEntity
  8
0
100
AcDbLine
 62
7
  6
CONTINUOUS
 10
114.018513078
 20
118.888889085
 11
114.4612499672
 21
119.1445018213
  0
LINE
  5
271
100
AcDbEntity
  8
0
100
AcDbLine
 62
7
  6
CONTINUOUS
 10
56.2248351736
 20
91.1445500853
 11
50.4439350116
 21
88.5623871576
  0
LINE
  5
272
100
AcDbEntity
  8
0
100
AcDbLine
 62
7
  6
CONTINUOUS
 10
95.7816666894
 20
118.2394362728
 11
93.943181404
 21
119.3008622346
  0
LINE
  5
273
100
AcDbEntity
  8
0
100
AcDbLine
 62
7
  6
CONTINUOUS
 10
93.2754528617
 20
120.7932913212
 11
96.6695795424
 21
118.8337356995
  0
LINE
  5
274
100
AcDbEntity
  8
0
100
AcDbLine
 62
7
  6
CONTINUOUS
 10
96.8836170599
 20
118.9573095802
 11
93.4894903792
 21
120.9168652019
  0
LINE
  5
275
100
AcDbEntity
  8
0
100
AcDbLine
 62
7
  6
CONTINUOUS
 10
97.6413082817
 20
119.4764273729
 11
93.0798451965
 21
122.1099297353
  0
LINE
  5
276
100
AcDbEntity
  8
0
100
AcDbLine
 62
7
  6
CONTINUOUS
 10
92.2788447539
 20
123.7808107307
 11
32.0073810639
 21
158.5777693041
  0
LINE
  5
277
100
AcDbEntity
  8
0
100
AcDbLine
 62
7
  6
CONTINUOUS
 10
98.4757098741
 20
120.2031312792
 11
102.8597831074
 21
117.6720411812
  0
LINE
  5
278
100
AcDbEntity
  8
0
100
AcDbLine
 62
7
  6
CONTINUOUS
 10
30.5350987946
 20
161.4836135503
 11
104.781619935
 21
118.6183343257
  0
LINE
  5
279
100
AcDbEntity
  8
0
100
AcDbLine
 62
7
  6
CONTINUOUS
 10
138.7460329843
 20
99.2804066309
 11
139.0288745192
 21
99.1171116888
  0
LINE
  5
27A
100
AcDbEntity
  8
0
100
AcDbLine
 62
7
  6
CONTINUOUS
 10
112.930676308
 20
117.4443487289
 11
111.7285997847
 21
116.7503336673
  0
LINE
  5
27B
100
AcDbEntity
  8
0
100
AcDbLine
 62
7
  6
CONTINUOUS
 10
92.8057029245
 20
105.5801039742
 11
94.7958971308
 21
106.7291362762
  0
LINE
  5
27C
100
AcDbEntity
  8
0
100
AcDbLine
 62
7
  6
CONTINUOUS
 10
111.5621330665
 20
116.2459734278
 11
115.5219145549
 21
118.5321406895
  0
LINE
  5
27D
100
AcDbEntity
  8
0
100
AcDbLine
 62
7
  6
CONTINUOUS
 10
91.7991320404
 20
104.2239345691
 11
91.5865231871
 21
104.1011855232
  0
LINE
  5
27E
100
AcDbEntity
  8
0
100
AcDbLine
 62
7
  6
CONTINUOUS
 10
95.5739996477
 20
103.1775616529
 11
95.3613261093
 21
103.0547752612
  0
LINE
  5
27F
100
AcDbEntity
  8
0
100
AcDbLine
 62
7
  6
CONTINUOUS
 10
111.5621330665
 20
116.8464410976
 11
111.7285997847
 21
116.7503336673
  0
LINE
  5
280
100
AcDbEntity
  8
0
100
AcDbLine
 62
7
  6
CONTINUOUS
 10
111.5621330665
 20
120.1124507661
 11
111.7285997847
 21
120.0163433358
  0
LINE
  5
281
100
AcDbEntity
  8
0
100
AcDbLine
 62
7
  6
CONTINUOUS
 10
114.4612499672
 20
119.1445018213
 11
115.5219145549
 21
118.5321406895
  0
LINE
  5
282
100
AcDbEntity
  8
0
100
AcDbLine
 62
7
  6
CONTINUOUS
 10
113.4746087919
 20
121.4326472974
 11
112.930676308
 21
120.7103583974
  0
LINE
  5
283
100
AcDbEntity
  8
0
100
AcDbLine
 62
7
  6
CONTINUOUS
 10
112.930676308
 20
117.4443487289
 11
114.3448763281
 21
119.3222674175
  0
LINE
  5
284
100
AcDbEntity
  8
0
100
AcDbLine
 62
7
  6
CONTINUOUS
 10
97.0227745608
 20
100.3397847592
 11
96.8102126659
 21
100.2170628245
  0
LINE
  5
285
100
AcDbEntity
  8
0
100
AcDbLine
 62
7
  6
CONTINUOUS
 10
61.9948286595
 20
78.8093820972
 11
61.7813556451
 21
78.6861341306
  0
LINE
  5
286
100
AcDbEntity
  8
0
100
AcDbLine
 62
7
  6
CONTINUOUS
 10
62.5943776316
 20
77.1959409215
 11
62.8531718634
 21
77.345354949
  0
LINE
  5
287
100
AcDbEntity
  8
0
100
AcDbLine
 62
7
  6
CONTINUOUS
 10
138.7460329843
 20
119.4480246972
 11
147.9383828681
 21
124.7551986975
  0
LINE
  5
288
100
AcDbEntity
  8
0
100
AcDbLine
 62
7
  6
CONTINUOUS
 10
147.6555413332
 20
124.2653000691
 11
139.0288745192
 21
119.2847213919
  0
LINE
  5
289
100
AcDbEntity
  8
0
100
AcDbLine
 62
7
  6
CONTINUOUS
 10
147.6555377119
 20
104.0976840935
 11
147.9383828681
 21
103.9343870607
  0
LINE
  5
28A
100
AcDbEntity
  8
0
100
AcDbLine
 62
7
  6
CONTINUOUS
 10
111.5621330665
 20
120.3284855135
 11
111.5621330665
 21
116.2459734278
  0
LINE
  5
28B
100
AcDbEntity
  8
0
100
AcDbLine
 62
7
  6
CONTINUOUS
 10
111.5621330665
 20
58.1926515699
 11
111.5621330665
 21
54.1101394843
  0
LINE
  5
28C
100
AcDbEntity
  8
0
100
AcDbLine
 62
7
  6
CONTINUOUS
 10
111.7285997847
 20
54.6144997237
 11
111.7285997847
 21
57.8805093922
  0
LINE
  5
28D
100
AcDbEntity
  8
0
100
AcDbLine
 62
7
  6
CONTINUOUS
 10
111.7285997847
 20
116.7503336673
 11
111.7285997847
 21
120.0163433358
  0
LINE
  5
28E
100
AcDbEntity
  8
0
100
AcDbLine
 62
7
  6
CONTINUOUS
 10
112.930676308
 20
120.7103583974
 11
112.930676308
 21
117.4443487289
  0
LINE
  5
28F
100
AcDbEntity
  8
0
100
AcDbLine
 62
7
  6
CONTINUOUS
 10
112.930676308
 20
58.5745244538
 11
112.930676308
 21
55.3085147853
  0
LINE
  5
290
100
AcDbEntity
  8
0
100
AcDbLine
 62
7
  6
CONTINUOUS
 10
114.3448763281
 20
121.9350934945
 11
114.3448763281
 21
119.3222674175
  0
LINE
  5
291
100
AcDbEntity
  8
0
100
AcDbLine
 62
7
  6
CONTINUOUS
 10
114.3448763281
 20
59.7992595509
 11
114.3448763281
 21
57.186433474
  0
LINE
  5
292
100
AcDbEntity
  8
0
100
AcDbLine
 62
7
  6
CONTINUOUS
 10
114.4612499672
 20
57.0086678777
 11
114.4612499672
 21
59.8664475017
  0
LINE
  5
293
100
AcDbEntity
  8
0
100
AcDbLine
 62
7
  6
CONTINUOUS
 10
114.4612499672
 20
119.1445018213
 11
114.4612499672
 21
122.0022814453
  0
LINE
  5
294
100
AcDbEntity
  8
0
100
AcDbLine
 62
7
  6
CONTINUOUS
 10
115.5219145549
 20
56.3963067459
 11
115.5219145549
 21
60.4788188316
  0
LINE
  5
295
100
AcDbEntity
  8
0
100
AcDbLine
 62
7
  6
CONTINUOUS
 10
115.5219145549
 20
118.5321406895
 11
115.5219145549
 21
122.6146527752
  0
LINE
  5
296
100
AcDbEntity
  8
0
100
AcDbLine
 62
7
  6
CONTINUOUS
 10
71.8943648116
 20
73.0940115339
 11
71.6808917972
 21
72.9707635673
  0
LINE
  5
297
100
AcDbEntity
  8
0
100
AcDbLine
 62
7
  6
CONTINUOUS
 10
70.7968504433
 20
72.4603481691
 11
71.0556434531
 21
72.6097614911
  0
LINE
  5
298
100
AcDbEntity
  8
0
100
AcDbLine
 62
7
  6
CONTINUOUS
 10
138.746029363
 20
119.4480184247
 11
139.0288745192
 21
119.2847213919
  0
LINE
  5
299
100
AcDbEntity
  8
0
100
AcDbLine
 62
7
  6
CONTINUOUS
 10
71.2305407968
 20
68.954826798
 11
71.4638460258
 21
69.0895248308
  0
LINE
  5
29A
100
AcDbEntity
  8
0
100
AcDbLine
 62
7
  6
CONTINUOUS
 10
72.5186470875
 20
67.7389220027
 11
72.3045425679
 21
67.6153094385
  0
LINE
  5
29B
100
AcDbEntity
  8
0
100
AcDbLine
 62
7
  6
CONTINUOUS
 10
147.3726925555
 20
124.4285991928
 11
147.6555413332
 21
124.2653000691
  0
LINE
  5
29C
100
AcDbEntity
  8
0
100
AcDbLine
 62
7
  6
CONTINUOUS
 10
139.0288745192
 20
99.1171116888
 11
147.6555413332
 21
104.097690366
  0
LINE
  5
29D
100
AcDbEntity
  8
0
100
AcDbLine
 62
7
  6
CONTINUOUS
 10
138.7460329843
 20
98.6272130604
 11
147.9383828681
 21
103.9343870607
  0
LINE
  5
29E
100
AcDbEntity
  8
0
100
AcDbLine
 62
7
  6
CONTINUOUS
 10
138.7460329843
 20
98.6272130604
 11
138.7460329843
 21
119.4480246972
  0
LINE
  5
29F
100
AcDbEntity
  8
0
100
AcDbLine
 62
7
  6
CONTINUOUS
 10
139.0288745192
 20
119.2847213919
 11
139.0288745192
 21
99.1171116888
  0
LINE
  5
2A0
100
AcDbEntity
  8
0
100
AcDbLine
 62
7
  6
CONTINUOUS
 10
73.6918617277
 20
186.4000335161
 11
147.9383828681
 21
143.5347542915
  0
LINE
  5
2A1
100
AcDbEntity
  8
0
100
AcDbLine
 62
7
  6
CONTINUOUS
 10
147.6555413332
 20
104.097690366
 11
147.6555413332
 21
124.2653000691
  0
LINE
  5
2A2
100
AcDbEntity
  8
0
100
AcDbLine
 62
7
  6
CONTINUOUS
 10
113.4746087919
 20
59.2968133539
 11
112.930676308
 21
58.5745244538
  0
LINE
  5
2A3
100
AcDbEntity
  8
0
100
AcDbLine
 62
7
  6
CONTINUOUS
 10
112.930676308
 20
55.3085147853
 11
114.3448763281
 21
57.186433474
  0
LINE
  5
2A4
100
AcDbEntity
  8
0
100
AcDbLine
 62
7
  6
CONTINUOUS
 10
147.9383828681
 20
143.5347542915
 11
147.9383828681
 21
124.7551986975
  0
LINE
  5
2A5
100
AcDbEntity
  8
0
100
AcDbLine
 62
7
  6
CONTINUOUS
 10
147.9383828681
 20
103.9343870607
 11
147.9383828681
 21
71.6825415841
  0
LINE
  5
2A6
100
AcDbEntity
  8
0
100
AcDbLine
 62
7
  6
CONTINUOUS
 10
115.5219145549
 20
60.4788188316
 11
111.5621330665
 21
58.1926515699
  0
LINE
  5
2A7
100
AcDbEntity
  8
0
100
AcDbLine
 62
7
  6
CONTINUOUS
 10
111.7285997847
 20
57.8805093922
 11
112.930676308
 21
58.5745244538
  0
LINE
  5
2A8
100
AcDbEntity
  8
0
100
AcDbLine
 62
7
  6
CONTINUOUS
 10
114.018513078
 20
56.7530551414
 11
114.4612499672
 21
57.0086678777
  0
LINE
  5
2A9
100
AcDbEntity
  8
0
100
AcDbLine
 62
7
  6
CONTINUOUS
 10
112.930676308
 20
55.3085147853
 11
111.7285997847
 21
54.6144997237
  0
LINE
  5
2AA
100
AcDbEntity
  8
0
100
AcDbLine
 62
7
  6
CONTINUOUS
 10
111.5621330665
 20
54.1101394843
 11
115.5219145549
 21
56.3963067459
  0
LINE
  5
2AB
100
AcDbEntity
  8
0
100
AcDbLine
 62
7
  6
CONTINUOUS
 10
104.781619935
 20
46.7661216183
 11
147.9383828681
 21
71.6825415841
  0
ARC
  5
2AC
100
AcDbEntity
  8
0
100
AcDbCircle
 62
7
  6
CONTINUOUS
 10
432.4728201587
 20
85.0511111147
 40
342.3914872395
100
AcDbArc
 50
173.5050723761
 51
173.6995256043
  0
ARC
  5
2AD
100
AcDbEntity
  8
0
100
AcDbCircle
 62
7
  6
CONTINUOUS
 10
436.1103890398
 20
81.8697112089
 40
339.6048620781
100
AcDbArc
 50
173.5376370327
 51
174.283069875
  0
ARC
  5
2AE
100
AcDbEntity
  8
0
100
AcDbCircle
 62
7
  6
CONTINUOUS
 10
435.268196296
 20
81.8487959391
 40
338.9693702234
100
AcDbArc
 50
173.5030769598
 51
174.2652904864
  0
ARC
  5
2AF
100
AcDbEntity
  8
0
100
AcDbCircle
 62
7
  6
CONTINUOUS
 10
422.041422874
 20
84.2843169698
 40
328.0219179148
100
AcDbArc
 50
174.0583961122
 51
176.4634070595
  0
ARC
  5
2B0
100
AcDbEntity
  8
0
100
AcDbCircle
 62
7
  6
CONTINUOUS
 10
416.3210592048
 20
85.6675584638
 40
324.1275909544
100
AcDbArc
 50
174.0439460938
 51
176.4778570779
  0
ARC
  5
2B1
100
AcDbEntity
  8
0
100
AcDbCircle
 62
7
  6
CONTINUOUS
 10
302.3584194927
 20
97.6046225389
 40
232.6493450278
100
AcDbArc
 50
186.1675192911
 51
187.0403752726
  0
ARC
  5
2B2
100
AcDbEntity
  8
0
100
AcDbCircle
 62
7
  6
CONTINUOUS
 10
293.1620215064
 20
102.9167246414
 40
232.6459414021
100
AcDbArc
 50
185.978324348
 51
187.306202152
  0
ARC
  5
2B3
100
AcDbEntity
  8
0
100
AcDbCircle
 62
7
  6
CONTINUOUS
 10
302.9911097186
 20
97.3207298724
 40
232.3631627175
100
AcDbArc
 50
185.9846663205
 51
187.3140889012
  0
ARC
  5
2B4
100
AcDbEntity
  8
0
100
AcDbCircle
 62
7
  6
CONTINUOUS
 10
301.5638628228
 20
97.0269452388
 40
231.13822757
100
AcDbArc
 50
185.9739932812
 51
187.3105332189
  0
ARC
  5
2B5
100
AcDbEntity
  8
0
100
AcDbCircle
 62
7
  6
CONTINUOUS
 10
291.7991013735
 20
102.2587120962
 40
230.5609756089
100
AcDbArc
 50
186.447024093
 51
187.119462438
  0
ARC
  5
2B6
100
AcDbEntity
  8
0
100
AcDbCircle
 62
7
  6
CONTINUOUS
 10
66.5437967635
 20
105.9292508602
 40
51.6049470805
100
AcDbArc
 50
203.1090843674
 51
211.2394863496
  0
ARC
  5
2B7
100
AcDbEntity
  8
0
100
AcDbCircle
 62
7
  6
CONTINUOUS
 10
62.6311401238
 20
103.7758415709
 40
45.4030667692
100
AcDbArc
 50
204.1714655169
 51
204.7648278865
  0
ARC
  5
2B8
100
AcDbEntity
  8
0
100
AcDbCircle
 62
7
  6
CONTINUOUS
 10
59.756114906
 20
101.2251940928
 40
41.5900713276
100
AcDbArc
 50
221.1882937349
 51
221.8838896544
  0
ARC
  5
2B9
100
AcDbEntity
  8
0
100
AcDbCircle
 62
7
  6
CONTINUOUS
 10
84.7587019573
 20
112.0781760923
 40
36.7035825873
100
AcDbArc
 50
236.1665526113
 51
237.337413673
  0
SPLINE
  5
2BA
100
AcDbEntity
  8
0
100
AcDbSpline
 62
7
  6
CONTINUOUS
 70
0
 71
3
 72
9
 73
5
 74
0
 42
0.0000001
 43
0.0000001
 44
0.0000000001
 40
0.0
 40
0.0
 40
0.0
 40
0.0
 40
0.4767415153
 40
1.0
 40
1.0
 40
1.0
 40
1.0
 10
65.0726468481
 20
81.4256963941
 30
0.0
 10
64.1915192579
 20
81.5847159047
 30
0.0
 10
62.3772738439
 20
82.1183792157
 30
0.0
 10
60.6840062249
 20
82.9487827243
 30
0.0
 10
59.8329367137
 20
83.4401368197
 30
0.0
  0
SPLINE
  5
2BB
100
AcDbEntity
  8
0
100
AcDbSpline
 62
7
  6
CONTINUOUS
 70
0
 71
3
 72
14
 73
10
 74
0
 42
0.0000001
 43
0.0000001
 44
0.0000000001
 40
0.0
 40
0.0
 40
0.0
 40
0.0
 40
0.0920858219
 40
0.1899766886
 40
0.2979268012
 40
0.4179632056
 40
0.5501241118
 40
0.6929675171
 40
1.0
 40
1.0
 40
1.0
 40
1.0
 10
32.0006566407
 20
82.2293567459
 30
0.0
 10
31.9383488388
 20
82.1934238057
 30
0.0
 10
31.7966486157
 20
82.140215461
 30
0.0
 10
31.5613077183
 20
82.1281927622
 30
0.0
 10
31.3098136512
 20
82.1798633048
 30
0.0
 10
31.0499925422
 20
82.2916364018
 30
0.0
 10
30.7895011857
 20
82.4592831022
 30
0.0
 10
30.4442303656
 20
82.7565558519
 30
0.0
 10
30.2218986485
 20
83.0338637559
 30
0.0
 10
30.0916655969
 20
83.235238708
 30
0.0
  0
SPLINE
  5
2BC
100
AcDbEntity
  8
0
100
AcDbSpline
 62
7
  6
CONTINUOUS
 70
0
 71
3
 72
11
 73
7
 74
0
 42
0.0000001
 43
0.0000001
 44
0.0000000001
 40
0.0
 40
0.0
 40
0.0
 40
0.0
 40
0.2684306642
 40
0.5216814061
 40
0.763799549
 40
1.0
 40
1.0
 40
1.0
 40
1.0
 10
47.9737904564
 20
126.3356459423
 30
0.0
 10
48.226539039
 20
127.0389362374
 30
0.0
 10
48.8127442745
 20
128.3747820667
 30
0.0
 10
49.9740234168
 20
130.1682116265
 30
0.0
 10
51.3761423631
 20
131.6611913231
 30
0.0
 10
52.465911806
 20
132.4440279789
 30
0.0
 10
53.0354083786
 20
132.7728249995
 30
0.0
  0
SPLINE
  5
2BD
100
AcDbEntity
  8
0
100
AcDbSpline
 62
7
  6
CONTINUOUS
 70
0
 71
3
 72
11
 73
7
 74
0
 42
0.0000001
 43
0.0000001
 44
0.0000000001
 40
0.0
 40
0.0
 40
0.0
 40
0.0
 40
0.236053998
 40
0.4789131924
 40
0.7325370182
 40
1.0
 40
1.0
 40
1.0
 40
1.0
 10
82.3181173384
 20
80.4350201134
 30
0.0
 10
81.7816651643
 20
80.1806660893
 30
0.0
 10
80.6450413582
 20
79.7607863209
 30
0.0
 10
78.8257513272
 20
79.4232725341
 30
0.0
 10
76.897904327
 20
79.3734867322
 30
0.0
 10
75.5916926927
 20
79.5268613553
 30
0.0
 10
74.9296984964
 20
79.6463649584
 30
0.0
  0
SPLINE
  5
2BE
100
AcDbEntity
  8
0
100
AcDbSpline
 62
7
  6
CONTINUOUS
 70
0
 71
3
 72
11
 73
7
 74
0
 42
0.0000001
 43
0.0000001
 44
0.0000000001
 40
0.0
 40
0.0
 40
0.0
 40
0.0
 40
0.2187037384
 40
0.454902863
 40
0.7146269262
 40
1.0
 40
1.0
 40
1.0
 40
1.0
 10
24.0457277177
 20
76.6541610224
 30
0.0
 10
24.083680878
 20
76.6872114597
 30
0.0
 10
24.1526710291
 20
76.7679717598
 30
0.0
 10
24.2251513099
 20
76.9171304311
 30
0.0
 10
24.2683873702
 20
77.0927503762
 30
0.0
 10
24.2770854916
 20
77.2184763968
 30
0.0
 10
24.2770854916
 20
77.2841445779
 30
0.0
  0
SPLINE
  5
2BF
100
AcDbEntity
  8
0
100
AcDbSpline
 62
7
  6
CONTINUOUS
 70
0
 71
3
 72
17
 73
13
 74
0
 42
0.0000001
 43
0.0000001
 44
0.0000000001
 40
0.0
 40
0.0
 40
0.0
 40
0.0
 40
0.1286840437
 40
0.2702610869
 40
0.4174113926
 40
0.5617475385
 40
0.6954118221
 40
0.8126765271
 40
0.8646398923
 40
0.9124678162
 40
0.957122662
 40
1.0
 40
1.0
 40
1.0
 40
1.0
 10
24.2770854916
 20
77.2841445779
 30
0.0
 10
24.2770854916
 20
77.4123522494
 30
0.0
 10
24.241224267
 20
77.6819210355
 30
0.0
 10
24.1073530584
 20
78.0777261204
 30
0.0
 10
23.9010827033
 20
78.4590200308
 30
0.0
 10
23.6389690807
 20
78.7945245808
 30
0.0
 10
23.3424566073
 20
79.0571800467
 30
0.0
 10
23.0740497354
 20
79.2039174811
 30
0.0
 10
22.8641155637
 20
79.2598525436
 30
0.0
 10
22.7195902973
 20
79.2705115832
 30
0.0
 10
22.5849909453
 20
79.2507697449
 30
0.0
 10
22.503443205
 20
79.2168640406
 30
0.0
 10
22.4664351432
 20
79.1955266758
 30
0.0
  0
SPLINE
  5
2C0
100
AcDbEntity
  8
0
100
AcDbSpline
 62
7
  6
CONTINUOUS
 70
0
 71
3
 72
9
 73
5
 74
0
 42
0.0000001
 43
0.0000001
 44
0.0000000001
 40
0.0
 40
0.0
 40
0.0
 40
0.0
 40
0.245805727
 40
1.0
 40
1.0
 40
1.0
 40
1.0
 10
28.5320336
 20
71.0594786629
 30
0.0
 10
28.1305552059
 20
71.4889276685
 30
0.0
 10
26.5316771349
 20
73.2680114337
 30
0.0
 10
25.06896494
 20
75.1686870909
 30
0.0
 10
24.0457277177
 20
76.6541610224
 30
0.0
  0
SPLINE
  5
2C1
100
AcDbEntity
  8
0
100
AcDbSpline
 62
7
  6
CONTINUOUS
 70
0
 71
3
 72
11
 73
7
 74
0
 42
0.0000001
 43
0.0000001
 44
0.0000000001
 40
0.0
 40
0.0
 40
0.0
 40
0.0
 40
0.277818913
 40
0.5380825763
 40
0.7789185019
 40
1.0
 40
1.0
 40
1.0
 40
1.0
 10
44.3127393918
 20
105.9774986364
 30
0.0
 10
44.0988360425
 20
106.9794138656
 30
0.0
 10
43.7816501578
 20
108.9427504542
 30
0.0
 10
43.6539286703
 20
111.8195905475
 30
0.0
 10
43.8915341546
 20
114.480658408
 30
0.0
 10
44.310440156
 20
116.1423093268
 30
0.0
 10
44.5861676719
 20
116.9095352273
 30
0.0
  0
SPLINE
  5
2C2
100
AcDbEntity
  8
0
100
AcDbSpline
 62
7
  6
CONTINUOUS
 70
0
 71
3
 72
11
 73
7
 74
0
 42
0.0000001
 43
0.0000001
 44
0.0000000001
 40
0.0
 40
0.0
 40
0.0
 40
0.0
 40
0.2514186604
 40
0.5038032678
 40
0.7542695766
 40
1.0
 40
1.0
 40
1.0
 40
1.0
 10
52.4952710786
 20
92.3922690145
 30
0.0
 10
52.014312595
 20
93.4638921412
 30
0.0
 10
50.9669131538
 20
95.574730204
 30
0.0
 10
49.1654165641
 20
98.6070629562
 30
0.0
 10
47.1549447805
 20
101.4727209445
 30
0.0
 10
45.6782617372
 20
103.2635117895
 30
0.0
 10
44.9117971684
 20
104.1182078708
 30
0.0
  0
SPLINE
  5
2C3
100
AcDbEntity
  8
0
100
AcDbSpline
 62
7
  6
CONTINUOUS
 70
0
 71
3
 72
9
 73
5
 74
0
 42
0.0000001
 43
0.0000001
 44
0.0000000001
 40
0.0
 40
0.0
 40
0.0
 40
0.0
 40
0.49640697
 40
1.0
 40
1.0
 40
1.0
 40
1.0
 10
28.6800106441
 20
74.0264093394
 30
0.0
 10
27.2629387545
 20
75.6371733739
 30
0.0
 10
24.6573589185
 20
79.1071161339
 30
0.0
 10
22.5661997047
 20
82.9077630298
 30
0.0
 10
21.6572589016
 20
84.8853125318
 30
0.0
  0
SPLINE
  5
2C4
100
AcDbEntity
  8
0
100
AcDbSpline
 62
7
  6
CONTINUOUS
 70
0
 71
3
 72
17
 73
13
 74
0
 42
0.0000001
 43
0.0000001
 44
0.0000000001
 40
0.0
 40
0.0
 40
0.0
 40
0.0
 40
0.043115864
 40
0.0887872133
 40
0.1380000768
 40
0.1913799931
 40
0.31083504
 40
0.4451311934
 40
0.5885669697
 40
0.7337940584
 40
0.8731443826
 40
1.0
 40
1.0
 40
1.0
 40
1.0
 10
44.3555915502
 20
91.3143781998
 30
0.0
 10
44.4131807817
 20
91.360379638
 30
0.0
 10
44.5202305905
 20
91.4703091359
 30
0.0
 10
44.6440864089
 20
91.6729927395
 30
0.0
 10
44.7323000321
 20
91.9120995231
 30
0.0
 10
44.8035929975
 20
92.2863361902
 30
0.0
 10
44.7896849854
 20
92.8170781138
 30
0.0
 10
44.6320375948
 20
93.481148387
 30
0.0
 10
44.3452173448
 20
94.1485444312
 30
0.0
 10
43.9506641478
 20
94.7685963616
 30
0.0
 10
43.4787685914
 20
95.2943803233
 30
0.0
 10
43.1133699549
 20
95.5726966903
 30
0.0
 10
42.9255630145
 20
95.681124625
 30
0.0
  0
SPLINE
  5
2C5
100
AcDbEntity
  8
0
100
AcDbSpline
 62
7
  6
CONTINUOUS
 70
0
 71
3
 72
11
 73
7
 74
0
 42
0.0000001
 43
0.0000001
 44
0.0000000001
 40
0.0
 40
0.0
 40
0.0
 40
0.0
 40
0.2897522512
 40
0.5490149592
 40
0.7821434681
 40
1.0
 40
1.0
 40
1.0
 40
1.0
 10
42.9255630145
 20
95.681124625
 30
0.0
 10
42.8097017767
 20
95.7480156285
 30
0.0
 10
42.5793062913
 20
95.8576923406
 30
0.0
 10
42.2251286891
 20
95.9431117218
 30
0.0
 10
41.8927952375
 20
95.9348414331
 30
0.0
 10
41.6927059896
 20
95.8621202292
 30
0.0
 10
41.6055842788
 20
95.8118422255
 30
0.0
  0
SPLINE
  5
2C6
100
AcDbEntity
  8
0
100
AcDbSpline
 62
7
  6
CONTINUOUS
 70
0
 71
3
 72
9
 73
5
 74
0
 42
0.0000001
 43
0.0000001
 44
0.0000000001
 40
0.0
 40
0.0
 40
0.0
 40
0.0
 40
0.4841947842
 40
1.0
 40
1.0
 40
1.0
 40
1.0
 10
59.8329367137
 20
83.4401368197
 30
0.0
 10
58.9824086148
 20
83.9311783378
 30
0.0
 10
57.2938334272
 20
85.0655798285
 30
0.0
 10
55.7466189482
 20
86.3836184989
 30
0.0
 10
54.9848572381
 20
87.1007560207
 30
0.0
  0
SPLINE
  5
2C7
100
AcDbEntity
  8
0
100
AcDbSpline
 62
7
  6
CONTINUOUS
 70
0
 71
3
 72
14
 73
10
 74
0
 42
0.0000001
 43
0.0000001
 44
0.0000000001
 40
0.0
 40
0.0
 40
0.0
 40
0.0
 40
0.3000368643
 40
0.4433441346
 40
0.5776418675
 40
0.7005279752
 40
0.8109323532
 40
0.9097314751
 40
1.0
 40
1.0
 40
1.0
 40
1.0
 10
29.9744356093
 20
83.4165054468
 30
0.0
 10
29.8337245047
 20
83.6340774131
 30
0.0
 10
29.6603476146
 20
83.9804831229
 30
0.0
 10
29.5197501236
 20
84.4600876929
 30
0.0
 10
29.4668305775
 20
84.8031136238
 30
0.0
 10
29.4671857035
 20
85.1220327756
 30
0.0
 10
29.5213630402
 20
85.4058335183
 30
0.0
 10
29.6290996613
 20
85.6440793459
 30
0.0
 10
29.7392157336
 20
85.7690970751
 30
0.0
 10
29.8001250574
 20
85.8177490667
 30
0.0
  0
SPLINE
  5
2C8
100
AcDbEntity
  8
0
100
AcDbSpline
 62
7
  6
CONTINUOUS
 70
0
 71
3
 72
9
 73
5
 74
0
 42
0.0000001
 43
0.0000001
 44
0.0000000001
 40
0.0
 40
0.0
 40
0.0
 40
0.0
 40
0.5035071997
 40
1.0
 40
1.0
 40
1.0
 40
1.0
 10
21.4035756439
 20
84.7567354115
 30
0.0
 10
22.3198576932
 20
82.7704836362
 30
0.0
 10
24.4231226539
 20
78.951157291
 30
0.0
 10
27.0370827683
 20
75.4598276976
 30
0.0
 10
28.4575286912
 20
73.836646596
 30
0.0
  0
SPLINE
  5
2C9
100
AcDbEntity
  8
0
100
AcDbSpline
 62
7
  6
CONTINUOUS
 70
0
 71
3
 72
9
 73
5
 74
0
 42
0.0000001
 43
0.0000001
 44
0.0000000001
 40
0.0
 40
0.0
 40
0.0
 40
0.0
 40
0.4855878026
 40
1.0
 40
1.0
 40
1.0
 40
1.0
 10
59.8329367137
 20
120.6726470408
 30
0.0
 10
60.5863500974
 20
120.2376734614
 30
0.0
 10
62.0845994465
 20
119.2477180562
 30
0.0
 10
63.4722117737
 20
118.109635188
 30
0.0
 10
64.1576276933
 20
117.4935535977
 30
0.0
  0
SPLINE
  5
2CA
100
AcDbEntity
  8
0
100
AcDbSpline
 62
7
  6
CONTINUOUS
 70
0
 71
3
 72
14
 73
10
 74
0
 42
0.0000001
 43
0.0000001
 44
0.0000000001
 40
0.0
 40
0.0
 40
0.0
 40
0.0
 40
0.0920858219
 40
0.1899766886
 40
0.2979268012
 40
0.4179632056
 40
0.5501241118
 40
0.6929675171
 40
1.0
 40
1.0
 40
1.0
 40
1.0
 10
41.8448881354
 20
95.4292059438
 30
0.0
 10
41.9071959372
 20
95.465138884
 30
0.0
 10
42.0488961603
 20
95.5183472287
 30
0.0
 10
42.2842370577
 20
95.5303699275
 30
0.0
 10
42.5357311248
 20
95.4786993849
 30
0.0
 10
42.7955522338
 20
95.3669262879
 30
0.0
 10
43.0560435903
 20
95.1992795875
 30
0.0
 10
43.4013144104
 20
94.9020068378
 30
0.0
 10
43.6236461275
 20
94.6246989338
 30
0.0
 10
43.7538791792
 20
94.4233239817
 30
0.0
  0
SPLINE
  5
2CB
100
AcDbEntity
  8
0
100
AcDbSpline
 62
7
  6
CONTINUOUS
 70
0
 71
3
 72
11
 73
7
 74
0
 42
0.0000001
 43
0.0000001
 44
0.0000000001
 40
0.0
 40
0.0
 40
0.0
 40
0.0
 40
0.2450051815
 40
0.4957244582
 40
0.7486050706
 40
1.0
 40
1.0
 40
1.0
 40
1.0
 10
45.1720912981
 20
106.5174342448
 30
0.0
 10
46.1473944671
 20
105.4741825863
 30
0.0
 10
48.0213561813
 20
103.2684642731
 30
0.0
 10
50.5470057349
 20
99.7037126681
 30
0.0
 10
52.7795267562
 20
95.9052462774
 30
0.0
 10
54.0505081696
 20
93.2500389962
 30
0.0
 10
54.624455626
 20
91.9017263027
 30
0.0
  0
SPLINE
  5
2CC
100
AcDbEntity
  8
0
100
AcDbSpline
 62
7
  6
CONTINUOUS
 70
0
 71
3
 72
9
 73
5
 74
0
 42
0.0000001
 43
0.0000001
 44
0.0000000001
 40
0.0
 40
0.0
 40
0.0
 40
0.0
 40
0.4964070827
 40
1.0
 40
1.0
 40
1.0
 40
1.0
 10
45.0241595933
 20
103.5504519718
 30
0.0
 10
46.4412292831
 20
101.9396849018
 30
0.0
 10
49.0468039755
 20
98.469737464
 30
0.0
 10
51.1379576275
 20
94.6690867145
 30
0.0
 10
52.046895188
 20
92.6915358807
 30
0.0
  0
SPLINE
  5
2CD
100
AcDbEntity
  8
0
100
AcDbSpline
 62
7
  6
CONTINUOUS
 70
0
 71
3
 72
16
 73
12
 74
0
 42
0.0000001
 43
0.0000001
 44
0.0000000001
 40
0.0
 40
0.0
 40
0.0
 40
0.0
 40
0.0911268366
 40
0.1422384792
 40
0.1974030491
 40
0.3193476879
 40
0.4541261904
 40
0.5962105354
 40
0.7389157469
 40
0.8754438969
 40
1.0
 40
1.0
 40
1.0
 40
1.0
 10
29.1870335947
 20
85.9048873148
 30
0.0
 10
29.0879226919
 20
85.7903476758
 30
0.0
 10
28.9745841179
 20
85.5743098856
 30
0.0
 10
28.8959706209
 20
85.2553867067
 30
0.0
 10
28.8574057698
 20
84.8767256264
 30
0.0
 10
28.9019492734
 20
84.3558225286
 30
0.0
 10
29.0809660458
 20
83.7144403452
 30
0.0
 10
29.3750810809
 20
83.0789516154
 30
0.0
 10
29.7641418295
 20
82.493243959
 30
0.0
 10
30.2209417351
 20
81.9977084069
 30
0.0
 10
30.5707592542
 20
81.7346888128
 30
0.0
 10
30.750055123
 20
81.6311746366
 30
0.0
  0
SPLINE
  5
2CE
100
AcDbEntity
  8
0
100
AcDbSpline
 62
7
  6
CONTINUOUS
 70
0
 71
3
 72
11
 73
7
 74
0
 42
0.0000001
 43
0.0000001
 44
0.0000000001
 40
0.0
 40
0.0
 40
0.0
 40
0.0
 40
0.288918951
 40
0.5484443474
 40
0.7822897446
 40
1.0
 40
1.0
 40
1.0
 40
1.0
 10
30.750055123
 20
81.6311746366
 30
0.0
 10
30.8633662983
 20
81.5657558789
 30
0.0
 10
31.0888106525
 20
81.4579487319
 30
0.0
 10
31.4351972573
 20
81.3707543789
 30
0.0
 10
31.7612227598
 20
81.3724254335
 30
0.0
 10
31.9598037681
 20
81.4366860074
 30
0.0
 10
32.0470906661
 20
81.4825272269
 30
0.0
  0
SPLINE
  5
2CF
100
AcDbEntity
  8
0
100
AcDbSpline
 62
7
  6
CONTINUOUS
 70
0
 71
3
 72
19
 73
15
 74
0
 42
0.0000001
 43
0.0000001
 44
0.0000000001
 40
0.0
 40
0.0
 40
0.0
 40
0.0
 40
0.1253164378
 40
0.1845183925
 40
0.2419566061
 40
0.2981946752
 40
0.3538613904
 40
0.4096186109
 40
0.4661231849
 40
0.5239882258
 40
0.5837551005
 40
0.71051712
 40
0.8489816197
 40
1.0
 40
1.0
 40
1.0
 40
1.0
 10
44.5861676719
 20
116.9095352273
 30
0.0
 10
44.8451714031
 20
117.6302263425
 30
0.0
 10
45.3277999411
 20
118.6618337248
 30
0.0
 10
46.1794341054
 20
119.8740020971
 30
0.0
 10
46.8898984864
 20
120.6598561356
 30
0.0
 10
47.6793884867
 20
121.3335133945
 30
0.0
 10
48.5431106371
 20
121.8904293847
 30
0.0
 10
49.4753073364
 20
122.3268711636
 30
0.0
 10
50.4697609354
 20
122.6400558151
 30
0.0
 10
51.5199823004
 20
122.8282627119
 30
0.0
 10
53.0141749751
 20
122.9133227342
 30
0.0
 10
55.0030917573
 20
122.6846092395
 30
0.0
 10
57.4418261879
 20
121.9223010116
 30
0.0
 10
59.0336898409
 20
121.134081999
 30
0.0
 10
59.8329367137
 20
120.6726470408
 30
0.0
  0
SPLINE
  5
2D0
100
AcDbEntity
  8
0
100
AcDbSpline
 62
7
  6
CONTINUOUS
 70
0
 71
3
 72
16
 73
12
 74
0
 42
0.0000001
 43
0.0000001
 44
0.0000000001
 40
0.0
 40
0.0
 40
0.0
 40
0.0
 40
0.15381772
 40
0.3011501971
 40
0.4404056388
 40
0.5704382003
 40
0.6906918574
 40
0.8013806467
 40
0.9036767603
 40
0.9524193756
 40
1.0
 40
1.0
 40
1.0
 40
1.0
 10
74.1333814145
 20
102.3963189327
 30
0.0
 10
74.4854040585
 20
101.4122473581
 30
0.0
 10
75.0913833554
 20
99.4543324017
 30
0.0
 10
75.7028847463
 20
96.5202682446
 30
0.0
 10
75.9888659236
 20
93.6980828136
 30
0.0
 10
75.9428070411
 20
91.0446265394
 30
0.0
 10
75.5636547901
 20
88.6121476473
 30
0.0
 10
74.8560804323
 20
86.4495949154
 30
0.0
 10
73.9835723269
 20
84.8835236784
 30
0.0
 10
73.1356965713
 20
83.8303201908
 30
0.0
 10
72.6670126545
 20
83.3707756575
 30
0.0
 10
72.4226520259
 20
83.1590987795
 30
0.0
  0
SPLINE
  5
2D1
100
AcDbEntity
  8
0
100
AcDbSpline
 62
7
  6
CONTINUOUS
 70
0
 71
3
 72
11
 73
7
 74
0
 42
0.0000001
 43
0.0000001
 44
0.0000000001
 40
0.0
 40
0.0
 40
0.0
 40
0.0
 40
0.2385139765
 40
0.4790641207
 40
0.7305470435
 40
1.0
 40
1.0
 40
1.0
 40
1.0
 10
72.4226520259
 20
83.1590987795
 30
0.0
 10
71.953750095
 20
82.752913473
 30
0.0
 10
70.9092190245
 20
82.0467793103
 30
0.0
 10
69.1045892299
 20
81.3965182877
 30
0.0
 10
67.1207427054
 20
81.1728160858
 30
0.0
 10
65.7623435428
 20
81.3012249418
 30
0.0
 10
65.0726468481
 20
81.4256963941
 30
0.0
  0
SPLINE
  5
2D2
100
AcDbEntity
  8
0
100
AcDbSpline
 62
7
  6
CONTINUOUS
 70
0
 71
3
 72
9
 73
5
 74
0
 42
0.0000001
 43
0.0000001
 44
0.0000000001
 40
0.0
 40
0.0
 40
0.0
 40
0.0
 40
0.2444962466
 40
1.0
 40
1.0
 40
1.0
 40
1.0
 10
34.6148544371
 20
83.5159359472
 30
0.0
 10
34.597720358
 20
83.5223089868
 30
0.0
 10
34.5280206072
 20
83.5493886648
 30
0.0
 10
34.4598605797
 20
83.5803919729
 30
0.0
 10
34.4093496326
 20
83.6056829429
 30
0.0
  0
SPLINE
  5
2D3
100
AcDbEntity
  8
0
100
AcDbSpline
 62
7
  6
CONTINUOUS
 70
0
 71
3
 72
14
 73
10
 74
0
 42
0.0000001
 43
0.0000001
 44
0.0000000001
 40
0.0
 40
0.0
 40
0.0
 40
0.0
 40
0.3000368643
 40
0.4433441346
 40
0.5776418675
 40
0.7005279752
 40
0.8109323532
 40
0.9097314751
 40
1.0
 40
1.0
 40
1.0
 40
1.0
 10
43.8711091667
 20
94.2420572429
 30
0.0
 10
44.0118202713
 20
94.0244852766
 30
0.0
 10
44.1851971614
 20
93.6780795668
 30
0.0
 10
44.3257946524
 20
93.1984749968
 30
0.0
 10
44.3787141986
 20
92.8554490659
 30
0.0
 10
44.3783590725
 20
92.5365299141
 30
0.0
 10
44.3241817359
 20
92.2527291714
 30
0.0
 10
44.2164451147
 20
92.0144833438
 30
0.0
 10
44.1063290424
 20
91.8894656146
 30
0.0
 10
44.0454197186
 20
91.840813623
 30
0.0
  0
SPLINE
  5
2D4
100
AcDbEntity
  8
0
100
AcDbSpline
 62
7
  6
CONTINUOUS
 70
0
 71
3
 72
9
 73
5
 74
0
 42
0.0000001
 43
0.0000001
 44
0.0000000001
 40
0.0
 40
0.0
 40
0.0
 40
0.0
 40
0.2499579065
 40
1.0
 40
1.0
 40
1.0
 40
1.0
 10
83.6805047883
 20
108.5383126096
 30
0.0
 10
82.8848204049
 20
108.0269154303
 30
0.0
 10
79.7017233551
 20
105.9807077594
 30
0.0
 10
76.5194289781
 20
103.9332508365
 30
0.0
 10
74.1333814145
 20
102.3963189327
 30
0.0
  0
SPLINE
  5
2D5
100
AcDbEntity
  8
0
100
AcDbSpline
 62
7
  6
CONTINUOUS
 70
0
 71
3
 72
11
 73
7
 74
0
 42
0.0000001
 43
0.0000001
 44
0.0000000001
 40
0.0
 40
0.0
 40
0.0
 40
0.0
 40
0.2214947434
 40
0.457915772
 40
0.7169844996
 40
1.0
 40
1.0
 40
1.0
 40
1.0
 10
89.9021609165
 20
113.809810966
 30
0.0
 10
89.9477441978
 20
113.8361300298
 30
0.0
 10
90.0336587158
 20
113.9060583994
 30
0.0
 10
90.1310065976
 20
114.0481978026
 30
0.0
 10
90.196427612
 20
114.2227907753
 30
0.0
 10
90.2174870871
 20
114.3506805484
 30
0.0
 10
90.2230472102
 20
114.4177058711
 30
0.0
  0
SPLINE
  5
2D6
100
AcDbEntity
  8
0
100
AcDbSpline
 62
7
  6
CONTINUOUS
 70
0
 71
3
 72
11
 73
7
 74
0
 42
0.0000001
 43
0.0000001
 44
0.0000000001
 40
0.0
 40
0.0
 40
0.0
 40
0.0
 40
0.2177456295
 40
0.4508837762
 40
0.7104602913
 40
1.0
 40
1.0
 40
1.0
 40
1.0
 10
144.2835703589
 20
99.8086111409
 30
0.0
 10
144.2308037853
 20
99.839075238
 30
0.0
 10
144.1096041924
 20
99.8832136346
 30
0.0
 10
143.908116379
 20
99.8882732828
 30
0.0
 10
143.6934885403
 20
99.8363216805
 30
0.0
 10
143.5537929198
 20
99.7699531501
 30
0.0
 10
143.4836286937
 20
99.7294440571
 30
0.0
  0
SPLINE
  5
2D7
100
AcDbEntity
  8
0
100
AcDbSpline
 62
7
  6
CONTINUOUS
 70
0
 71
3
 72
11
 73
7
 74
0
 42
0.0000001
 43
0.0000001
 44
0.0000000001
 40
0.0
 40
0.0
 40
0.0
 40
0.0
 40
0.2177456295
 40
0.4508837762
 40
0.7104602913
 40
1.0
 40
1.0
 40
1.0
 40
1.0
 10
144.2835703589
 20
86.5812719834
 30
0.0
 10
144.2308037853
 20
86.6117360805
 30
0.0
 10
144.1096041924
 20
86.6558744771
 30
0.0
 10
143.908116379
 20
86.6609341253
 30
0.0
 10
143.6934885403
 20
86.608982523
 30
0.0
 10
143.5537929198
 20
86.5426139926
 30
0.0
 10
143.4836286937
 20
86.5021048996
 30
0.0
  0
SPLINE
  5
2D8
100
AcDbEntity
  8
0
100
AcDbSpline
 62
7
  6
CONTINUOUS
 70
0
 71
3
 72
11
 73
7
 74
0
 42
0.0000001
 43
0.0000001
 44
0.0000000001
 40
0.0
 40
0.0
 40
0.0
 40
0.0
 40
0.2372518718
 40
0.4999985497
 40
0.7627460178
 40
1.0
 40
1.0
 40
1.0
 40
1.0
 10
143.4836286937
 20
86.5021048996
 30
0.0
 10
143.3229983472
 20
86.4093654794
 30
0.0
 10
143.0190198934
 20
86.1535624238
 30
0.0
 10
142.664371502
 20
85.668711355
 30
0.0
 10
142.421804693
 20
85.1191484591
 30
0.0
 10
142.3522625541
 20
84.7279917066
 30
0.0
 10
142.3522625541
 20
84.542510386
 30
0.0
  0
SPLINE
  5
2D9
100
AcDbEntity
  8
0
100
AcDbSpline
 62
7
  6
CONTINUOUS
 70
0
 71
3
 72
11
 73
7
 74
0
 42
0.0000001
 43
0.0000001
 44
0.0000000001
 40
0.0
 40
0.0
 40
0.0
 40
0.0
 40
0.2895411595
 40
0.5491183966
 40
0.7822559144
 40
1.0
 40
1.0
 40
1.0
 40
1.0
 10
142.3522625541
 20
84.542510386
 30
0.0
 10
142.3522625541
 20
84.4614882229
 30
0.0
 10
142.3646338205
 20
84.3073172592
 30
0.0
 10
142.4269587935
 20
84.095459398
 30
0.0
 10
142.5320892968
 20
83.9234895789
 30
0.0
 10
142.6309187394
 20
83.8405951683
 30
0.0
 10
142.6836870284
 20
83.8101300809
 30
0.0
  0
SPLINE
  5
2DA
100
AcDbEntity
  8
0
100
AcDbSpline
 62
7
  6
CONTINUOUS
 70
0
 71
3
 72
11
 73
7
 74
0
 42
0.0000001
 43
0.0000001
 44
0.0000000001
 40
0.0
 40
0.0
 40
0.0
 40
0.0
 40
0.2372518718
 40
0.4999985497
 40
0.7627460178
 40
1.0
 40
1.0
 40
1.0
 40
1.0
 10
143.4836286937
 20
99.7294440571
 30
0.0
 10
143.3229983472
 20
99.6367046369
 30
0.0
 10
143.0190198934
 20
99.3809015813
 30
0.0
 10
142.664371502
 20
98.8960505125
 30
0.0
 10
142.421804693
 20
98.3464876166
 30
0.0
 10
142.3522625541
 20
97.9553308641
 30
0.0
 10
142.3522625541
 20
97.7698495435
 30
0.0
  0
SPLINE
  5
2DB
100
AcDbEntity
  8
0
100
AcDbSpline
 62
7
  6
CONTINUOUS
 70
0
 71
3
 72
11
 73
7
 74
0
 42
0.0000001
 43
0.0000001
 44
0.0000000001
 40
0.0
 40
0.0
 40
0.0
 40
0.0
 40
0.2895411595
 40
0.5491183966
 40
0.7822559144
 40
1.0
 40
1.0
 40
1.0
 40
1.0
 10
142.3522625541
 20
97.7698495435
 30
0.0
 10
142.3522625541
 20
97.6888273804
 30
0.0
 10
142.3646338205
 20
97.5346564167
 30
0.0
 10
142.4269587935
 20
97.3227985555
 30
0.0
 10
142.5320892968
 20
97.1508287364
 30
0.0
 10
142.6309187394
 20
97.0679343258
 30
0.0
 10
142.6836870284
 20
97.0374692384
 30
0.0
  0
SPLINE
  5
2DC
100
AcDbEntity
  8
0
100
AcDbSpline
 62
7
  6
CONTINUOUS
 70
0
 71
3
 72
9
 73
5
 74
0
 42
0.0000001
 43
0.0000001
 44
0.0000000001
 40
0.0
 40
0.0
 40
0.0
 40
0.0
 40
0.5084748159
 40
1.0
 40
1.0
 40
1.0
 40
1.0
 10
30.5350987946
 20
161.4836135503
 30
0.0
 10
29.7839362196
 20
155.199947255
 30
0.0
 10
28.6442828647
 20
142.7988512258
 30
0.0
 10
28.2411067671
 20
130.3505302968
 30
0.0
 10
28.2411067671
 20
124.2330781878
 30
0.0
  0
SPLINE
  5
2DD
100
AcDbEntity
  8
0
100
AcDbSpline
 62
7
  6
CONTINUOUS
 70
0
 71
3
 72
9
 73
5
 74
0
 42
0.0000001
 43
0.0000001
 44
0.0000000001
 40
0.0
 40
0.0
 40
0.0
 40
0.0
 40
0.2565284906
 40
1.0
 40
1.0
 40
1.0
 40
1.0
 10
28.2411067671
 20
124.2330781878
 30
0.0
 10
28.2411067671
 20
121.585812321
 30
0.0
 10
28.3859914711
 20
111.2671251411
 30
0.0
 10
29.1238427066
 20
100.9537835619
 30
0.0
 10
30.052327514
 20
93.3378597599
 30
0.0
  0
SPLINE
  5
2DE
100
AcDbEntity
  8
0
100
AcDbSpline
 62
7
  6
CONTINUOUS
 70
0
 71
3
 72
9
 73
5
 74
0
 42
0.0000001
 43
0.0000001
 44
0.0000000001
 40
0.0
 40
0.0
 40
0.0
 40
0.0
 40
0.5080847525
 40
1.0
 40
1.0
 40
1.0
 40
1.0
 10
102.8597831074
 20
117.6720411812
 30
0.0
 10
102.1816369507
 20
111.7152556244
 30
0.0
 10
101.1532977711
 20
99.9539140342
 30
0.0
 10
100.7905576645
 20
88.152047797
 30
0.0
 10
100.7905576645
 20
82.3475807592
 30
0.0
  0
SPLINE
  5
2DF
100
AcDbEntity
  8
0
100
AcDbSpline
 62
7
  6
CONTINUOUS
 70
0
 71
3
 72
9
 73
5
 74
0
 42
0.0000001
 43
0.0000001
 44
0.0000000001
 40
0.0
 40
0.0
 40
0.0
 40
0.0
 40
0.5092932308
 40
1.0
 40
1.0
 40
1.0
 40
1.0
 10
100.7905576645
 20
82.3475807592
 30
0.0
 10
100.7905576645
 20
76.7423749607
 30
0.0
 10
101.1172236921
 20
65.7334864602
 30
0.0
 10
102.1578984522
 20
54.7672827044
 30
0.0
 10
102.8597832718
 20
49.4124405534
 30
0.0
  0
SPLINE
  5
2E0
100
AcDbEntity
  8
0
100
AcDbSpline
 62
7
  6
CONTINUOUS
 70
0
 71
3
 72
9
 73
5
 74
0
 42
0.0000001
 43
0.0000001
 44
0.0000000001
 40
0.0
 40
0.0
 40
0.0
 40
0.0
 40
0.2460852469
 40
1.0
 40
1.0
 40
1.0
 40
1.0
 10
43.2785366998
 20
118.095671543
 30
0.0
 10
43.2766362772
 20
117.8822201713
 30
0.0
 10
43.2792611021
 20
117.0147606873
 30
0.0
 10
43.3225400796
 20
116.1475079737
 30
0.0
 10
43.3761241584
 20
115.4957444733
 30
0.0
  0
SPLINE
  5
2E1
100
AcDbEntity
  8
0
100
AcDbSpline
 62
7
  6
CONTINUOUS
 70
0
 71
3
 72
9
 73
5
 74
0
 42
0.0000001
 43
0.0000001
 44
0.0000000001
 40
0.0
 40
0.0
 40
0.0
 40
0.0
 40
0.2444821384
 40
1.0
 40
1.0
 40
1.0
 40
1.0
 10
86.6418628748
 20
90.5163853265
 30
0.0
 10
86.6607561489
 20
90.7172782632
 30
0.0
 10
86.7286371806
 20
91.5398547142
 30
0.0
 10
86.7601924174
 20
92.3653330323
 30
0.0
 10
86.7657438929
 20
92.9888628445
 30
0.0
  0
SPLINE
  5
2E2
100
AcDbEntity
  8
0
100
AcDbSpline
 62
7
  6
CONTINUOUS
 70
0
 71
3
 72
15
 73
11
 74
0
 42
0.0000001
 43
0.0000001
 44
0.0000000001
 40
0.0
 40
0.0
 40
0.0
 40
0.0
 40
0.1502178266
 40
0.2928192791
 40
0.4273596236
 40
0.5538788493
 40
0.6729615635
 40
0.7857757502
 40
0.8940559562
 40
1.0
 40
1.0
 40
1.0
 40
1.0
 10
72.2235968836
 20
126.6230709903
 30
0.0
 10
71.3664594171
 20
127.4260756758
 30
0.0
 10
69.6167689385
 20
128.9104856554
 30
0.0
 10
66.83645046
 20
130.7774526394
 30
0.0
 10
64.0079103534
 20
132.1987444559
 30
0.0
 10
61.1796624466
 20
133.1484431091
 30
0.0
 10
58.4020000777
 20
133.6093427516
 30
0.0
 10
55.7267178021
 20
133.5720536853
 30
0.0
 10
53.209215836
 20
133.0371158232
 30
0.0
 10
51.6648414704
 20
132.3518139975
 30
0.0
 10
50.9474657438
 20
131.9376366969
 30
0.0
  0
SPLINE
  5
2E3
100
AcDbEntity
  8
0
100
AcDbSpline
 62
7
  6
CONTINUOUS
 70
0
 71
3
 72
15
 73
11
 74
0
 42
0.0000001
 43
0.0000001
 44
0.0000000001
 40
0.0
 40
0.0
 40
0.0
 40
0.0
 40
0.1549112653
 40
0.3006592653
 40
0.4368937547
 40
0.5637033546
 40
0.6817765007
 40
0.792426252
 40
0.8976332134
 40
1.0
 40
1.0
 40
1.0
 40
1.0
 10
64.9501195686
 20
81.1787741809
 30
0.0
 10
65.7110001131
 20
80.6911122219
 30
0.0
 10
67.2242335365
 20
79.7995996629
 30
0.0
 10
69.5276380751
 20
78.700183066
 30
0.0
 10
71.7751507604
 20
77.8891822342
 30
0.0
 10
73.9445222961
 20
77.3768246753
 30
0.0
 10
76.0157278112
 20
77.172462152
 30
0.0
 10
77.969756337
 20
77.2829477114
 30
0.0
 10
79.7861793641
 20
77.7126972694
 30
0.0
 10
80.8978465703
 20
78.2155268376
 30
0.0
 10
81.4150452114
 20
78.5141173063
 30
0.0
  0
SPLINE
  5
2E4
100
AcDbEntity
  8
0
100
AcDbSpline
 62
7
  6
CONTINUOUS
 70
0
 71
3
 72
14
 73
10
 74
0
 42
0.0000001
 43
0.0000001
 44
0.0000000001
 40
0.0
 40
0.0
 40
0.0
 40
0.0
 40
0.1076328647
 40
0.2174005359
 40
0.3311365797
 40
0.4503610968
 40
0.5762592721
 40
0.7096489756
 40
1.0
 40
1.0
 40
1.0
 40
1.0
 10
80.884026982
 20
79.3619341685
 30
0.0
 10
81.2889638009
 20
79.595560147
 30
0.0
 10
82.0706645426
 20
80.133486827
 30
0.0
 10
83.118275908
 20
81.1265481617
 30
0.0
 10
84.0417927657
 20
82.3003009995
 30
0.0
 10
84.8367067197
 20
83.6458247307
 30
0.0
 10
85.4989266086
 20
85.1545703279
 30
0.0
 10
86.2217090809
 20
87.4333254034
 30
0.0
 10
86.5237793923
 20
89.2607989498
 30
0.0
 10
86.6418628748
 20
90.5163853265
 30
0.0
  0
SPLINE
  5
2E5
100
AcDbEntity
  8
0
100
AcDbSpline
 62
7
  6
CONTINUOUS
 70
0
 71
3
 72
14
 73
10
 74
0
 42
0.0000001
 43
0.0000001
 44
0.0000000001
 40
0.0
 40
0.0
 40
0.0
 40
0.0
 40
0.1120507981
 40
0.2256335393
 40
0.3420938527
 40
0.4626089544
 40
0.5881153501
 40
0.7193177896
 40
1.0
 40
1.0
 40
1.0
 40
1.0
 10
50.4889729662
 20
132.8276724796
 30
0.0
 10
49.9340801289
 20
132.5073051325
 30
0.0
 10
48.8658230721
 20
131.7726932787
 30
0.0
 10
47.4396326661
 20
130.4232511214
 30
0.0
 10
46.2007713183
 20
128.8381300473
 30
0.0
 10
45.1644778006
 20
127.035658132
 30
0.0
 10
44.3418847901
 20
125.0351132999
 30
0.0
 10
43.5251700798
 20
122.0668108381
 30
0.0
 10
43.2928260471
 20
119.7006202125
 30
0.0
 10
43.2785366998
 20
118.095671543
 30
0.0
  0
SPLINE
  5
2E6
100
AcDbEntity
  8
0
100
AcDbSpline
 62
7
  6
CONTINUOUS
 70
0
 71
3
 72
9
 73
5
 74
0
 42
0.0000001
 43
0.0000001
 44
0.0000000001
 40
0.0
 40
0.0
 40
0.0
 40
0.0
 40
0.2529359426
 40
1.0
 40
1.0
 40
1.0
 40
1.0
 10
97.6413082817
 20
119.4764273729
 30
0.0
 10
97.4740106616
 20
117.9619691257
 30
0.0
 10
96.8526769682
 20
111.9701124901
 30
0.0
 10
96.3934645403
 20
105.9612788806
 30
0.0
 10
96.1479762335
 20
101.4677113065
 30
0.0
  0
SPLINE
  5
2E7
100
AcDbEntity
  8
0
100
AcDbSpline
 62
7
  6
CONTINUOUS
 70
0
 71
3
 72
15
 73
11
 74
0
 42
0.0000001
 43
0.0000001
 44
0.0000000001
 40
0.0
 40
0.0
 40
0.0
 40
0.0
 40
0.131275301
 40
0.2728983849
 40
0.4180626715
 40
0.5594476724
 40
0.6902867408
 40
0.8062621248
 40
0.9074508035
 40
1.0
 40
1.0
 40
1.0
 40
1.0
 10
90.2230472102
 20
114.4177058711
 30
0.0
 10
90.2322057828
 20
114.528109234
 30
0.0
 10
90.2213431928
 20
114.7604845606
 30
0.0
 10
90.1341299554
 20
115.1043224131
 30
0.0
 10
89.9821378183
 20
115.4343889045
 30
0.0
 10
89.7773761736
 20
115.7236599446
 30
0.0
 10
89.535255155
 20
115.9484611302
 30
0.0
 10
89.2735277991
 20
116.0901711312
 30
0.0
 10
89.0093061932
 20
116.134177005
 30
0.0
 10
88.845667265
 20
116.0863359462
 30
0.0
 10
88.7780300507
 20
116.0472834031
 30
0.0
  0
SPLINE
  5
2E8
100
AcDbEntity
  8
0
100
AcDbSpline
 62
7
  6
CONTINUOUS
 70
0
 71
3
 72
9
 73
5
 74
0
 42
0.0000001
 43
0.0000001
 44
0.0000000001
 40
0.0
 40
0.0
 40
0.0
 40
0.0
 40
0.2525728191
 40
1.0
 40
1.0
 40
1.0
 40
1.0
 10
93.2754528617
 20
120.7932913212
 30
0.0
 10
93.1335163199
 20
119.4677921417
 30
0.0
 10
92.602466409
 20
114.2165520611
 30
0.0
 10
92.1962771642
 20
108.9525875736
 30
0.0
 10
91.9671994286
 20
105.0143308829
 30
0.0
  0
SPLINE
  5
2E9
100
AcDbEntity
  8
0
100
AcDbSpline
 62
7
  6
CONTINUOUS
 70
0
 71
3
 72
9
 73
5
 74
0
 42
0.0000001
 43
0.0000001
 44
0.0000000001
 40
0.0
 40
0.0
 40
0.0
 40
0.0
 40
0.5000008228
 40
1.0
 40
1.0
 40
1.0
 40
1.0
 10
143.1120510045
 20
99.3343437088
 30
0.0
 10
143.0536366622
 20
99.1405261121
 30
0.0
 10
142.8882819694
 20
98.7667349423
 30
0.0
 10
142.6472487442
 20
98.4366363972
 30
0.0
 10
142.5086061054
 20
98.2891391254
 30
0.0
  0
SPLINE
  5
2EA
100
AcDbEntity
  8
0
100
AcDbSpline
 62
7
  6
CONTINUOUS
 70
0
 71
3
 72
11
 73
7
 74
0
 42
0.0000001
 43
0.0000001
 44
0.0000000001
 40
0.0
 40
0.0
 40
0.0
 40
0.0
 40
0.2372518718
 40
0.4999985497
 40
0.7627460178
 40
1.0
 40
1.0
 40
1.0
 40
1.0
 10
143.4836286937
 20
83.8892971647
 30
0.0
 10
143.6442590402
 20
83.9820365849
 30
0.0
 10
143.9482374939
 20
84.2378396405
 30
0.0
 10
144.3028858853
 20
84.7226907093
 30
0.0
 10
144.5454526944
 20
85.2722536052
 30
0.0
 10
144.6149948332
 20
85.6634103577
 30
0.0
 10
144.6149948332
 20
85.8488916783
 30
0.0
  0
SPLINE
  5
2EB
100
AcDbEntity
  8
0
100
AcDbSpline
 62
7
  6
CONTINUOUS
 70
0
 71
3
 72
9
 73
5
 74
0
 42
0.0000001
 43
0.0000001
 44
0.0000000001
 40
0.0
 40
0.0
 40
0.0
 40
0.0
 40
0.2474221858
 40
1.0
 40
1.0
 40
1.0
 40
1.0
 10
95.3613261093
 20
103.0547752612
 30
0.0
 10
95.4371581884
 20
104.3584645615
 30
0.0
 10
95.7766537268
 20
109.6255927009
 30
0.0
 10
96.2466584464
 20
114.8842131972
 30
0.0
 10
96.6695795424
 20
118.8337356995
 30
0.0
  0
SPLINE
  5
2EC
100
AcDbEntity
  8
0
100
AcDbSpline
 62
7
  6
CONTINUOUS
 70
0
 71
3
 72
9
 73
5
 74
0
 42
0.0000001
 43
0.0000001
 44
0.0000000001
 40
0.0
 40
0.0
 40
0.0
 40
0.0
 40
0.252575095
 40
1.0
 40
1.0
 40
1.0
 40
1.0
 10
96.8836170599
 20
118.9573095802
 30
0.0
 10
96.7415336669
 20
117.6317379132
 30
0.0
 10
96.2099367825
 20
112.3802518551
 30
0.0
 10
95.8033201974
 20
107.1160165909
 30
0.0
 10
95.5739996477
 20
103.1775616529
 30
0.0
  0
SPLINE
  5
2ED
100
AcDbEntity
  8
0
100
AcDbSpline
 62
7
  6
CONTINUOUS
 70
0
 71
3
 72
11
 73
7
 74
0
 42
0.0000001
 43
0.0000001
 44
0.0000000001
 40
0.0
 40
0.0
 40
0.0
 40
0.0
 40
0.2895411595
 40
0.5491183966
 40
0.7822559144
 40
1.0
 40
1.0
 40
1.0
 40
1.0
 10
144.6149948332
 20
85.8488916783
 30
0.0
 10
144.6149948332
 20
85.9299138414
 30
0.0
 10
144.6026235669
 20
86.0840848051
 30
0.0
 10
144.5402985938
 20
86.2959426663
 30
0.0
 10
144.4351680905
 20
86.4679124854
 30
0.0
 10
144.3363386479
 20
86.550806896
 30
0.0
 10
144.2835703589
 20
86.5812719834
 30
0.0
  0
SPLINE
  5
2EE
100
AcDbEntity
  8
0
100
AcDbSpline
 62
7
  6
CONTINUOUS
 70
0
 71
3
 72
11
 73
7
 74
0
 42
0.0000001
 43
0.0000001
 44
0.0000000001
 40
0.0
 40
0.0
 40
0.0
 40
0.0
 40
0.2220227238
 40
0.4586774192
 40
0.7175578227
 40
1.0
 40
1.0
 40
1.0
 40
1.0
 10
88.7780300507
 20
116.0472834031
 30
0.0
 10
88.7322148561
 20
116.0208305121
 30
0.0
 10
88.645870647
 20
115.9506957401
 30
0.0
 10
88.5478876176
 20
115.8082664393
 30
0.0
 10
88.4820177608
 20
115.6334296956
 30
0.0
 10
88.4608368658
 20
115.5053787435
 30
0.0
 10
88.455272985
 20
115.4383088142
 30
0.0
  0
SPLINE
  5
2EF
100
AcDbEntity
  8
0
100
AcDbSpline
 62
7
  6
CONTINUOUS
 70
0
 71
3
 72
11
 73
7
 74
0
 42
0.0000001
 43
0.0000001
 44
0.0000000001
 40
0.0
 40
0.0
 40
0.0
 40
0.0
 40
0.2177456295
 40
0.4508837762
 40
0.7104602913
 40
1.0
 40
1.0
 40
1.0
 40
1.0
 10
142.6836870284
 20
83.8101300809
 30
0.0
 10
142.736453602
 20
83.7796659838
 30
0.0
 10
142.857653195
 20
83.7355275872
 30
0.0
 10
143.0591410083
 20
83.730467939
 30
0.0
 10
143.273768847
 20
83.7824195413
 30
0.0
 10
143.4134644675
 20
83.8487880717
 30
0.0
 10
143.4836286937
 20
83.8892971647
 30
0.0
  0
SPLINE
  5
2F0
100
AcDbEntity
  8
0
100
AcDbSpline
 62
7
  6
CONTINUOUS
 70
0
 71
3
 72
9
 73
5
 74
0
 42
0.0000001
 43
0.0000001
 44
0.0000000001
 40
0.0
 40
0.0
 40
0.0
 40
0.0
 40
0.247431775
 40
1.0
 40
1.0
 40
1.0
 40
1.0
 10
96.8102126659
 20
100.2170628245
 30
0.0
 10
96.8766831446
 20
101.4977361525
 30
0.0
 10
97.1775093852
 20
106.6718913382
 30
0.0
 10
97.6055998263
 20
111.8385552947
 30
0.0
 10
97.9952932173
 20
115.7194735008
 30
0.0
  0
SPLINE
  5
2F1
100
AcDbEntity
  8
0
100
AcDbSpline
 62
7
  6
CONTINUOUS
 70
0
 71
3
 72
9
 73
5
 74
0
 42
0.0000001
 43
0.0000001
 44
0.0000000001
 40
0.0
 40
0.0
 40
0.0
 40
0.0
 40
0.2525440015
 40
1.0
 40
1.0
 40
1.0
 40
1.0
 10
98.194660796
 20
115.699032108
 30
0.0
 10
98.0655284558
 20
114.4086885629
 30
0.0
 10
97.5838503495
 20
109.2963953118
 30
0.0
 10
97.2219170055
 20
104.1727290728
 30
0.0
 10
97.0227745608
 20
100.3397847592
 30
0.0
  0
SPLINE
  5
2F2
100
AcDbEntity
  8
0
100
AcDbSpline
 62
7
  6
CONTINUOUS
 70
0
 71
3
 72
9
 73
5
 74
0
 42
0.0000001
 43
0.0000001
 44
0.0000000001
 40
0.0
 40
0.0
 40
0.0
 40
0.0
 40
0.2446438859
 40
1.0
 40
1.0
 40
1.0
 40
1.0
 10
87.3525026333
 20
90.1052952811
 30
0.0
 10
87.3707977618
 20
90.3065943198
 30
0.0
 10
87.4366069307
 20
91.130220722
 30
0.0
 10
87.4673383071
 20
91.9565617614
 30
0.0
 10
87.4728945268
 20
92.5806243824
 30
0.0
  0
SPLINE
  5
2F3
100
AcDbEntity
  8
0
100
AcDbSpline
 62
7
  6
CONTINUOUS
 70
0
 71
3
 72
9
 73
5
 74
0
 42
0.0000001
 43
0.0000001
 44
0.0000000001
 40
0.0
 40
0.0
 40
0.0
 40
0.0
 40
0.4815444424
 40
1.0
 40
1.0
 40
1.0
 40
1.0
 10
87.4728945268
 20
92.5806243824
 30
0.0
 10
87.4873809532
 20
94.2077085954
 30
0.0
 10
87.270773485
 20
97.5906849341
 30
0.0
 10
86.6589967081
 20
100.9214096085
 30
0.0
 10
86.2537828329
 20
102.6257739083
 30
0.0
  0
SPLINE
  5
2F4
100
AcDbEntity
  8
0
100
AcDbSpline
 62
7
  6
CONTINUOUS
 70
0
 71
3
 72
11
 73
7
 74
0
 42
0.0000001
 43
0.0000001
 44
0.0000000001
 40
0.0
 40
0.0
 40
0.0
 40
0.0
 40
0.2372518718
 40
0.4999985497
 40
0.7627460178
 40
1.0
 40
1.0
 40
1.0
 40
1.0
 10
143.4836286937
 20
97.1166363222
 30
0.0
 10
143.6442590402
 20
97.2093757424
 30
0.0
 10
143.9482374939
 20
97.465178798
 30
0.0
 10
144.3028858853
 20
97.9500298668
 30
0.0
 10
144.5454526944
 20
98.4995927627
 30
0.0
 10
144.6149948332
 20
98.8907495152
 30
0.0
 10
144.6149948332
 20
99.0762308358
 30
0.0
  0
SPLINE
  5
2F5
100
AcDbEntity
  8
0
100
AcDbSpline
 62
7
  6
CONTINUOUS
 70
0
 71
3
 72
9
 73
5
 74
0
 42
0.0000001
 43
0.0000001
 44
0.0000000001
 40
0.0
 40
0.0
 40
0.0
 40
0.0
 40
0.2459486111
 40
1.0
 40
1.0
 40
1.0
 40
1.0
 10
43.9856525134
 20
117.6874013762
 30
0.0
 10
43.9837508178
 20
117.4738070119
 30
0.0
 10
43.9866994341
 20
116.605282239
 30
0.0
 10
44.0315774145
 20
115.7369920519
 30
0.0
 10
44.0869543449
 20
115.0844548094
 30
0.0
  0
SPLINE
  5
2F6
100
AcDbEntity
  8
0
100
AcDbSpline
 62
7
  6
CONTINUOUS
 70
0
 71
3
 72
15
 73
11
 74
0
 42
0.0000001
 43
0.0000001
 44
0.0000000001
 40
0.0
 40
0.0
 40
0.0
 40
0.0
 40
0.1529281692
 40
0.296999414
 40
0.4320519545
 40
0.5584093619
 40
0.6768423059
 40
0.7886012861
 40
0.8955411214
 40
1.0
 40
1.0
 40
1.0
 40
1.0
 10
66.1973355478
 20
81.156858977
 30
0.0
 10
66.8799425785
 20
80.7615090738
 30
0.0
 10
68.2350962227
 20
80.0428178518
 30
0.0
 10
70.2892690633
 20
79.1707161276
 30
0.0
 10
72.2893716162
 20
78.5458420306
 30
0.0
 10
74.218000646
 20
78.1747656972
 30
0.0
 10
76.0594986059
 20
78.061751907
 30
0.0
 10
77.7991916427
 20
78.2136741087
 30
0.0
 10
79.4205475589
 20
78.6334271004
 30
0.0
 10
80.4173153202
 20
79.0926675481
 30
0.0
 10
80.884026982
 20
79.3619341685
 30
0.0
  0
SPLINE
  5
2F7
100
AcDbEntity
  8
0
100
AcDbSpline
 62
7
  6
CONTINUOUS
 70
0
 71
3
 72
11
 73
7
 74
0
 42
0.0000001
 43
0.0000001
 44
0.0000000001
 40
0.0
 40
0.0
 40
0.0
 40
0.0
 40
0.2895411595
 40
0.5491183966
 40
0.7822559144
 40
1.0
 40
1.0
 40
1.0
 40
1.0
 10
144.6149948332
 20
99.0762308358
 30
0.0
 10
144.6149948332
 20
99.1572529989
 30
0.0
 10
144.6026235669
 20
99.3114239626
 30
0.0
 10
144.5402985938
 20
99.5232818238
 30
0.0
 10
144.4351680905
 20
99.6952516429
 30
0.0
 10
144.3363386479
 20
99.7781460535
 30
0.0
 10
144.2835703589
 20
99.8086111409
 30
0.0
  0
SPLINE
  5
2F8
100
AcDbEntity
  8
0
100
AcDbSpline
 62
7
  6
CONTINUOUS
 70
0
 71
3
 72
14
 73
10
 74
0
 42
0.0000001
 43
0.0000001
 44
0.0000000001
 40
0.0
 40
0.0
 40
0.0
 40
0.0
 40
0.2908786532
 40
0.4243850709
 40
0.550314913
 40
0.66948133
 40
0.7830614647
 40
0.8926110576
 40
1.0
 40
1.0
 40
1.0
 40
1.0
 10
87.5646300189
 20
90.2277663532
 30
0.0
 10
87.445965511
 20
88.9221200633
 30
0.0
 10
87.1391074343
 20
87.0217389412
 30
0.0
 10
86.3955633918
 20
84.6518416955
 30
0.0
 10
85.7134254711
 20
83.0836288982
 30
0.0
 10
84.8938549873
 20
81.6852123052
 30
0.0
 10
83.9397107398
 20
80.4663049099
 30
0.0
 10
82.8558074986
 20
79.4364400768
 30
0.0
 10
82.0467549065
 20
78.8788199477
 30
0.0
 10
81.6275788946
 20
78.6368224378
 30
0.0
  0
SPLINE
  5
2F9
100
AcDbEntity
  8
0
100
AcDbSpline
 62
7
  6
CONTINUOUS
 70
0
 71
3
 72
9
 73
5
 74
0
 42
0.0000001
 43
0.0000001
 44
0.0000000001
 40
0.0
 40
0.0
 40
0.0
 40
0.0
 40
0.2439797365
 40
1.0
 40
1.0
 40
1.0
 40
1.0
 10
31.5236541558
 20
94.2763022105
 30
0.0
 10
31.257517814
 20
96.6220956093
 30
0.0
 10
30.3128102706
 20
106.2530877536
 30
0.0
 10
29.938155606
 20
115.9377650064
 30
0.0
 10
29.938155606
 20
123.2533087492
 30
0.0
  0
SPLINE
  5
2FA
100
AcDbEntity
  8
0
100
AcDbSpline
 62
7
  6
CONTINUOUS
 70
0
 71
3
 72
9
 73
5
 74
0
 42
0.0000001
 43
0.0000001
 44
0.0000000001
 40
0.0
 40
0.0
 40
0.0
 40
0.0
 40
0.4919152475
 40
1.0
 40
1.0
 40
1.0
 40
1.0
 10
29.938155606
 20
123.2533087492
 30
0.0
 10
29.938155606
 20
129.0577758085
 30
0.0
 10
30.3008957072
 20
140.859642091
 30
0.0
 10
31.3292349146
 20
152.6209837232
 30
0.0
 10
32.007381064
 20
158.5777693041
 30
0.0
  0
SPLINE
  5
2FB
100
AcDbEntity
  8
0
100
AcDbSpline
 62
7
  6
CONTINUOUS
 70
0
 71
3
 72
9
 73
5
 74
0
 42
0.0000001
 43
0.0000001
 44
0.0000000001
 40
0.0
 40
0.0
 40
0.0
 40
0.0
 40
0.5080444117
 40
1.0
 40
1.0
 40
1.0
 40
1.0
 10
32.1948365061
 20
158.4652011107
 30
0.0
 10
31.5247175138
 20
152.5481801502
 30
0.0
 10
30.5086015211
 20
140.8647934811
 30
0.0
 10
30.1502829922
 20
129.141577455
 30
0.0
 10
30.1502829922
 20
123.3753099167
 30
0.0
  0
SPLINE
  5
2FC
100
AcDbEntity
  8
0
100
AcDbSpline
 62
7
  6
CONTINUOUS
 70
0
 71
3
 72
9
 73
5
 74
0
 42
0.0000001
 43
0.0000001
 44
0.0000000001
 40
0.0
 40
0.0
 40
0.0
 40
0.0
 40
0.2560877477
 40
1.0
 40
1.0
 40
1.0
 40
1.0
 10
30.1502829922
 20
123.3753099167
 30
0.0
 10
30.1502829922
 20
120.8984625637
 30
0.0
 10
30.2774631316
 20
111.2273008793
 30
0.0
 10
30.9244084807
 20
101.560711608
 30
0.0
 10
31.7359933344
 20
94.4116083068
 30
0.0
  0
SPLINE
  5
2FD
100
AcDbEntity
  8
0
100
AcDbSpline
 62
7
  6
CONTINUOUS
 70
0
 71
3
 72
11
 73
7
 74
0
 42
0.0000001
 43
0.0000001
 44
0.0000000001
 40
0.0
 40
0.0
 40
0.0
 40
0.0
 40
0.2177456295
 40
0.4508837762
 40
0.7104602913
 40
1.0
 40
1.0
 40
1.0
 40
1.0
 10
142.6836870284
 20
97.0374692384
 30
0.0
 10
142.736453602
 20
97.0070051413
 30
0.0
 10
142.857653195
 20
96.9628667447
 30
0.0
 10
143.0591410083
 20
96.9578070965
 30
0.0
 10
143.273768847
 20
97.0097586988
 30
0.0
 10
143.4134644675
 20
97.0761272292
 30
0.0
 10
143.4836286937
 20
97.1166363222
 30
0.0
  0
SPLINE
  5
2FE
100
AcDbEntity
  8
0
100
AcDbSpline
 62
7
  6
CONTINUOUS
 70
0
 71
3
 72
14
 73
10
 74
0
 42
0.0000001
 43
0.0000001
 44
0.0000000001
 40
0.0
 40
0.0
 40
0.0
 40
0.0
 40
0.1119352526
 40
0.2254201251
 40
0.3418128621
 40
0.4622983833
 40
0.5878169534
 40
0.7190758171
 40
1.0
 40
1.0
 40
1.0
 40
1.0
 10
50.9474657438
 20
131.9376366969
 30
0.0
 10
50.4114697165
 20
131.628179073
 30
0.0
 10
49.3795985796
 20
130.918338719
 30
0.0
 10
48.0023288479
 20
129.6138611725
 30
0.0
 10
46.8061899426
 20
128.0811124666
 30
0.0
 10
45.8058400143
 20
126.337796619
 30
0.0
 10
45.011909444
 20
124.4025574992
 30
0.0
 10
44.2236364822
 20
121.5302159445
 30
0.0
 10
43.9994814007
 20
119.2406323064
 30
0.0
 10
43.9856525134
 20
117.6874013762
 30
0.0
  0
SPLINE
  5
2FF
100
AcDbEntity
  8
0
100
AcDbSpline
 62
7
  6
CONTINUOUS
 70
0
 71
3
 72
14
 73
10
 74
0
 42
0.0000001
 43
0.0000001
 44
0.0000000001
 40
0.0
 40
0.0
 40
0.0
 40
0.0
 40
0.1073923674
 40
0.2169443297
 40
0.3305257204
 40
0.4496924822
 40
0.5756215082
 40
0.7091263528
 40
1.0
 40
1.0
 40
1.0
 40
1.0
 10
81.4150452114
 20
78.5141173063
 30
0.0
 10
81.8342465712
 20
78.7561317288
 30
0.0
 10
82.64335209
 20
79.3137736563
 30
0.0
 10
83.7273230007
 20
80.3436803174
 30
0.0
 10
84.6815384732
 20
81.562614585
 30
0.0
 10
85.5011706578
 20
82.9610575259
 30
0.0
 10
86.1833635905
 20
84.5292941964
 30
0.0
 10
86.9269616558
 20
86.8992206082
 30
0.0
 10
87.2338369149
 20
88.7996310402
 30
0.0
 10
87.3525026333
 20
90.1052952811
 30
0.0
  0
SPLINE
  5
300
100
AcDbEntity
  8
0
100
AcDbSpline
 62
7
  6
CONTINUOUS
 70
0
 71
3
 72
9
 73
5
 74
0
 42
0.0000001
 43
0.0000001
 44
0.0000000001
 40
0.0
 40
0.0
 40
0.0
 40
0.0
 40
0.2446437492
 40
1.0
 40
1.0
 40
1.0
 40
1.0
 10
87.5646159529
 20
90.2276835483
 30
0.0
 10
87.5829117995
 20
90.4289897748
 30
0.0
 10
87.6486979993
 20
91.2526482268
 30
0.0
 10
87.6794311961
 20
92.0790183063
 30
0.0
 10
87.6849942395
 20
92.7031036315
 30
0.0
  0
SPLINE
  5
301
100
AcDbEntity
  8
0
100
AcDbSpline
 62
7
  6
CONTINUOUS
 70
0
 71
3
 72
9
 73
5
 74
0
 42
0.0000001
 43
0.0000001
 44
0.0000000001
 40
0.0
 40
0.0
 40
0.0
 40
0.0
 40
0.4901867539
 40
1.0
 40
1.0
 40
1.0
 40
1.0
 10
104.781619935
 20
46.7661216183
 30
0.0
 10
104.0027931585
 20
52.3818996767
 30
0.0
 10
102.8487013919
 20
63.9016469727
 30
0.0
 10
102.4876279076
 20
75.4712710607
 30
0.0
 10
102.4876279076
 20
81.3677989632
 30
0.0
  0
SPLINE
  5
302
100
AcDbEntity
  8
0
100
AcDbSpline
 62
7
  6
CONTINUOUS
 70
0
 71
3
 72
9
 73
5
 74
0
 42
0.0000001
 43
0.0000001
 44
0.0000000001
 40
0.0
 40
0.0
 40
0.0
 40
0.0
 40
0.4915251841
 40
1.0
 40
1.0
 40
1.0
 40
1.0
 10
102.4876279076
 20
81.3677989632
 30
0.0
 10
102.4876279076
 20
87.4852510722
 30
0.0
 10
102.8908040051
 20
99.9335720011
 30
0.0
 10
104.03045736
 20
112.3346680304
 30
0.0
 10
104.781619935
 20
118.6183343257
 30
0.0
  0
SPLINE
  5
303
100
AcDbEntity
  8
0
100
AcDbSpline
 62
7
  6
CONTINUOUS
 70
0
 71
3
 72
15
 73
11
 74
0
 42
0.0000001
 43
0.0000001
 44
0.0000000001
 40
0.0
 40
0.0
 40
0.0
 40
0.0
 40
0.1313121275
 40
0.2729667766
 40
0.4182291228
 40
0.5597782636
 40
0.6907818843
 40
0.8068092822
 40
0.9078280727
 40
1.0
 40
1.0
 40
1.0
 40
1.0
 10
88.455272985
 20
115.4383088142
 30
0.0
 10
88.4461194058
 20
115.3279667833
 30
0.0
 10
88.4572120694
 20
115.095698669
 30
0.0
 10
88.545346713
 20
114.7522271062
 30
0.0
 10
88.6985094207
 20
114.4227542181
 30
0.0
 10
88.9042624797
 20
114.1341309444
 30
0.0
 10
89.1468184855
 20
113.9097944896
 30
0.0
 10
89.4082415395
 20
113.7681258125
 30
0.0
 10
89.6716762148
 20
113.7235475513
 30
0.0
 10
89.8348557654
 20
113.770950039
 30
0.0
 10
89.9021609165
 20
113.809810966
 30
0.0
  0
ELLIPSE
  5
304
100
AcDbEntity
  8
0
100
AcDbEllipse
 62
7
  6
CONTINUOUS
 10
278.8305146163
 20
224.5029418072
 30
0.0
 11
274.0667036928
 21
187.8996128357
 31
0.0
 40
0.0840491871
 41
2.2610316209
 42
2.2962011133
  0
ELLIPSE
  5
305
100
AcDbEntity
  8
0
100
AcDbEllipse
 62
7
  6
CONTINUOUS
 10
313.6801032037
 20
204.3829776296
 30
0.0
 11
-161.3478828883
 21
352.2115456066
 31
0.0
 40
0.6305896325
 41
1.5300269421
 42
1.5684886019
  0
ELLIPSE
  5
306
100
AcDbEntity
  8
0
100
AcDbEllipse
 62
7
  6
CONTINUOUS
 10
142.3647683498
 20
85.8416607393
 30
0.0
 11
0.5988681948
 21
1.4937668281
 31
0.0
 40
0.6514695908
 41
3.7023452565
 42
5.4047108839
  0
ELLIPSE
  5
307
100
AcDbEntity
  8
0
100
AcDbEllipse
 62
7
  6
CONTINUOUS
 10
279.7455903286
 20
223.9746345503
 30
0.0
 11
274.0667036928
 21
187.8996128357
 31
0.0
 40
0.0840491871
 41
2.260955072
 42
2.2962011133
  0
ELLIPSE
  5
308
100
AcDbEntity
  8
0
100
AcDbEllipse
 62
7
  6
CONTINUOUS
 10
314.5951789159
 20
203.8546703727
 30
0.0
 11
-161.3478828883
 21
352.2115456066
 31
0.0
 40
0.6305896325
 41
1.5300269421
 42
1.5651485698
  0
ELLIPSE
  5
309
100
AcDbEntity
  8
0
100
AcDbEllipse
 62
7
  6
CONTINUOUS
 10
314.5931879204
 20
203.8526649951
 30
0.0
 11
-161.184769261
 21
351.8554795601
 31
0.0
 40
0.6305896325
 41
1.5299233051
 42
1.5650807281
  0
ELLIPSE
  5
30A
100
AcDbEntity
  8
0
100
AcDbEllipse
 62
7
  6
CONTINUOUS
 10
279.7429307906
 20
223.9730151472
 30
0.0
 11
273.7896376827
 21
187.709656904
 31
0.0
 40
0.0840491871
 41
2.2617733018
 42
2.2960974763
  0
ENDSEC
  0
SECTION
  2
OBJECTS
  0
DICTIONARY
  5
C
100
AcDbDictionary
280
0
281
1
  3
ACAD_GROUP
350
D
  3
ACAD_MLINESTYLE
350
17
  3
ACAD_LAYOUT
350
1A
  3
ACAD_PLOTSETTINGS
350
19
  3
ACAD_PLOTSTYLENAME
350
E
  0
DICTIONARY
  5
D
102
{ACAD_REACTORS
330
C
102
}
100
AcDbDictionary
280
0
281
1
  0
ACDBDICTIONARYWDFLT
  5
E
102
{ACAD_REACTORS
330
C
102
}
100
AcDbDictionary
281
1
  3
Normal
350
F
100
AcDbDictionaryWithDefault
340
F
  0
DICTIONARY
  5
17
102
{ACAD_REACTORS
330
C
102
}
100
AcDbDictionary
280
0
281
1
  3
Standard
350
18
  0
DICTIONARY
  5
19
102
{ACAD_REACTORS
330
C
102
}
100
AcDbDictionary
281
1
  0
DICTIONARY
  5
1A
102
{ACAD_REACTORS
330
C
102
}
100
AcDbDictionary
281
1
  3
Model
350
30B
  3
Layout1
350
30C
  0
ACDBPLACEHOLDER
  5
F
102
{ACAD_REACTORS
330
E
102
}
  0
MLINESTYLE
  5
18
102
{ACAD_REACTORS
330
17
102
}
100
AcDbMlineStyle
  2
STANDARD
 70
0
  3

 62
256
 51
90.0
 52
90.0
 71
2
 49
0.5
 62
256
  6
BYLAYER
 49
-0.5
 62
256
  6
BYLAYER
  0
LAYOUT
  5
30B
102
{ACAD_REACTORS
330
1A
102
}
100
AcDbPlotSettings
  1

  2
none_device
  4

  6

 40
0.0
 41
0.0
 42
0.0
 43
0.0
 44
210.0
 45
297.0
 46
0.0
 47
0.0
 48
0.0
 49
0.0
140
0.0
141
0.0
142
1.0
143
1.0
 70
1024
 72
1
 73
0
 74
0
  7

 75
0
147
1.0
148
0.0
149
0.0
100
AcDbLayout
  1
Model
 70
0
 71
0
 10
0.0
 20
0.0
 11
210.0
 21
297.0
 12
0.0
 22
0.0
 32
0.0
 14
0.0
 24
0.0
 34
0.0
 15
0.0
 25
0.0
 35
0.0
146
0.0
 13
0.0
 23
0.0
 33
0.0
 16
1.0
 26
0.0
 36
0.0
 17
0.0
 27
1.0
 37
0.0
 76
0
330
211
345
0
346
0
  0
LAYOUT
  5
30C
102
{ACAD_REACTORS
330
1A
102
}
100
AcDbPlotSettings
  1

  2
none_device
  4

  6

 40
0.0
 41
0.0
 42
0.0
 43
0.0
 44
210.0
 45
297.0
 46
0.0
 47
0.0
 48
0.0
 49
0.0
140
0.0
141
0.0
142
1.0
143
1.0
 70
0
 72
1
 73
0
 74
0
  7

 75
0
147
1.0
148
0.0
149
0.0
100
AcDbLayout
  1
Layout1
 70
0
 71
1
 10
0.0
 20
0.0
 11
210.0
 21
297.0
 12
0.0
 22
0.0
 32
0.0
 14
0.0
 24
0.0
 34
0.0
 15
0.0
 25
0.0
 35
0.0
146
0.0
 13
0.0
 23
0.0
 33
0.0
 16
1.0
 26
0.0
 36
0.0
 17
0.0
 27
1.0
 37
0.0
 76
0
330
212
345
0
346
0
  0
ENDSEC
  0
EOF
