999
DXF file: C:\Users\SESA621925\Desktop\Projects\Drawing_creation_tool\Gen2D (3) (1)\CAD\G25ROTE_3D-CAD\drw0001_1.dxf
999
Pro/ENGINEER 2019471 by Parametric Technology Corporation
  0
SECTION
  2
HEADER
  9
$ACADVER
  1
AC1024
  9
$DWGCODEPAGE
  3
ANSI_1252
  9
$EXTMAX
 10
298.0813997537
 20
421.5722653659
 30
0.0
  9
$EXTMIN
 10
0.0
 20
0.0
 30
0.0
  9
$LIMMIN
 10
0.0
 20
0.0
  9
$LIMMAX
 10
298.0813997537
 20
421.5722653659
  9
$VIEWCTR
 10
149.0406998768
 20
210.7861326829
  9
$VIEWSIZE
 40
421.5722653659
  9
$CLAYER
  8
0
  9
$LTSCALE
 40
27.4802661868
  9
$CELTYPE
  6
BYLAYER
  9
$DIMSCALE
 40
1.0
  9
$DIMASZ
 40
3.5485880923
  9
$DIMEXO
 40
1.0
  9
$DIMDLI
 40
18.9863657291
  9
$DIMEXE
 40
1.0
  9
$DIMCEN
 40
4.4967708306
  9
$DIMLFAC
 40
1.0
  9
$DIMBLK
  1
_FILLED
  9
$DIMALT
 70
0
  9
$DIMALTF
 40
0.0393700787
  9
$DIMTXT
 40
4.9680233292
  9
$DIMTOL
 70
1
  9
$DIMLIM
 70
0
  9
$DIMTFAC
 40
1.0
  9
$DIMTP
 40
0.01
  9
$DIMTM
 40
0.01
  9
$DIMGAP
 40
0.625
  9
$DIMDSEP
 70
46
  9
$AUNITS
 70
0
  9
$PDMODE
 70
3
  9
$PDSIZE
 40
0.3125
  9
$HANDSEED
  5
369
  9
$TILEMODE
 70
1
  9
$MEASUREMENT
 70
1
  9
$INSUNITS
 70
4
  0
ENDSEC
  0
SECTION
  2
CLASSES
  0
CLASS
  1
ACDBDICTIONARYWDFLT
  2
AcDbDictionaryWithDefault
  3
AutoCAD 2000
 90
0
 91
1
280
0
281
0
  0
CLASS
  1
ACDBPLACEHOLDER
  2
AcDbPlaceHolder
  3
AutoCAD 2000
 90
0
 91
1
280
0
281
0
  0
CLASS
  1
LAYOUT
  2
AcDbLayout
  3
AutoCAD 2000
 90
0
 91
0
280
0
281
0
  0
ENDSEC
  0
SECTION
  2
TABLES
  0
TABLE
  2
VPORT
  5
8
100
AcDbSymbolTable
 70
2
  0
VPORT
  5
1F4
100
AcDbSymbolTableRecord
100
AcDbViewportTableRecord
  2
*ACTIVE
 70
0
 10
0.0
 20
0.0
 11
1.0
 21
1.0
 12
149.0406998768
 22
210.7861326829
 13
0.0
 23
0.0
 14
1.0
 24
1.0
 15
0.0
 25
0.0
 16
0.0
 26
0.0
 36
1.0
 17
0.0
 27
0.0
 37
0.0
 40
421.5722653659
 41
0.7070707071
 42
50.0
 43
0.0
 44
0.0
 50
0.0
 51
0.0
 71
0
 72
100
 73
1
 74
1
 75
0
 76
0
 77
0
 78
0
  0
ENDTAB
  0
TABLE
  2
LTYPE
  5
5
100
AcDbSymbolTable
 70
6
  0
LTYPE
  5
14
100
AcDbSymbolTableRecord
100
AcDbLinetypeTableRecord
  2
BYBLOCK
 70
0
  3

 72
65
 73
0
 40
0.0
  0
LTYPE
  5
15
100
AcDbSymbolTableRecord
100
AcDbLinetypeTableRecord
  2
BYLAYER
 70
0
  3

 72
65
 73
0
 40
0.0
  0
LTYPE
  5
16
100
AcDbSymbolTableRecord
100
AcDbLinetypeTableRecord
  2
CONTINUOUS
 70
64
  3
Solid line
 72
65
 73
0
 40
0.0
  0
LTYPE
  5
1F5
100
AcDbSymbolTableRecord
100
AcDbLinetypeTableRecord
  2
CENTER
 70
64
  3
____ _ ____ _ ____ _ ____ _ ____ _ ____ _ ____
 72
65
 73
4
 40
0.6
 49
0.375
 74
0
 49
-0.075
 74
0
 49
0.075
 74
0
 49
-0.075
 74
0
  0
LTYPE
  5
1F6
100
AcDbSymbolTableRecord
100
AcDbLinetypeTableRecord
  2
HIDDEN
 70
64
  3
- - - - - - - - - - - - - - - - - - - -
 72
65
 73
2
 40
0.2
 49
0.1
 74
0
 49
-0.1
 74
0
  0
LTYPE
  5
1F7
100
AcDbSymbolTableRecord
100
AcDbLinetypeTableRecord
  2
PHANTOM
 70
64
  3
_____ _ _ _____ _ _ _____ _ _ _____
 72
65
 73
6
 40
0.8
 49
0.45
 74
0
 49
-0.05
 74
0
 49
0.1
 74
0
 49
-0.05
 74
0
 49
0.1
 74
0
 49
-0.05
 74
0
  0
LTYPE
  5
1F8
100
AcDbSymbolTableRecord
100
AcDbLinetypeTableRecord
  2
DOT
 70
64
  3
. . . . . . . . . . . . . . . . . . . .
 72
65
 73
2
 40
0.2
 49
0.1
 74
0
 49
-0.1
 74
0
  0
LTYPE
  5
1F9
100
AcDbSymbolTableRecord
100
AcDbLinetypeTableRecord
  2
DASHED
 70
64
  3
- - - - - - - - - - - - - - - - - - - -
 72
65
 73
2
 40
0.2
 49
0.1
 74
0
 49
-0.1
 74
0
  0
ENDTAB
  0
TABLE
  2
LAYER
  5
2
100
AcDbSymbolTable
 70
36
  0
LAYER
  5
10
100
AcDbSymbolTableRecord
100
AcDbLayerTableRecord
  2
0
 70
0
 62
7
  6
CONTINUOUS
370
-3
390
F
  0
LAYER
  5
1FA
100
AcDbSymbolTableRecord
100
AcDbLayerTableRecord
  2
DEFAULT_1
 70
0
 62
7
  6
CENTER
370
-3
390
F
  0
LAYER
  5
1FB
100
AcDbSymbolTableRecord
100
AcDbLayerTableRecord
  2
DEFAULT_2
 70
0
 62
8
  6
HIDDEN
370
-3
390
F
  0
LAYER
  5
1FC
100
AcDbSymbolTableRecord
100
AcDbLayerTableRecord
  2
DEFAULT_3
 70
0
 62
7
  6
PHANTOM
370
-3
390
F
  0
LAYER
  5
1FD
100
AcDbSymbolTableRecord
100
AcDbLayerTableRecord
  2
00_COMPONENTS
 70
0
 62
7
  6
CONTINUOUS
370
-3
390
F
  0
LAYER
  5
1FE
100
AcDbSymbolTableRecord
100
AcDbLayerTableRecord
  2
01_1_DEFAULT_DATUMS
 70
0
 62
7
  6
CONTINUOUS
370
-3
390
F
  0
LAYER
  5
1FF
100
AcDbSymbolTableRecord
100
AcDbLayerTableRecord
  2
01_PLANES
 70
0
 62
7
  6
CONTINUOUS
370
-3
390
F
  0
LAYER
  5
200
100
AcDbSymbolTableRecord
100
AcDbLayerTableRecord
  2
02_COORD_SYS
 70
0
 62
7
  6
CONTINUOUS
370
-3
390
F
  0
LAYER
  5
201
100
AcDbSymbolTableRecord
100
AcDbLayerTableRecord
  2
03_AXES
 70
0
 62
7
  6
CONTINUOUS
370
-3
390
F
  0
LAYER
  5
202
100
AcDbSymbolTableRecord
100
AcDbLayerTableRecord
  2
04_POINTS
 70
0
 62
7
  6
CONTINUOUS
370
-3
390
F
  0
LAYER
  5
203
100
AcDbSymbolTableRecord
100
AcDbLayerTableRecord
  2
05_CURVES
 70
0
 62
7
  6
CONTINUOUS
370
-3
390
F
  0
LAYER
  5
204
100
AcDbSymbolTableRecord
100
AcDbLayerTableRecord
  2
06_SURFS
 70
0
 62
7
  6
CONTINUOUS
370
-3
390
F
  0
LAYER
  5
205
100
AcDbSymbolTableRecord
100
AcDbLayerTableRecord
  2
07_COSMETICS
 70
0
 62
7
  6
CONTINUOUS
370
-3
390
F
  0
LAYER
  5
206
100
AcDbSymbolTableRecord
100
AcDbLayerTableRecord
  2
10_NOTES
 70
0
 62
7
  6
CONTINUOUS
370
-3
390
F
  0
LAYER
  5
207
100
AcDbSymbolTableRecord
100
AcDbLayerTableRecord
  2
11_NOTES_PUB
 70
0
 62
7
  6
CONTINUOUS
370
-3
390
F
  0
LAYER
  5
208
100
AcDbSymbolTableRecord
100
AcDbLayerTableRecord
  2
13_REF_GTOL
 70
0
 62
7
  6
CONTINUOUS
370
-3
390
F
  0
LAYER
  5
209
100
AcDbSymbolTableRecord
100
AcDbLayerTableRecord
  2
16_MISC
 70
0
 62
7
  6
CONTINUOUS
370
-3
390
F
  0
LAYER
  5
20A
100
AcDbSymbolTableRecord
100
AcDbLayerTableRecord
  2
17_NO_PRINT
 70
0
 62
7
  6
CONTINUOUS
370
-3
390
F
  0
LAYER
  5
20B
100
AcDbSymbolTableRecord
100
AcDbLayerTableRecord
  2
18_DATUM_CAMS_JOINTS
 70
0
 62
7
  6
CONTINUOUS
370
-3
390
F
  0
LAYER
  5
20C
100
AcDbSymbolTableRecord
100
AcDbLayerTableRecord
  2
19_DATUM_FUNCTIONAL
 70
0
 62
7
  6
CONTINUOUS
370
-3
390
F
  0
LAYER
  5
20D
100
AcDbSymbolTableRecord
100
AcDbLayerTableRecord
  2
20_DATUM_KINEMATIC_SCHEME
 70
0
 62
7
  6
CONTINUOUS
370
-3
390
F
  0
LAYER
  5
20E
100
AcDbSymbolTableRecord
100
AcDbLayerTableRecord
  2
black
 70
0
 62
7
  6
CONTINUOUS
370
-3
390
F
  0
ENDTAB
  0
TABLE
  2
STYLE
  5
3
100
AcDbSymbolTable
 70
1
  0
STYLE
  5
11
100
AcDbSymbolTableRecord
100
AcDbTextStyleTableRecord
  2
STANDARD
 70
0
 40
0.0
 41
0.8
 50
0.0
 71
0
 42
0.2
  3
txt
  4

  0
STYLE
  5
20F
100
AcDbSymbolTableRecord
100
AcDbTextStyleTableRecord
  2
TEXTSTYLE_1
 70
0
 40
0.0
 41
0.8
 50
0.0
 71
0
 42
0.2
  3
gdt
  4

  0
ENDTAB
  0
TABLE
  2
VIEW
  5
6
100
AcDbSymbolTable
 70
0
  0
ENDTAB
  0
TABLE
  2
UCS
  5
7
100
AcDbSymbolTable
 70
0
  0
ENDTAB
  0
TABLE
  2
APPID
  5
9
100
AcDbSymbolTable
 70
1
  0
APPID
  5
210
100
AcDbSymbolTableRecord
100
AcDbRegAppTableRecord
  2
ACAD
 70
0
  0
ENDTAB
  0
TABLE
  2
BLOCK_RECORD
  5
1
100
AcDbSymbolTable
 70
0
  0
BLOCK_RECORD
  5
211
100
AcDbSymbolTableRecord
100
AcDbBlockTableRecord
  2
*Model_Space
  0
BLOCK_RECORD
  5
212
100
AcDbSymbolTableRecord
100
AcDbBlockTableRecord
  2
*Paper_Space
  0
BLOCK_RECORD
  5
213
100
AcDbSymbolTableRecord
100
AcDbBlockTableRecord
  2
_FILLED
  0
ENDTAB
  0
TABLE
  2
DIMSTYLE
  5
A
100
AcDbSymbolTable
 70
1
100
AcDbDimStyleTable
 71
0
  0
DIMSTYLE
105
214
100
AcDbSymbolTableRecord
100
AcDbDimStyleTableRecord
  2
STANDARD
 70
0
  3

  4

 40
1.0
 41
3.5485880923
 42
1.0
 43
0.38
 44
1.0
 45
0.0
 46
0.0
 47
0.01
 48
0.01
140
4.9680233292
141
0.09
142
0.0
143
25.4
144
1.0
145
0.0
146
1.0
147
0.625
 71
1
 72
0
 73
0
 74
0
 75
0
 76
0
 77
1
 78
8
 79
2
170
0
171
1
172
0
173
0
174
0
175
0
176
0
177
0
178
0
270
2
179
2
271
2
272
2
273
2
274
2
275
0
280
0
281
0
282
0
283
1
284
8
285
0
286
0
287
3
288
0
340
11
278
46
341
213
342
213
343
213
344
213
  0
ENDTAB
  0
ENDSEC
  0
SECTION
  2
BLOCKS
  0
BLOCK
  5
20
100
AcDbEntity
  8
0
100
AcDbBlockBegin
  2
*Model_Space
 70
0
 10
0.0
 20
0.0
 30
0.0
  3
*Model_Space
  1

  0
ENDBLK
  5
21
100
AcDbEntity
  8
0
100
AcDbBlockEnd
  0
BLOCK
  5
1C
100
AcDbEntity
  8
0
100
AcDbBlockBegin
  2
*Paper_Space
 70
0
 10
0.0
 20
0.0
 30
0.0
  3
*Paper_Space
  1

  0
ENDBLK
  5
1D
100
AcDbEntity
  8
0
100
AcDbBlockEnd
  0
BLOCK
  5
215
100
AcDbEntity
  8
0
100
AcDbBlockBegin
  2
_FILLED
 70
64
 10
0.0
 20
0.0
  3
_FILLED
  1

  0
SOLID
  5
216
100
AcDbEntity
  8
0
  6
BYBLOCK
 62
0
100
AcDbTrace
 10
0.0
 20
0.0
 11
-1.0
 21
0.25
 12
-1.0
 22
-0.25
 13
-1.0
 23
-0.25
  0
ENDBLK
  5
217
100
AcDbEntity
  8
0
  6
BYBLOCK
 62
0
100
AcDbBlockEnd
  0
ENDSEC
  0
SECTION
  2
ENTITIES
  0
LINE
  5
218
100
AcDbEntity
  8
0
100
AcDbLine
 62
7
  6
CONTINUOUS
 10
39.9381188996
 20
134.2247982792
 11
35.6887509379
 21
140.7953826551
  0
LINE
  5
219
100
AcDbEntity
  8
0
100
AcDbLine
 62
7
  6
CONTINUOUS
 10
37.9860540962
 20
148.1543734283
 11
38.7714864014
 21
146.939899513
  0
LINE
  5
21A
100
AcDbEntity
  8
0
100
AcDbLine
 62
7
  6
CONTINUOUS
 10
46.1611699277
 20
135.5136095215
 11
46.9466023019
 21
134.2991356612
  0
LINE
  5
21B
100
AcDbEntity
  8
0
100
AcDbLine
 62
7
  6
CONTINUOUS
 10
43.3710480527
 20
144.6117080775
 11
45.6549673173
 21
141.080200437
  0
LINE
  5
21C
100
AcDbEntity
  8
0
100
AcDbLine
 62
7
  6
CONTINUOUS
 10
45.725677701
 20
141.1210248524
 11
43.4417584364
 21
144.6525324929
  0
LINE
  5
21D
100
AcDbEntity
  8
0
100
AcDbLine
 62
7
  6
CONTINUOUS
 10
58.7649540339
 20
143.5457879202
 11
59.5503864081
 21
142.33131406
  0
LINE
  5
21E
100
AcDbEntity
  8
0
100
AcDbLine
 62
7
  6
CONTINUOUS
 10
112.143172828
 20
115.6485010526
 11
63.9564163854
 21
143.4685084834
  0
LINE
  5
21F
100
AcDbEntity
  8
0
100
AcDbLine
 62
7
  6
CONTINUOUS
 10
59.4344108871
 20
152.087018972
 11
57.1504916226
 21
155.6185266124
  0
LINE
  5
220
100
AcDbEntity
  8
0
100
AcDbLine
 62
7
  6
CONTINUOUS
 10
64.6779829949
 20
148.46270652
 11
63.8925506207
 21
149.6771803803
  0
LINE
  5
221
100
AcDbEntity
  8
0
100
AcDbLine
 62
7
  6
CONTINUOUS
 10
56.5028693062
 20
161.1034669518
 11
55.717437001
 21
162.3179408671
  0
LINE
  5
222
100
AcDbEntity
  8
0
100
AcDbLine
 62
7
  6
CONTINUOUS
 10
122.7497421621
 20
118.5061887096
 11
119.9212788231
 21
120.1391658369
  0
LINE
  5
223
100
AcDbEntity
  8
0
100
AcDbLine
 62
7
  6
CONTINUOUS
 10
66.1809641504
 20
217.3021730774
 11
66.1809641504
 21
220.5681545272
  0
LINE
  5
224
100
AcDbEntity
  8
0
100
AcDbLine
 62
7
  6
CONTINUOUS
 10
80.4551416186
 20
140.2119223224
 11
89.5643316955
 21
138.9703305566
  0
LINE
  5
225
100
AcDbEntity
  8
0
100
AcDbLine
 62
7
  6
CONTINUOUS
 10
59.1302137604
 20
177.1480013178
 11
62.6096027785
 21
185.6575692288
  0
LINE
  5
226
100
AcDbEntity
  8
0
100
AcDbLine
 62
7
  6
CONTINUOUS
 10
193.8838424731
 20
306.9526166998
 11
150.7270795399
 21
282.036196734
  0
LINE
  5
227
100
AcDbEntity
  8
0
100
AcDbLine
 62
7
  6
CONTINUOUS
 10
66.1809641504
 20
220.5681545272
 11
69.2215106504
 21
222.3236043889
  0
LINE
  5
228
100
AcDbEntity
  8
0
100
AcDbLine
 62
7
  6
CONTINUOUS
 10
58.4028337169
 20
212.8114941836
 11
67.5951836007
 21
218.1186681839
  0
LINE
  5
229
100
AcDbEntity
  8
0
100
AcDbLine
 62
7
  6
CONTINUOUS
 10
58.4028337169
 20
212.8114941836
 11
112.143172828
 21
181.7851968401
  0
LINE
  5
22A
100
AcDbEntity
  8
0
100
AcDbLine
 62
7
  6
CONTINUOUS
 10
121.3355227118
 20
187.0923708404
 11
121.3355227118
 21
120.9556750529
  0
LINE
  5
22B
100
AcDbEntity
  8
0
100
AcDbLine
 62
7
  6
CONTINUOUS
 10
67.5951836007
 20
218.1186681839
 11
121.3355227118
 21
187.0923708404
  0
LINE
  5
22C
100
AcDbEntity
  8
0
100
AcDbLine
 62
7
  6
CONTINUOUS
 10
66.1809641504
 20
220.5681545272
 11
122.7497421621
 21
187.9088941656
  0
LINE
  5
22D
100
AcDbEntity
  8
0
100
AcDbLine
 62
7
  6
CONTINUOUS
 10
69.2215106504
 20
222.3236043889
 11
125.7902886621
 21
189.6643440273
  0
LINE
  5
22E
100
AcDbEntity
  8
0
100
AcDbLine
 62
7
  6
CONTINUOUS
 10
122.7497421621
 20
187.9088941656
 11
122.7497421621
 21
118.5061887096
  0
LINE
  5
22F
100
AcDbEntity
  8
0
100
AcDbLine
 62
7
  6
CONTINUOUS
 10
125.7902886621
 20
189.6643440273
 11
125.7902886621
 21
120.2616385713
  0
LINE
  5
230
100
AcDbEntity
  8
0
100
AcDbLine
 62
7
  6
CONTINUOUS
 10
35.5865687226
 20
146.2376976651
 11
37.9860540962
 21
148.1543734283
  0
LINE
  5
231
100
AcDbEntity
  8
0
100
AcDbLine
 62
7
  6
CONTINUOUS
 10
55.717437001
 20
162.3179408671
 11
58.1169087729
 21
164.2346035686
  0
LINE
  5
232
100
AcDbEntity
  8
0
100
AcDbLine
 62
7
  6
CONTINUOUS
 10
38.7714864014
 20
146.939899513
 11
56.5028693062
 21
161.1034669518
  0
LINE
  5
233
100
AcDbEntity
  8
0
100
AcDbLine
 62
7
  6
CONTINUOUS
 10
59.4473733869
 20
163.4062841195
 11
35.868952787
 21
144.5721856621
  0
LINE
  5
234
100
AcDbEntity
  8
0
100
AcDbLine
 62
7
  6
CONTINUOUS
 10
35.9396631707
 20
144.6130100775
 11
38.8031198847
 21
146.9002975339
  0
LINE
  5
235
100
AcDbEntity
  8
0
100
AcDbLine
 62
7
  6
CONTINUOUS
 10
67.3506915699
 20
191.3656411911
 11
69.4665406601
 21
192.5872199411
  0
LINE
  5
236
100
AcDbEntity
  8
0
100
AcDbLine
 62
7
  6
CONTINUOUS
 10
179.307143439
 20
253.0826128977
 11
173.6503127413
 21
249.8166596668
  0
LINE
  5
237
100
AcDbEntity
  8
0
100
AcDbLine
 62
7
  6
CONTINUOUS
 10
180.3293388371
 20
253.5887611115
 11
174.6725081394
 21
250.3228078805
  0
LINE
  5
238
100
AcDbEntity
  8
0
100
AcDbLine
 62
7
  6
CONTINUOUS
 10
175.1227302805
 20
249.1624309171
 11
180.7795609782
 21
252.4283841481
  0
LINE
  5
239
100
AcDbEntity
  8
0
100
AcDbLine
 62
7
  6
CONTINUOUS
 10
180.7962754201
 20
250.8699473319
 11
183.6986733858
 21
252.5456375762
  0
LINE
  5
23A
100
AcDbEntity
  8
0
100
AcDbLine
 62
7
  6
CONTINUOUS
 10
175.6979236864
 20
247.5367906899
 11
177.5998797011
 21
248.6348789522
  0
LINE
  5
23B
100
AcDbEntity
  8
0
100
AcDbLine
 62
7
  6
CONTINUOUS
 10
180.3293388371
 20
253.5887611115
 11
179.3072687553
 21
253.0823957884
  0
LINE
  5
23C
100
AcDbEntity
  8
0
100
AcDbLine
 62
7
  6
CONTINUOUS
 10
173.6504380576
 20
249.8164425574
 11
174.6725081394
 21
250.3228078805
  0
LINE
  5
23D
100
AcDbEntity
  8
0
100
AcDbLine
 62
7
  6
CONTINUOUS
 10
44.5471296337
 20
132.382474288
 11
44.1246876869
 21
132.0188465758
  0
LINE
  5
23E
100
AcDbEntity
  8
0
100
AcDbLine
 62
7
  6
CONTINUOUS
 10
57.1504916226
 20
155.6185266124
 11
43.3710480527
 21
144.6117080775
  0
LINE
  5
23F
100
AcDbEntity
  8
0
100
AcDbLine
 62
7
  6
CONTINUOUS
 10
43.4417584364
 20
144.6525324929
 11
57.1581271197
 21
155.6089677284
  0
LINE
  5
240
100
AcDbEntity
  8
0
100
AcDbLine
 62
7
  6
CONTINUOUS
 10
45.6549673173
 20
141.080200437
 11
59.4344108871
 21
152.087018972
  0
LINE
  5
241
100
AcDbEntity
  8
0
100
AcDbLine
 62
7
  6
CONTINUOUS
 10
58.1169087729
 20
164.2346035686
 11
58.3256506048
 21
164.3763477209
  0
LINE
  5
242
100
AcDbEntity
  8
0
100
AcDbLine
 62
7
  6
CONTINUOUS
 10
43.2166647854
 20
133.2107940992
 11
66.7950853854
 21
152.0448925566
  0
LINE
  5
243
100
AcDbEntity
  8
0
100
AcDbLine
 62
7
  6
CONTINUOUS
 10
63.8925506207
 20
149.6771803803
 11
46.1611699277
 21
135.5136095215
  0
LINE
  5
244
100
AcDbEntity
  8
0
100
AcDbLine
 62
7
  6
CONTINUOUS
 10
67.0774544855
 20
150.3793696987
 11
64.6779829949
 21
148.46270652
  0
LINE
  5
245
100
AcDbEntity
  8
0
100
AcDbLine
 62
7
  6
CONTINUOUS
 10
65.2280217654
 20
148.7083930982
 11
58.7649540339
 21
143.5457879202
  0
LINE
  5
246
100
AcDbEntity
  8
0
100
AcDbLine
 62
7
  6
CONTINUOUS
 10
70.4588986152
 20
151.0448760936
 11
59.5503864081
 21
142.33131406
  0
LINE
  5
247
100
AcDbEntity
  8
0
100
AcDbLine
 62
7
  6
CONTINUOUS
 10
68.9203201846
 20
146.7625702575
 11
88.8712483934
 21
162.6990816965
  0
LINE
  5
248
100
AcDbEntity
  8
0
100
AcDbLine
 62
7
  6
CONTINUOUS
 10
46.9466023019
 20
134.2991356612
 11
44.5471296337
 21
132.382474288
  0
LINE
  5
249
100
AcDbEntity
  8
0
100
AcDbLine
 62
7
  6
CONTINUOUS
 10
49.3906356409
 20
155.4223194801
 11
37.9860540962
 21
148.1543734283
  0
LINE
  5
24A
100
AcDbEntity
  8
0
100
AcDbLine
 62
7
  6
CONTINUOUS
 10
163.9956575717
 20
228.2354048308
 11
173.3811283146
 21
234.2030100244
  0
LINE
  5
24B
100
AcDbEntity
  8
0
100
AcDbLine
 62
7
  6
CONTINUOUS
 10
194.7277262306
 20
244.5281664005
 11
193.2542879401
 21
243.6774814847
  0
LINE
  5
24C
100
AcDbEntity
  8
0
100
AcDbLine
 62
7
  6
CONTINUOUS
 10
192.4070412538
 20
242.4721300914
 11
195.1188708265
 21
244.0377962795
  0
LINE
  5
24D
100
AcDbEntity
  8
0
100
AcDbLine
 62
7
  6
CONTINUOUS
 10
85.0378294143
 20
179.7992878007
 11
58.3253263901
 21
164.3769090482
  0
LINE
  5
24E
100
AcDbEntity
  8
0
100
AcDbLine
 62
7
  6
CONTINUOUS
 10
94.4904925068
 20
182.7528190583
 11
92.0042679321
 21
181.317405199
  0
LINE
  5
24F
100
AcDbEntity
  8
0
100
AcDbLine
 62
7
  6
CONTINUOUS
 10
117.4127913701
 20
194.5009849245
 11
164.782706186
 21
221.8498547443
  0
LINE
  5
250
100
AcDbEntity
  8
0
100
AcDbLine
 62
7
  6
CONTINUOUS
 10
95.6909279792
 20
181.4259099547
 11
62.7251898304
 21
162.3932457701
  0
LINE
  5
251
100
AcDbEntity
  8
0
100
AcDbLine
 62
7
  6
CONTINUOUS
 10
35.868952787
 20
144.5721856621
 11
35.9396631707
 21
144.6130100775
  0
LINE
  5
252
100
AcDbEntity
  8
0
100
AcDbLine
 62
7
  6
CONTINUOUS
 10
170.9082179039
 20
205.3018338148
 11
174.3202372365
 21
204.98493758
  0
LINE
  5
253
100
AcDbEntity
  8
0
100
AcDbLine
 62
7
  6
CONTINUOUS
 10
170.9082183719
 20
205.3018322558
 11
167.8989625219
 21
206.3397870856
  0
LINE
  5
254
100
AcDbEntity
  8
0
100
AcDbLine
 62
7
  6
CONTINUOUS
 10
224.9736006804
 20
167.3187048019
 11
161.5793508969
 21
203.9185639801
  0
LINE
  5
255
100
AcDbEntity
  8
0
100
AcDbLine
 62
7
  6
CONTINUOUS
 10
162.9102527543
 20
204.686955939
 11
223.0517640171
 21
169.965023737
  0
LINE
  5
256
100
AcDbEntity
  8
0
100
AcDbLine
 62
7
  6
CONTINUOUS
 10
223.0233792905
 20
170.228726965
 11
163.1244374684
 21
204.8106148032
  0
LINE
  5
257
100
AcDbEntity
  8
0
100
AcDbLine
 62
7
  6
CONTINUOUS
 10
192.4965233133
 20
188.1678926222
 11
182.5969871613
 21
193.8832631855
  0
LINE
  5
258
100
AcDbEntity
  8
0
100
AcDbLine
 62
7
  6
CONTINUOUS
 10
183.2077557857
 20
194.2359026197
 11
191.6930724875
 21
189.3370135654
  0
LINE
  5
259
100
AcDbEntity
  8
0
100
AcDbLine
 62
7
  6
CONTINUOUS
 10
183.2200487305
 20
194.2430027341
 11
191.4225215422
 21
189.5074099817
  0
LINE
  5
25A
100
AcDbEntity
  8
0
100
AcDbLine
 62
7
  6
CONTINUOUS
 10
160.7265054919
 20
222.9371822887
 11
162.1580910627
 21
226.0505184259
  0
LINE
  5
25B
100
AcDbEntity
  8
0
100
AcDbLine
 62
7
  6
CONTINUOUS
 10
177.4751925378
 20
228.4662000244
 11
177.9468881898
 21
229.1189724723
  0
LINE
  5
25C
100
AcDbEntity
  8
0
100
AcDbLine
 62
7
  6
CONTINUOUS
 10
58.7649540339
 20
143.5457879202
 11
46.1611699277
 21
135.5136095215
  0
LINE
  5
25D
100
AcDbEntity
  8
0
100
AcDbLine
 62
7
  6
CONTINUOUS
 10
46.9466023019
 20
134.2991356612
 11
59.5503864081
 21
142.33131406
  0
LINE
  5
25E
100
AcDbEntity
  8
0
100
AcDbLine
 62
7
  6
CONTINUOUS
 10
199.378043009
 20
236.0595081777
 11
200.3231642219
 21
236.6051709072
  0
LINE
  5
25F
100
AcDbEntity
  8
0
100
AcDbLine
 62
7
  6
CONTINUOUS
 10
43.4417584364
 20
144.6525324929
 11
43.3710480527
 21
144.6117080775
  0
LINE
  5
260
100
AcDbEntity
  8
0
100
AcDbLine
 62
7
  6
CONTINUOUS
 10
213.6814711246
 20
241.4694483856
 11
213.467433607
 21
241.3458745049
  0
LINE
  5
261
100
AcDbEntity
  8
0
100
AcDbLine
 62
7
  6
CONTINUOUS
 10
206.5077847427
 20
237.2260859426
 11
206.2945349403
 21
237.1029668468
  0
LINE
  5
262
100
AcDbEntity
  8
0
100
AcDbLine
 62
7
  6
CONTINUOUS
 10
125.6043671359
 20
189.7716834421
 11
171.7463775816
 21
216.4116265749
  0
LINE
  5
263
100
AcDbEntity
  8
0
100
AcDbLine
 62
7
  6
CONTINUOUS
 10
99.5858123171
 20
174.6478538933
 11
66.9758831049
 21
155.8206148678
  0
LINE
  5
264
100
AcDbEntity
  8
0
100
AcDbLine
 62
7
  6
CONTINUOUS
 10
122.7497421621
 20
187.9088941656
 11
125.7902886621
 21
189.6643440273
  0
LINE
  5
265
100
AcDbEntity
  8
0
100
AcDbLine
 62
7
  6
CONTINUOUS
 10
112.143172828
 20
181.7851968401
 11
121.3355227118
 21
187.0923708404
  0
LINE
  5
266
100
AcDbEntity
  8
0
100
AcDbLine
 62
7
  6
CONTINUOUS
 10
100.1132164882
 20
173.1907349923
 11
98.118150529
 21
172.0388899993
  0
LINE
  5
267
100
AcDbEntity
  8
0
100
AcDbLine
 62
7
  6
CONTINUOUS
 10
217.0755978053
 20
239.5098927639
 11
216.8615602878
 21
239.3863188832
  0
LINE
  5
268
100
AcDbEntity
  8
0
100
AcDbLine
 62
7
  6
CONTINUOUS
 10
93.0824660424
 20
165.3932805004
 11
67.0774544855
 21
150.3793696987
  0
LINE
  5
269
100
AcDbEntity
  8
0
100
AcDbLine
 62
7
  6
CONTINUOUS
 10
35.4894044145
 20
146.1861095587
 11
35.5865687226
 21
146.2376976651
  0
LINE
  5
26A
100
AcDbEntity
  8
0
100
AcDbLine
 62
7
  6
CONTINUOUS
 10
190.9888311887
 20
193.0129313528
 11
182.786358377
 21
197.7485241052
  0
LINE
  5
26B
100
AcDbEntity
  8
0
100
AcDbLine
 62
7
  6
CONTINUOUS
 10
191.2476229766
 20
193.1623467912
 11
182.7623062748
 21
198.0612358455
  0
LINE
  5
26C
100
AcDbEntity
  8
0
100
AcDbLine
 62
7
  6
CONTINUOUS
 10
181.9733363905
 20
199.2387173143
 11
191.8728725426
 21
193.523346751
  0
LINE
  5
26D
100
AcDbEntity
  8
0
100
AcDbLine
 62
7
  6
CONTINUOUS
 10
192.0863455569
 20
193.6465947176
 11
182.1868094049
 21
199.3619652809
  0
LINE
  5
26E
100
AcDbEntity
  8
0
100
AcDbLine
 62
7
  6
CONTINUOUS
 10
231.7541138119
 20
175.2631903377
 11
231.9205805301
 21
175.1670829074
  0
LINE
  5
26F
100
AcDbEntity
  8
0
100
AcDbLine
 62
7
  6
CONTINUOUS
 10
170.7272656527
 20
232.5155928412
 11
170.7272365609
 21
236.549764914
  0
LINE
  5
270
100
AcDbEntity
  8
0
100
AcDbLine
 62
7
  6
CONTINUOUS
 10
170.5184944297
 20
209.0795500981
 11
171.7463775816
 21
216.4116265749
  0
LINE
  5
271
100
AcDbEntity
  8
0
100
AcDbLine
 62
7
  6
CONTINUOUS
 10
193.2542879401
 20
243.6774814847
 11
192.4070412538
 21
242.4721300914
  0
LINE
  5
272
100
AcDbEntity
  8
0
100
AcDbLine
 62
7
  6
CONTINUOUS
 10
125.7902886621
 20
183.2558626045
 11
170.5184944297
 21
209.0795500981
  0
LINE
  5
273
100
AcDbEntity
  8
0
100
AcDbLine
 62
7
  6
CONTINUOUS
 10
224.9736006804
 20
239.1709175093
 11
268.1303636135
 21
264.0873374752
  0
LINE
  5
274
100
AcDbEntity
  8
0
100
AcDbLine
 62
7
  6
CONTINUOUS
 10
235.7138953003
 20
243.1672359588
 11
231.7541138119
 21
240.8810686971
  0
LINE
  5
275
100
AcDbEntity
  8
0
100
AcDbLine
 62
7
  6
CONTINUOUS
 10
231.9205805301
 20
240.5689265195
 11
233.1226570534
 21
241.2629415811
  0
LINE
  5
276
100
AcDbEntity
  8
0
100
AcDbLine
 62
7
  6
CONTINUOUS
 10
44.5471308047
 20
132.3824724773
 11
69.1258915409
 21
146.572941899
  0
LINE
  5
277
100
AcDbEntity
  8
0
100
AcDbLine
 62
7
  6
CONTINUOUS
 10
69.2058048477
 20
146.4992262342
 11
44.1247412848
 21
132.0187538714
  0
LINE
  5
278
100
AcDbEntity
  8
0
100
AcDbLine
 62
7
  6
CONTINUOUS
 10
234.2104938234
 20
239.4414722686
 11
234.6532307125
 21
239.697085005
  0
LINE
  5
279
100
AcDbEntity
  8
0
100
AcDbLine
 62
7
  6
CONTINUOUS
 10
233.1226570534
 20
237.9969319125
 11
231.9205805301
 21
237.302916851
  0
LINE
  5
27A
100
AcDbEntity
  8
0
100
AcDbLine
 62
7
  6
CONTINUOUS
 10
212.9976836698
 20
226.1326871579
 11
214.9878778762
 21
227.2817194599
  0
LINE
  5
27B
100
AcDbEntity
  8
0
100
AcDbLine
 62
7
  6
CONTINUOUS
 10
231.7541138119
 20
236.7985566115
 11
235.7138953003
 21
239.0847238732
  0
LINE
  5
27C
100
AcDbEntity
  8
0
100
AcDbLine
 62
7
  6
CONTINUOUS
 10
211.9911127857
 20
224.7765177528
 11
211.7785039325
 21
224.6537687068
  0
LINE
  5
27D
100
AcDbEntity
  8
0
100
AcDbLine
 62
7
  6
CONTINUOUS
 10
215.7659803931
 20
223.7301448366
 11
215.5533068547
 21
223.6073584449
  0
LINE
  5
27E
100
AcDbEntity
  8
0
100
AcDbLine
 62
7
  6
CONTINUOUS
 10
177.1311902013
 20
205.4838591243
 11
186.992049863
 21
210.6280616422
  0
LINE
  5
27F
100
AcDbEntity
  8
0
100
AcDbLine
 62
7
  6
CONTINUOUS
 10
231.7541138119
 20
178.5292000063
 11
231.9205805301
 21
178.4330925759
  0
LINE
  5
280
100
AcDbEntity
  8
0
100
AcDbLine
 62
7
  6
CONTINUOUS
 10
234.6532307125
 20
177.5612510614
 11
235.7138953003
 21
176.9488899296
  0
LINE
  5
281
100
AcDbEntity
  8
0
100
AcDbLine
 62
7
  6
CONTINUOUS
 10
184.2037648651
 20
209.1734721644
 11
187.6974353901
 21
207.1563428733
  0
LINE
  5
282
100
AcDbEntity
  8
0
100
AcDbLine
 62
7
  6
CONTINUOUS
 10
171.7463775816
 20
216.4116265749
 11
164.782706186
 21
221.8498547443
  0
LINE
  5
283
100
AcDbEntity
  8
0
100
AcDbLine
 62
7
  6
CONTINUOUS
 10
182.796235556
 20
197.749251874
 11
182.7623062748
 21
198.0612358455
  0
LINE
  5
284
100
AcDbEntity
  8
0
100
AcDbLine
 62
7
  6
CONTINUOUS
 10
198.5307911062
 20
234.854149363
 11
199.378043009
 21
236.0595081777
  0
LINE
  5
285
100
AcDbEntity
  8
0
100
AcDbLine
 62
7
  6
CONTINUOUS
 10
217.2147553062
 20
220.8923679428
 11
217.0021934113
 21
220.7696460082
  0
LINE
  5
286
100
AcDbEntity
  8
0
100
AcDbLine
 62
7
  6
CONTINUOUS
 10
182.1868094049
 20
199.3619652809
 11
181.9733363905
 21
199.2387173143
  0
LINE
  5
287
100
AcDbEntity
  8
0
100
AcDbLine
 62
7
  6
CONTINUOUS
 10
182.786358377
 20
197.7485241052
 11
183.0451526088
 21
197.8979381327
  0
LINE
  5
288
100
AcDbEntity
  8
0
100
AcDbLine
 62
7
  6
CONTINUOUS
 10
193.2543212144
 20
202.4310987355
 11
194.9014558188
 21
203.3820666662
  0
LINE
  5
289
100
AcDbEntity
  8
0
100
AcDbLine
 62
7
  6
CONTINUOUS
 10
258.9380137297
 20
240.0006078809
 11
268.1303636135
 21
245.3077818812
  0
LINE
  5
28A
100
AcDbEntity
  8
0
100
AcDbLine
 62
7
  6
CONTINUOUS
 10
267.8475220786
 20
244.8178832528
 11
259.2208552646
 21
239.8373045755
  0
LINE
  5
28B
100
AcDbEntity
  8
0
100
AcDbLine
 62
7
  6
CONTINUOUS
 10
205.7449273044
 20
206.5701920283
 11
200.4001879758
 21
203.4844237577
  0
LINE
  5
28C
100
AcDbEntity
  8
0
100
AcDbLine
 62
7
  6
CONTINUOUS
 10
200.4000626516
 20
203.4846408807
 11
199.378062586
 21
202.9783049616
  0
LINE
  5
28D
100
AcDbEntity
  8
0
100
AcDbLine
 62
7
  6
CONTINUOUS
 10
70.4588986152
 20
151.0448760936
 11
64.6779829948
 21
148.46270652
  0
LWPOLYLINE
  5
28E
100
AcDbEntity
  8
0
100
AcDbPolyline
 62
7
  6
CONTINUOUS
 90
3
 70
0
 10
180.1270208056
 20
248.6566590139
 10
180.1443310851
 20
248.6610358052
 10
180.1636152019
 20
248.6569744012
  0
LINE
  5
28F
100
AcDbEntity
  8
0
100
AcDbLine
 62
7
  6
CONTINUOUS
 10
182.786358377
 20
197.7485241052
 11
183.2200487305
 21
194.2430027341
  0
LINE
  5
290
100
AcDbEntity
  8
0
100
AcDbLine
 62
7
  6
CONTINUOUS
 10
182.7968437554
 20
197.7496864846
 11
182.7623062748
 21
198.0612358455
  0
LINE
  5
291
100
AcDbEntity
  8
0
100
AcDbLine
 62
7
  6
CONTINUOUS
 10
96.8782178886
 20
140.2221601017
 11
98.5091988415
 21
141.163801773
  0
LINE
  5
292
100
AcDbEntity
  8
0
100
AcDbLine
 62
7
  6
CONTINUOUS
 10
192.0863455569
 20
193.6465947176
 11
191.8728725426
 21
193.523346751
  0
LINE
  5
293
100
AcDbEntity
  8
0
100
AcDbLine
 62
7
  6
CONTINUOUS
 10
190.9888311887
 20
193.0129313528
 11
191.2476241985
 21
193.1623446748
  0
LINE
  5
294
100
AcDbEntity
  8
0
100
AcDbLine
 62
7
  6
CONTINUOUS
 10
191.4225215422
 20
189.5074099817
 11
191.6558267712
 21
189.6421080145
  0
LINE
  5
295
100
AcDbEntity
  8
0
100
AcDbLine
 62
7
  6
CONTINUOUS
 10
192.7106278329
 20
188.2915051863
 11
192.4965233133
 21
188.1678926222
  0
LINE
  5
296
100
AcDbEntity
  8
0
100
AcDbLine
 62
7
  6
CONTINUOUS
 10
180.1254916937
 20
248.6610831988
 11
180.1622445465
 21
248.6609594831
  0
LINE
  5
297
100
AcDbEntity
  8
0
100
AcDbLine
 62
7
  6
CONTINUOUS
 10
211.3993800394
 20
224.0043361989
 11
217.0021934113
 21
220.7696460082
  0
LINE
  5
298
100
AcDbEntity
  8
0
100
AcDbLine
 62
7
  6
CONTINUOUS
 10
174.6725081394
 20
250.3228078805
 11
175.1227302805
 21
249.1624309171
  0
LINE
  5
299
100
AcDbEntity
  8
0
100
AcDbLine
 62
7
  6
CONTINUOUS
 10
192.8040086043
 20
203.5917088687
 11
193.2543212144
 21
202.4310987355
  0
LINE
  5
29A
100
AcDbEntity
  8
0
100
AcDbLine
 62
7
  6
CONTINUOUS
 10
191.4225215422
 20
189.5074099817
 11
190.9888311887
 21
193.0129313528
  0
LINE
  5
29B
100
AcDbEntity
  8
0
100
AcDbLine
 62
7
  6
CONTINUOUS
 10
191.6552251888
 20
189.6416681886
 11
191.6930724875
 21
189.3370135654
  0
LINE
  5
29C
100
AcDbEntity
  8
0
100
AcDbLine
 62
7
  6
CONTINUOUS
 10
233.6665895373
 20
241.9852304811
 11
233.1226570534
 21
241.2629415811
  0
LINE
  5
29D
100
AcDbEntity
  8
0
100
AcDbLine
 62
7
  6
CONTINUOUS
 10
233.1226570534
 20
237.9969319125
 11
234.5368570735
 21
239.8748506012
  0
LINE
  5
29E
100
AcDbEntity
  8
0
100
AcDbLine
 62
7
  6
CONTINUOUS
 10
259.2208552646
 20
219.6696948724
 11
267.8475220786
 21
224.6502735497
  0
LINE
  5
29F
100
AcDbEntity
  8
0
100
AcDbLine
 62
7
  6
CONTINUOUS
 10
258.9380137297
 20
219.179796244
 11
268.1303636135
 21
224.4869702444
  0
LINE
  5
2A0
100
AcDbEntity
  8
0
100
AcDbLine
 62
7
  6
CONTINUOUS
 10
211.7785039325
 20
224.6537687068
 11
216.3399569789
 21
222.0202944902
  0
LINE
  5
2A1
100
AcDbEntity
  8
0
100
AcDbLine
 62
7
  6
CONTINUOUS
 10
211.9911127857
 20
224.7765177528
 11
216.3551432588
 21
222.2570219675
  0
LINE
  5
2A2
100
AcDbEntity
  8
0
100
AcDbLine
 62
7
  6
CONTINUOUS
 10
215.5533068547
 20
223.6073584449
 11
212.159180174
 21
225.5669140666
  0
LINE
  5
2A3
100
AcDbEntity
  8
0
100
AcDbLine
 62
7
  6
CONTINUOUS
 10
212.9976836698
 20
226.1326871579
 11
214.8361689552
 21
225.0712611961
  0
LINE
  5
2A4
100
AcDbEntity
  8
0
100
AcDbLine
 62
7
  6
CONTINUOUS
 10
199.378062586
 20
202.9783049616
 11
198.9277623422
 21
204.138754011
  0
LINE
  5
2A5
100
AcDbEntity
  8
0
100
AcDbLine
 62
7
  6
CONTINUOUS
 10
181.2464850326
 20
249.7094734454
 11
180.7962754201
 21
250.8699473319
  0
LINE
  5
2A6
100
AcDbEntity
  8
0
100
AcDbLine
 62
7
  6
CONTINUOUS
 10
180.7795609782
 20
252.4283841481
 11
180.3293388371
 21
253.5887611115
  0
LINE
  5
2A7
100
AcDbEntity
  8
0
100
AcDbLine
 62
7
  6
CONTINUOUS
 10
215.9736474347
 20
238.7920194565
 11
214.1351621494
 21
239.8534454182
  0
LINE
  5
2A8
100
AcDbEntity
  8
0
100
AcDbLine
 62
7
  6
CONTINUOUS
 10
213.467433607
 20
241.3458745049
 11
216.8615602878
 21
239.3863188832
  0
LINE
  5
2A9
100
AcDbEntity
  8
0
100
AcDbLine
 62
7
  6
CONTINUOUS
 10
217.0755978053
 20
239.5098927639
 11
213.6814711246
 21
241.4694483856
  0
LINE
  5
2AA
100
AcDbEntity
  8
0
100
AcDbLine
 62
7
  6
CONTINUOUS
 10
217.8332890271
 20
240.0290105566
 11
213.2718259419
 21
242.6625129189
  0
LINE
  5
2AB
100
AcDbEntity
  8
0
100
AcDbLine
 62
7
  6
CONTINUOUS
 10
212.4708254993
 20
244.3333939143
 11
152.1993618093
 21
279.1303524878
  0
LINE
  5
2AC
100
AcDbEntity
  8
0
100
AcDbLine
 62
7
  6
CONTINUOUS
 10
218.6676906195
 20
240.7557144629
 11
223.0517638527
 21
238.2246243649
  0
LINE
  5
2AD
100
AcDbEntity
  8
0
100
AcDbLine
 62
7
  6
CONTINUOUS
 10
150.7270795399
 20
282.036196734
 11
224.9736006804
 21
239.1709175093
  0
LINE
  5
2AE
100
AcDbEntity
  8
0
100
AcDbLine
 62
7
  6
CONTINUOUS
 10
258.9380137297
 20
219.8329898145
 11
259.2208552646
 21
219.6696948724
  0
LINE
  5
2AF
100
AcDbEntity
  8
0
100
AcDbLine
 62
7
  6
CONTINUOUS
 10
112.143172828
 20
115.6485010526
 11
121.3355227118
 21
120.9556750529
  0
LINE
  5
2B0
100
AcDbEntity
  8
0
100
AcDbLine
 62
7
  6
CONTINUOUS
 10
122.7497421621
 20
118.5061887096
 11
125.7902886621
 21
120.2616385713
  0
LINE
  5
2B1
100
AcDbEntity
  8
0
100
AcDbLine
 62
7
  6
CONTINUOUS
 10
235.7138953003
 20
181.0314020153
 11
231.7541138119
 21
178.7452347536
  0
LINE
  5
2B2
100
AcDbEntity
  8
0
100
AcDbLine
 62
7
  6
CONTINUOUS
 10
231.9205805301
 20
178.4330925759
 11
233.1226570534
 21
179.1271076375
  0
LINE
  5
2B3
100
AcDbEntity
  8
0
100
AcDbLine
 62
7
  6
CONTINUOUS
 10
234.2104938234
 20
177.3056383251
 11
234.6532307125
 21
177.5612510614
  0
LINE
  5
2B4
100
AcDbEntity
  8
0
100
AcDbLine
 62
7
  6
CONTINUOUS
 10
233.1226570534
 20
175.861097969
 11
231.9205805301
 21
175.1670829074
  0
LINE
  5
2B5
100
AcDbEntity
  8
0
100
AcDbLine
 62
7
  6
CONTINUOUS
 10
231.7541138119
 20
237.3990242813
 11
231.9205805301
 21
237.302916851
  0
LINE
  5
2B6
100
AcDbEntity
  8
0
100
AcDbLine
 62
7
  6
CONTINUOUS
 10
231.7541138119
 20
240.6650339498
 11
231.9205805301
 21
240.5689265195
  0
LINE
  5
2B7
100
AcDbEntity
  8
0
100
AcDbLine
 62
7
  6
CONTINUOUS
 10
234.6532307125
 20
239.697085005
 11
235.7138953003
 21
239.0847238732
  0
LINE
  5
2B8
100
AcDbEntity
  8
0
100
AcDbLine
 62
7
  6
CONTINUOUS
 10
267.8475184573
 20
224.6502672772
 11
268.1303636135
 21
224.4869702444
  0
LINE
  5
2B9
100
AcDbEntity
  8
0
100
AcDbLine
 62
7
  6
CONTINUOUS
 10
231.7541138119
 20
240.8810686971
 11
231.7541138119
 21
236.7985566115
  0
LINE
  5
2BA
100
AcDbEntity
  8
0
100
AcDbLine
 62
7
  6
CONTINUOUS
 10
231.7541138119
 20
178.7452347536
 11
231.7541138119
 21
174.6627226679
  0
LINE
  5
2BB
100
AcDbEntity
  8
0
100
AcDbLine
 62
7
  6
CONTINUOUS
 10
231.9205805301
 20
175.1670829074
 11
231.9205805301
 21
178.4330925759
  0
LINE
  5
2BC
100
AcDbEntity
  8
0
100
AcDbLine
 62
7
  6
CONTINUOUS
 10
231.9205805301
 20
237.302916851
 11
231.9205805301
 21
240.5689265195
  0
LINE
  5
2BD
100
AcDbEntity
  8
0
100
AcDbLine
 62
7
  6
CONTINUOUS
 10
233.1226570534
 20
241.2629415811
 11
233.1226570534
 21
237.9969319125
  0
LINE
  5
2BE
100
AcDbEntity
  8
0
100
AcDbLine
 62
7
  6
CONTINUOUS
 10
233.1226570534
 20
179.1271076375
 11
233.1226570534
 21
175.861097969
  0
LINE
  5
2BF
100
AcDbEntity
  8
0
100
AcDbLine
 62
7
  6
CONTINUOUS
 10
231.7541138119
 20
174.6627226679
 11
235.7138953003
 21
176.9488899296
  0
LINE
  5
2C0
100
AcDbEntity
  8
0
100
AcDbLine
 62
7
  6
CONTINUOUS
 10
224.9736006804
 20
167.3187048019
 11
268.1303636135
 21
192.2351247678
  0
LINE
  5
2C1
100
AcDbEntity
  8
0
100
AcDbLine
 62
7
  6
CONTINUOUS
 10
258.9380101084
 20
240.0006016084
 11
259.2208552646
 21
239.8373045755
  0
LINE
  5
2C2
100
AcDbEntity
  8
0
100
AcDbLine
 62
7
  6
CONTINUOUS
 10
234.5368570735
 20
242.4876766782
 11
234.5368570735
 21
239.8748506012
  0
LINE
  5
2C3
100
AcDbEntity
  8
0
100
AcDbLine
 62
7
  6
CONTINUOUS
 10
234.5368570735
 20
180.3518427346
 11
234.5368570735
 21
177.7390166576
  0
LINE
  5
2C4
100
AcDbEntity
  8
0
100
AcDbLine
 62
7
  6
CONTINUOUS
 10
234.6532307125
 20
177.5612510614
 11
234.6532307125
 21
180.4190306854
  0
LINE
  5
2C5
100
AcDbEntity
  8
0
100
AcDbLine
 62
7
  6
CONTINUOUS
 10
234.6532307125
 20
239.697085005
 11
234.6532307125
 21
242.554864629
  0
LINE
  5
2C6
100
AcDbEntity
  8
0
100
AcDbLine
 62
7
  6
CONTINUOUS
 10
235.7138953003
 20
176.9488899296
 11
235.7138953003
 21
181.0314020153
  0
LINE
  5
2C7
100
AcDbEntity
  8
0
100
AcDbLine
 62
7
  6
CONTINUOUS
 10
235.7138953003
 20
239.0847238732
 11
235.7138953003
 21
243.1672359588
  0
LINE
  5
2C8
100
AcDbEntity
  8
0
100
AcDbLine
 62
7
  6
CONTINUOUS
 10
233.6665895373
 20
179.8493965375
 11
233.1226570534
 21
179.1271076375
  0
LINE
  5
2C9
100
AcDbEntity
  8
0
100
AcDbLine
 62
7
  6
CONTINUOUS
 10
233.1226570534
 20
175.861097969
 11
234.5368570735
 21
177.7390166576
  0
LINE
  5
2CA
100
AcDbEntity
  8
0
100
AcDbLine
 62
7
  6
CONTINUOUS
 10
267.5646733009
 20
244.9811823764
 11
267.8475220786
 21
244.8178832528
  0
LINE
  5
2CB
100
AcDbEntity
  8
0
100
AcDbLine
 62
7
  6
CONTINUOUS
 10
258.9380137297
 20
219.179796244
 11
258.9380137297
 21
240.0006078809
  0
LINE
  5
2CC
100
AcDbEntity
  8
0
100
AcDbLine
 62
7
  6
CONTINUOUS
 10
259.2208552646
 20
239.8373045755
 11
259.2208552646
 21
219.6696948724
  0
LINE
  5
2CD
100
AcDbEntity
  8
0
100
AcDbLine
 62
7
  6
CONTINUOUS
 10
193.8838424731
 20
306.9526166998
 11
268.1303636135
 21
264.0873374752
  0
LINE
  5
2CE
100
AcDbEntity
  8
0
100
AcDbLine
 62
7
  6
CONTINUOUS
 10
267.8475220786
 20
224.6502735497
 11
267.8475220786
 21
244.8178832528
  0
LINE
  5
2CF
100
AcDbEntity
  8
0
100
AcDbLine
 62
7
  6
CONTINUOUS
 10
268.1303636135
 20
264.0873374752
 11
268.1303636135
 21
245.3077818812
  0
LINE
  5
2D0
100
AcDbEntity
  8
0
100
AcDbLine
 62
7
  6
CONTINUOUS
 10
268.1303636135
 20
224.4869702444
 11
268.1303636135
 21
192.2351247678
  0
ARC
  5
2D1
100
AcDbEntity
  8
0
100
AcDbCircle
 62
7
  6
CONTINUOUS
 10
552.6648008959
 20
205.6036942993
 40
342.3914872312
100
AcDbArc
 50
173.5050723761
 51
173.6995256043
  0
ARC
  5
2D2
100
AcDbEntity
  8
0
100
AcDbCircle
 62
7
  6
CONTINUOUS
 10
556.3023697857
 20
202.4222943925
 40
339.6048620786
100
AcDbArc
 50
173.5376370327
 51
174.283069875
  0
ARC
  5
2D3
100
AcDbEntity
  8
0
100
AcDbCircle
 62
7
  6
CONTINUOUS
 10
555.4601770424
 20
202.4013791227
 40
338.9693702244
100
AcDbArc
 50
173.5030769598
 51
174.2652904864
  0
ARC
  5
2D4
100
AcDbEntity
  8
0
100
AcDbCircle
 62
7
  6
CONTINUOUS
 10
539.9029396109
 20
206.3369819139
 40
328.3074201727
100
AcDbArc
 50
173.8786555983
 51
176.6420955986
  0
ARC
  5
2D5
100
AcDbEntity
  8
0
100
AcDbCircle
 62
7
  6
CONTINUOUS
 10
543.2245706561
 20
204.4974104619
 40
328.0229053109
100
AcDbArc
 50
173.8726952344
 51
176.6386894261
  0
ARC
  5
2D6
100
AcDbEntity
  8
0
100
AcDbCircle
 62
7
  6
CONTINUOUS
 10
542.2334036196
 20
204.8369001535
 40
328.0219179151
100
AcDbArc
 50
174.0583961122
 51
176.4634070595
  0
ARC
  5
2D7
100
AcDbEntity
  8
0
100
AcDbCircle
 62
7
  6
CONTINUOUS
 10
541.0740222977
 20
203.9067492494
 40
324.3043879733
100
AcDbArc
 50
174.2760238663
 51
176.997728682
  0
ARC
  5
2D8
100
AcDbEntity
  8
0
100
AcDbCircle
 62
7
  6
CONTINUOUS
 10
536.5130399506
 20
206.2201416474
 40
324.1275909548
100
AcDbArc
 50
174.0439460938
 51
176.4778570779
  0
ARC
  5
2D9
100
AcDbEntity
  8
0
100
AcDbCircle
 62
7
  6
CONTINUOUS
 10
538.8327710088
 20
204.7475666226
 40
323.8291273054
100
AcDbArc
 50
173.8595437548
 51
176.6612074422
  0
ARC
  5
2DA
100
AcDbEntity
  8
0
100
AcDbCircle
 62
7
  6
CONTINUOUS
 10
536.8920240349
 20
204.1121953771
 40
320.3232342461
100
AcDbArc
 50
174.2379016088
 51
177.0191600515
  0
ARC
  5
2DB
100
AcDbEntity
  8
0
100
AcDbCircle
 62
7
  6
CONTINUOUS
 10
422.5504002368
 20
218.1572057225
 40
232.6493450265
100
AcDbArc
 50
186.1675192911
 51
187.0403752726
  0
ARC
  5
2DC
100
AcDbEntity
  8
0
100
AcDbCircle
 62
7
  6
CONTINUOUS
 10
413.3540022508
 20
223.4693078249
 40
232.6459414012
100
AcDbArc
 50
185.978324348
 51
187.306202152
  0
ARC
  5
2DD
100
AcDbEntity
  8
0
100
AcDbCircle
 62
7
  6
CONTINUOUS
 10
423.1830904632
 20
217.873313056
 40
232.3631627167
100
AcDbArc
 50
185.9846663205
 51
187.3140889013
  0
ARC
  5
2DE
100
AcDbEntity
  8
0
100
AcDbCircle
 62
7
  6
CONTINUOUS
 10
421.755843568
 20
217.5795284224
 40
231.1382275698
100
AcDbArc
 50
185.9739932812
 51
187.3105332189
  0
ARC
  5
2DF
100
AcDbEntity
  8
0
100
AcDbCircle
 62
7
  6
CONTINUOUS
 10
411.9910821172
 20
222.8112952797
 40
230.5609756072
100
AcDbArc
 50
186.447024093
 51
187.119462438
  0
ARC
  5
2E0
100
AcDbEntity
  8
0
100
AcDbCircle
 62
7
  6
CONTINUOUS
 10
21.9951451708
 20
131.3912309381
 40
51.1865362739
100
AcDbArc
 50
28.5080892981
 51
37.2755311695
  0
ARC
  5
2E1
100
AcDbEntity
  8
0
100
AcDbCircle
 62
7
  6
CONTINUOUS
 10
195.149987455
 20
212.5767504519
 40
8.1493068147
100
AcDbArc
 50
300.0043843892
 51
304.5346290559
  0
ARC
  5
2E2
100
AcDbEntity
  8
0
100
AcDbCircle
 62
7
  6
CONTINUOUS
 10
195.6159626697
 20
213.0188899181
 40
8.1476068604
100
AcDbArc
 50
300.0653895933
 51
312.2228741503
  0
ARC
  5
2E3
100
AcDbEntity
  8
0
100
AcDbCircle
 62
7
  6
CONTINUOUS
 10
195.1637257177
 20
212.5542290954
 40
8.1229335927
100
AcDbArc
 50
298.4336154533
 51
299.9999054482
  0
ARC
  5
2E4
100
AcDbEntity
  8
0
100
AcDbCircle
 62
7
  6
CONTINUOUS
 10
195.6667623619
 20
212.9588768079
 40
8.0703771761
100
AcDbArc
 50
294.0970841441
 51
295.6820487965
  0
ARC
  5
2E5
100
AcDbEntity
  8
0
100
AcDbCircle
 62
7
  6
CONTINUOUS
 10
195.6918920006
 20
212.9070814126
 40
8.0128079019
100
AcDbArc
 50
295.6806170247
 51
299.9960392479
  0
SPLINE
  5
2E6
100
AcDbEntity
  8
0
100
AcDbSpline
 62
7
  6
CONTINUOUS
 70
0
 71
3
 72
11
 73
7
 74
0
 42
0.0000001
 43
0.0000001
 44
0.0000000001
 40
0.0
 40
0.0
 40
0.0
 40
0.0
 40
0.2193642254
 40
0.4523783658
 40
0.7115251369
 40
1.0
 40
1.0
 40
1.0
 40
1.0
 10
174.7742612074
 20
229.548338902
 30
0.0
 10
174.7619136792
 20
229.4743279435
 30
0.0
 10
174.7641566591
 20
229.3158128931
 30
0.0
 10
174.850452912
 20
229.0842320531
 30
0.0
 10
175.0095584806
 20
228.866639841
 30
0.0
 10
175.150534326
 20
228.7413221589
 30
0.0
 10
175.2294694117
 20
228.6821134645
 30
0.0
  0
SPLINE
  5
2E7
100
AcDbEntity
  8
0
100
AcDbSpline
 62
7
  6
CONTINUOUS
 70
0
 71
3
 72
11
 73
7
 74
0
 42
0.0000001
 43
0.0000001
 44
0.0000000001
 40
0.0
 40
0.0
 40
0.0
 40
0.0
 40
0.2087288254
 40
0.4387384871
 40
0.701554664
 40
1.0
 40
1.0
 40
1.0
 40
1.0
 10
185.2474492034
 20
213.357137718
 30
0.0
 10
185.198069326
 20
213.3956586966
 30
0.0
 10
185.0763773345
 20
213.4552865753
 30
0.0
 10
184.8633311682
 20
213.4750218482
 30
0.0
 10
184.6278176556
 20
213.4300306011
 30
0.0
 10
184.4719968713
 20
213.3630219115
 30
0.0
 10
184.3929379406
 20
213.3209708947
 30
0.0
  0
SPLINE
  5
2E8
100
AcDbEntity
  8
0
100
AcDbSpline
 62
7
  6
CONTINUOUS
 70
0
 71
3
 72
12
 73
8
 74
0
 42
0.0000001
 43
0.0000001
 44
0.0000000001
 40
0.0
 40
0.0
 40
0.0
 40
0.0
 40
0.1078298945
 40
0.2184546532
 40
0.4530918275
 40
0.7125272324
 40
1.0
 40
1.0
 40
1.0
 40
1.0
 10
198.9617682736
 20
205.5917930018
 30
0.0
 10
198.5752039756
 20
205.4188925956
 30
0.0
 10
197.7630481352
 20
205.1299956321
 30
0.0
 10
196.0103483562
 20
204.7918691058
 30
0.0
 10
193.6061061423
 20
204.8547047278
 30
0.0
 10
190.6210033809
 20
205.6527110995
 30
0.0
 10
188.6755862791
 20
206.5916199635
 30
0.0
 10
187.6978699639
 20
207.1560919713
 30
0.0
  0
SPLINE
  5
2E9
100
AcDbEntity
  8
0
100
AcDbSpline
 62
7
  6
CONTINUOUS
 70
0
 71
3
 72
14
 73
10
 74
0
 42
0.0000001
 43
0.0000001
 44
0.0000000001
 40
0.0
 40
0.0
 40
0.0
 40
0.0
 40
0.2892717988
 40
0.422536962
 40
0.5484970677
 40
0.6678943901
 40
0.7818681766
 40
0.8919524741
 40
1.0
 40
1.0
 40
1.0
 40
1.0
 10
170.7272485914
 20
236.5497579689
 30
0.0
 10
170.7272076733
 20
237.7662354128
 30
0.0
 10
170.8692312635
 20
239.55187445
 30
0.0
 10
171.4181958621
 20
241.7962505549
 30
0.0
 10
171.9766783636
 20
243.2918396557
 30
0.0
 10
172.6884650694
 20
244.6302177804
 30
0.0
 10
173.548258842
 20
245.7978384792
 30
0.0
 10
174.5478726634
 20
246.7816769526
 30
0.0
 10
175.3044355252
 20
247.3095856027
 30
0.0
 10
175.6979261306
 20
247.5367864566
 30
0.0
  0
SPLINE
  5
2EA
100
AcDbEntity
  8
0
100
AcDbSpline
 62
7
  6
CONTINUOUS
 70
0
 71
3
 72
9
 73
5
 74
0
 42
0.0000001
 43
0.0000001
 44
0.0000000001
 40
0.0
 40
0.0
 40
0.0
 40
0.0
 40
0.4834851314
 40
1.0
 40
1.0
 40
1.0
 40
1.0
 10
177.1311863295
 20
205.4838660565
 30
0.0
 10
176.7189716161
 20
205.2687814748
 30
0.0
 10
175.7890990978
 20
204.9614476241
 30
0.0
 10
174.8148250784
 20
204.9390679051
 30
0.0
 10
174.3202314271
 20
204.9849569195
 30
0.0
  0
SPLINE
  5
2EB
100
AcDbEntity
  8
0
100
AcDbSpline
 62
7
  6
CONTINUOUS
 70
0
 71
3
 72
9
 73
5
 74
0
 42
0.0000001
 43
0.0000001
 44
0.0000000001
 40
0.0
 40
0.0
 40
0.0
 40
0.0
 40
0.5165098699
 40
1.0
 40
1.0
 40
1.0
 40
1.0
 10
162.1581147735
 20
226.0504932484
 30
0.0
 10
162.3656165929
 20
226.5017858825
 30
0.0
 10
162.8722200766
 20
227.3343103437
 30
0.0
 10
163.6033238923
 20
227.9858842671
 30
0.0
 10
163.9956776254
 20
228.2353712135
 30
0.0
  0
SPLINE
  5
2EC
100
AcDbEntity
  8
0
100
AcDbSpline
 62
7
  6
CONTINUOUS
 70
0
 71
3
 72
9
 73
5
 74
0
 42
0.0000001
 43
0.0000001
 44
0.0000000001
 40
0.0
 40
0.0
 40
0.0
 40
0.0
 40
0.5320040839
 40
1.0
 40
1.0
 40
1.0
 40
1.0
 10
160.1347899465
 20
219.2654204795
 30
0.0
 10
160.1012679689
 20
219.9287879017
 30
0.0
 10
160.1453981399
 20
221.1854144384
 30
0.0
 10
160.4824275688
 20
222.4062968516
 30
0.0
 10
160.7265183705
 20
222.9371686174
 30
0.0
  0
SPLINE
  5
2ED
100
AcDbEntity
  8
0
100
AcDbSpline
 62
7
  6
CONTINUOUS
 70
0
 71
3
 72
9
 73
5
 74
0
 42
0.0000001
 43
0.0000001
 44
0.0000000001
 40
0.0
 40
0.0
 40
0.0
 40
0.0
 40
0.2442868205
 40
1.0
 40
1.0
 40
1.0
 40
1.0
 10
167.8989625219
 20
206.3397870856
 30
0.0
 10
167.8155809119
 20
206.3879263915
 30
0.0
 10
167.4770199453
 20
206.5897561377
 30
0.0
 10
167.1494705615
 20
206.80991921
 30
0.0
 10
166.9083895982
 20
206.9848282705
 30
0.0
  0
SPLINE
  5
2EE
100
AcDbEntity
  8
0
100
AcDbSpline
 62
7
  6
CONTINUOUS
 70
0
 71
3
 72
17
 73
13
 74
0
 42
0.0000001
 43
0.0000001
 44
0.0000000001
 40
0.0
 40
0.0
 40
0.0
 40
0.0
 40
0.1362950713
 40
0.2855081991
 40
0.4396775903
 40
0.5895545138
 40
0.7256662985
 40
0.8401018891
 40
0.8879207724
 40
0.9295801348
 40
0.9662240929
 40
1.0
 40
1.0
 40
1.0
 40
1.0
 10
184.3929379406
 20
213.3209708947
 30
0.0
 10
184.2745348978
 20
213.257992958
 30
0.0
 10
184.0424961722
 20
213.0954181706
 30
0.0
 10
183.7364837711
 20
212.7872770016
 30
0.0
 10
183.4715088394
 20
212.4266896708
 30
0.0
 10
183.2633441374
 20
212.0453224504
 30
0.0
 10
183.1236787449
 20
211.6756945626
 30
0.0
 10
183.0664616364
 20
211.385053319
 30
0.0
 10
183.0686985227
 20
211.1836636609
 30
0.0
 10
183.0922412469
 20
211.0609289438
 30
0.0
 10
183.1383914932
 20
210.959329665
 30
0.0
 10
183.1859403534
 20
210.9069333304
 30
0.0
 10
183.2121478942
 20
210.8864958241
 30
0.0
  0
SPLINE
  5
2EF
100
AcDbEntity
  8
0
100
AcDbSpline
 62
7
  6
CONTINUOUS
 70
0
 71
3
 72
9
 73
5
 74
0
 42
0.0000001
 43
0.0000001
 44
0.0000000001
 40
0.0
 40
0.0
 40
0.0
 40
0.0
 40
0.2520525613
 40
1.0
 40
1.0
 40
1.0
 40
1.0
 10
175.2294694117
 20
228.6821134645
 30
0.0
 10
175.3852437812
 20
228.565268123
 30
0.0
 10
176.0645882977
 20
228.2030993758
 30
0.0
 10
176.9818913322
 20
228.1652852385
 30
0.0
 10
177.4751925378
 20
228.4662000244
 30
0.0
  0
SPLINE
  5
2F0
100
AcDbEntity
  8
0
100
AcDbSpline
 62
7
  6
CONTINUOUS
 70
0
 71
3
 72
15
 73
11
 74
0
 42
0.0000001
 43
0.0000001
 44
0.0000000001
 40
0.0
 40
0.0
 40
0.0
 40
0.0
 40
0.1216387708
 40
0.2361408762
 40
0.3476175039
 40
0.4607700977
 40
0.5799700528
 40
0.7084832156
 40
0.8483159132
 40
1.0
 40
1.0
 40
1.0
 40
1.0
 10
160.7265183705
 20
222.9371686174
 30
0.0
 10
160.8680095302
 20
223.2448969762
 30
0.0
 10
161.2009131684
 20
223.8186578227
 30
0.0
 10
161.8710378417
 20
224.5298859445
 30
0.0
 10
162.6792552439
 20
225.0383959536
 30
0.0
 10
163.6021679655
 20
225.328238714
 30
0.0
 10
164.613113898
 20
225.3949736473
 30
0.0
 10
165.6879902105
 20
225.2425319018
 30
0.0
 10
166.8043014569
 20
224.8777869936
 30
0.0
 10
167.5331875265
 20
224.514015777
 30
0.0
 10
167.8989625219
 20
224.3028402624
 30
0.0
  0
SPLINE
  5
2F1
100
AcDbEntity
  8
0
100
AcDbSpline
 62
7
  6
CONTINUOUS
 70
0
 71
3
 72
12
 73
8
 74
0
 42
0.0000001
 43
0.0000001
 44
0.0000000001
 40
0.0
 40
0.0
 40
0.0
 40
0.0
 40
0.1084486756
 40
0.2185554141
 40
0.450881737
 40
0.7096545435
 40
1.0
 40
1.0
 40
1.0
 40
1.0
 10
173.3811490168
 20
234.2029753205
 30
0.0
 10
173.6050990046
 20
234.3453815399
 30
0.0
 10
174.0828700028
 20
234.5930416583
 30
0.0
 10
175.1403358096
 20
234.9244941236
 30
0.0
 10
176.6356778633
 20
234.997869135
 30
0.0
 10
178.5158369498
 20
234.563348632
 30
0.0
 10
179.7393553421
 20
233.9846354094
 30
0.0
 10
180.3546913912
 20
233.6293790128
 30
0.0
  0
SPLINE
  5
2F2
100
AcDbEntity
  8
0
100
AcDbSpline
 62
7
  6
CONTINUOUS
 70
0
 71
3
 72
12
 73
8
 74
0
 42
0.0000001
 43
0.0000001
 44
0.0000000001
 40
0.0
 40
0.0
 40
0.0
 40
0.0
 40
0.1084487359
 40
0.2185554769
 40
0.4508818255
 40
0.7096543744
 40
1.0
 40
1.0
 40
1.0
 40
1.0
 10
163.9956776254
 20
228.2353712135
 30
0.0
 10
164.2118069509
 20
228.3728019066
 30
0.0
 10
164.6728879877
 20
228.6118174855
 30
0.0
 10
165.693422756
 20
228.9316861973
 30
0.0
 10
167.1365348049
 20
229.0025017568
 30
0.0
 10
168.9510262128
 20
228.5831579534
 30
0.0
 10
170.1318103502
 20
228.0246575815
 30
0.0
 10
170.7256548765
 20
227.6818090406
 30
0.0
  0
SPLINE
  5
2F3
100
AcDbEntity
  8
0
100
AcDbSpline
 62
7
  6
CONTINUOUS
 70
0
 71
3
 72
18
 73
14
 74
0
 42
0.0000001
 43
0.0000001
 44
0.0000000001
 40
0.0
 40
0.0
 40
0.0
 40
0.0
 40
0.1291558338
 40
0.2713222245
 40
0.4189569005
 40
0.5634782496
 40
0.6968826914
 40
0.7576078804
 40
0.8137332233
 40
0.8652811772
 40
0.912739095
 40
0.9571328455
 40
1.0
 40
1.0
 40
1.0
 40
1.0
 10
170.7256548765
 20
227.6818090406
 30
0.0
 10
171.7090267192
 20
227.1140718864
 30
0.0
 10
173.6166077788
 20
225.6418933782
 30
0.0
 10
176.0518797569
 20
222.8551879581
 30
0.0
 10
178.0474397824
 20
219.5773174426
 30
0.0
 10
179.4342865381
 20
216.0836734897
 30
0.0
 10
180.0073742988
 20
213.1367630085
 30
0.0
 10
180.0340748912
 20
210.9312754006
 30
0.0
 10
179.8489856409
 20
209.4568627081
 30
0.0
 10
179.4618272684
 20
208.1418351595
 30
0.0
 10
178.8765419269
 20
207.0146821167
 30
0.0
 10
178.10184258
 20
206.1042899475
 30
0.0
 10
177.465311109
 20
205.6582050262
 30
0.0
 10
177.1311863295
 20
205.4838660565
 30
0.0
  0
SPLINE
  5
2F4
100
AcDbEntity
  8
0
100
AcDbSpline
 62
7
  6
CONTINUOUS
 70
0
 71
3
 72
14
 73
10
 74
0
 42
0.0000001
 43
0.0000001
 44
0.0000000001
 40
0.0
 40
0.0
 40
0.0
 40
0.0
 40
0.1020873411
 40
0.2104424735
 40
0.3294159866
 40
0.4596276146
 40
0.7377082737
 40
0.8745803596
 40
1.0
 40
1.0
 40
1.0
 40
1.0
 10
177.9468876389
 20
229.1190963534
 30
0.0
 10
177.9663851281
 20
229.2358391832
 30
0.0
 10
177.9532452658
 20
229.4882621607
 30
0.0
 10
177.7763539244
 20
229.8370717645
 30
0.0
 10
177.4673456505
 20
230.1242946612
 30
0.0
 10
176.9135342875
 20
230.397399752
 30
0.0
 10
176.2607030079
 20
230.4624068797
 30
0.0
 10
175.643618067
 20
230.3424206604
 30
0.0
 10
175.3606855682
 20
230.2209178732
 30
0.0
 10
175.2365589531
 20
230.1451748872
 30
0.0
  0
SPLINE
  5
2F5
100
AcDbEntity
  8
0
100
AcDbSpline
 62
7
  6
CONTINUOUS
 70
0
 71
3
 72
21
 73
17
 74
0
 42
0.0000001
 43
0.0000001
 44
0.0000000001
 40
0.0
 40
0.0
 40
0.0
 40
0.0
 40
0.0654229352
 40
0.135535452
 40
0.2850994449
 40
0.4381016859
 40
0.5122866366
 40
0.5830423319
 40
0.6492655236
 40
0.7102020885
 40
0.7655913321
 40
0.8158386345
 40
0.8621746022
 40
0.9066560411
 40
0.9518138521
 40
1.0
 40
1.0
 40
1.0
 40
1.0
 10
167.8989625219
 20
224.3028402624
 30
0.0
 10
168.3616614129
 20
224.0357069765
 30
0.0
 10
169.2786082998
 20
223.4082772529
 30
0.0
 10
171.0230828487
 20
221.859498436
 30
0.0
 10
172.9424089927
 20
219.4671571812
 30
0.0
 10
174.3825330551
 20
216.7248996387
 30
0.0
 10
175.1741289063
 20
214.4198789602
 30
0.0
 10
175.5524164144
 20
212.7333656397
 30
0.0
 10
175.710389129
 20
211.1201542719
 30
0.0
 10
175.642695762
 20
209.6248948528
 30
0.0
 10
175.3488278783
 20
208.2884620115
 30
0.0
 10
174.8315599582
 20
207.148164506
 30
0.0
 10
174.0973323636
 20
206.2415127558
 30
0.0
 10
173.1642403919
 20
205.6084585956
 30
0.0
 10
172.0716968747
 20
205.2788002059
 30
0.0
 10
171.3000439699
 20
205.2654765941
 30
0.0
 10
170.9082160737
 20
205.3018399069
 30
0.0
  0
SPLINE
  5
2F6
100
AcDbEntity
  8
0
100
AcDbSpline
 62
7
  6
CONTINUOUS
 70
0
 71
3
 72
11
 73
7
 74
0
 42
0.0000001
 43
0.0000001
 44
0.0000000001
 40
0.0
 40
0.0
 40
0.0
 40
0.0
 40
0.1860838778
 40
0.4063911061
 40
0.6775999056
 40
1.0
 40
1.0
 40
1.0
 40
1.0
 10
183.2121478942
 20
210.8864958241
 30
0.0
 10
183.25229161
 20
210.8551904281
 30
0.0
 10
183.3593238504
 20
210.810578468
 30
0.0
 10
183.5477238479
 20
210.814172178
 30
0.0
 10
183.7638215818
 20
210.8730701661
 30
0.0
 10
183.9118889423
 20
210.9412998198
 30
0.0
 10
183.9897600295
 20
210.9827152256
 30
0.0
  0
SPLINE
  5
2F7
100
AcDbEntity
  8
0
100
AcDbSpline
 62
7
  6
CONTINUOUS
 70
0
 71
3
 72
19
 73
15
 74
0
 42
0.0000001
 43
0.0000001
 44
0.0000000001
 40
0.0
 40
0.0
 40
0.0
 40
0.0
 40
0.1291318498
 40
0.2712718404
 40
0.4188791008
 40
0.5633736125
 40
0.6319713353
 40
0.6969389799
 40
0.7576528923
 40
0.8137678128
 40
0.8653061943
 40
0.9127552993
 40
0.9571408058
 40
1.0
 40
1.0
 40
1.0
 40
1.0
 10
180.3546913912
 20
233.6293790128
 30
0.0
 10
181.3736525084
 20
233.0410948463
 30
0.0
 10
183.3502398121
 20
231.5156974232
 30
0.0
 10
185.87380085
 20
228.6278376327
 30
0.0
 10
187.9409895459
 20
225.2324944991
 30
0.0
 10
189.1610313128
 20
222.1600750902
 30
0.0
 10
189.7504897829
 20
219.6922294314
 30
0.0
 10
189.9801812933
 20
217.9332896315
 30
0.0
 10
189.9999235891
 20
216.2725764564
 30
0.0
 10
189.8082216222
 20
214.7448640951
 30
0.0
 10
189.407031294
 20
213.3822299137
 30
0.0
 10
188.8005686623
 20
212.2142874129
 30
0.0
 10
187.9978309353
 20
211.2709463405
 30
0.0
 10
187.3382629623
 20
210.808717308
 30
0.0
 10
186.9920458511
 20
210.6280688253
 30
0.0
  0
SPLINE
  5
2F8
100
AcDbEntity
  8
0
100
AcDbSpline
 62
7
  6
CONTINUOUS
 70
0
 71
3
 72
9
 73
5
 74
0
 42
0.0000001
 43
0.0000001
 44
0.0000000001
 40
0.0
 40
0.0
 40
0.0
 40
0.0
 40
0.488010767
 40
1.0
 40
1.0
 40
1.0
 40
1.0
 10
175.6979261306
 20
247.5367864566
 30
0.0
 10
176.3471377326
 20
247.9116402099
 30
0.0
 10
177.7942253188
 20
248.4914177477
 30
0.0
 10
179.3389974471
 20
248.6623574463
 30
0.0
 10
180.1254916937
 20
248.6610831988
 30
0.0
  0
SPLINE
  5
2F9
100
AcDbEntity
  8
0
100
AcDbSpline
 62
7
  6
CONTINUOUS
 70
0
 71
3
 72
9
 73
5
 74
0
 42
0.0000001
 43
0.0000001
 44
0.0000000001
 40
0.0
 40
0.0
 40
0.0
 40
0.0
 40
0.2394496643
 40
1.0
 40
1.0
 40
1.0
 40
1.0
 10
180.1622445465
 20
248.6609594831
 30
0.0
 10
180.4333903777
 20
248.6595739166
 30
0.0
 10
181.5654558969
 20
248.6101894136
 30
0.0
 10
182.6873919248
 20
248.3933959434
 30
0.0
 10
183.5159216883
 20
248.1583078465
 30
0.0
  0
SPLINE
  5
2FA
100
AcDbEntity
  8
0
100
AcDbSpline
 62
7
  6
CONTINUOUS
 70
0
 71
3
 72
15
 73
11
 74
0
 42
0.0000001
 43
0.0000001
 44
0.0000000001
 40
0.0
 40
0.0
 40
0.0
 40
0.0
 40
0.1352697729
 40
0.2835050783
 40
0.4349290777
 40
0.5802492663
 40
0.7116080609
 40
0.8241167744
 40
0.9178496749
 40
1.0
 40
1.0
 40
1.0
 40
1.0
 10
183.9897600295
 20
210.9827152256
 30
0.0
 10
184.1095008596
 20
211.0463988756
 30
0.0
 10
184.348947772
 20
211.2017950588
 30
0.0
 10
184.6823349159
 20
211.4843828524
 30
0.0
 10
184.9850952026
 20
211.8138301984
 30
0.0
 10
185.2297598715
 20
212.168509944
 30
0.0
 10
185.3936853751
 20
212.5254642296
 30
0.0
 10
185.4608993169
 20
212.8613863995
 30
0.0
 10
185.4212742302
 20
213.1557619538
 30
0.0
 10
185.3123908707
 20
213.3064770703
 30
0.0
 10
185.2474492034
 20
213.357137718
 30
0.0
  0
SPLINE
  5
2FB
100
AcDbEntity
  8
0
100
AcDbSpline
 62
7
  6
CONTINUOUS
 70
0
 71
3
 72
9
 73
5
 74
0
 42
0.0000001
 43
0.0000001
 44
0.0000000001
 40
0.0
 40
0.0
 40
0.0
 40
0.0
 40
0.5388993478
 40
1.0
 40
1.0
 40
1.0
 40
1.0
 10
175.2365589531
 20
230.1451748872
 30
0.0
 10
175.1180809193
 20
230.0728787076
 30
0.0
 10
174.9125336314
 20
229.9080424878
 30
0.0
 10
174.793803768
 20
229.6654768119
 30
0.0
 10
174.7742612074
 20
229.548338902
 30
0.0
  0
SPLINE
  5
2FC
100
AcDbEntity
  8
0
100
AcDbSpline
 62
7
  6
CONTINUOUS
 70
0
 71
3
 72
9
 73
5
 74
0
 42
0.0000001
 43
0.0000001
 44
0.0000000001
 40
0.0
 40
0.0
 40
0.0
 40
0.0
 40
0.490231659
 40
1.0
 40
1.0
 40
1.0
 40
1.0
 10
192.6420053715
 20
242.6437243708
 30
0.0
 10
193.8041833113
 20
241.564063802
 30
0.0
 10
196.0178165812
 20
239.1889625204
 30
0.0
 10
197.9155911653
 20
236.5572464073
 30
0.0
 10
198.7993401463
 20
235.1644544506
 30
0.0
  0
SPLINE
  5
2FD
100
AcDbEntity
  8
0
100
AcDbSpline
 62
7
  6
CONTINUOUS
 70
0
 71
3
 72
11
 73
7
 74
0
 42
0.0000001
 43
0.0000001
 44
0.0000000001
 40
0.0
 40
0.0
 40
0.0
 40
0.0
 40
0.266218967
 40
0.5190068446
 40
0.762066824
 40
1.0
 40
1.0
 40
1.0
 40
1.0
 10
62.6096239601
 20
185.6575476567
 30
0.0
 10
62.8632218415
 20
186.2777105069
 30
0.0
 10
63.4386774041
 20
187.4562203965
 30
0.0
 10
64.5379590824
 20
189.0377672725
 30
0.0
 10
65.8372142124
 20
190.3628067143
 30
0.0
 10
66.8320986321
 20
191.0662271673
 30
0.0
 10
67.3506916585
 20
191.3656410377
 30
0.0
  0
SPLINE
  5
2FE
100
AcDbEntity
  8
0
100
AcDbSpline
 62
7
  6
CONTINUOUS
 70
0
 71
3
 72
13
 73
9
 74
0
 42
0.0000001
 43
0.0000001
 44
0.0000000001
 40
0.0
 40
0.0
 40
0.0
 40
0.0
 40
0.09210884
 40
0.1900524702
 40
0.2980870802
 40
0.4182064208
 40
0.6927385863
 40
1.0
 40
1.0
 40
1.0
 40
1.0
 10
44.1247264727
 20
132.0187794188
 30
0.0
 10
43.9882116686
 20
131.9398836828
 30
0.0
 10
43.6774117674
 20
131.8234453961
 30
0.0
 10
43.1614421512
 20
131.7970145112
 30
0.0
 10
42.6097814408
 20
131.910032562
 30
0.0
 10
41.8152987192
 20
132.2524593414
 30
0.0
 10
40.8520500684
 20
132.9999563064
 30
0.0
 10
40.2237514925
 20
133.7831389385
 30
0.0
 10
39.9381188996
 20
134.2247982792
 30
0.0
  0
SPLINE
  5
2FF
100
AcDbEntity
  8
0
100
AcDbSpline
 62
7
  6
CONTINUOUS
 70
0
 71
3
 72
9
 73
5
 74
0
 42
0.0000001
 43
0.0000001
 44
0.0000000001
 40
0.0
 40
0.0
 40
0.0
 40
0.0
 40
0.4742222051
 40
1.0
 40
1.0
 40
1.0
 40
1.0
 10
80.4551295171
 20
140.2119657848
 30
0.0
 10
79.4680661864
 20
140.3464489465
 30
0.0
 10
77.4192647434
 20
140.88922635
 30
0.0
 10
75.5177723366
 20
141.8069711221
 30
0.0
 10
74.5612560096
 20
142.3592035878
 30
0.0
  0
SPLINE
  5
300
100
AcDbEntity
  8
0
100
AcDbSpline
 62
7
  6
CONTINUOUS
 70
0
 71
3
 72
11
 73
7
 74
0
 42
0.0000001
 43
0.0000001
 44
0.0000000001
 40
0.0
 40
0.0
 40
0.0
 40
0.0
 40
0.2379317929
 40
0.480989437
 40
0.7337770902
 40
1.0
 40
1.0
 40
1.0
 40
1.0
 10
96.8782102743
 20
140.2221732898
 30
0.0
 10
96.3596313171
 20
139.9227406537
 30
0.0
 10
95.252989408
 20
139.412914582
 30
0.0
 10
93.455875215
 20
138.9501700115
 30
0.0
 10
91.5365575026
 20
138.7890086767
 30
0.0
 10
90.2282015458
 20
138.8799047236
 30
0.0
 10
89.5643174697
 20
138.9703817755
 30
0.0
  0
SPLINE
  5
301
100
AcDbEntity
  8
0
100
AcDbSpline
 62
7
  6
CONTINUOUS
 70
0
 71
3
 72
9
 73
5
 74
0
 42
0.0000001
 43
0.0000001
 44
0.0000000001
 40
0.0
 40
0.0
 40
0.0
 40
0.0
 40
0.2563740766
 40
1.0
 40
1.0
 40
1.0
 40
1.0
 10
58.4028337169
 20
212.8114941836
 30
0.0
 10
58.0526984962
 20
209.8952541875
 30
0.0
 10
56.8448155952
 20
198.5023283497
 30
0.0
 10
56.2815222052
 20
187.0378642387
 30
0.0
 10
56.2815222052
 20
178.5184138283
 30
0.0
  0
SPLINE
  5
302
100
AcDbEntity
  8
0
100
AcDbSpline
 62
7
  6
CONTINUOUS
 70
0
 71
3
 72
9
 73
5
 74
0
 42
0.0000001
 43
0.0000001
 44
0.0000000001
 40
0.0
 40
0.0
 40
0.0
 40
0.0
 40
0.2533731707
 40
1.0
 40
1.0
 40
1.0
 40
1.0
 10
56.2815222052
 20
178.5184138283
 30
0.0
 10
56.2815222052
 20
177.2200280945
 30
0.0
 10
56.3200491432
 20
172.0957255369
 30
0.0
 10
56.514535133
 20
166.9723900883
 30
0.0
 10
56.7538568103
 20
163.1538670635
 30
0.0
  0
SPLINE
  5
303
100
AcDbEntity
  8
0
100
AcDbSpline
 62
7
  6
CONTINUOUS
 70
0
 71
3
 72
9
 73
5
 74
0
 42
0.0000001
 43
0.0000001
 44
0.0000000001
 40
0.0
 40
0.0
 40
0.0
 40
0.0
 40
0.4825418127
 40
1.0
 40
1.0
 40
1.0
 40
1.0
 10
74.5612560096
 20
142.3592035878
 30
0.0
 10
73.5623396234
 20
142.9359151854
 30
0.0
 10
71.5838999252
 20
144.2932541678
 30
0.0
 10
69.7963083943
 20
145.8893127082
 30
0.0
 10
68.9203201846
 20
146.7625702575
 30
0.0
  0
SPLINE
  5
304
100
AcDbEntity
  8
0
100
AcDbSpline
 62
7
  6
CONTINUOUS
 70
0
 71
3
 72
10
 73
6
 74
0
 42
0.0000001
 43
0.0000001
 44
0.0000000001
 40
0.0
 40
0.0
 40
0.0
 40
0.0
 40
0.5245061388
 40
0.7719339674
 40
1.0
 40
1.0
 40
1.0
 40
1.0
 10
35.6887509379
 20
140.7953826551
 30
0.0
 10
35.3470177141
 20
141.3237875853
 30
0.0
 10
34.9357057007
 20
142.168884055
 30
0.0
 10
34.6368627761
 20
143.3335752729
 30
0.0
 10
34.5808718794
 20
143.9047886723
 30
0.0
 10
34.5808718794
 20
144.1784125464
 30
0.0
  0
SPLINE
  5
305
100
AcDbEntity
  8
0
100
AcDbSpline
 62
7
  6
CONTINUOUS
 70
0
 71
3
 72
11
 73
7
 74
0
 42
0.0000001
 43
0.0000001
 44
0.0000000001
 40
0.0
 40
0.0
 40
0.0
 40
0.0
 40
0.289771763
 40
0.5490215993
 40
0.7821706446
 40
1.0
 40
1.0
 40
1.0
 40
1.0
 10
34.5808718794
 20
144.1784125464
 30
0.0
 10
34.5808718794
 20
144.4007043533
 30
0.0
 10
34.6144467981
 20
144.8233305054
 30
0.0
 10
34.7857787143
 20
145.4039228413
 30
0.0
 10
35.0737592816
 20
145.8752171713
 30
0.0
 10
35.3446033214
 20
146.1027067295
 30
0.0
 10
35.489298074
 20
146.1862937116
 30
0.0
  0
SPLINE
  5
306
100
AcDbEntity
  8
0
100
AcDbSpline
 62
7
  6
CONTINUOUS
 70
0
 71
3
 72
9
 73
5
 74
0
 42
0.0000001
 43
0.0000001
 44
0.0000000001
 40
0.0
 40
0.0
 40
0.0
 40
0.0
 40
0.5037198713
 40
1.0
 40
1.0
 40
1.0
 40
1.0
 10
66.7950853854
 20
152.0448925566
 30
0.0
 10
65.8542989655
 20
154.119714313
 30
0.0
 10
63.6751252679
 20
158.1033713254
 30
0.0
 10
60.9390596394
 20
161.7291850626
 30
0.0
 10
59.4473733869
 20
163.4062841195
 30
0.0
  0
SPLINE
  5
307
100
AcDbEntity
  8
0
100
AcDbSpline
 62
7
  6
CONTINUOUS
 70
0
 71
3
 72
9
 73
5
 74
0
 42
0.0000001
 43
0.0000001
 44
0.0000000001
 40
0.0
 40
0.0
 40
0.0
 40
0.0
 40
0.5289004701
 40
1.0
 40
1.0
 40
1.0
 40
1.0
 10
111.4776213956
 20
198.1108303014
 30
0.0
 10
110.2124377933
 20
199.1885746538
 30
0.0
 10
107.6579176644
 20
201.0470356363
 30
0.0
 10
104.7741582406
 20
202.3740533443
 30
0.0
 10
103.3580319532
 20
202.8053990715
 30
0.0
  0
SPLINE
  5
308
100
AcDbEntity
  8
0
100
AcDbSpline
 62
7
  6
CONTINUOUS
 70
0
 71
3
 72
11
 73
7
 74
0
 42
0.0000001
 43
0.0000001
 44
0.0000000001
 40
0.0
 40
0.0
 40
0.0
 40
0.0
 40
0.2805905853
 40
0.5420066633
 40
0.7818946866
 40
1.0
 40
1.0
 40
1.0
 40
1.0
 10
58.8046207489
 20
164.8043751109
 30
0.0
 10
58.536098566
 20
165.9447187026
 30
0.0
 10
58.136522985
 20
168.1783712649
 30
0.0
 10
57.9706893749
 20
171.4487976033
 30
0.0
 10
58.2622844953
 20
174.4502515667
 30
0.0
 10
58.785589051
 20
176.3050667904
 30
0.0
 10
59.1302498088
 20
177.1479645707
 30
0.0
  0
SPLINE
  5
309
100
AcDbEntity
  8
0
100
AcDbSpline
 62
7
  6
CONTINUOUS
 70
0
 71
3
 72
11
 73
7
 74
0
 42
0.0000001
 43
0.0000001
 44
0.0000000001
 40
0.0
 40
0.0
 40
0.0
 40
0.0
 40
0.220275349
 40
0.4648756344
 40
0.7274306291
 40
1.0
 40
1.0
 40
1.0
 40
1.0
 10
104.0354563295
 20
150.9482908262
 30
0.0
 10
104.2756591677
 20
152.6083280378
 30
0.0
 10
104.4206194759
 20
156.1666699781
 30
0.0
 10
103.8072371135
 20
161.6874719714
 30
0.0
 10
102.3952541895
 20
167.4697979856
 30
0.0
 10
100.958098058
 20
171.2949528492
 30
0.0
 10
100.1132164882
 20
173.1907349923
 30
0.0
  0
SPLINE
  5
30A
100
AcDbEntity
  8
0
100
AcDbSpline
 62
7
  6
CONTINUOUS
 70
0
 71
3
 72
9
 73
5
 74
0
 42
0.0000001
 43
0.0000001
 44
0.0000000001
 40
0.0
 40
0.0
 40
0.0
 40
0.0
 40
0.2426583492
 40
1.0
 40
1.0
 40
1.0
 40
1.0
 10
112.143172828
 20
115.6485010526
 30
0.0
 10
111.7866360806
 20
118.2063679859
 30
0.0
 10
110.5169999125
 20
128.7748025213
 30
0.0
 10
110.0218613164
 20
139.4317820028
 30
0.0
 10
110.0218613164
 20
147.4921164847
 30
0.0
  0
SPLINE
  5
30B
100
AcDbEntity
  8
0
100
AcDbSpline
 62
7
  6
CONTINUOUS
 70
0
 71
3
 72
9
 73
5
 74
0
 42
0.0000001
 43
0.0000001
 44
0.0000000001
 40
0.0
 40
0.0
 40
0.0
 40
0.0
 40
0.2436130651
 40
1.0
 40
1.0
 40
1.0
 40
1.0
 10
110.0218613164
 20
147.4921164847
 30
0.0
 10
110.0218613164
 20
150.283134068
 30
0.0
 10
110.2069888374
 20
161.7395239103
 30
0.0
 10
111.1101482677
 20
173.1812422473
 30
0.0
 10
112.143172828
 20
181.7851968401
 30
0.0
  0
SPLINE
  5
30C
100
AcDbEntity
  8
0
100
AcDbSpline
 62
7
  6
CONTINUOUS
 70
0
 71
3
 72
9
 73
5
 74
0
 42
0.0000001
 43
0.0000001
 44
0.0000000001
 40
0.0
 40
0.0
 40
0.0
 40
0.0
 40
0.2524306316
 40
1.0
 40
1.0
 40
1.0
 40
1.0
 10
99.5858152376
 20
174.6478555607
 30
0.0
 10
99.6418780206
 20
174.5300035958
 30
0.0
 10
99.8525946916
 20
174.0578312619
 30
0.0
 10
100.0183219416
 20
173.5653993283
 30
0.0
 10
100.1132164882
 20
173.1907349923
 30
0.0
  0
SPLINE
  5
30D
100
AcDbEntity
  8
0
100
AcDbSpline
 62
7
  6
CONTINUOUS
 70
0
 71
3
 72
9
 73
5
 74
0
 42
0.0000001
 43
0.0000001
 44
0.0000000001
 40
0.0
 40
0.0
 40
0.0
 40
0.0
 40
0.2507254676
 40
1.0
 40
1.0
 40
1.0
 40
1.0
 10
98.118150529
 20
172.0388899993
 30
0.0
 10
98.1119405296
 20
171.8146670933
 30
0.0
 10
98.0064783598
 20
170.92221894
 30
0.0
 10
97.6429194603
 20
170.0781873288
 30
0.0
 10
97.3040398141
 20
169.4998244677
 30
0.0
  0
SPLINE
  5
30E
100
AcDbEntity
  8
0
100
AcDbSpline
 62
7
  6
CONTINUOUS
 70
0
 71
3
 72
10
 73
6
 74
0
 42
0.0000001
 43
0.0000001
 44
0.0000000001
 40
0.0
 40
0.0
 40
0.0
 40
0.0
 40
0.2502407787
 40
0.5004797627
 40
1.0
 40
1.0
 40
1.0
 40
1.0
 10
97.3040398141
 20
169.4998244677
 30
0.0
 10
97.0537612319
 20
169.07267625
 30
0.0
 10
96.472841684
 20
168.2642732253
 30
0.0
 10
95.1066155558
 20
166.8286617361
 30
0.0
 10
93.9150156502
 20
165.9257074285
 30
0.0
 10
93.0824660424
 20
165.3932805004
 30
0.0
  0
SPLINE
  5
30F
100
AcDbEntity
  8
0
100
AcDbSpline
 62
7
  6
CONTINUOUS
 70
0
 71
3
 72
8
 73
4
 74
0
 42
0.0000001
 43
0.0000001
 44
0.0000000001
 40
0.0
 40
0.0
 40
0.0
 40
0.0
 40
1.0
 40
1.0
 40
1.0
 40
1.0
 10
88.8712483934
 20
162.6990816965
 30
0.0
 10
90.27480751
 20
163.5974294106
 30
0.0
 10
91.6785653442
 20
164.4954666897
 30
0.0
 10
93.0824660424
 20
165.3932805004
 30
0.0
  0
SPLINE
  5
310
100
AcDbEntity
  8
0
100
AcDbSpline
 62
7
  6
CONTINUOUS
 70
0
 71
3
 72
17
 73
13
 74
0
 42
0.0000001
 43
0.0000001
 44
0.0000000001
 40
0.0
 40
0.0
 40
0.0
 40
0.0
 40
0.1562012501
 40
0.3072082615
 40
0.4499430239
 40
0.5819693456
 40
0.7018831828
 40
0.8097369976
 40
0.8597909183
 40
0.9077690138
 40
0.9542695589
 40
1.0
 40
1.0
 40
1.0
 40
1.0
 10
98.118150529
 20
172.0388899993
 30
0.0
 10
98.938692868
 20
170.4344147697
 30
0.0
 10
100.3865991713
 20
167.1903180025
 30
0.0
 10
101.9656830347
 20
162.2335816002
 30
0.0
 10
102.8807390636
 20
157.3934949931
 30
0.0
 10
103.0991300291
 20
152.8277171421
 30
0.0
 10
102.6103322259
 20
148.6838988692
 30
0.0
 10
101.5865100784
 20
145.6129981888
 30
0.0
 10
100.409907287
 20
143.5419333306
 30
0.0
 10
99.3883692588
 20
142.2163285352
 30
0.0
 10
98.2151739317
 20
141.0936937464
 30
0.0
 10
97.335112847
 20
140.4859933694
 30
0.0
 10
96.8782102743
 20
140.2221732898
 30
0.0
  0
SPLINE
  5
311
100
AcDbEntity
  8
0
100
AcDbSpline
 62
7
  6
CONTINUOUS
 70
0
 71
3
 72
20
 73
16
 74
0
 42
0.0000001
 43
0.0000001
 44
0.0000000001
 40
0.0
 40
0.0
 40
0.0
 40
0.0
 40
0.1641389334
 40
0.3173963141
 40
0.4564635351
 40
0.5202444566
 40
0.5801846592
 40
0.6365768093
 40
0.6899510087
 40
0.7410845317
 40
0.7909685081
 40
0.8407274871
 40
0.8914997045
 40
0.9443144374
 40
1.0
 40
1.0
 40
1.0
 40
1.0
 10
88.8712483934
 20
162.6990816965
 30
0.0
 10
89.4511828831
 20
161.2028897471
 30
0.0
 10
90.3913026561
 20
158.2338205177
 30
0.0
 10
91.1210254839
 20
153.8156131135
 30
0.0
 10
91.1047900492
 20
150.3103730578
 30
0.0
 10
90.6758889642
 20
147.7721664521
 30
0.0
 10
90.1746443944
 20
146.0791174837
 30
0.0
 10
89.4893517576
 20
144.5618195202
 30
0.0
 10
88.6258681701
 20
143.2387445277
 30
0.0
 10
87.59288238
 20
142.12737172
 30
0.0
 10
86.4023428475
 20
141.2437061098
 30
0.0
 10
85.0700830807
 20
140.6010236616
 30
0.0
 10
83.6150178714
 20
140.2075583688
 30
0.0
 10
82.0573932503
 20
140.066520373
 30
0.0
 10
80.994538871
 20
140.1384735648
 30
0.0
 10
80.4551295171
 20
140.2119657848
 30
0.0
  0
SPLINE
  5
312
100
AcDbEntity
  8
0
100
AcDbSpline
 62
7
  6
CONTINUOUS
 70
0
 71
3
 72
14
 73
10
 74
0
 42
0.0000001
 43
0.0000001
 44
0.0000000001
 40
0.0
 40
0.0
 40
0.0
 40
0.0
 40
0.1080484325
 40
0.2181326587
 40
0.3321073586
 40
0.45150762
 40
0.5774620333
 40
0.7107205893
 40
1.0
 40
1.0
 40
1.0
 40
1.0
 10
67.3506916585
 20
191.3656410377
 30
0.0
 10
67.8348037528
 20
191.6451470635
 30
0.0
 10
68.8626941629
 20
192.1264035336
 30
0.0
 10
70.5257893594
 20
192.5863507763
 30
0.0
 10
72.2987467956
 20
192.7841358071
 30
0.0
 10
74.1625412337
 20
192.7191930267
 30
0.0
 10
76.0995258971
 20
192.394381935
 30
0.0
 10
78.8284502182
 20
191.5986690068
 30
0.0
 10
80.8183236946
 20
190.6516098653
 30
0.0
 10
82.1144547293
 20
189.9033051924
 30
0.0
  0
SPLINE
  5
313
100
AcDbEntity
  8
0
100
AcDbSpline
 62
7
  6
CONTINUOUS
 70
0
 71
3
 72
9
 73
5
 74
0
 42
0.0000001
 43
0.0000001
 44
0.0000000001
 40
0.0
 40
0.0
 40
0.0
 40
0.0
 40
0.5254696177
 40
1.0
 40
1.0
 40
1.0
 40
1.0
 10
66.9753004235
 20
155.8216858901
 30
0.0
 10
67.2640822061
 20
155.2910118524
 30
0.0
 10
67.7116296273
 20
154.2221719219
 30
0.0
 10
67.9046916795
 20
153.071797123
 30
0.0
 10
67.9046916795
 20
152.526204227
 30
0.0
  0
SPLINE
  5
314
100
AcDbEntity
  8
0
100
AcDbSpline
 62
7
  6
CONTINUOUS
 70
0
 71
3
 72
11
 73
7
 74
0
 42
0.0000001
 43
0.0000001
 44
0.0000000001
 40
0.0
 40
0.0
 40
0.0
 40
0.0
 40
0.2864441817
 40
0.5461837525
 40
0.7817309522
 40
1.0
 40
1.0
 40
1.0
 40
1.0
 10
67.9046916795
 20
152.526204227
 30
0.0
 10
67.9046916795
 20
152.2995655669
 30
0.0
 10
67.8736777465
 20
151.8663212266
 30
0.0
 10
67.7188729604
 20
151.2632911278
 30
0.0
 10
67.4591062674
 20
150.7560195243
 30
0.0
 10
67.2123885044
 20
150.4871530446
 30
0.0
 10
67.0774544855
 20
150.3793696987
 30
0.0
  0
SPLINE
  5
315
100
AcDbEntity
  8
0
100
AcDbSpline
 62
7
  6
CONTINUOUS
 70
0
 71
3
 72
9
 73
5
 74
0
 42
0.0000001
 43
0.0000001
 44
0.0000000001
 40
0.0
 40
0.0
 40
0.0
 40
0.0
 40
0.5037198713
 40
1.0
 40
1.0
 40
1.0
 40
1.0
 10
35.868952787
 20
144.5721856621
 30
0.0
 10
36.8097392069
 20
142.4973639057
 30
0.0
 10
38.9889129045
 20
138.5137068933
 30
0.0
 10
41.724978533
 20
134.8878931561
 30
0.0
 10
43.2166647854
 20
133.2107940992
 30
0.0
  0
SPLINE
  5
316
100
AcDbEntity
  8
0
100
AcDbSpline
 62
7
  6
CONTINUOUS
 70
0
 71
3
 72
15
 73
11
 74
0
 42
0.0000001
 43
0.0000001
 44
0.0000000001
 40
0.0
 40
0.0
 40
0.0
 40
0.0
 40
0.123467277
 40
0.2389233948
 40
0.3505092374
 40
0.4631467503
 40
0.5815385401
 40
0.7092828353
 40
0.8485264443
 40
1.0
 40
1.0
 40
1.0
 40
1.0
 10
59.1302498088
 20
177.1479645707
 30
0.0
 10
59.414328891
 20
177.8427046083
 30
0.0
 10
60.0930127879
 20
179.141195855
 30
0.0
 10
61.4984722734
 20
180.7703160163
 30
0.0
 10
63.2216421314
 20
181.9517636265
 30
0.0
 10
65.2104877658
 20
182.644914127
 30
0.0
 10
67.4027892406
 20
182.8368305122
 30
0.0
 10
69.7415278253
 20
182.5353121899
 30
0.0
 10
72.1753062673
 20
181.7572356054
 30
0.0
 10
73.7637888049
 20
180.9673746276
 30
0.0
 10
74.5612560096
 20
180.5069671381
 30
0.0
  0
SPLINE
  5
317
100
AcDbEntity
  8
0
100
AcDbSpline
 62
7
  6
CONTINUOUS
 70
0
 71
3
 72
9
 73
5
 74
0
 42
0.0000001
 43
0.0000001
 44
0.0000000001
 40
0.0
 40
0.0
 40
0.0
 40
0.0
 40
0.2398951907
 40
1.0
 40
1.0
 40
1.0
 40
1.0
 10
94.4904925068
 20
182.7528190583
 30
0.0
 10
94.6013226658
 20
182.6618952136
 30
0.0
 10
95.0478980909
 20
182.2642163061
 30
0.0
 10
95.4335369947
 20
181.8001591
 30
0.0
 10
95.6909279792
 20
181.4259099547
 30
0.0
  0
SPLINE
  5
318
100
AcDbEntity
  8
0
100
AcDbSpline
 62
7
  6
CONTINUOUS
 70
0
 71
3
 72
13
 73
9
 74
0
 42
0.0000001
 43
0.0000001
 44
0.0000000001
 40
0.0
 40
0.0
 40
0.0
 40
0.0
 40
0.094321334
 40
0.1936443831
 40
0.3018508782
 40
0.4210773895
 40
0.6926345475
 40
1.0
 40
1.0
 40
1.0
 40
1.0
 10
58.325367195
 20
164.3768387233
 30
0.0
 10
58.4672352454
 20
164.458686095
 30
0.0
 10
58.7854451593
 20
164.5837062291
 30
0.0
 10
59.3131463105
 20
164.631876538
 30
0.0
 10
59.8787802872
 20
164.5470061345
 30
0.0
 10
60.6978347776
 20
164.250948851
 30
0.0
 10
61.7157700085
 20
163.5612040631
 30
0.0
 10
62.4025159747
 20
162.8168736128
 30
0.0
 10
62.7259204295
 20
162.392286445
 30
0.0
  0
SPLINE
  5
319
100
AcDbEntity
  8
0
100
AcDbSpline
 62
7
  6
CONTINUOUS
 70
0
 71
3
 72
9
 73
5
 74
0
 42
0.0000001
 43
0.0000001
 44
0.0000000001
 40
0.0
 40
0.0
 40
0.0
 40
0.0
 40
0.2476193423
 40
1.0
 40
1.0
 40
1.0
 40
1.0
 10
95.6911472132
 20
181.426036435
 30
0.0
 10
96.0570796994
 20
180.8941219879
 30
0.0
 10
97.488352302
 20
178.7142678818
 30
0.0
 10
98.7433284941
 20
176.4194563531
 30
0.0
 10
99.5858123171
 20
174.6478538933
 30
0.0
  0
SPLINE
  5
31A
100
AcDbEntity
  8
0
100
AcDbSpline
 62
7
  6
CONTINUOUS
 70
0
 71
3
 72
11
 73
7
 74
0
 42
0.0000001
 43
0.0000001
 44
0.0000000001
 40
0.0
 40
0.0
 40
0.0
 40
0.0
 40
0.250727394
 40
0.5015000073
 40
0.751693196
 40
1.0
 40
1.0
 40
1.0
 40
1.0
 10
85.0378233449
 20
179.7992982618
 30
0.0
 10
85.5662904702
 20
180.1043975653
 30
0.0
 10
86.6559328269
 20
180.6605761813
 30
0.0
 10
88.3845069372
 20
181.2805824966
 30
0.0
 10
90.1885996083
 20
181.6007348944
 30
0.0
 10
91.4275168644
 20
181.4978663076
 30
0.0
 10
92.0042679321
 20
181.317405199
 30
0.0
  0
SPLINE
  5
31B
100
AcDbEntity
  8
0
100
AcDbSpline
 62
7
  6
CONTINUOUS
 70
0
 71
3
 72
9
 73
5
 74
0
 42
0.0000001
 43
0.0000001
 44
0.0000000001
 40
0.0
 40
0.0
 40
0.0
 40
0.0
 40
0.4780928778
 40
1.0
 40
1.0
 40
1.0
 40
1.0
 10
82.1144547293
 20
189.9033051924
 30
0.0
 10
83.9288127628
 20
188.8558087909
 30
0.0
 10
87.4837675586
 20
186.2409584896
 30
0.0
 10
90.5389742105
 20
183.0733654075
 30
0.0
 10
92.0042679321
 20
181.317405199
 30
0.0
  0
SPLINE
  5
31C
100
AcDbEntity
  8
0
100
AcDbSpline
 62
7
  6
CONTINUOUS
 70
0
 71
3
 72
9
 73
5
 74
0
 42
0.0000001
 43
0.0000001
 44
0.0000000001
 40
0.0
 40
0.0
 40
0.0
 40
0.0
 40
0.4839706977
 40
1.0
 40
1.0
 40
1.0
 40
1.0
 10
74.5612560096
 20
180.5069671381
 30
0.0
 10
75.4487107111
 20
179.9946065185
 30
0.0
 10
77.2101340811
 20
178.8081293198
 30
0.0
 10
78.82125958
 20
177.4273456687
 30
0.0
 10
79.6140767124
 20
176.675510999
 30
0.0
  0
SPLINE
  5
31D
100
AcDbEntity
  8
0
100
AcDbSpline
 62
7
  6
CONTINUOUS
 70
0
 71
3
 72
12
 73
8
 74
0
 42
0.0000001
 43
0.0000001
 44
0.0000000001
 40
0.0
 40
0.0
 40
0.0
 40
0.0
 40
0.1093492187
 40
0.2206213817
 40
0.4547439036
 40
0.7128086023
 40
1.0
 40
1.0
 40
1.0
 40
1.0
 10
98.5091578462
 20
141.1638698511
 30
0.0
 10
98.8757432397
 20
141.3755152918
 30
0.0
 10
99.5850714565
 20
141.857602672
 30
0.0
 10
100.8883181894
 20
143.0485044056
 30
0.0
 10
102.265484467
 20
144.9698263372
 30
0.0
 10
103.4287045953
 20
147.7742495365
 30
0.0
 10
103.8762502526
 20
149.8480206792
 30
0.0
 10
104.0354563295
 20
150.9482908262
 30
0.0
  0
SPLINE
  5
31E
100
AcDbEntity
  8
0
100
AcDbSpline
 62
7
  6
CONTINUOUS
 70
0
 71
3
 72
15
 73
11
 74
0
 42
0.0000001
 43
0.0000001
 44
0.0000000001
 40
0.0
 40
0.0
 40
0.0
 40
0.0
 40
0.1527181952
 40
0.2983006651
 40
0.4353973948
 40
0.5633201307
 40
0.6822124379
 40
0.7931383529
 40
0.8981190262
 40
1.0
 40
1.0
 40
1.0
 40
1.0
 10
94.4904925069
 20
182.7528190583
 30
0.0
 10
93.5879917435
 20
183.9367433978
 30
0.0
 10
91.7026904928
 20
186.1598491783
 30
0.0
 10
88.5879583817
 20
189.058571419
 30
0.0
 10
85.3102356155
 20
191.3793918374
 30
0.0
 10
81.946923442
 20
193.0584604125
 30
0.0
 10
78.5820580743
 20
194.0502240447
 30
0.0
 10
75.3040716948
 20
194.3244903786
 30
0.0
 10
72.2108778298
 20
193.8707769597
 30
0.0
 10
70.3266660361
 20
193.0836886515
 30
0.0
 10
69.4665750686
 20
192.5871537629
 30
0.0
  0
SPLINE
  5
31F
100
AcDbEntity
  8
0
100
AcDbSpline
 62
7
  6
CONTINUOUS
 70
0
 71
3
 72
9
 73
5
 74
0
 42
0.0000001
 43
0.0000001
 44
0.0000000001
 40
0.0
 40
0.0
 40
0.0
 40
0.0
 40
0.4962801287
 40
1.0
 40
1.0
 40
1.0
 40
1.0
 10
43.2873751692
 20
133.2516185145
 30
0.0
 10
41.7956889167
 20
134.9287175715
 30
0.0
 10
39.0596232882
 20
138.5545313087
 30
0.0
 10
36.8804495906
 20
142.5381883211
 30
0.0
 10
35.9396631707
 20
144.6130100775
 30
0.0
  0
SPLINE
  5
320
100
AcDbEntity
  8
0
100
AcDbSpline
 62
7
  6
CONTINUOUS
 70
0
 71
3
 72
9
 73
5
 74
0
 42
0.0000001
 43
0.0000001
 44
0.0000000001
 40
0.0
 40
0.0
 40
0.0
 40
0.0
 40
0.4566611228
 40
1.0
 40
1.0
 40
1.0
 40
1.0
 10
210.0941416618
 20
234.3623941497
 30
0.0
 10
210.1874411322
 20
234.4162637844
 30
0.0
 10
210.3514406656
 20
234.6058207449
 30
0.0
 10
210.4044308334
 20
234.8425444844
 30
0.0
 10
210.4150279556
 20
234.9702890548
 30
0.0
  0
SPLINE
  5
321
100
AcDbEntity
  8
0
100
AcDbSpline
 62
7
  6
CONTINUOUS
 70
0
 71
3
 72
11
 73
7
 74
0
 42
0.0000001
 43
0.0000001
 44
0.0000000001
 40
0.0
 40
0.0
 40
0.0
 40
0.0
 40
0.2177456295
 40
0.4508837762
 40
0.7104602913
 40
1.0
 40
1.0
 40
1.0
 40
1.0
 10
264.4755511043
 20
220.3611943246
 30
0.0
 10
264.4227845307
 20
220.3916584217
 30
0.0
 10
264.3015849377
 20
220.4357968182
 30
0.0
 10
264.1000971244
 20
220.4408564665
 30
0.0
 10
263.8854692857
 20
220.3889048641
 30
0.0
 10
263.7457736652
 20
220.3225363338
 30
0.0
 10
263.675609439
 20
220.2820272407
 30
0.0
  0
SPLINE
  5
322
100
AcDbEntity
  8
0
100
AcDbSpline
 62
7
  6
CONTINUOUS
 70
0
 71
3
 72
11
 73
7
 74
0
 42
0.0000001
 43
0.0000001
 44
0.0000000001
 40
0.0
 40
0.0
 40
0.0
 40
0.0
 40
0.2177456295
 40
0.4508837762
 40
0.7104602913
 40
1.0
 40
1.0
 40
1.0
 40
1.0
 10
264.4755511043
 20
207.1338551671
 30
0.0
 10
264.4227845307
 20
207.1643192642
 30
0.0
 10
264.3015849377
 20
207.2084576607
 30
0.0
 10
264.1000971244
 20
207.213517309
 30
0.0
 10
263.8854692857
 20
207.1615657067
 30
0.0
 10
263.7457736652
 20
207.0951971763
 30
0.0
 10
263.675609439
 20
207.0546880832
 30
0.0
  0
SPLINE
  5
323
100
AcDbEntity
  8
0
100
AcDbSpline
 62
7
  6
CONTINUOUS
 70
0
 71
3
 72
11
 73
7
 74
0
 42
0.0000001
 43
0.0000001
 44
0.0000000001
 40
0.0
 40
0.0
 40
0.0
 40
0.0
 40
0.2372518718
 40
0.4999985497
 40
0.7627460178
 40
1.0
 40
1.0
 40
1.0
 40
1.0
 10
263.675609439
 20
207.0546880832
 30
0.0
 10
263.5149790926
 20
206.961948663
 30
0.0
 10
263.2110006388
 20
206.7061456074
 30
0.0
 10
262.8563522474
 20
206.2212945387
 30
0.0
 10
262.6137854384
 20
205.6717316428
 30
0.0
 10
262.5442432995
 20
205.2805748902
 30
0.0
 10
262.5442432995
 20
205.0950935696
 30
0.0
  0
SPLINE
  5
324
100
AcDbEntity
  8
0
100
AcDbSpline
 62
7
  6
CONTINUOUS
 70
0
 71
3
 72
11
 73
7
 74
0
 42
0.0000001
 43
0.0000001
 44
0.0000000001
 40
0.0
 40
0.0
 40
0.0
 40
0.0
 40
0.2895411595
 40
0.5491183966
 40
0.7822559144
 40
1.0
 40
1.0
 40
1.0
 40
1.0
 10
262.5442432995
 20
205.0950935696
 30
0.0
 10
262.5442432995
 20
205.0140714066
 30
0.0
 10
262.5566145658
 20
204.8599004429
 30
0.0
 10
262.6189395389
 20
204.6480425817
 30
0.0
 10
262.7240700422
 20
204.4760727626
 30
0.0
 10
262.8228994848
 20
204.3931783519
 30
0.0
 10
262.8756677738
 20
204.3627132645
 30
0.0
  0
SPLINE
  5
325
100
AcDbEntity
  8
0
100
AcDbSpline
 62
7
  6
CONTINUOUS
 70
0
 71
3
 72
11
 73
7
 74
0
 42
0.0000001
 43
0.0000001
 44
0.0000000001
 40
0.0
 40
0.0
 40
0.0
 40
0.0
 40
0.2372518718
 40
0.4999985497
 40
0.7627460178
 40
1.0
 40
1.0
 40
1.0
 40
1.0
 10
263.675609439
 20
220.2820272407
 30
0.0
 10
263.5149790926
 20
220.1892878205
 30
0.0
 10
263.2110006388
 20
219.9334847649
 30
0.0
 10
262.8563522474
 20
219.4486336962
 30
0.0
 10
262.6137854384
 20
218.8990708003
 30
0.0
 10
262.5442432995
 20
218.5079140477
 30
0.0
 10
262.5442432995
 20
218.3224327271
 30
0.0
  0
SPLINE
  5
326
100
AcDbEntity
  8
0
100
AcDbSpline
 62
7
  6
CONTINUOUS
 70
0
 71
3
 72
11
 73
7
 74
0
 42
0.0000001
 43
0.0000001
 44
0.0000000001
 40
0.0
 40
0.0
 40
0.0
 40
0.0
 40
0.2895411595
 40
0.5491183966
 40
0.7822559144
 40
1.0
 40
1.0
 40
1.0
 40
1.0
 10
262.5442432995
 20
218.3224327271
 30
0.0
 10
262.5442432995
 20
218.2414105641
 30
0.0
 10
262.5566145658
 20
218.0872396004
 30
0.0
 10
262.6189395389
 20
217.8753817392
 30
0.0
 10
262.7240700422
 20
217.7034119201
 30
0.0
 10
262.8228994848
 20
217.6205175094
 30
0.0
 10
262.8756677738
 20
217.590052422
 30
0.0
  0
SPLINE
  5
327
100
AcDbEntity
  8
0
100
AcDbSpline
 62
7
  6
CONTINUOUS
 70
0
 71
3
 72
9
 73
5
 74
0
 42
0.0000001
 43
0.0000001
 44
0.0000000001
 40
0.0
 40
0.0
 40
0.0
 40
0.0
 40
0.2563475549
 40
1.0
 40
1.0
 40
1.0
 40
1.0
 10
150.7270795399
 20
282.036196734
 30
0.0
 10
150.3484248134
 20
278.8686534861
 30
0.0
 10
149.0420779263
 20
266.492837617
 30
0.0
 10
148.4330875125
 20
254.0399815786
 30
0.0
 10
148.4330875125
 20
244.7856613715
 30
0.0
  0
SPLINE
  5
328
100
AcDbEntity
  8
0
100
AcDbSpline
 62
7
  6
CONTINUOUS
 70
0
 71
3
 72
9
 73
5
 74
0
 42
0.0000001
 43
0.0000001
 44
0.0000000001
 40
0.0
 40
0.0
 40
0.0
 40
0.0
 40
0.2566252508
 40
1.0
 40
1.0
 40
1.0
 40
1.0
 10
148.4330875125
 20
244.7856613715
 30
0.0
 10
148.4330875125
 20
242.101823083
 30
0.0
 10
148.5819451864
 20
231.6445579031
 30
0.0
 10
149.3402247041
 20
221.1928110863
 30
0.0
 10
150.2950552521
 20
213.4773069453
 30
0.0
  0
SPLINE
  5
329
100
AcDbEntity
  8
0
100
AcDbSpline
 62
7
  6
CONTINUOUS
 70
0
 71
3
 72
9
 73
5
 74
0
 42
0.0000001
 43
0.0000001
 44
0.0000000001
 40
0.0
 40
0.0
 40
0.0
 40
0.0
 40
0.2560569409
 40
1.0
 40
1.0
 40
1.0
 40
1.0
 10
223.0517638527
 20
238.2246243649
 30
0.0
 10
222.7100377686
 20
235.2229277798
 30
0.0
 10
221.5303171795
 20
223.4834073787
 30
0.0
 10
220.9825384099
 20
211.6775701197
 30
0.0
 10
220.9825384099
 20
202.9001639429
 30
0.0
  0
SPLINE
  5
32A
100
AcDbEntity
  8
0
100
AcDbSpline
 62
7
  6
CONTINUOUS
 70
0
 71
3
 72
9
 73
5
 74
0
 42
0.0000001
 43
0.0000001
 44
0.0000000001
 40
0.0
 40
0.0
 40
0.0
 40
0.0
 40
0.2570109629
 40
1.0
 40
1.0
 40
1.0
 40
1.0
 10
220.9825384099
 20
202.9001639429
 30
0.0
 10
220.9825384099
 20
200.0719343441
 30
0.0
 10
221.1475874474
 20
189.0687446663
 30
0.0
 10
221.9891744152
 20
178.0717663694
 30
0.0
 10
223.0517640171
 20
169.965023737
 30
0.0
  0
SPLINE
  5
32B
100
AcDbEntity
  8
0
100
AcDbSpline
 62
7
  6
CONTINUOUS
 70
0
 71
3
 72
9
 73
5
 74
0
 42
0.0000001
 43
0.0000001
 44
0.0000000001
 40
0.0
 40
0.0
 40
0.0
 40
0.0
 40
0.2460852469
 40
1.0
 40
1.0
 40
1.0
 40
1.0
 10
163.4705174452
 20
238.6482547267
 30
0.0
 10
163.4686170225
 20
238.434803355
 30
0.0
 10
163.4712418475
 20
237.567343871
 30
0.0
 10
163.514520825
 20
236.7000911574
 30
0.0
 10
163.5681049038
 20
236.048327657
 30
0.0
  0
SPLINE
  5
32C
100
AcDbEntity
  8
0
100
AcDbSpline
 62
7
  6
CONTINUOUS
 70
0
 71
3
 72
9
 73
5
 74
0
 42
0.0000001
 43
0.0000001
 44
0.0000000001
 40
0.0
 40
0.0
 40
0.0
 40
0.0
 40
0.2444821384
 40
1.0
 40
1.0
 40
1.0
 40
1.0
 10
206.8338436202
 20
211.0689685102
 30
0.0
 10
206.8527368943
 20
211.2698614468
 30
0.0
 10
206.920617926
 20
212.0924378978
 30
0.0
 10
206.9521731628
 20
212.917916216
 30
0.0
 10
206.9577246383
 20
213.5414460282
 30
0.0
  0
SPLINE
  5
32D
100
AcDbEntity
  8
0
100
AcDbSpline
 62
7
  6
CONTINUOUS
 70
0
 71
3
 72
23
 73
19
 74
0
 42
0.0000001
 43
0.0000001
 44
0.0000000001
 40
0.0
 40
0.0
 40
0.0
 40
0.0
 40
0.0622260114
 40
0.1285419601
 40
0.198061202
 40
0.2697766004
 40
0.3426213068
 40
0.4155271717
 40
0.4874714594
 40
0.5575207068
 40
0.6248695899
 40
0.6888832604
 40
0.7491423767
 40
0.8054916225
 40
0.8580842951
 40
0.9074177481
 40
0.9543404014
 40
1.0
 40
1.0
 40
1.0
 40
1.0
 10
206.9577246383
 20
213.5414460282
 30
0.0
 10
206.9689917802
 20
214.8069472291
 30
0.0
 10
206.8376404121
 20
217.4238618206
 30
0.0
 10
206.2391748237
 20
221.4127819652
 30
0.0
 10
205.2407285792
 20
225.5197269995
 30
0.0
 10
203.8571034642
 20
229.6532504099
 30
0.0
 10
202.1086968037
 20
233.7213806608
 30
0.0
 10
200.0224427114
 20
237.6326586016
 30
0.0
 10
197.6316802474
 20
241.2985905015
 30
0.0
 10
194.9766304681
 20
244.6357009342
 30
0.0
 10
192.1044223222
 20
247.5676066389
 30
0.0
 10
189.0689838017
 20
250.0271247239
 30
0.0
 10
185.9302655815
 20
251.9580926541
 30
0.0
 10
182.7529938465
 20
253.3164887754
 30
0.0
 10
179.6057979193
 20
254.0708811073
 30
0.0
 10
176.5600377209
 20
254.2017120222
 30
0.0
 10
173.6935165369
 20
253.7038992773
 30
0.0
 10
171.9436583418
 20
252.9545320699
 30
0.0
 10
171.1394464892
 20
252.4902198805
 30
0.0
  0
SPLINE
  5
32E
100
AcDbEntity
  8
0
100
AcDbSpline
 62
7
  6
CONTINUOUS
 70
0
 71
3
 72
9
 73
5
 74
0
 42
0.0000001
 43
0.0000001
 44
0.0000000001
 40
0.0
 40
0.0
 40
0.0
 40
0.0
 40
0.2415298899
 40
1.0
 40
1.0
 40
1.0
 40
1.0
 10
163.5681049038
 20
236.048327657
 30
0.0
 10
163.615526682
 20
235.471518559
 30
0.0
 10
163.8800781068
 20
233.0891539752
 30
0.0
 10
164.4030704676
 20
230.7381157845
 30
0.0
 10
164.9150481114
 20
228.9942684523
 30
0.0
  0
SPLINE
  5
32F
100
AcDbEntity
  8
0
100
AcDbSpline
 62
7
  6
CONTINUOUS
 70
0
 71
3
 72
15
 73
11
 74
0
 42
0.0000001
 43
0.0000001
 44
0.0000000001
 40
0.0
 40
0.0
 40
0.0
 40
0.0
 40
0.1599406087
 40
0.3110874108
 40
0.4518594634
 40
0.5812708778
 40
0.6991341141
 40
0.8064289884
 40
0.9054768424
 40
1.0
 40
1.0
 40
1.0
 40
1.0
 10
179.1480968624
 20
206.4261043774
 30
0.0
 10
180.1279580867
 20
205.5137440848
 30
0.0
 10
182.1079045192
 20
203.81629842
 30
0.0
 10
185.1960524858
 20
201.6225004114
 30
0.0
 10
188.2713916148
 20
199.8810979492
 30
0.0
 10
191.2782582321
 20
198.627873983
 30
0.0
 10
194.1654663242
 20
197.8880821445
 30
0.0
 10
196.8894708041
 20
197.6868106431
 30
0.0
 10
199.4045259521
 20
198.0443304448
 30
0.0
 10
200.9217769033
 20
198.6710907189
 30
0.0
 10
201.6070259568
 20
199.06670049
 30
0.0
  0
SPLINE
  5
330
100
AcDbEntity
  8
0
100
AcDbSpline
 62
7
  6
CONTINUOUS
 70
0
 71
3
 72
12
 73
8
 74
0
 42
0.0000001
 43
0.0000001
 44
0.0000000001
 40
0.0
 40
0.0
 40
0.0
 40
0.0
 40
0.1078629922
 40
0.2183655645
 40
0.4526244963
 40
0.7119984075
 40
1.0
 40
1.0
 40
1.0
 40
1.0
 10
199.769863943
 20
205.8634842724
 30
0.0
 10
200.1304241685
 20
206.1115888856
 30
0.0
 10
200.8210419585
 20
206.6737497126
 30
0.0
 10
202.0532960734
 20
208.0439101488
 30
0.0
 10
203.265149954
 20
210.2127657837
 30
0.0
 10
204.1107613089
 20
213.2928743115
 30
0.0
 10
204.2787216622
 20
215.5208943961
 30
0.0
 10
204.2787216622
 20
216.6895172041
 30
0.0
  0
SPLINE
  5
331
100
AcDbEntity
  8
0
100
AcDbSpline
 62
7
  6
CONTINUOUS
 70
0
 71
3
 72
14
 73
10
 74
0
 42
0.0000001
 43
0.0000001
 44
0.0000000001
 40
0.0
 40
0.0
 40
0.0
 40
0.0
 40
0.3029487061
 40
0.4410518202
 40
0.5692320171
 40
0.6876601845
 40
0.7974001108
 40
0.9005097694
 40
1.0
 40
1.0
 40
1.0
 40
1.0
 10
192.4070412538
 20
242.4721300914
 30
0.0
 10
190.9772252537
 20
243.8396533299
 30
0.0
 10
188.7125612437
 20
245.6633086381
 30
0.0
 10
185.4505386366
 20
247.4623228024
 30
0.0
 10
183.1027221361
 20
248.3808800966
 30
0.0
 10
180.8211525456
 20
248.8904927628
 30
0.0
 10
178.6454938832
 20
248.9766757117
 30
0.0
 10
176.6190630378
 20
248.6305723796
 30
0.0
 10
175.3880104938
 20
248.1065065814
 30
0.0
 10
174.825307832
 20
247.7816276802
 30
0.0
  0
SPLINE
  5
332
100
AcDbEntity
  8
0
100
AcDbSpline
 62
7
  6
CONTINUOUS
 70
0
 71
3
 72
9
 73
5
 74
0
 42
0.0000001
 43
0.0000001
 44
0.0000000001
 40
0.0
 40
0.0
 40
0.0
 40
0.0
 40
0.260684462
 40
1.0
 40
1.0
 40
1.0
 40
1.0
 10
168.8005939526
 20
231.3245494712
 30
0.0
 10
168.6875934738
 20
231.8593563021
 30
0.0
 10
168.3015608403
 20
233.9202407712
 30
0.0
 10
168.110061473
 20
236.0206428942
 30
0.0
 10
168.110061473
 20
237.5708719307
 30
0.0
  0
SPLINE
  5
333
100
AcDbEntity
  8
0
100
AcDbSpline
 62
7
  6
CONTINUOUS
 70
0
 71
3
 72
14
 73
10
 74
0
 42
0.0000001
 43
0.0000001
 44
0.0000000001
 40
0.0
 40
0.0
 40
0.0
 40
0.0
 40
0.2892720449
 40
0.4225265029
 40
0.5484834109
 40
0.6678804005
 40
0.7818504729
 40
0.8919295757
 40
1.0
 40
1.0
 40
1.0
 40
1.0
 10
168.110061473
 20
237.5708719307
 30
0.0
 10
168.110061473
 20
238.9267217474
 30
0.0
 10
168.2683528415
 20
240.9168871167
 30
0.0
 10
168.8801846646
 20
243.4183393289
 30
0.0
 10
169.5026184061
 20
245.0852237074
 30
0.0
 10
170.2960076557
 20
246.576866189
 30
0.0
 10
171.25415347
 20
247.8783128731
 30
0.0
 10
172.3683168896
 20
248.9749541734
 30
0.0
 10
173.2116734445
 20
249.5633292848
 30
0.0
 10
173.6503465068
 20
249.8166011279
 30
0.0
  0
SPLINE
  5
334
100
AcDbEntity
  8
0
100
AcDbSpline
 62
7
  6
CONTINUOUS
 70
0
 71
3
 72
12
 73
8
 74
0
 42
0.0000001
 43
0.0000001
 44
0.0000000001
 40
0.0
 40
0.0
 40
0.0
 40
0.0
 40
0.1077277948
 40
0.217592279
 40
0.4502446291
 40
0.7093928916
 40
1.0
 40
1.0
 40
1.0
 40
1.0
 10
201.0760077274
 20
199.9145173522
 30
0.0
 10
201.4809445462
 20
200.1481433307
 30
0.0
 10
202.2626562224
 20
200.686168182
 30
0.0
 10
203.6857637813
 20
202.0346210214
 30
0.0
 10
205.1563893608
 20
204.2344610802
 30
0.0
 10
206.3243386836
 20
207.447153995
 30
0.0
 10
206.7157601376
 20
209.8133821334
 30
0.0
 10
206.8338436202
 20
211.0689685102
 30
0.0
  0
SPLINE
  5
335
100
AcDbEntity
  8
0
100
AcDbSpline
 62
7
  6
CONTINUOUS
 70
0
 71
3
 72
11
 73
7
 74
0
 42
0.0000001
 43
0.0000001
 44
0.0000000001
 40
0.0
 40
0.0
 40
0.0
 40
0.0
 40
0.2279642339
 40
0.4747907684
 40
0.7345377919
 40
1.0
 40
1.0
 40
1.0
 40
1.0
 10
204.2787216622
 20
216.6895172041
 30
0.0
 10
204.2787216622
 20
218.1538268507
 30
0.0
 10
203.9906845691
 20
221.2066200465
 30
0.0
 10
202.8524566325
 20
225.7997174055
 30
0.0
 10
201.0384763314
 20
230.4288859992
 30
0.0
 10
199.4302196477
 20
233.4054777389
 30
0.0
 10
198.5307911062
 20
234.854149363
 30
0.0
  0
SPLINE
  5
336
100
AcDbEntity
  8
0
100
AcDbSpline
 62
7
  6
CONTINUOUS
 70
0
 71
3
 72
10
 73
6
 74
0
 42
0.0000001
 43
0.0000001
 44
0.0000000001
 40
0.0
 40
0.0
 40
0.0
 40
0.0
 40
0.2361462296
 40
0.4794838812
 40
1.0
 40
1.0
 40
1.0
 40
1.0
 10
198.9277623422
 20
204.138754011
 30
0.0
 10
198.4786069152
 20
203.9423061609
 30
0.0
 10
197.5303130593
 20
203.6214471293
 30
0.0
 10
195.4752737924
 20
203.2828257581
 30
0.0
 10
193.8662467082
 20
203.3934261018
 30
0.0
 10
192.8040086043
 20
203.5917088687
 30
0.0
  0
SPLINE
  5
337
100
AcDbEntity
  8
0
100
AcDbSpline
 62
7
  6
CONTINUOUS
 70
0
 71
3
 72
10
 73
6
 74
0
 42
0.0000001
 43
0.0000001
 44
0.0000000001
 40
0.0
 40
0.0
 40
0.0
 40
0.0
 40
0.4621057952
 40
0.7223468333
 40
1.0
 40
1.0
 40
1.0
 40
1.0
 10
193.2543212144
 20
202.4310987355
 30
0.0
 10
191.3807762471
 20
202.7582840521
 30
0.0
 10
188.5457199845
 20
203.8424331331
 30
0.0
 10
185.0396479552
 20
205.9997146385
 30
0.0
 10
183.2920907783
 20
207.3694356331
 30
0.0
 10
182.4285282883
 20
208.1178488828
 30
0.0
  0
SPLINE
  5
338
100
AcDbEntity
  8
0
100
AcDbSpline
 62
7
  6
CONTINUOUS
 70
0
 71
3
 72
13
 73
9
 74
0
 42
0.0000001
 43
0.0000001
 44
0.0000000001
 40
0.0
 40
0.0
 40
0.0
 40
0.0
 40
0.1121040103
 40
0.2257406912
 40
0.3422563108
 40
0.4628286444
 40
0.7191844955
 40
1.0
 40
1.0
 40
1.0
 40
1.0
 10
170.6809537115
 20
253.3802556633
 30
0.0
 10
170.1260608743
 20
253.0598883161
 30
0.0
 10
169.0578031601
 20
252.3252708867
 30
0.0
 10
167.6316157716
 20
250.9758543212
 30
0.0
 10
166.3927429219
 20
249.3906356984
 30
0.0
 10
164.9827752954
 20
246.938629886
 30
0.0
 10
163.7855592346
 20
243.3320823905
 30
0.0
 10
163.4848067925
 20
240.2532033962
 30
0.0
 10
163.4705174452
 20
238.6482547267
 30
0.0
  0
SPLINE
  5
339
100
AcDbEntity
  8
0
100
AcDbSpline
 62
7
  6
CONTINUOUS
 70
0
 71
3
 72
9
 73
5
 74
0
 42
0.0000001
 43
0.0000001
 44
0.0000000001
 40
0.0
 40
0.0
 40
0.0
 40
0.0
 40
0.2529359426
 40
1.0
 40
1.0
 40
1.0
 40
1.0
 10
217.8332890271
 20
240.0290105566
 30
0.0
 10
217.665991407
 20
238.5145523094
 30
0.0
 10
217.0446577136
 20
232.5226956738
 30
0.0
 10
216.5854452856
 20
226.5138620643
 30
0.0
 10
216.3399569789
 20
222.0202944902
 30
0.0
  0
SPLINE
  5
33A
100
AcDbEntity
  8
0
100
AcDbSpline
 62
7
  6
CONTINUOUS
 70
0
 71
3
 72
13
 73
9
 74
0
 42
0.0000001
 43
0.0000001
 44
0.0000000001
 40
0.0
 40
0.0
 40
0.0
 40
0.0
 40
0.2721813621
 40
0.558231335
 40
0.6894316419
 40
0.8057272266
 40
0.9071952809
 40
1.0
 40
1.0
 40
1.0
 40
1.0
 10
210.4150279556
 20
234.9702890548
 30
0.0
 10
210.4339647187
 20
235.1985650553
 30
0.0
 10
210.3511623339
 20
235.6765106679
 30
0.0
 10
210.058727168
 20
236.1927523075
 30
0.0
 10
209.7272932524
 20
236.5010714407
 30
0.0
 10
209.465495924
 20
236.6427483455
 30
0.0
 10
209.201290021
 20
236.6867616466
 30
0.0
 10
209.0376480103
 20
236.6389191299
 30
0.0
 10
208.9700107961
 20
236.5998665868
 30
0.0
  0
SPLINE
  5
33B
100
AcDbEntity
  8
0
100
AcDbSpline
 62
7
  6
CONTINUOUS
 70
0
 71
3
 72
9
 73
5
 74
0
 42
0.0000001
 43
0.0000001
 44
0.0000000001
 40
0.0
 40
0.0
 40
0.0
 40
0.0
 40
0.5000008228
 40
1.0
 40
1.0
 40
1.0
 40
1.0
 10
263.3040317499
 20
219.8869268924
 30
0.0
 10
263.2456174076
 20
219.6931092958
 30
0.0
 10
263.0802627147
 20
219.319318126
 30
0.0
 10
262.8392294895
 20
218.9892195808
 30
0.0
 10
262.7005868508
 20
218.8417223091
 30
0.0
  0
SPLINE
  5
33C
100
AcDbEntity
  8
0
100
AcDbSpline
 62
7
  6
CONTINUOUS
 70
0
 71
3
 72
11
 73
7
 74
0
 42
0.0000001
 43
0.0000001
 44
0.0000000001
 40
0.0
 40
0.0
 40
0.0
 40
0.0
 40
0.2372518718
 40
0.4999985497
 40
0.7627460178
 40
1.0
 40
1.0
 40
1.0
 40
1.0
 10
263.675609439
 20
204.4418803484
 30
0.0
 10
263.8362397855
 20
204.5346197686
 30
0.0
 10
264.1402182393
 20
204.7904228242
 30
0.0
 10
264.4948666307
 20
205.275273893
 30
0.0
 10
264.7374334397
 20
205.8248367889
 30
0.0
 10
264.8069755786
 20
206.2159935414
 30
0.0
 10
264.8069755786
 20
206.401474862
 30
0.0
  0
SPLINE
  5
33D
100
AcDbEntity
  8
0
100
AcDbSpline
 62
7
  6
CONTINUOUS
 70
0
 71
3
 72
11
 73
7
 74
0
 42
0.0000001
 43
0.0000001
 44
0.0000000001
 40
0.0
 40
0.0
 40
0.0
 40
0.0
 40
0.2895411595
 40
0.5491183966
 40
0.7822559144
 40
1.0
 40
1.0
 40
1.0
 40
1.0
 10
264.8069755786
 20
206.401474862
 30
0.0
 10
264.8069755786
 20
206.4824970251
 30
0.0
 10
264.7946043123
 20
206.6366679888
 30
0.0
 10
264.7322793392
 20
206.84852585
 30
0.0
 10
264.6271488359
 20
207.020495669
 30
0.0
 10
264.5283193933
 20
207.1033900797
 30
0.0
 10
264.4755511043
 20
207.1338551671
 30
0.0
  0
SPLINE
  5
33E
100
AcDbEntity
  8
0
100
AcDbSpline
 62
7
  6
CONTINUOUS
 70
0
 71
3
 72
9
 73
5
 74
0
 42
0.0000001
 43
0.0000001
 44
0.0000000001
 40
0.0
 40
0.0
 40
0.0
 40
0.0
 40
0.4574514602
 40
1.0
 40
1.0
 40
1.0
 40
1.0
 10
208.9700107961
 20
236.5998665868
 30
0.0
 10
208.8762976448
 20
236.5457582543
 30
0.0
 10
208.7114624697
 20
236.3561540342
 30
0.0
 10
208.6578640943
 20
236.1187948745
 30
0.0
 10
208.6472537304
 20
235.9908919978
 30
0.0
  0
SPLINE
  5
33F
100
AcDbEntity
  8
0
100
AcDbSpline
 62
7
  6
CONTINUOUS
 70
0
 71
3
 72
11
 73
7
 74
0
 42
0.0000001
 43
0.0000001
 44
0.0000000001
 40
0.0
 40
0.0
 40
0.0
 40
0.0
 40
0.2177456295
 40
0.4508837762
 40
0.7104602913
 40
1.0
 40
1.0
 40
1.0
 40
1.0
 10
262.8756677738
 20
204.3627132645
 30
0.0
 10
262.9284343474
 20
204.3322491675
 30
0.0
 10
263.0496339404
 20
204.2881107709
 30
0.0
 10
263.2511217537
 20
204.2830511227
 30
0.0
 10
263.4657495924
 20
204.335002725
 30
0.0
 10
263.6054452129
 20
204.4013712554
 30
0.0
 10
263.675609439
 20
204.4418803484
 30
0.0
  0
SPLINE
  5
340
100
AcDbEntity
  8
0
100
AcDbSpline
 62
7
  6
CONTINUOUS
 70
0
 71
3
 72
9
 73
5
 74
0
 42
0.0000001
 43
0.0000001
 44
0.0000000001
 40
0.0
 40
0.0
 40
0.0
 40
0.0
 40
0.2446438859
 40
1.0
 40
1.0
 40
1.0
 40
1.0
 10
207.5444833787
 20
210.6578784648
 30
0.0
 10
207.5627785072
 20
210.8591775035
 30
0.0
 10
207.6285876761
 20
211.6828039057
 30
0.0
 10
207.6593190525
 20
212.5091449451
 30
0.0
 10
207.6648752722
 20
213.1332075661
 30
0.0
  0
SPLINE
  5
341
100
AcDbEntity
  8
0
100
AcDbSpline
 62
7
  6
CONTINUOUS
 70
0
 71
3
 72
23
 73
19
 74
0
 42
0.0000001
 43
0.0000001
 44
0.0000000001
 40
0.0
 40
0.0
 40
0.0
 40
0.0
 40
0.0622141569
 40
0.1285260493
 40
0.1980419543
 40
0.2697484551
 40
0.3425774371
 40
0.4154593959
 40
0.4873728397
 40
0.5573870685
 40
0.6247005047
 40
0.6886839094
 40
0.7489243162
 40
0.8052726966
 40
0.8578870624
 40
0.9072675182
 40
0.9542589411
 40
1.0
 40
1.0
 40
1.0
 40
1.0
 10
207.6648752722
 20
213.1332075661
 30
0.0
 10
207.6765164671
 20
214.4407215005
 30
0.0
 10
207.5413368862
 20
217.1446739693
 30
0.0
 10
206.9254881808
 20
221.266739644
 30
0.0
 10
205.8977441326
 20
225.5114300225
 30
0.0
 10
204.4731229817
 20
229.7840886287
 30
0.0
 10
202.6723138651
 20
233.989516219
 30
0.0
 10
200.5227539771
 20
238.0331197919
 30
0.0
 10
198.058266811
 20
241.823224734
 30
0.0
 10
195.319873101
 20
245.2733272591
 30
0.0
 10
192.3558838656
 20
248.3042945107
 30
0.0
 10
189.2217380757
 20
250.8465145879
 30
0.0
 10
185.9791788875
 20
252.8417092431
 30
0.0
 10
182.6951582333
 20
254.2442746105
 30
0.0
 10
179.4408501411
 20
255.021861182
 30
0.0
 10
176.2903469948
 20
255.1543829951
 30
0.0
 10
173.3244196743
 20
254.6370780369
 30
0.0
 10
171.5135054371
 20
253.8609293534
 30
0.0
 10
170.6809537115
 20
253.3802556633
 30
0.0
  0
SPLINE
  5
342
100
AcDbEntity
  8
0
100
AcDbSpline
 62
7
  6
CONTINUOUS
 70
0
 71
3
 72
11
 73
7
 74
0
 42
0.0000001
 43
0.0000001
 44
0.0000000001
 40
0.0
 40
0.0
 40
0.0
 40
0.0
 40
0.2372518718
 40
0.4999985497
 40
0.7627460178
 40
1.0
 40
1.0
 40
1.0
 40
1.0
 10
263.675609439
 20
217.6692195059
 30
0.0
 10
263.8362397855
 20
217.7619589261
 30
0.0
 10
264.1402182393
 20
218.0177619817
 30
0.0
 10
264.4948666307
 20
218.5026130505
 30
0.0
 10
264.7374334397
 20
219.0521759464
 30
0.0
 10
264.8069755786
 20
219.4433326989
 30
0.0
 10
264.8069755786
 20
219.6288140195
 30
0.0
  0
SPLINE
  5
343
100
AcDbEntity
  8
0
100
AcDbSpline
 62
7
  6
CONTINUOUS
 70
0
 71
3
 72
9
 73
5
 74
0
 42
0.0000001
 43
0.0000001
 44
0.0000000001
 40
0.0
 40
0.0
 40
0.0
 40
0.0
 40
0.2459486111
 40
1.0
 40
1.0
 40
1.0
 40
1.0
 10
164.1776332588
 20
238.2399845599
 30
0.0
 10
164.1757315632
 20
238.0263901956
 30
0.0
 10
164.1786801795
 20
237.1578654227
 30
0.0
 10
164.2235581599
 20
236.2895752355
 30
0.0
 10
164.2789350903
 20
235.6370379931
 30
0.0
  0
SPLINE
  5
344
100
AcDbEntity
  8
0
100
AcDbSpline
 62
7
  6
CONTINUOUS
 70
0
 71
3
 72
9
 73
5
 74
0
 42
0.0000001
 43
0.0000001
 44
0.0000000001
 40
0.0
 40
0.0
 40
0.0
 40
0.0
 40
0.2420758023
 40
1.0
 40
1.0
 40
1.0
 40
1.0
 10
164.2789350903
 20
235.6370379931
 30
0.0
 10
164.3228145525
 20
235.1199818278
 30
0.0
 10
164.560329895
 20
232.9889756464
 30
0.0
 10
165.010996923
 20
230.8836096147
 30
0.0
 10
165.4493599562
 20
229.3191755556
 30
0.0
  0
SPLINE
  5
345
100
AcDbEntity
  8
0
100
AcDbSpline
 62
7
  6
CONTINUOUS
 70
0
 71
3
 72
15
 73
11
 74
0
 42
0.0000001
 43
0.0000001
 44
0.0000000001
 40
0.0
 40
0.0
 40
0.0
 40
0.0
 40
0.1596323859
 40
0.3103697388
 40
0.4507706198
 40
0.5799332319
 40
0.6977619313
 40
0.8053141966
 40
0.904841653
 40
1.0
 40
1.0
 40
1.0
 40
1.0
 10
179.6999337245
 20
206.6817044656
 30
0.0
 10
180.6358046714
 20
205.8275797704
 30
0.0
 10
182.5245131195
 20
204.2402711136
 30
0.0
 10
185.4664791933
 20
202.1947648022
 30
0.0
 10
188.391973266
 20
200.5775017674
 30
0.0
 10
191.2498761701
 20
199.4191796722
 30
0.0
 10
193.9946968711
 20
198.7478083642
 30
0.0
 10
196.5843837077
 20
198.5789517649
 30
0.0
 10
198.9770868695
 20
198.9361114056
 30
0.0
 10
200.4217901029
 20
199.5370702405
 30
0.0
 10
201.0760077274
 20
199.9145173522
 30
0.0
  0
SPLINE
  5
346
100
AcDbEntity
  8
0
100
AcDbSpline
 62
7
  6
CONTINUOUS
 70
0
 71
3
 72
11
 73
7
 74
0
 42
0.0000001
 43
0.0000001
 44
0.0000000001
 40
0.0
 40
0.0
 40
0.0
 40
0.0
 40
0.2895411595
 40
0.5491183966
 40
0.7822559144
 40
1.0
 40
1.0
 40
1.0
 40
1.0
 10
264.8069755786
 20
219.6288140195
 30
0.0
 10
264.8069755786
 20
219.7098361826
 30
0.0
 10
264.7946043123
 20
219.8640071463
 30
0.0
 10
264.7322793392
 20
220.0758650075
 30
0.0
 10
264.6271488359
 20
220.2478348265
 30
0.0
 10
264.5283193933
 20
220.3307292372
 30
0.0
 10
264.4755511043
 20
220.3611943246
 30
0.0
  0
SPLINE
  5
347
100
AcDbEntity
  8
0
100
AcDbSpline
 62
7
  6
CONTINUOUS
 70
0
 71
3
 72
12
 73
8
 74
0
 42
0.0000001
 43
0.0000001
 44
0.0000000001
 40
0.0
 40
0.0
 40
0.0
 40
0.0
 40
0.2911368898
 40
0.55043562
 40
0.7828688707
 40
0.8925157197
 40
1.0
 40
1.0
 40
1.0
 40
1.0
 10
207.7566107643
 20
210.7803495369
 30
0.0
 10
207.6379462563
 20
209.474703247
 30
0.0
 10
207.240243814
 20
207.0147741599
 30
0.0
 10
206.0382985119
 20
203.675340557
 30
0.0
 10
204.5208007585
 20
201.3880264448
 30
0.0
 10
203.0477847773
 20
199.9891279478
 30
0.0
 10
202.2387356519
 20
199.4314031313
 30
0.0
 10
201.81955964
 20
199.1894056214
 30
0.0
  0
SPLINE
  5
348
100
AcDbEntity
  8
0
100
AcDbSpline
 62
7
  6
CONTINUOUS
 70
0
 71
3
 72
9
 73
5
 74
0
 42
0.0000001
 43
0.0000001
 44
0.0000000001
 40
0.0
 40
0.0
 40
0.0
 40
0.0
 40
0.5194465342
 40
1.0
 40
1.0
 40
1.0
 40
1.0
 10
172.1237255613
 20
248.6878114814
 30
0.0
 10
172.405163269
 20
249.6564360804
 30
0.0
 10
173.1050494433
 20
251.4813817441
 30
0.0
 10
174.1715604665
 20
253.1268134648
 30
0.0
 10
174.771512494
 20
253.8415458795
 30
0.0
  0
SPLINE
  5
349
100
AcDbEntity
  8
0
100
AcDbSpline
 62
7
  6
CONTINUOUS
 70
0
 71
3
 72
9
 73
5
 74
0
 42
0.0000001
 43
0.0000001
 44
0.0000000001
 40
0.0
 40
0.0
 40
0.0
 40
0.0
 40
0.253250689
 40
1.0
 40
1.0
 40
1.0
 40
1.0
 10
182.5446037464
 20
252.9878937354
 30
0.0
 10
182.3914111483
 20
252.9560689973
 30
0.0
 10
181.7897502408
 20
252.8153783314
 30
0.0
 10
181.2022563553
 20
252.6132588744
 30
0.0
 10
180.7795609782
 20
252.4283841481
 30
0.0
  0
SPLINE
  5
34A
100
AcDbEntity
  8
0
100
AcDbSpline
 62
7
  6
CONTINUOUS
 70
0
 71
3
 72
9
 73
5
 74
0
 42
0.0000001
 43
0.0000001
 44
0.0000000001
 40
0.0
 40
0.0
 40
0.0
 40
0.0
 40
0.2438676417
 40
1.0
 40
1.0
 40
1.0
 40
1.0
 10
151.7726344761
 20
214.3312566103
 30
0.0
 10
151.4968995571
 20
216.7158111407
 30
0.0
 10
150.5178548516
 20
226.5111105725
 30
0.0
 10
150.1301363514
 20
236.3631120777
 30
0.0
 10
150.1301363514
 20
243.8058919329
 30
0.0
  0
SPLINE
  5
34B
100
AcDbEntity
  8
0
100
AcDbSpline
 62
7
  6
CONTINUOUS
 70
0
 71
3
 72
9
 73
5
 74
0
 42
0.0000001
 43
0.0000001
 44
0.0000000001
 40
0.0
 40
0.0
 40
0.0
 40
0.0
 40
0.2439337661
 40
1.0
 40
1.0
 40
1.0
 40
1.0
 10
150.1301363514
 20
243.8058919329
 30
0.0
 10
150.1301363514
 20
246.6839704974
 30
0.0
 10
150.3102641304
 20
258.482218971
 30
0.0
 10
151.190328186
 20
270.2670758267
 30
0.0
 10
152.1993618093
 20
279.1303524878
 30
0.0
  0
SPLINE
  5
34C
100
AcDbEntity
  8
0
100
AcDbSpline
 62
7
  6
CONTINUOUS
 70
0
 71
3
 72
9
 73
5
 74
0
 42
0.0000001
 43
0.0000001
 44
0.0000000001
 40
0.0
 40
0.0
 40
0.0
 40
0.0
 40
0.2560272294
 40
1.0
 40
1.0
 40
1.0
 40
1.0
 10
152.3868172515
 20
279.0177842944
 30
0.0
 10
152.0491481545
 20
276.0362315436
 30
0.0
 10
150.8833511463
 20
264.3743045676
 30
0.0
 10
150.3422637376
 20
252.64717749
 30
0.0
 10
150.3422637376
 20
243.9278931003
 30
0.0
  0
SPLINE
  5
34D
100
AcDbEntity
  8
0
100
AcDbSpline
 62
7
  6
CONTINUOUS
 70
0
 71
3
 72
9
 73
5
 74
0
 42
0.0000001
 43
0.0000001
 44
0.0000000001
 40
0.0
 40
0.0
 40
0.0
 40
0.0
 40
0.2562057222
 40
1.0
 40
1.0
 40
1.0
 40
1.0
 10
150.3422637376
 20
243.9278931003
 30
0.0
 10
150.3422637376
 20
241.4061382407
 30
0.0
 10
150.4740349789
 20
231.5641967528
 30
0.0
 10
151.1445470911
 20
221.7270291467
 30
0.0
 10
151.9863876105
 20
214.4546517105
 30
0.0
  0
SPLINE
  5
34E
100
AcDbEntity
  8
0
100
AcDbSpline
 62
7
  6
CONTINUOUS
 70
0
 71
3
 72
13
 73
9
 74
0
 42
0.0000001
 43
0.0000001
 44
0.0000000001
 40
0.0
 40
0.0
 40
0.0
 40
0.0
 40
0.1080963003
 40
0.218229375
 40
0.3322547986
 40
0.4517086101
 40
0.7105888441
 40
1.0
 40
1.0
 40
1.0
 40
1.0
 10
174.825307832
 20
247.7816276802
 30
0.0
 10
174.4252562626
 20
247.5506561155
 30
0.0
 10
173.6561298188
 20
247.0139058629
 30
0.0
 10
172.6398251536
 20
246.0137537109
 30
0.0
 10
171.7656897343
 20
244.826629211
 30
0.0
 10
170.7748109526
 20
242.9632324226
 30
0.0
 10
169.9579358899
 20
240.1985954475
 30
0.0
 10
169.771767075
 20
237.8484406767
 30
0.0
 10
169.771767075
 20
236.6116660247
 30
0.0
  0
SPLINE
  5
34F
100
AcDbEntity
  8
0
100
AcDbSpline
 62
7
  6
CONTINUOUS
 70
0
 71
3
 72
9
 73
5
 74
0
 42
0.0000001
 43
0.0000001
 44
0.0000000001
 40
0.0
 40
0.0
 40
0.0
 40
0.0
 40
0.2413112049
 40
1.0
 40
1.0
 40
1.0
 40
1.0
 10
169.771767075
 20
236.6116660247
 30
0.0
 10
169.771767075
 20
236.2680794683
 30
0.0
 10
169.8038286421
 20
234.8443205496
 30
0.0
 10
169.9577969864
 20
233.4242028361
 30
0.0
 10
170.1313227226
 20
232.357985922
 30
0.0
  0
SPLINE
  5
350
100
AcDbEntity
  8
0
100
AcDbSpline
 62
7
  6
CONTINUOUS
 70
0
 71
3
 72
10
 73
6
 74
0
 42
0.0000001
 43
0.0000001
 44
0.0000000001
 40
0.0
 40
0.0
 40
0.0
 40
0.0
 40
0.2361462161
 40
0.4794838648
 40
1.0
 40
1.0
 40
1.0
 40
1.0
 10
175.1227302805
 20
249.1624309171
 30
0.0
 10
175.5718858326
 20
249.3588785583
 30
0.0
 10
176.5201799255
 20
249.6797371541
 30
0.0
 10
178.5752195921
 20
250.0183576217
 30
0.0
 10
180.1842468384
 20
249.9077566213
 30
0.0
 10
181.2464850326
 20
249.7094734454
 30
0.0
  0
SPLINE
  5
351
100
AcDbEntity
  8
0
100
AcDbSpline
 62
7
  6
CONTINUOUS
 70
0
 71
3
 72
11
 73
7
 74
0
 42
0.0000001
 43
0.0000001
 44
0.0000000001
 40
0.0
 40
0.0
 40
0.0
 40
0.0
 40
0.2186857275
 40
0.459011889
 40
0.7203142471
 40
1.0
 40
1.0
 40
1.0
 40
1.0
 10
180.7962754201
 20
250.8699473319
 30
0.0
 10
181.8433152632
 20
250.6871196039
 30
0.0
 10
184.0015782967
 20
250.0606217252
 30
0.0
 10
187.1580018117
 20
248.5162773567
 30
0.0
 10
190.3048448684
 20
246.371012699
 30
0.0
 10
192.2834430451
 20
244.628966763
 30
0.0
 10
193.2542879401
 20
243.6774814847
 30
0.0
  0
SPLINE
  5
352
100
AcDbEntity
  8
0
100
AcDbSpline
 62
7
  6
CONTINUOUS
 70
0
 71
3
 72
9
 73
5
 74
0
 42
0.0000001
 43
0.0000001
 44
0.0000000001
 40
0.0
 40
0.0
 40
0.0
 40
0.0
 40
0.4840928061
 40
1.0
 40
1.0
 40
1.0
 40
1.0
 10
204.1914777574
 20
202.5344982028
 30
0.0
 10
203.4253099341
 20
202.4120446467
 30
0.0
 10
201.8143094563
 20
202.319827846
 30
0.0
 10
200.2151618317
 20
202.5112340388
 30
0.0
 10
199.4035870804
 20
202.6696070128
 30
0.0
  0
SPLINE
  5
353
100
AcDbEntity
  8
0
100
AcDbSpline
 62
7
  6
CONTINUOUS
 70
0
 71
3
 72
9
 73
5
 74
0
 42
0.0000001
 43
0.0000001
 44
0.0000000001
 40
0.0
 40
0.0
 40
0.0
 40
0.0
 40
0.2442178084
 40
1.0
 40
1.0
 40
1.0
 40
1.0
 10
199.4035870804
 20
202.6696070128
 30
0.0
 10
199.2181692259
 20
202.7057899731
 30
0.0
 10
198.4614676771
 20
202.8667611452
 30
0.0
 10
197.7155973616
 20
203.0776232549
 30
0.0
 10
197.1604309982
 20
203.2609016005
 30
0.0
  0
SPLINE
  5
354
100
AcDbEntity
  8
0
100
AcDbSpline
 62
7
  6
CONTINUOUS
 70
0
 71
3
 72
11
 73
7
 74
0
 42
0.0000001
 43
0.0000001
 44
0.0000000001
 40
0.0
 40
0.0
 40
0.0
 40
0.0
 40
0.2177456295
 40
0.4508837762
 40
0.7104602913
 40
1.0
 40
1.0
 40
1.0
 40
1.0
 10
262.8756677738
 20
217.590052422
 30
0.0
 10
262.9284343474
 20
217.559588325
 30
0.0
 10
263.0496339404
 20
217.5154499284
 30
0.0
 10
263.2511217537
 20
217.5103902802
 30
0.0
 10
263.4657495924
 20
217.5623418825
 30
0.0
 10
263.6054452129
 20
217.6287104129
 30
0.0
 10
263.675609439
 20
217.6692195059
 30
0.0
  0
SPLINE
  5
355
100
AcDbEntity
  8
0
100
AcDbSpline
 62
7
  6
CONTINUOUS
 70
0
 71
3
 72
13
 73
9
 74
0
 42
0.0000001
 43
0.0000001
 44
0.0000000001
 40
0.0
 40
0.0
 40
0.0
 40
0.0
 40
0.1119883007
 40
0.2255269556
 40
0.3419748531
 40
0.4625174745
 40
0.7189426822
 40
1.0
 40
1.0
 40
1.0
 40
1.0
 10
171.1394464892
 20
252.4902198805
 30
0.0
 10
170.6034504619
 20
252.1807622567
 30
0.0
 10
169.571578686
 20
251.4709166044
 30
0.0
 10
168.194311888
 20
250.1664633821
 30
0.0
 10
166.9981617952
 20
248.6336219196
 30
0.0
 10
165.6368560014
 20
246.2616577779
 30
0.0
 10
164.4815770945
 20
242.7719810724
 30
0.0
 10
164.1914621461
 20
239.7932154901
 30
0.0
 10
164.1776332588
 20
238.2399845599
 30
0.0
  0
SPLINE
  5
356
100
AcDbEntity
  8
0
100
AcDbSpline
 62
7
  6
CONTINUOUS
 70
0
 71
3
 72
12
 73
8
 74
0
 42
0.0000001
 43
0.0000001
 44
0.0000000001
 40
0.0
 40
0.0
 40
0.0
 40
0.0
 40
0.1074877111
 40
0.2171369344
 40
0.4495718035
 40
0.7088681131
 40
1.0
 40
1.0
 40
1.0
 40
1.0
 10
201.6070259568
 20
199.06670049
 30
0.0
 10
202.0262273165
 20
199.3087149125
 30
0.0
 10
202.8353292311
 20
199.8664617202
 30
0.0
 10
204.3084309032
 20
201.2654090769
 30
0.0
 10
205.8260460969
 20
203.5527522027
 30
0.0
 10
207.0280930061
 20
206.8922426311
 30
0.0
 10
207.4258176603
 20
209.3522142239
 30
0.0
 10
207.5444833787
 20
210.6578784648
 30
0.0
  0
SPLINE
  5
357
100
AcDbEntity
  8
0
100
AcDbSpline
 62
7
  6
CONTINUOUS
 70
0
 71
3
 72
9
 73
5
 74
0
 42
0.0000001
 43
0.0000001
 44
0.0000000001
 40
0.0
 40
0.0
 40
0.0
 40
0.0
 40
0.2446437492
 40
1.0
 40
1.0
 40
1.0
 40
1.0
 10
207.7565966982
 20
210.780266732
 30
0.0
 10
207.7748925449
 20
210.9815729584
 30
0.0
 10
207.8406787447
 20
211.8052314105
 30
0.0
 10
207.8714119415
 20
212.63160149
 30
0.0
 10
207.8769749849
 20
213.2556868152
 30
0.0
  0
SPLINE
  5
358
100
AcDbEntity
  8
0
100
AcDbSpline
 62
7
  6
CONTINUOUS
 70
0
 71
3
 72
23
 73
19
 74
0
 42
0.0000001
 43
0.0000001
 44
0.0000000001
 40
0.0
 40
0.0
 40
0.0
 40
0.0
 40
0.0622152477
 40
0.1285272754
 40
0.1980429125
 40
0.2697499953
 40
0.3425786945
 40
0.4154598386
 40
0.4873718408
 40
0.5573842258
 40
0.624696093
 40
0.6886782096
 40
0.748917639
 40
0.8052656257
 40
0.8578807844
 40
0.9072625451
 40
0.9542561524
 40
1.0
 40
1.0
 40
1.0
 40
1.0
 10
207.8769749849
 20
213.2556868152
 30
0.0
 10
207.8886303873
 20
214.5632382963
 30
0.0
 10
207.7535318619
 20
217.267250476
 30
0.0
 10
207.1377385848
 20
221.389393035
 30
0.0
 10
206.1101350216
 20
225.6341746079
 30
0.0
 10
204.6857116142
 20
229.9069518075
 30
0.0
 10
202.8851333189
 20
234.1125234875
 30
0.0
 10
200.7357359239
 20
238.1562134718
 30
0.0
 10
198.2714236098
 20
241.946388598
 30
0.0
 10
195.5332249476
 20
245.3965788165
 30
0.0
 10
192.5693776998
 20
248.4276182702
 30
0.0
 10
189.4352809416
 20
250.9698482195
 30
0.0
 10
186.1927342736
 20
252.9650380956
 30
0.0
 10
182.9086739221
 20
254.3675946709
 30
0.0
 10
179.6542633234
 20
255.1450777726
 30
0.0
 10
176.5036298572
 20
255.277512364
 30
0.0
 10
173.5375600641
 20
254.7600718581
 30
0.0
 10
171.726533254
 20
253.9838723222
 30
0.0
 10
170.8939219754
 20
253.5031628766
 30
0.0
  0
SPLINE
  5
359
100
AcDbEntity
  8
0
100
AcDbSpline
 62
7
  6
CONTINUOUS
 70
0
 71
3
 72
13
 73
9
 74
0
 42
0.0000001
 43
0.0000001
 44
0.0000000001
 40
0.0
 40
0.0
 40
0.0
 40
0.0
 40
0.2976722843
 40
0.5605363078
 40
0.6794209024
 40
0.791017589
 40
0.8970861605
 40
1.0
 40
1.0
 40
1.0
 40
1.0
 10
183.9335858593
 20
208.8353486683
 30
0.0
 10
185.206683508
 20
207.8324831163
 30
0.0
 10
187.7648884836
 20
206.1336155491
 30
0.0
 10
191.2497518663
 20
204.7716222595
 30
0.0
 10
193.9135126376
 20
204.3563240189
 30
0.0
 10
195.7551304569
 20
204.3715183637
 30
0.0
 10
197.4786215654
 20
204.705823852
 30
0.0
 10
198.5386658505
 20
205.1443839893
 30
0.0
 10
199.0313810837
 20
205.4111700783
 30
0.0
  0
SPLINE
  5
35A
100
AcDbEntity
  8
0
100
AcDbSpline
 62
7
  6
CONTINUOUS
 70
0
 71
3
 72
9
 73
5
 74
0
 42
0.0000001
 43
0.0000001
 44
0.0000000001
 40
0.0
 40
0.0
 40
0.0
 40
0.0
 40
0.2426935734
 40
1.0
 40
1.0
 40
1.0
 40
1.0
 10
224.9736006804
 20
167.3187048019
 30
0.0
 10
224.5880538155
 20
170.0987140277
 30
0.0
 10
223.2152307498
 20
181.5830024812
 30
0.0
 10
222.6796086529
 20
193.162552735
 30
0.0
 10
222.6796086529
 20
201.9203821469
 30
0.0
  0
SPLINE
  5
35B
100
AcDbEntity
  8
0
100
AcDbSpline
 62
7
  6
CONTINUOUS
 70
0
 71
3
 72
11
 73
7
 74
0
 42
0.0000001
 43
0.0000001
 44
0.0000000001
 40
0.0
 40
0.0
 40
0.0
 40
0.0
 40
0.2652107735
 40
0.5251083725
 40
0.7721219809
 40
1.0
 40
1.0
 40
1.0
 40
1.0
 10
199.378043009
 20
236.0595081777
 30
0.0
 10
200.4031774189
 20
234.4468714753
 30
0.0
 10
202.2375104451
 20
231.1249053238
 30
0.0
 10
204.3086047837
 20
225.9455228177
 30
0.0
 10
205.6100152663
 20
220.7971995126
 30
0.0
 10
205.9404304408
 20
217.3720923597
 30
0.0
 10
205.9404304408
 20
215.7301920357
 30
0.0
  0
SPLINE
  5
35C
100
AcDbEntity
  8
0
100
AcDbSpline
 62
7
  6
CONTINUOUS
 70
0
 71
3
 72
9
 73
5
 74
0
 42
0.0000001
 43
0.0000001
 44
0.0000000001
 40
0.0
 40
0.0
 40
0.0
 40
0.0
 40
0.5254984383
 40
1.0
 40
1.0
 40
1.0
 40
1.0
 10
205.9404304408
 20
215.7301920357
 30
0.0
 10
205.9404304408
 20
214.4777666146
 30
0.0
 10
205.7651978679
 20
212.0889655862
 30
0.0
 10
205.1434182287
 20
209.7667024432
 30
0.0
 10
204.7205411048
 20
208.7178584404
 30
0.0
  0
SPLINE
  5
35D
100
AcDbEntity
  8
0
100
AcDbSpline
 62
7
  6
CONTINUOUS
 70
0
 71
3
 72
11
 73
7
 74
0
 42
0.0000001
 43
0.0000001
 44
0.0000000001
 40
0.0
 40
0.0
 40
0.0
 40
0.0
 40
0.2664549953
 40
0.5192808394
 40
0.7622155289
 40
1.0
 40
1.0
 40
1.0
 40
1.0
 10
204.7205411048
 20
208.7178584404
 30
0.0
 10
204.4911413546
 20
208.1488880739
 30
0.0
 10
203.9693124597
 20
207.0677803237
 30
0.0
 10
202.968844922
 20
205.6168610684
 30
0.0
 10
201.78352072
 20
204.4020827098
 30
0.0
 10
200.8742711233
 20
203.7582179716
 30
0.0
 10
200.4001542114
 20
203.4844822947
 30
0.0
  0
SPLINE
  5
35E
100
AcDbEntity
  8
0
100
AcDbSpline
 62
7
  6
CONTINUOUS
 70
0
 71
3
 72
9
 73
5
 74
0
 42
0.0000001
 43
0.0000001
 44
0.0000000001
 40
0.0
 40
0.0
 40
0.0
 40
0.0
 40
0.2436399086
 40
1.0
 40
1.0
 40
1.0
 40
1.0
 10
222.6796086529
 20
201.9203821469
 30
0.0
 10
222.6796086529
 20
204.9523725019
 30
0.0
 10
222.8797636711
 20
217.3965231703
 30
0.0
 10
223.8563575732
 20
229.8248943048
 30
0.0
 10
224.9736006804
 20
239.1709175093
 30
0.0
  0
SPLINE
  5
35F
100
AcDbEntity
  8
0
100
AcDbSpline
 62
7
  6
CONTINUOUS
 70
0
 71
3
 72
13
 73
9
 74
0
 42
0.0000001
 43
0.0000001
 44
0.0000000001
 40
0.0
 40
0.0
 40
0.0
 40
0.0
 40
0.2722320168
 40
0.5585535486
 40
0.6899216268
 40
0.8062718177
 40
0.9075716466
 40
1.0
 40
1.0
 40
1.0
 40
1.0
 10
208.6472537304
 20
235.9908919978
 30
0.0
 10
208.6283294769
 20
235.7627691481
 30
0.0
 10
208.71224207
 20
235.2848660511
 30
0.0
 10
209.0067433928
 20
234.7700080425
 30
0.0
 10
209.3387409157
 20
234.4623507701
 30
0.0
 10
209.6002350833
 20
234.3207149006
 30
0.0
 10
209.8636538455
 20
234.276129298
 30
0.0
 10
210.0268365108
 20
234.3235332227
 30
0.0
 10
210.0941416618
 20
234.3623941497
 30
0.0
  0
ELLIPSE
  5
360
100
AcDbEntity
  8
0
100
AcDbEllipse
 62
7
  6
CONTINUOUS
 10
399.0224953617
 20
345.0555249909
 30
0.0
 11
274.0667036928
 21
187.8996128357
 31
0.0
 40
0.0840491871
 41
2.2610316209
 42
2.2962011133
  0
ELLIPSE
  5
361
100
AcDbEntity
  8
0
100
AcDbEllipse
 62
7
  6
CONTINUOUS
 10
433.872083949
 20
324.9355608132
 30
0.0
 11
-161.3478828883
 21
352.2115456066
 31
0.0
 40
0.6305896325
 41
1.5300269421
 42
1.5684886019
  0
ELLIPSE
  5
362
100
AcDbEntity
  8
0
100
AcDbEllipse
 62
7
  6
CONTINUOUS
 10
262.5567490952
 20
206.394243923
 30
0.0
 11
0.5988681948
 21
1.4937668281
 31
0.0
 40
0.6514695908
 41
3.7023452565
 42
5.4047108839
  0
ELLIPSE
  5
363
100
AcDbEntity
  8
0
100
AcDbEllipse
 62
7
  6
CONTINUOUS
 10
399.937571074
 20
344.527217734
 30
0.0
 11
274.0667036928
 21
187.8996128357
 31
0.0
 40
0.0840491871
 41
2.260955072
 42
2.2962011133
  0
ELLIPSE
  5
364
100
AcDbEntity
  8
0
100
AcDbEllipse
 62
7
  6
CONTINUOUS
 10
434.7871596613
 20
324.4072535564
 30
0.0
 11
-161.3478828883
 21
352.2115456066
 31
0.0
 40
0.6305896325
 41
1.5300269421
 42
1.5651485698
  0
ELLIPSE
  5
365
100
AcDbEntity
  8
0
100
AcDbEllipse
 62
7
  6
CONTINUOUS
 10
434.7851686658
 20
324.4052481788
 30
0.0
 11
-161.184769261
 21
351.8554795601
 31
0.0
 40
0.6305896325
 41
1.5299233051
 42
1.5650807281
  0
ELLIPSE
  5
366
100
AcDbEntity
  8
0
100
AcDbEllipse
 62
7
  6
CONTINUOUS
 10
399.934911536
 20
344.5255983309
 30
0.0
 11
273.7896376827
 21
187.709656904
 31
0.0
 40
0.0840491871
 41
2.2617733018
 42
2.2960974763
  0
ENDSEC
  0
SECTION
  2
OBJECTS
  0
DICTIONARY
  5
C
100
AcDbDictionary
280
0
281
1
  3
ACAD_GROUP
350
D
  3
ACAD_MLINESTYLE
350
17
  3
ACAD_LAYOUT
350
1A
  3
ACAD_PLOTSETTINGS
350
19
  3
ACAD_PLOTSTYLENAME
350
E
  0
DICTIONARY
  5
D
102
{ACAD_REACTORS
330
C
102
}
100
AcDbDictionary
280
0
281
1
  0
ACDBDICTIONARYWDFLT
  5
E
102
{ACAD_REACTORS
330
C
102
}
100
AcDbDictionary
281
1
  3
Normal
350
F
100
AcDbDictionaryWithDefault
340
F
  0
DICTIONARY
  5
17
102
{ACAD_REACTORS
330
C
102
}
100
AcDbDictionary
280
0
281
1
  3
Standard
350
18
  0
DICTIONARY
  5
19
102
{ACAD_REACTORS
330
C
102
}
100
AcDbDictionary
281
1
  0
DICTIONARY
  5
1A
102
{ACAD_REACTORS
330
C
102
}
100
AcDbDictionary
281
1
  3
Model
350
367
  3
Layout1
350
368
  0
ACDBPLACEHOLDER
  5
F
102
{ACAD_REACTORS
330
E
102
}
  0
MLINESTYLE
  5
18
102
{ACAD_REACTORS
330
17
102
}
100
AcDbMlineStyle
  2
STANDARD
 70
0
  3

 62
256
 51
90.0
 52
90.0
 71
2
 49
0.5
 62
256
  6
BYLAYER
 49
-0.5
 62
256
  6
BYLAYER
  0
LAYOUT
  5
367
102
{ACAD_REACTORS
330
1A
102
}
100
AcDbPlotSettings
  1

  2
none_device
  4

  6

 40
0.0
 41
0.0
 42
0.0
 43
0.0
 44
210.0
 45
297.0
 46
0.0
 47
0.0
 48
0.0
 49
0.0
140
0.0
141
0.0
142
1.0
143
1.0
 70
1024
 72
1
 73
0
 74
0
  7

 75
0
147
1.0
148
0.0
149
0.0
100
AcDbLayout
  1
Model
 70
0
 71
0
 10
0.0
 20
0.0
 11
210.0
 21
297.0
 12
0.0
 22
0.0
 32
0.0
 14
0.0
 24
0.0
 34
0.0
 15
0.0
 25
0.0
 35
0.0
146
0.0
 13
0.0
 23
0.0
 33
0.0
 16
1.0
 26
0.0
 36
0.0
 17
0.0
 27
1.0
 37
0.0
 76
0
330
211
345
0
346
0
  0
LAYOUT
  5
368
102
{ACAD_REACTORS
330
1A
102
}
100
AcDbPlotSettings
  1

  2
none_device
  4

  6

 40
0.0
 41
0.0
 42
0.0
 43
0.0
 44
210.0
 45
297.0
 46
0.0
 47
0.0
 48
0.0
 49
0.0
140
0.0
141
0.0
142
1.0
143
1.0
 70
0
 72
1
 73
0
 74
0
  7

 75
0
147
1.0
148
0.0
149
0.0
100
AcDbLayout
  1
Layout1
 70
0
 71
1
 10
0.0
 20
0.0
 11
210.0
 21
297.0
 12
0.0
 22
0.0
 32
0.0
 14
0.0
 24
0.0
 34
0.0
 15
0.0
 25
0.0
 35
0.0
146
0.0
 13
0.0
 23
0.0
 33
0.0
 16
1.0
 26
0.0
 36
0.0
 17
0.0
 27
1.0
 37
0.0
 76
0
330
212
345
0
346
0
  0
ENDSEC
  0
EOF
