999
DXF file: C:\Users\SESA621925\Desktop\Projects\Drawing_creation_tool\Gen2D (3) (1)\CAD\G40-80AUX240_3D-CAD\drw0001_1.dxf
999
Pro/ENGINEER 2019471 by Parametric Technology Corporation
  0
SECTION
  2
HEADER
  9
$ACADVER
  1
AC1024
  9
$DWGCODEPAGE
  3
ANSI_1252
  9
$EXTMAX
 10
62.7403315874
 20
88.7327546736
 30
0.0
  9
$EXTMIN
 10
0.0
 20
0.0
 30
0.0
  9
$LIMMIN
 10
0.0
 20
0.0
  9
$LIMMAX
 10
62.7403315874
 20
88.7327546736
  9
$VIEWCTR
 10
31.3701657937
 20
44.3663773368
  9
$VIEWSIZE
 40
88.7327546736
  9
$CLAYER
  8
0
  9
$LTSCALE
 40
5.7840610454
  9
$CELTYPE
  6
BYLAYER
  9
$DIMSCALE
 40
1.0
  9
$DIMASZ
 40
0.7469087094
  9
$DIMEXO
 40
1.0
  9
$DIMDLI
 40
3.9962603586
  9
$DIMEXE
 40
1.0
  9
$DIMCEN
 40
0.9464827165
  9
$DIMLFAC
 40
1.0
  9
$DIMBLK
  1
_FILLED
  9
$DIMALT
 70
0
  9
$DIMALTF
 40
0.0393700787
  9
$DIMTXT
 40
1.0456721931
  9
$DIMTOL
 70
1
  9
$DIMLIM
 70
0
  9
$DIMTFAC
 40
1.0
  9
$DIMTP
 40
0.01
  9
$DIMTM
 40
0.01
  9
$DIMGAP
 40
0.625
  9
$DIMDSEP
 70
46
  9
$AUNITS
 70
0
  9
$PDMODE
 70
3
  9
$PDSIZE
 40
0.3125
  9
$HANDSEED
  5
306
  9
$TILEMODE
 70
1
  9
$MEASUREMENT
 70
1
  9
$INSUNITS
 70
4
  0
ENDSEC
  0
SECTION
  2
CLASSES
  0
CLASS
  1
ACDBDICTIONARYWDFLT
  2
AcDbDictionaryWithDefault
  3
AutoCAD 2000
 90
0
 91
1
280
0
281
0
  0
CLASS
  1
ACDBPLACEHOLDER
  2
AcDbPlaceHolder
  3
AutoCAD 2000
 90
0
 91
1
280
0
281
0
  0
CLASS
  1
LAYOUT
  2
AcDbLayout
  3
AutoCAD 2000
 90
0
 91
0
280
0
281
0
  0
ENDSEC
  0
SECTION
  2
TABLES
  0
TABLE
  2
VPORT
  5
8
100
AcDbSymbolTable
 70
2
  0
VPORT
  5
1F4
100
AcDbSymbolTableRecord
100
AcDbViewportTableRecord
  2
*ACTIVE
 70
0
 10
0.0
 20
0.0
 11
1.0
 21
1.0
 12
31.3701657937
 22
44.3663773368
 13
0.0
 23
0.0
 14
1.0
 24
1.0
 15
0.0
 25
0.0
 16
0.0
 26
0.0
 36
1.0
 17
0.0
 27
0.0
 37
0.0
 40
88.7327546736
 41
0.7070707071
 42
50.0
 43
0.0
 44
0.0
 50
0.0
 51
0.0
 71
0
 72
100
 73
1
 74
1
 75
0
 76
0
 77
0
 78
0
  0
ENDTAB
  0
TABLE
  2
LTYPE
  5
5
100
AcDbSymbolTable
 70
6
  0
LTYPE
  5
14
100
AcDbSymbolTableRecord
100
AcDbLinetypeTableRecord
  2
BYBLOCK
 70
0
  3

 72
65
 73
0
 40
0.0
  0
LTYPE
  5
15
100
AcDbSymbolTableRecord
100
AcDbLinetypeTableRecord
  2
BYLAYER
 70
0
  3

 72
65
 73
0
 40
0.0
  0
LTYPE
  5
16
100
AcDbSymbolTableRecord
100
AcDbLinetypeTableRecord
  2
CONTINUOUS
 70
64
  3
Solid line
 72
65
 73
0
 40
0.0
  0
LTYPE
  5
1F5
100
AcDbSymbolTableRecord
100
AcDbLinetypeTableRecord
  2
CENTER
 70
64
  3
____ _ ____ _ ____ _ ____ _ ____ _ ____ _ ____
 72
65
 73
4
 40
0.6
 49
0.375
 74
0
 49
-0.075
 74
0
 49
0.075
 74
0
 49
-0.075
 74
0
  0
LTYPE
  5
1F6
100
AcDbSymbolTableRecord
100
AcDbLinetypeTableRecord
  2
HIDDEN
 70
64
  3
- - - - - - - - - - - - - - - - - - - -
 72
65
 73
2
 40
0.2
 49
0.1
 74
0
 49
-0.1
 74
0
  0
LTYPE
  5
1F7
100
AcDbSymbolTableRecord
100
AcDbLinetypeTableRecord
  2
PHANTOM
 70
64
  3
_____ _ _ _____ _ _ _____ _ _ _____
 72
65
 73
6
 40
0.8
 49
0.45
 74
0
 49
-0.05
 74
0
 49
0.1
 74
0
 49
-0.05
 74
0
 49
0.1
 74
0
 49
-0.05
 74
0
  0
LTYPE
  5
1F8
100
AcDbSymbolTableRecord
100
AcDbLinetypeTableRecord
  2
DOT
 70
64
  3
. . . . . . . . . . . . . . . . . . . .
 72
65
 73
2
 40
0.2
 49
0.1
 74
0
 49
-0.1
 74
0
  0
LTYPE
  5
1F9
100
AcDbSymbolTableRecord
100
AcDbLinetypeTableRecord
  2
DASHED
 70
64
  3
- - - - - - - - - - - - - - - - - - - -
 72
65
 73
2
 40
0.2
 49
0.1
 74
0
 49
-0.1
 74
0
  0
ENDTAB
  0
TABLE
  2
LAYER
  5
2
100
AcDbSymbolTable
 70
36
  0
LAYER
  5
10
100
AcDbSymbolTableRecord
100
AcDbLayerTableRecord
  2
0
 70
0
 62
7
  6
CONTINUOUS
370
-3
390
F
  0
LAYER
  5
1FA
100
AcDbSymbolTableRecord
100
AcDbLayerTableRecord
  2
DEFAULT_1
 70
0
 62
7
  6
CENTER
370
-3
390
F
  0
LAYER
  5
1FB
100
AcDbSymbolTableRecord
100
AcDbLayerTableRecord
  2
DEFAULT_2
 70
0
 62
8
  6
HIDDEN
370
-3
390
F
  0
LAYER
  5
1FC
100
AcDbSymbolTableRecord
100
AcDbLayerTableRecord
  2
DEFAULT_3
 70
0
 62
7
  6
PHANTOM
370
-3
390
F
  0
LAYER
  5
1FD
100
AcDbSymbolTableRecord
100
AcDbLayerTableRecord
  2
00_COMPONENTS
 70
0
 62
7
  6
CONTINUOUS
370
-3
390
F
  0
LAYER
  5
1FE
100
AcDbSymbolTableRecord
100
AcDbLayerTableRecord
  2
01_1_DEFAULT_DATUMS
 70
0
 62
7
  6
CONTINUOUS
370
-3
390
F
  0
LAYER
  5
1FF
100
AcDbSymbolTableRecord
100
AcDbLayerTableRecord
  2
01_PLANES
 70
0
 62
7
  6
CONTINUOUS
370
-3
390
F
  0
LAYER
  5
200
100
AcDbSymbolTableRecord
100
AcDbLayerTableRecord
  2
02_COORD_SYS
 70
0
 62
7
  6
CONTINUOUS
370
-3
390
F
  0
LAYER
  5
201
100
AcDbSymbolTableRecord
100
AcDbLayerTableRecord
  2
03_AXES
 70
0
 62
7
  6
CONTINUOUS
370
-3
390
F
  0
LAYER
  5
202
100
AcDbSymbolTableRecord
100
AcDbLayerTableRecord
  2
04_POINTS
 70
0
 62
7
  6
CONTINUOUS
370
-3
390
F
  0
LAYER
  5
203
100
AcDbSymbolTableRecord
100
AcDbLayerTableRecord
  2
05_CURVES
 70
0
 62
7
  6
CONTINUOUS
370
-3
390
F
  0
LAYER
  5
204
100
AcDbSymbolTableRecord
100
AcDbLayerTableRecord
  2
06_SURFS
 70
0
 62
7
  6
CONTINUOUS
370
-3
390
F
  0
LAYER
  5
205
100
AcDbSymbolTableRecord
100
AcDbLayerTableRecord
  2
07_COSMETICS
 70
0
 62
7
  6
CONTINUOUS
370
-3
390
F
  0
LAYER
  5
206
100
AcDbSymbolTableRecord
100
AcDbLayerTableRecord
  2
10_NOTES
 70
0
 62
7
  6
CONTINUOUS
370
-3
390
F
  0
LAYER
  5
207
100
AcDbSymbolTableRecord
100
AcDbLayerTableRecord
  2
11_NOTES_PUB
 70
0
 62
7
  6
CONTINUOUS
370
-3
390
F
  0
LAYER
  5
208
100
AcDbSymbolTableRecord
100
AcDbLayerTableRecord
  2
13_REF_GTOL
 70
0
 62
7
  6
CONTINUOUS
370
-3
390
F
  0
LAYER
  5
209
100
AcDbSymbolTableRecord
100
AcDbLayerTableRecord
  2
16_MISC
 70
0
 62
7
  6
CONTINUOUS
370
-3
390
F
  0
LAYER
  5
20A
100
AcDbSymbolTableRecord
100
AcDbLayerTableRecord
  2
17_NO_PRINT
 70
0
 62
7
  6
CONTINUOUS
370
-3
390
F
  0
LAYER
  5
20B
100
AcDbSymbolTableRecord
100
AcDbLayerTableRecord
  2
18_DATUM_CAMS_JOINTS
 70
0
 62
7
  6
CONTINUOUS
370
-3
390
F
  0
LAYER
  5
20C
100
AcDbSymbolTableRecord
100
AcDbLayerTableRecord
  2
19_DATUM_FUNCTIONAL
 70
0
 62
7
  6
CONTINUOUS
370
-3
390
F
  0
LAYER
  5
20D
100
AcDbSymbolTableRecord
100
AcDbLayerTableRecord
  2
20_DATUM_KINEMATIC_SCHEME
 70
0
 62
7
  6
CONTINUOUS
370
-3
390
F
  0
ENDTAB
  0
TABLE
  2
STYLE
  5
3
100
AcDbSymbolTable
 70
1
  0
STYLE
  5
11
100
AcDbSymbolTableRecord
100
AcDbTextStyleTableRecord
  2
STANDARD
 70
0
 40
0.0
 41
0.8
 50
0.0
 71
0
 42
0.2
  3
txt
  4

  0
STYLE
  5
20E
100
AcDbSymbolTableRecord
100
AcDbTextStyleTableRecord
  2
TEXTSTYLE_1
 70
0
 40
0.0
 41
0.8
 50
0.0
 71
0
 42
0.2
  3
gdt
  4

  0
ENDTAB
  0
TABLE
  2
VIEW
  5
6
100
AcDbSymbolTable
 70
0
  0
ENDTAB
  0
TABLE
  2
UCS
  5
7
100
AcDbSymbolTable
 70
0
  0
ENDTAB
  0
TABLE
  2
APPID
  5
9
100
AcDbSymbolTable
 70
1
  0
APPID
  5
20F
100
AcDbSymbolTableRecord
100
AcDbRegAppTableRecord
  2
ACAD
 70
0
  0
ENDTAB
  0
TABLE
  2
BLOCK_RECORD
  5
1
100
AcDbSymbolTable
 70
0
  0
BLOCK_RECORD
  5
210
100
AcDbSymbolTableRecord
100
AcDbBlockTableRecord
  2
*Model_Space
  0
BLOCK_RECORD
  5
211
100
AcDbSymbolTableRecord
100
AcDbBlockTableRecord
  2
*Paper_Space
  0
BLOCK_RECORD
  5
212
100
AcDbSymbolTableRecord
100
AcDbBlockTableRecord
  2
_FILLED
  0
ENDTAB
  0
TABLE
  2
DIMSTYLE
  5
A
100
AcDbSymbolTable
 70
1
100
AcDbDimStyleTable
 71
0
  0
DIMSTYLE
105
213
100
AcDbSymbolTableRecord
100
AcDbDimStyleTableRecord
  2
STANDARD
 70
0
  3

  4

 40
1.0
 41
0.7469087094
 42
1.0
 43
0.38
 44
1.0
 45
0.0
 46
0.0
 47
0.01
 48
0.01
140
1.0456721931
141
0.09
142
0.0
143
25.4
144
1.0
145
0.0
146
1.0
147
0.625
 71
1
 72
0
 73
0
 74
0
 75
0
 76
0
 77
1
 78
8
 79
2
170
0
171
1
172
0
173
0
174
0
175
0
176
0
177
0
178
0
270
2
179
2
271
2
272
2
273
2
274
2
275
0
280
0
281
0
282
0
283
1
284
8
285
0
286
0
287
3
288
0
340
11
278
46
341
212
342
212
343
212
344
212
  0
ENDTAB
  0
ENDSEC
  0
SECTION
  2
BLOCKS
  0
BLOCK
  5
20
100
AcDbEntity
  8
0
100
AcDbBlockBegin
  2
*Model_Space
 70
0
 10
0.0
 20
0.0
 30
0.0
  3
*Model_Space
  1

  0
ENDBLK
  5
21
100
AcDbEntity
  8
0
100
AcDbBlockEnd
  0
BLOCK
  5
1C
100
AcDbEntity
  8
0
100
AcDbBlockBegin
  2
*Paper_Space
 70
0
 10
0.0
 20
0.0
 30
0.0
  3
*Paper_Space
  1

  0
ENDBLK
  5
1D
100
AcDbEntity
  8
0
100
AcDbBlockEnd
  0
BLOCK
  5
214
100
AcDbEntity
  8
0
100
AcDbBlockBegin
  2
_FILLED
 70
64
 10
0.0
 20
0.0
  3
_FILLED
  1

  0
SOLID
  5
215
100
AcDbEntity
  8
0
  6
BYBLOCK
 62
0
100
AcDbTrace
 10
0.0
 20
0.0
 11
-1.0
 21
0.25
 12
-1.0
 22
-0.25
 13
-1.0
 23
-0.25
  0
ENDBLK
  5
216
100
AcDbEntity
  8
0
  6
BYBLOCK
 62
0
100
AcDbBlockEnd
  0
ENDSEC
  0
SECTION
  2
ENTITIES
  0
LINE
  5
217
100
AcDbEntity
  8
0
100
AcDbLine
 62
7
  6
CONTINUOUS
 10
48.6206965957
 20
26.3834568578
 11
48.2110169639
 21
26.4580162653
  0
LINE
  5
218
100
AcDbEntity
  8
0
100
AcDbLine
 62
7
  6
CONTINUOUS
 10
47.4514203191
 20
26.596258617
 11
35.2499332062
 21
28.8168612023
  0
LINE
  5
219
100
AcDbEntity
  8
0
100
AcDbLine
 62
7
  6
CONTINUOUS
 10
35.1812197762
 20
29.0882763631
 11
45.8954475946
 21
27.1383466723
  0
LINE
  5
21A
100
AcDbEntity
  8
0
100
AcDbLine
 62
7
  6
CONTINUOUS
 10
46.264868239
 20
27.071114176
 11
46.7965210558
 21
26.9743563293
  0
LINE
  5
21B
100
AcDbEntity
  8
0
100
AcDbLine
 62
7
  6
CONTINUOUS
 10
40.3564852045
 20
30.2941393566
 11
38.0096351251
 21
30.7212529786
  0
LINE
  5
21C
100
AcDbEntity
  8
0
100
AcDbLine
 62
7
  6
CONTINUOUS
 10
42.5062023756
 20
28.7981233674
 11
40.5262951452
 21
29.94119748
  0
LINE
  5
21D
100
AcDbEntity
  8
0
100
AcDbLine
 62
7
  6
CONTINUOUS
 10
42.7890439105
 20
28.9614210289
 11
44.7689511409
 21
27.8183469163
  0
LINE
  5
21E
100
AcDbEntity
  8
0
100
AcDbLine
 62
7
  6
CONTINUOUS
 10
47.6681033691
 20
26.1445668262
 11
47.4559704516
 21
26.2670390526
  0
LINE
  5
21F
100
AcDbEntity
  8
0
100
AcDbLine
 62
7
  6
CONTINUOUS
 10
40.1727402826
 20
30.6760444284
 11
35.6472380416
 21
33.2887852574
  0
LINE
  5
220
100
AcDbEntity
  8
0
100
AcDbLine
 62
7
  6
CONTINUOUS
 10
47.4559704516
 20
26.5936316562
 11
46.4028387357
 21
27.2016437808
  0
LINE
  5
221
100
AcDbEntity
  8
0
100
AcDbLine
 62
7
  6
CONTINUOUS
 10
45.450481083
 20
27.7514752891
 11
44.9810840584
 21
28.0224756568
  0
LINE
  5
222
100
AcDbEntity
  8
0
100
AcDbLine
 62
7
  6
CONTINUOUS
 10
32.2884694968
 20
36.738466192
 11
33.1370011669
 21
36.2485772865
  0
LINE
  5
223
100
AcDbEntity
  8
0
100
AcDbLine
 62
7
  6
CONTINUOUS
 10
47.1236393024
 20
28.4838691922
 11
31.7793582667
 21
37.3426935653
  0
LINE
  5
224
100
AcDbEntity
  8
0
100
AcDbLine
 62
7
  6
CONTINUOUS
 10
47.3498862749
 20
28.6144921629
 11
47.4559704516
 21
28.5532458206
  0
LINE
  5
225
100
AcDbEntity
  8
0
100
AcDbLine
 62
7
  6
CONTINUOUS
 10
35.6472380416
 20
33.2887852574
 11
33.5259088662
 21
34.8809336086
  0
LINE
  5
226
100
AcDbEntity
  8
0
100
AcDbLine
 62
7
  6
CONTINUOUS
 10
47.8802404082
 20
28.9206904368
 11
48.6628139345
 21
28.4688816221
  0
LINE
  5
227
100
AcDbEntity
  8
0
100
AcDbLine
 62
7
  6
CONTINUOUS
 10
44.606329623
 20
31.0313223186
 11
32.5854642955
 21
37.9714151455
  0
LINE
  5
228
100
AcDbEntity
  8
0
100
AcDbLine
 62
7
  6
CONTINUOUS
 10
31.8394570913
 20
37.3079962777
 11
32.7127353319
 21
36.4935217392
  0
LINE
  5
229
100
AcDbEntity
  8
0
100
AcDbLine
 62
7
  6
CONTINUOUS
 10
33.1370011669
 20
36.2485772865
 11
32.2637229264
 21
37.0630518249
  0
LINE
  5
22A
100
AcDbEntity
  8
0
100
AcDbLine
 62
7
  6
CONTINUOUS
 10
31.7793582667
 20
47.5489737794
 11
36.1775337622
 21
50.0882464282
  0
LINE
  5
22B
100
AcDbEntity
  8
0
100
AcDbLine
 62
7
  6
CONTINUOUS
 10
38.4402764133
 20
51.3946337088
 11
38.8645387156
 21
51.6395802012
  0
LINE
  5
22C
100
AcDbEntity
  8
0
100
AcDbLine
 62
7
  6
CONTINUOUS
 10
31.7793582667
 20
37.3426935653
 11
31.7793582667
 21
47.5489737794
  0
LINE
  5
22D
100
AcDbEntity
  8
0
100
AcDbLine
 62
7
  6
CONTINUOUS
 10
32.5854642955
 20
45.3199368996
 11
32.6986009094
 21
45.3852559642
  0
LINE
  5
22E
100
AcDbEntity
  8
0
100
AcDbLine
 62
7
  6
CONTINUOUS
 10
35.2499332062
 20
28.8168612023
 11
35.1812197762
 21
29.0882763631
  0
LINE
  5
22F
100
AcDbEntity
  8
0
100
AcDbLine
 62
7
  6
CONTINUOUS
 10
32.2884694968
 20
36.8892188999
 11
32.2884694968
 21
36.738466192
  0
LINE
  5
230
100
AcDbEntity
  8
0
100
AcDbLine
 62
7
  6
CONTINUOUS
 10
32.5854642955
 20
37.9714151455
 11
32.5854642955
 21
45.3199368996
  0
LINE
  5
231
100
AcDbEntity
  8
0
100
AcDbLine
 62
7
  6
CONTINUOUS
 10
33.5259088662
 20
34.8809336086
 11
33.5259088662
 21
36.3343449184
  0
LINE
  5
232
100
AcDbEntity
  8
0
100
AcDbLine
 62
7
  6
CONTINUOUS
 10
37.7897909305
 20
45.6302819585
 11
38.2528371613
 21
45.9344998324
  0
LINE
  5
233
100
AcDbEntity
  8
0
100
AcDbLine
 62
7
  6
CONTINUOUS
 10
45.3558414378
 20
51.2233653392
 11
49.6126065378
 21
53.6809951455
  0
LINE
  5
234
100
AcDbEntity
  8
0
100
AcDbLine
 62
7
  6
CONTINUOUS
 10
43.0752853311
 20
48.7187249618
 11
38.2528371613
 21
45.9344998324
  0
LINE
  5
235
100
AcDbEntity
  8
0
100
AcDbLine
 62
7
  6
CONTINUOUS
 10
31.6735869768
 20
45.3979409928
 11
26.7238189008
 21
48.2556262745
  0
LINE
  5
236
100
AcDbEntity
  8
0
100
AcDbLine
 62
7
  6
CONTINUOUS
 10
20.3810446662
 20
51.9175458425
 11
15.4312765902
 21
54.7752311241
  0
LINE
  5
237
100
AcDbEntity
  8
0
100
AcDbLine
 62
7
  6
CONTINUOUS
 10
12.5192022621
 20
56.5743917234
 11
9.6907633615
 21
58.2073547415
  0
LINE
  5
238
100
AcDbEntity
  8
0
100
AcDbLine
 62
7
  6
CONTINUOUS
 10
31.7793582667
 20
45.5326254355
 11
31.5264609645
 21
45.678632458
  0
LINE
  5
239
100
AcDbEntity
  8
0
100
AcDbLine
 62
7
  6
CONTINUOUS
 10
26.4697489962
 20
48.5980604278
 11
20.2339186539
 21
52.1982373076
  0
LINE
  5
23A
100
AcDbEntity
  8
0
100
AcDbLine
 62
7
  6
CONTINUOUS
 10
15.1772066856
 20
55.1176652775
 11
12.5529068997
 21
56.632771189
  0
LINE
  5
23B
100
AcDbEntity
  8
0
100
AcDbLine
 62
7
  6
CONTINUOUS
 10
9.5984416285
 20
58.33849392
 11
7.4546457814
 21
59.5761870291
  0
LINE
  5
23C
100
AcDbEntity
  8
0
100
AcDbLine
 62
7
  6
CONTINUOUS
 10
32.5854642955
 20
45.3199368996
 11
44.606329623
 21
38.3798440728
  0
LINE
  5
23D
100
AcDbEntity
  8
0
100
AcDbLine
 62
7
  6
CONTINUOUS
 10
32.6986009094
 20
45.3852559642
 11
44.7194662369
 21
38.4451631374
  0
LINE
  5
23E
100
AcDbEntity
  8
0
100
AcDbLine
 62
7
  6
CONTINUOUS
 10
40.5262951452
 20
29.94119748
 11
40.1727402826
 21
30.6760444284
  0
LINE
  5
23F
100
AcDbEntity
  8
0
100
AcDbLine
 62
7
  6
CONTINUOUS
 10
35.1281811785
 20
46.2916025215
 11
35.1281811785
 21
47.842957114
  0
LINE
  5
240
100
AcDbEntity
  8
0
100
AcDbLine
 62
7
  6
CONTINUOUS
 10
44.9176408169
 20
49.3262516101
 11
43.7032235883
 21
48.3561928415
  0
LINE
  5
241
100
AcDbEntity
  8
0
100
AcDbLine
 62
7
  6
CONTINUOUS
 10
45.0599277612
 20
49.4234356047
 11
44.9176408169
 21
49.3262516101
  0
LINE
  5
242
100
AcDbEntity
  8
0
100
AcDbLine
 62
7
  6
CONTINUOUS
 10
31.7793582667
 20
47.4956052489
 11
31.6640777971
 21
47.5621609534
  0
LINE
  5
243
100
AcDbEntity
  8
0
100
AcDbLine
 62
7
  6
CONTINUOUS
 10
26.6399529891
 20
50.4627751431
 11
20.3715354866
 21
54.0817658031
  0
LINE
  5
244
100
AcDbEntity
  8
0
100
AcDbLine
 62
7
  6
CONTINUOUS
 10
15.3474106785
 20
56.9823799928
 11
13.4028924777
 21
58.1050227019
  0
LINE
  5
245
100
AcDbEntity
  8
0
100
AcDbLine
 62
7
  6
CONTINUOUS
 10
10.4330728043
 20
59.8196101006
 11
8.3046313594
 21
61.048438542
  0
LINE
  5
246
100
AcDbEntity
  8
0
100
AcDbLine
 62
7
  6
CONTINUOUS
 10
13.1732533396
 20
58.2765654704
 11
10.344814439
 21
59.9095284884
  0
LINE
  5
247
100
AcDbEntity
  8
0
100
AcDbLine
 62
7
  6
CONTINUOUS
 10
37.7897909305
 20
44.078927366
 11
36.5875023251
 21
44.7730533127
  0
LINE
  5
248
100
AcDbEntity
  8
0
100
AcDbLine
 62
7
  6
CONTINUOUS
 10
35.5979528551
 20
45.3443570409
 11
31.7793582667
 21
47.5489737794
  0
LINE
  5
249
100
AcDbEntity
  8
0
100
AcDbLine
 62
7
  6
CONTINUOUS
 10
13.4365971154
 20
58.1634021674
 11
13.2593061276
 21
58.2657588513
  0
LINE
  5
24A
100
AcDbEntity
  8
0
100
AcDbLine
 62
7
  6
CONTINUOUS
 10
31.8092937945
 20
47.5662569612
 11
31.6989953344
 21
47.6299363663
  0
LINE
  5
24B
100
AcDbEntity
  8
0
100
AcDbLine
 62
7
  6
CONTINUOUS
 10
26.6780298474
 20
50.5287265624
 11
20.4064530238
 21
54.1495412159
  0
LINE
  5
24C
100
AcDbEntity
  8
0
100
AcDbLine
 62
7
  6
CONTINUOUS
 10
15.3854875368
 20
57.0483314121
 11
13.1944581893
 21
58.3132941784
  0
LINE
  5
24D
100
AcDbEntity
  8
0
100
AcDbLine
 62
7
  6
CONTINUOUS
 10
10.2646244369
 20
60.0047962171
 11
8.096197071
 21
61.2567100185
  0
LINE
  5
24E
100
AcDbEntity
  8
0
100
AcDbLine
 62
7
  6
CONTINUOUS
 10
37.7897909305
 20
44.078927366
 11
37.7897909305
 21
45.6302819585
  0
LINE
  5
24F
100
AcDbEntity
  8
0
100
AcDbLine
 62
7
  6
CONTINUOUS
 10
45.3558414378
 20
47.5005069044
 11
45.3045004408
 21
47.4594964648
  0
LINE
  5
250
100
AcDbEntity
  8
0
100
AcDbLine
 62
7
  6
CONTINUOUS
 10
49.9520546513
 20
48.5698004348
 11
54.2088197513
 21
51.0274302411
  0
LINE
  5
251
100
AcDbEntity
  8
0
100
AcDbLine
 62
7
  6
CONTINUOUS
 10
33.5593089152
 20
48.5766226312
 11
33.0369732593
 21
48.8781864404
  0
LINE
  5
252
100
AcDbEntity
  8
0
100
AcDbLine
 62
7
  6
CONTINUOUS
 10
27.9699361896
 20
51.8035754755
 11
21.7444309487
 21
55.3977912901
  0
LINE
  5
253
100
AcDbEntity
  8
0
100
AcDbLine
 62
7
  6
CONTINUOUS
 10
16.677393879
 20
58.3231803252
 11
14.0694433432
 21
59.8288472063
  0
LINE
  5
254
100
AcDbEntity
  8
0
100
AcDbLine
 62
7
  6
CONTINUOUS
 10
11.1521207034
 20
61.5131261142
 11
8.9711822248
 21
62.7722630464
  0
LINE
  5
255
100
AcDbEntity
  8
0
100
AcDbLine
 62
7
  6
CONTINUOUS
 10
14.0906481929
 20
59.8655759143
 11
11.2622092923
 21
61.4985389324
  0
LINE
  5
256
100
AcDbEntity
  8
0
100
AcDbLine
 62
7
  6
CONTINUOUS
 10
47.1236393024
 20
40.8130556908
 11
38.2528371613
 21
45.9344998324
  0
LINE
  5
257
100
AcDbEntity
  8
0
100
AcDbLine
 62
7
  6
CONTINUOUS
 10
33.7235521944
 20
48.9486652297
 11
28.7737841184
 21
51.8063505114
  0
LINE
  5
258
100
AcDbEntity
  8
0
100
AcDbLine
 62
7
  6
CONTINUOUS
 10
22.4310098838
 20
55.4682700794
 11
17.4812418078
 21
58.3259553611
  0
LINE
  5
259
100
AcDbEntity
  8
0
100
AcDbLine
 62
7
  6
CONTINUOUS
 10
38.4402764133
 20
49.5853814019
 11
38.4402764133
 21
51.3946337088
  0
LINE
  5
25A
100
AcDbEntity
  8
0
100
AcDbLine
 62
7
  6
CONTINUOUS
 10
33.1370011669
 20
36.2485772865
 11
33.4057314073
 21
36.403727837
  0
LINE
  5
25B
100
AcDbEntity
  8
0
100
AcDbLine
 62
7
  6
CONTINUOUS
 10
37.2175319107
 20
49.4878188731
 11
36.1775337622
 21
50.0882464282
  0
LINE
  5
25C
100
AcDbEntity
  8
0
100
AcDbLine
 62
7
  6
CONTINUOUS
 10
45.3558414378
 20
45.0995972107
 11
49.9520546513
 21
42.4460323063
  0
LINE
  5
25D
100
AcDbEntity
  8
0
100
AcDbLine
 62
7
  6
CONTINUOUS
 10
50.3012168184
 20
37.8109011312
 11
50.8501012539
 21
37.3359858736
  0
LINE
  5
25E
100
AcDbEntity
  8
0
100
AcDbLine
 62
7
  6
CONTINUOUS
 10
41.4229201742
 20
46.0875399046
 11
41.4229201742
 21
46.5774413549
  0
LINE
  5
25F
100
AcDbEntity
  8
0
100
AcDbLine
 62
7
  6
CONTINUOUS
 10
38.4402764133
 20
51.3946337088
 11
44.9714276392
 21
47.6240114555
  0
LINE
  5
260
100
AcDbEntity
  8
0
100
AcDbLine
 62
7
  6
CONTINUOUS
 10
38.8645387156
 20
51.6395802012
 11
44.059176275
 21
48.6405226557
  0
LINE
  5
261
100
AcDbEntity
  8
0
100
AcDbLine
 62
7
  6
CONTINUOUS
 10
51.8568452603
 20
38.7090382697
 11
52.4057296957
 21
38.2341230122
  0
LINE
  5
262
100
AcDbEntity
  8
0
100
AcDbLine
 62
7
  6
CONTINUOUS
 10
42.5062023756
 20
31.149687336
 11
42.5062023756
 21
28.7981233674
  0
LINE
  5
263
100
AcDbEntity
  8
0
100
AcDbLine
 62
7
  6
CONTINUOUS
 10
42.7890439105
 20
28.9614210289
 11
42.7890439105
 21
30.9863923939
  0
LINE
  5
264
100
AcDbEntity
  8
0
100
AcDbLine
 62
7
  6
CONTINUOUS
 10
49.9520546513
 20
42.4460323063
 11
47.1236393024
 21
40.8130556908
  0
LINE
  5
265
100
AcDbEntity
  8
0
100
AcDbLine
 62
7
  6
CONTINUOUS
 10
44.606329623
 20
38.3798440728
 11
44.7194662369
 21
38.4451631374
  0
LINE
  5
266
100
AcDbEntity
  8
0
100
AcDbLine
 62
7
  6
CONTINUOUS
 10
52.7121718858
 20
42.1764704129
 11
55.187035316
 21
43.6053249514
  0
LINE
  5
267
100
AcDbEntity
  8
0
100
AcDbLine
 62
7
  6
CONTINUOUS
 10
53.2610563213
 20
41.7015551554
 11
52.7121718858
 21
42.1764704129
  0
LINE
  5
268
100
AcDbEntity
  8
0
100
AcDbLine
 62
7
  6
CONTINUOUS
 10
48.5519831657
 20
26.6548720186
 11
48.6206965957
 21
26.3834568578
  0
LINE
  5
269
100
AcDbEntity
  8
0
100
AcDbLine
 62
7
  6
CONTINUOUS
 10
44.606329623
 20
38.3798440728
 11
44.606329623
 21
31.0313223186
  0
LINE
  5
26A
100
AcDbEntity
  8
0
100
AcDbLine
 62
7
  6
CONTINUOUS
 10
44.7194662369
 20
38.4451631374
 11
44.7194662369
 21
31.0966413832
  0
LINE
  5
26B
100
AcDbEntity
  8
0
100
AcDbLine
 62
7
  6
CONTINUOUS
 10
45.3558414378
 20
45.0995972107
 11
45.3558414378
 21
51.2233653392
  0
LINE
  5
26C
100
AcDbEntity
  8
0
100
AcDbLine
 62
7
  6
CONTINUOUS
 10
53.2610563213
 20
41.7015551554
 11
55.7359197515
 21
43.1304096939
  0
LINE
  5
26D
100
AcDbEntity
  8
0
100
AcDbLine
 62
7
  6
CONTINUOUS
 10
45.3558414378
 20
51.2233653392
 11
49.9520546513
 21
48.5698004348
  0
LINE
  5
26E
100
AcDbEntity
  8
0
100
AcDbLine
 62
7
  6
CONTINUOUS
 10
56.4362215678
 20
40.5611146892
 11
55.8873371324
 21
41.0360299468
  0
LINE
  5
26F
100
AcDbEntity
  8
0
100
AcDbLine
 62
7
  6
CONTINUOUS
 10
47.1236393024
 20
40.8130556908
 11
47.1236393024
 21
28.4838691922
  0
LINE
  5
270
100
AcDbEntity
  8
0
100
AcDbLine
 62
7
  6
CONTINUOUS
 10
47.4559704516
 20
28.5532458206
 11
47.4559704516
 21
26.2670390526
  0
LINE
  5
271
100
AcDbEntity
  8
0
100
AcDbLine
 62
7
  6
CONTINUOUS
 10
47.6681033691
 20
26.1445668262
 11
47.6681033691
 21
28.7982137913
  0
LINE
  5
272
100
AcDbEntity
  8
0
100
AcDbLine
 62
7
  6
CONTINUOUS
 10
47.8802404082
 20
31.0309919257
 11
47.8802404082
 21
28.9206904368
  0
LINE
  5
273
100
AcDbEntity
  8
0
100
AcDbLine
 62
7
  6
CONTINUOUS
 10
38.0096351251
 20
30.7212529786
 11
35.1812197762
 21
29.0882763631
  0
LINE
  5
274
100
AcDbEntity
  8
0
100
AcDbLine
 62
7
  6
CONTINUOUS
 10
55.8873371324
 20
41.0360299468
 11
55.1083490771
 21
40.5862836679
  0
LINE
  5
275
100
AcDbEntity
  8
0
100
AcDbLine
 62
7
  6
CONTINUOUS
 10
51.8568452603
 20
38.7090382697
 11
50.3012168184
 21
37.8109011312
  0
LINE
  5
276
100
AcDbEntity
  8
0
100
AcDbLine
 62
7
  6
CONTINUOUS
 10
52.4057296957
 20
38.2341230122
 11
50.8501012539
 21
37.3359858736
  0
LINE
  5
277
100
AcDbEntity
  8
0
100
AcDbLine
 62
7
  6
CONTINUOUS
 10
54.880593126
 20
39.6629775507
 11
56.4362215678
 21
40.5611146892
  0
LINE
  5
278
100
AcDbEntity
  8
0
100
AcDbLine
 62
7
  6
CONTINUOUS
 10
55.7359197515
 20
43.1304096939
 11
55.187035316
 21
43.6053249514
  0
LINE
  5
279
100
AcDbEntity
  8
0
100
AcDbLine
 62
7
  6
CONTINUOUS
 10
51.4491119445
 20
28.0164334733
 11
51.3803985145
 21
28.2878486341
  0
LINE
  5
27A
100
AcDbEntity
  8
0
100
AcDbLine
 62
7
  6
CONTINUOUS
 10
49.9520546513
 20
42.4460323063
 11
49.9520546513
 21
48.5698004348
  0
LINE
  5
27B
100
AcDbEntity
  8
0
100
AcDbLine
 62
7
  6
CONTINUOUS
 10
44.606329623
 20
31.0313223186
 11
44.7194662369
 21
31.0966413832
  0
LINE
  5
27C
100
AcDbEntity
  8
0
100
AcDbLine
 62
7
  6
CONTINUOUS
 10
49.6126065378
 20
53.6809951455
 11
54.2088197513
 21
51.0274302411
  0
LINE
  5
27D
100
AcDbEntity
  8
0
100
AcDbLine
 62
7
  6
CONTINUOUS
 10
52.264278311
 20
28.7981538264
 11
52.264278311
 21
30.5481756376
  0
LINE
  5
27E
100
AcDbEntity
  8
0
100
AcDbLine
 62
7
  6
CONTINUOUS
 10
49.4531070366
 20
34.3727255493
 11
50.3012168184
 21
37.8109011312
  0
LINE
  5
27F
100
AcDbEntity
  8
0
100
AcDbLine
 62
7
  6
CONTINUOUS
 10
50.8501012539
 20
37.3359858736
 11
48.6628139345
 21
28.4688816221
  0
LINE
  5
280
100
AcDbEntity
  8
0
100
AcDbLine
 62
7
  6
CONTINUOUS
 10
47.8802404082
 20
31.0309919257
 11
49.0006420953
 21
33.158560198
  0
LINE
  5
281
100
AcDbEntity
  8
0
100
AcDbLine
 62
7
  6
CONTINUOUS
 10
42.7890439105
 20
28.9614210289
 11
42.5062023756
 21
28.7981233674
  0
LINE
  5
282
100
AcDbEntity
  8
0
100
AcDbLine
 62
7
  6
CONTINUOUS
 10
54.2088197513
 20
51.0274302411
 11
54.2088197513
 21
43.040555303
  0
LINE
  5
283
100
AcDbEntity
  8
0
100
AcDbLine
 62
7
  6
CONTINUOUS
 10
52.7121718858
 20
42.1764704129
 11
51.8568452603
 21
38.7090382697
  0
LINE
  5
284
100
AcDbEntity
  8
0
100
AcDbLine
 62
7
  6
CONTINUOUS
 10
53.2610563213
 20
41.7015551554
 11
52.4057296957
 21
38.2341230122
  0
LINE
  5
285
100
AcDbEntity
  8
0
100
AcDbLine
 62
7
  6
CONTINUOUS
 10
44.9810840584
 20
28.0224756568
 11
44.7689511409
 21
27.8183469163
  0
LINE
  5
286
100
AcDbEntity
  8
0
100
AcDbLine
 62
7
  6
CONTINUOUS
 10
45.80817227
 20
28.590363209
 11
45.5253307351
 21
28.4270655475
  0
LINE
  5
287
100
AcDbEntity
  8
0
100
AcDbLine
 62
7
  6
CONTINUOUS
 10
45.0517999186
 20
27.9816487595
 11
44.7689511409
 21
27.8183469163
  0
LINE
  5
288
100
AcDbEntity
  8
0
100
AcDbLine
 62
7
  6
CONTINUOUS
 10
47.8802404082
 20
28.9206904368
 11
47.1236393024
 21
28.4838691922
  0
LINE
  5
289
100
AcDbEntity
  8
0
100
AcDbLine
 62
7
  6
CONTINUOUS
 10
46.5581689123
 20
27.2913231648
 11
46.2753273774
 21
27.1280255033
  0
LINE
  5
28A
100
AcDbEntity
  8
0
100
AcDbLine
 62
7
  6
CONTINUOUS
 10
54.2489342485
 20
31.6940104376
 11
48.6628139345
 21
28.4688816221
  0
LINE
  5
28B
100
AcDbEntity
  8
0
100
AcDbLine
 62
7
  6
CONTINUOUS
 10
54.880593126
 20
39.6629775507
 11
55.7359197515
 21
43.1304096939
  0
LINE
  5
28C
100
AcDbEntity
  8
0
100
AcDbLine
 62
7
  6
CONTINUOUS
 10
54.2489342485
 20
31.6940104376
 11
56.4362215678
 21
40.5611146892
  0
LINE
  5
28D
100
AcDbEntity
  8
0
100
AcDbLine
 62
7
  6
CONTINUOUS
 10
52.264278311
 20
28.7981538264
 11
47.6681033691
 21
26.1445668262
  0
LINE
  5
28E
100
AcDbEntity
  8
0
100
AcDbLine
 62
7
  6
CONTINUOUS
 10
51.4491119445
 20
28.0164334733
 11
48.6206965957
 21
26.3834568578
  0
ARC
  5
28F
100
AcDbEntity
  8
0
100
AcDbCircle
 62
7
  6
CONTINUOUS
 10
44.2212578275
 20
46.97499744
 40
2.0853708294
100
AcDbArc
 50
299.9991692271
 51
300.5619608856
  0
ARC
  5
290
100
AcDbEntity
  8
0
100
AcDbCircle
 62
7
  6
CONTINUOUS
 10
44.2688115249
 20
46.8953248858
 40
1.9925868293
100
AcDbArc
 50
300.5494113918
 51
304.0019589446
  0
ARC
  5
291
100
AcDbEntity
  8
0
100
AcDbCircle
 62
7
  6
CONTINUOUS
 10
44.2785933689
 20
47.3693110357
 40
1.9739224533
100
AcDbArc
 50
299.9451301484
 51
304.0340080831
  0
ARC
  5
292
100
AcDbEntity
  8
0
100
AcDbCircle
 62
7
  6
CONTINUOUS
 10
14.8665710157
 20
57.7370228787
 40
1.1946339589
100
AcDbArc
 50
166.5205145665
 51
170.4324120361
  0
ARC
  5
293
100
AcDbEntity
  8
0
100
AcDbCircle
 62
7
  6
CONTINUOUS
 10
45.6402622011
 20
48.4177025163
 40
1.1611591915
100
AcDbArc
 50
104.3263230528
 51
119.9888658231
  0
ARC
  5
294
100
AcDbEntity
  8
0
100
AcDbCircle
 62
7
  6
CONTINUOUS
 10
40.2873573429
 20
47.842960375
 40
1.0407794764
100
AcDbArc
 50
352.264991588
 51
359.9998259471
  0
ARC
  5
295
100
AcDbEntity
  8
0
100
AcDbCircle
 62
7
  6
CONTINUOUS
 10
33.4878389694
 20
47.5307266809
 40
0.9778669243
100
AcDbArc
 50
133.3480885452
 51
142.7412007334
  0
ARC
  5
296
100
AcDbEntity
  8
0
100
AcDbCircle
 62
7
  6
CONTINUOUS
 10
33.4766703807
 20
47.5419021085
 40
0.9620738512
100
AcDbArc
 50
133.3212517528
 51
133.6199588476
  0
ARC
  5
297
100
AcDbEntity
  8
0
100
AcDbCircle
 62
7
  6
CONTINUOUS
 10
50.8168073024
 20
50.5706214143
 40
0.7169930929
100
AcDbArc
 50
25.504304088
 51
29.6848868615
  0
ARC
  5
298
100
AcDbEntity
  8
0
100
AcDbCircle
 62
7
  6
CONTINUOUS
 10
48.8190174347
 20
50.5778967019
 40
0.7015094018
100
AcDbArc
 50
150.352642157
 51
155.500053773
  0
ARC
  5
299
100
AcDbEntity
  8
0
100
AcDbCircle
 62
7
  6
CONTINUOUS
 10
32.0187494217
 20
45.996398931
 40
0.6908460003
100
AcDbArc
 50
240.0256705211
 51
249.6699441133
  0
ARC
  5
29A
100
AcDbEntity
  8
0
100
AcDbCircle
 62
7
  6
CONTINUOUS
 10
50.8625146852
 20
50.5927330407
 40
0.6662190176
100
AcDbArc
 50
20.0884691587
 51
25.4805437073
  0
ARC
  5
29B
100
AcDbEntity
  8
0
100
AcDbCircle
 62
7
  6
CONTINUOUS
 10
48.7781465876
 20
50.5964330707
 40
0.6566316119
100
AcDbArc
 50
155.4929471761
 51
159.5784057604
  0
ARC
  5
29C
100
AcDbEntity
  8
0
100
AcDbCircle
 62
7
  6
CONTINUOUS
 10
32.0499251332
 20
46.0501776456
 40
0.6530099074
100
AcDbArc
 50
240.017443517
 51
245.2059947165
  0
ARC
  5
29D
100
AcDbEntity
  8
0
100
AcDbCircle
 62
7
  6
CONTINUOUS
 10
13.9185659714
 20
59.5789063
 40
0.334922383
100
AcDbArc
 50
38.2981348567
 51
45.3959848395
  0
ARC
  5
29E
100
AcDbEntity
  8
0
100
AcDbCircle
 62
7
  6
CONTINUOUS
 10
13.2825956167
 20
57.8966034866
 40
0.308015101
100
AcDbArc
 50
60.0055923227
 51
64.5213477249
  0
ARC
  5
29F
100
AcDbEntity
  8
0
100
AcDbCircle
 62
7
  6
CONTINUOUS
 10
13.9368343452
 20
59.5991251726
 40
0.3076199505
100
AcDbArc
 50
60.003465199
 51
62.8334134292
  0
ARC
  5
2A0
100
AcDbEntity
  8
0
100
AcDbCircle
 62
7
  6
CONTINUOUS
 10
11.1084161967
 20
61.2321599378
 40
0.3075497991
100
AcDbArc
 50
60.0001391075
 51
62.7983694676
  0
ARC
  5
2A1
100
AcDbEntity
  8
0
100
AcDbCircle
 62
7
  6
CONTINUOUS
 10
12.6729266307
 20
56.8406787053
 40
0.3074333906
100
AcDbArc
 50
238.4217229431
 51
244.5213477249
  0
ARC
  5
2A2
100
AcDbEntity
  8
0
100
AcDbCircle
 62
7
  6
CONTINUOUS
 10
13.326954436
 20
58.5428130788
 40
0.3073876561
100
AcDbArc
 50
239.0094972905
 51
242.8334134292
  0
SPLINE
  5
2A3
100
AcDbEntity
  8
0
100
AcDbSpline
 62
7
  6
CONTINUOUS
 70
0
 71
3
 72
19
 73
15
 74
0
 42
0.0000001
 43
0.0000001
 44
0.0000000001
 40
0.0
 40
0.0
 40
0.0
 40
0.0
 40
0.0428385813
 40
0.0874433473
 40
0.1352550426
 40
0.1871926702
 40
0.2436711226
 40
0.3046633752
 40
0.4382672724
 40
0.5825427179
 40
0.7296393023
 40
0.8711669517
 40
0.9376091523
 40
1.0
 40
1.0
 40
1.0
 40
1.0
 10
36.5281869739
 20
47.8429571108
 30
0.0
 10
36.5281833106
 20
47.7945639915
 30
0.0
 10
36.5411554761
 20
47.6953668398
 30
0.0
 10
36.5980155431
 20
47.552114533
 30
0.0
 10
36.6903569518
 20
47.4163347379
 30
0.0
 10
36.815473895
 20
47.2906752524
 30
0.0
 10
36.9705215545
 20
47.1773572281
 30
0.0
 10
37.2203065069
 20
47.0415843971
 30
0.0
 10
37.5862819479
 20
46.9193275168
 30
0.0
 10
38.0639215409
 20
46.8522643006
 30
0.0
 10
38.5549486224
 20
46.8658066627
 30
0.0
 10
38.9507441623
 20
46.9449433152
 30
0.0
 10
39.2383014868
 20
47.0492056925
 30
0.0
 10
39.3692296539
 20
47.1137077028
 30
0.0
 10
39.4302677113
 20
47.1489478314
 30
0.0
  0
SPLINE
  5
2A4
100
AcDbEntity
  8
0
100
AcDbSpline
 62
7
  6
CONTINUOUS
 70
0
 71
3
 72
19
 73
15
 74
0
 42
0.0000001
 43
0.0000001
 44
0.0000000001
 40
0.0
 40
0.0
 40
0.0
 40
0.0
 40
0.0428385813
 40
0.0874433473
 40
0.1352550426
 40
0.1871926702
 40
0.2436711226
 40
0.3046633752
 40
0.4382672724
 40
0.5825427179
 40
0.7296393023
 40
0.8711669517
 40
0.9376091523
 40
1.0
 40
1.0
 40
1.0
 40
1.0
 10
41.9729259696
 20
46.5774413516
 30
0.0
 10
41.9729223063
 20
46.5290482324
 30
0.0
 10
41.9858944718
 20
46.4298510807
 30
0.0
 10
42.0427545388
 20
46.2865987739
 30
0.0
 10
42.1350959475
 20
46.1508189788
 30
0.0
 10
42.2602128907
 20
46.0251594932
 30
0.0
 10
42.4152605502
 20
45.9118414689
 30
0.0
 10
42.6650455026
 20
45.776068638
 30
0.0
 10
43.0310209436
 20
45.6538117577
 30
0.0
 10
43.5086605366
 20
45.5867485415
 30
0.0
 10
43.9996876181
 20
45.6002909036
 30
0.0
 10
44.395483158
 20
45.6794275561
 30
0.0
 10
44.6830404825
 20
45.7836899334
 30
0.0
 10
44.8139686496
 20
45.8481919437
 30
0.0
 10
44.875006707
 20
45.8834320722
 30
0.0
  0
SPLINE
  5
2A5
100
AcDbEntity
  8
0
100
AcDbSpline
 62
7
  6
CONTINUOUS
 70
0
 71
3
 72
13
 73
9
 74
0
 42
0.0000001
 43
0.0000001
 44
0.0000000001
 40
0.0
 40
0.0
 40
0.0
 40
0.0
 40
0.1080955525
 40
0.218237472
 40
0.3322517859
 40
0.4516789938
 40
0.7106579233
 40
1.0
 40
1.0
 40
1.0
 40
1.0
 10
41.4229335381
 20
46.5774413512
 30
0.0
 10
41.4229260418
 20
46.6200360625
 30
0.0
 10
41.4303323305
 20
46.7062070936
 30
0.0
 10
41.4633808683
 20
46.8334620995
 30
0.0
 10
41.5178267932
 20
46.9580058308
 30
0.0
 10
41.6209610611
 20
47.1230665441
 30
0.0
 10
41.8041068106
 20
47.3157246539
 30
0.0
 10
41.9831838358
 20
47.4389761409
 30
0.0
 10
42.0819232926
 20
47.4959830526
 30
0.0
  0
SPLINE
  5
2A6
100
AcDbEntity
  8
0
100
AcDbSpline
 62
7
  6
CONTINUOUS
 70
0
 71
3
 72
11
 73
7
 74
0
 42
0.0000001
 43
0.0000001
 44
0.0000000001
 40
0.0
 40
0.0
 40
0.0
 40
0.0
 40
0.2256479999
 40
0.4623423851
 40
0.7189298125
 40
1.0
 40
1.0
 40
1.0
 40
1.0
 10
22.3810006271
 20
55.381649469
 30
0.0
 10
22.3282706966
 20
55.41207763
 30
0.0
 10
22.2107250984
 20
55.4592020984
 30
0.0
 10
22.0159679473
 20
55.4808055437
 30
0.0
 10
21.8070826653
 20
55.4550020289
 30
0.0
 10
21.6684008108
 20
55.4096104959
 30
0.0
 10
21.5983527531
 20
55.380561934
 30
0.0
  0
SPLINE
  5
2A7
100
AcDbEntity
  8
0
100
AcDbSpline
 62
7
  6
CONTINUOUS
 70
0
 71
3
 72
12
 73
8
 74
0
 42
0.0000001
 43
0.0000001
 44
0.0000000001
 40
0.0
 40
0.0
 40
0.0
 40
0.0
 40
0.1081612628
 40
0.2183683537
 40
0.4513474253
 40
0.7104442773
 40
1.0
 40
1.0
 40
1.0
 40
1.0
 10
17.4812342734
 20
58.3259423108
 30
0.0
 10
17.4476252079
 20
58.3453460765
 30
0.0
 10
17.3762636336
 20
58.378775376
 30
0.0
 10
17.2195556717
 20
58.4221106227
 30
0.0
 10
17.0000670984
 20
58.4279944944
 30
0.0
 10
16.725201951
 20
58.3614964734
 30
0.0
 10
16.5462327873
 20
58.2763691631
 30
0.0
 10
16.456259199
 20
58.2244231977
 30
0.0
  0
SPLINE
  5
2A8
100
AcDbEntity
  8
0
100
AcDbSpline
 62
7
  6
CONTINUOUS
 70
0
 71
3
 72
11
 73
7
 74
0
 42
0.0000001
 43
0.0000001
 44
0.0000000001
 40
0.0
 40
0.0
 40
0.0
 40
0.0
 40
0.2264298555
 40
0.4635213055
 40
0.7196235863
 40
1.0
 40
1.0
 40
1.0
 40
1.0
 10
22.4310023494
 20
55.4682570291
 30
0.0
 10
22.4852063909
 20
55.4369630163
 30
0.0
 10
22.5876701208
 20
55.3569578165
 30
0.0
 10
22.7080823901
 20
55.1961771402
 30
0.0
 10
22.7945759056
 20
54.9989232262
 30
0.0
 10
22.8272405528
 20
54.8533769873
 30
0.0
 10
22.8384095125
 20
54.7766851777
 30
0.0
  0
SPLINE
  5
2A9
100
AcDbEntity
  8
0
100
AcDbSpline
 62
7
  6
CONTINUOUS
 70
0
 71
3
 72
11
 73
7
 74
0
 42
0.0000001
 43
0.0000001
 44
0.0000000001
 40
0.0
 40
0.0
 40
0.0
 40
0.0
 40
0.2256479999
 40
0.4623423851
 40
0.7189298125
 40
1.0
 40
1.0
 40
1.0
 40
1.0
 10
33.6735429377
 20
48.8620446194
 30
0.0
 10
33.6208130072
 20
48.8924727803
 30
0.0
 10
33.503267409
 20
48.9395972487
 30
0.0
 10
33.3085102578
 20
48.961200694
 30
0.0
 10
33.0996249759
 20
48.9353971792
 30
0.0
 10
32.9609431214
 20
48.8900056462
 30
0.0
 10
32.8908950637
 20
48.8609570843
 30
0.0
  0
SPLINE
  5
2AA
100
AcDbEntity
  8
0
100
AcDbSpline
 62
7
  6
CONTINUOUS
 70
0
 71
3
 72
12
 73
8
 74
0
 42
0.0000001
 43
0.0000001
 44
0.0000000001
 40
0.0
 40
0.0
 40
0.0
 40
0.0
 40
0.1081612628
 40
0.2183683537
 40
0.4513474253
 40
0.7104442773
 40
1.0
 40
1.0
 40
1.0
 40
1.0
 10
28.7737765839
 20
51.8063374611
 30
0.0
 10
28.7401675185
 20
51.8257412268
 30
0.0
 10
28.6688059442
 20
51.8591705263
 30
0.0
 10
28.5120979823
 20
51.9025057731
 30
0.0
 10
28.292609409
 20
51.9083896448
 30
0.0
 10
28.0177442616
 20
51.8418916237
 30
0.0
 10
27.8387750979
 20
51.7567643134
 30
0.0
 10
27.7488015096
 20
51.704818348
 30
0.0
  0
SPLINE
  5
2AB
100
AcDbEntity
  8
0
100
AcDbSpline
 62
7
  6
CONTINUOUS
 70
0
 71
3
 72
9
 73
5
 74
0
 42
0.0000001
 43
0.0000001
 44
0.0000000001
 40
0.0
 40
0.0
 40
0.0
 40
0.0
 40
0.4950272595
 40
1.0
 40
1.0
 40
1.0
 40
1.0
 10
33.72354466
 20
48.9486521794
 30
0.0
 10
33.7582123359
 20
48.9286372384
 30
0.0
 10
33.8248035592
 20
48.8819328616
 30
0.0
 10
33.8822717254
 20
48.8244366288
 30
0.0
 10
33.9087476359
 20
48.7933479276
 30
0.0
  0
SPLINE
  5
2AC
100
AcDbEntity
  8
0
100
AcDbSpline
 62
7
  6
CONTINUOUS
 70
0
 71
3
 72
9
 73
5
 74
0
 42
0.0000001
 43
0.0000001
 44
0.0000000001
 40
0.0
 40
0.0
 40
0.0
 40
0.0
 40
0.4968230297
 40
1.0
 40
1.0
 40
1.0
 40
1.0
 10
33.3630261791
 20
48.5017913875
 30
0.0
 10
33.2617838155
 20
48.4875458125
 30
0.0
 10
33.0609638608
 20
48.4284800036
 30
0.0
 10
32.8879239535
 20
48.3098120358
 30
0.0
 10
32.8129627945
 20
48.2383777615
 30
0.0
  0
SPLINE
  5
2AD
100
AcDbEntity
  8
0
100
AcDbSpline
 62
7
  6
CONTINUOUS
 70
0
 71
3
 72
17
 73
13
 74
0
 42
0.0000001
 43
0.0000001
 44
0.0000000001
 40
0.0
 40
0.0
 40
0.0
 40
0.0
 40
0.0428567682
 40
0.0874846361
 40
0.1353115866
 40
0.1872772446
 40
0.3045367808
 40
0.4381985211
 40
0.5825369695
 40
0.729684371
 40
0.8713138527
 40
1.0
 40
1.0
 40
1.0
 40
1.0
 10
8.3046139012
 20
61.0484082611
 30
0.0
 10
8.2836602439
 20
61.0605061004
 30
0.0
 10
8.2374858555
 20
61.0797484462
 30
0.0
 10
8.1612322936
 20
61.0908697044
 30
0.0
 10
8.0793502836
 20
61.0848934777
 30
0.0
 10
7.9603862106
 20
61.0531937186
 30
0.0
 10
7.808287966
 20
60.9700668882
 30
0.0
 10
7.6402491785
 20
60.8212486108
 30
0.0
 10
7.4917244886
 20
60.6311323573
 30
0.0
 10
7.3747892745
 20
60.4150608484
 30
0.0
 10
7.2989422636
 20
60.1907379421
 30
0.0
 10
7.2786003088
 20
60.037956613
 30
0.0
 10
7.2786003088
 20
59.9653052547
 30
0.0
  0
SPLINE
  5
2AE
100
AcDbEntity
  8
0
100
AcDbSpline
 62
7
  6
CONTINUOUS
 70
0
 71
3
 72
17
 73
13
 74
0
 42
0.0000001
 43
0.0000001
 44
0.0000000001
 40
0.0
 40
0.0
 40
0.0
 40
0.0
 40
0.0437378653
 40
0.0904035611
 40
0.1408089591
 40
0.195334281
 40
0.3163942702
 40
0.4509966574
 40
0.5935491786
 40
0.7371090369
 40
0.8746729269
 40
1.0
 40
1.0
 40
1.0
 40
1.0
 10
10.5301280674
 20
59.8281673164
 30
0.0
 10
10.5055130612
 20
59.8345563203
 30
0.0
 10
10.4529527677
 20
59.8417803501
 30
0.0
 10
10.370809727
 20
59.8362838812
 30
0.0
 10
10.2848686415
 20
59.8149824909
 30
0.0
 10
10.1630796515
 20
59.7646266775
 30
0.0
 10
10.0116085257
 20
59.6635883279
 30
0.0
 10
9.8465387679
 20
59.4996730642
 30
0.0
 10
9.7031017294
 20
59.3002255009
 30
0.0
 10
9.5914851757
 20
59.0794622394
 30
0.0
 10
9.5197528281
 20
58.8532256648
 30
0.0
 10
9.5007563605
 20
58.7002018498
 30
0.0
 10
9.5007563605
 20
58.6273325232
 30
0.0
  0
SPLINE
  5
2AF
100
AcDbEntity
  8
0
100
AcDbSpline
 62
7
  6
CONTINUOUS
 70
0
 71
3
 72
9
 73
5
 74
0
 42
0.0000001
 43
0.0000001
 44
0.0000000001
 40
0.0
 40
0.0
 40
0.0
 40
0.0
 40
0.2485770065
 40
1.0
 40
1.0
 40
1.0
 40
1.0
 10
13.4365771306
 20
58.1633674194
 30
0.0
 10
13.4422840759
 20
58.1600728802
 30
0.0
 10
13.4648135631
 20
58.1460867399
 30
0.0
 10
13.4855101102
 20
58.1291713281
 30
0.0
 10
13.4996983787
 20
58.1151895327
 30
0.0
  0
SPLINE
  5
2B0
100
AcDbEntity
  8
0
100
AcDbSpline
 62
7
  6
CONTINUOUS
 70
0
 71
3
 72
9
 73
5
 74
0
 42
0.0000001
 43
0.0000001
 44
0.0000000001
 40
0.0
 40
0.0
 40
0.0
 40
0.0
 40
0.2454696475
 40
1.0
 40
1.0
 40
1.0
 40
1.0
 10
13.4996983787
 20
58.1151895327
 30
0.0
 10
13.5041076668
 20
58.1108444103
 30
0.0
 10
13.5215621302
 20
58.0926312769
 30
0.0
 10
13.5369396479
 20
58.0724556013
 30
0.0
 10
13.547310817
 20
58.0565019428
 30
0.0
  0
SPLINE
  5
2B1
100
AcDbEntity
  8
0
100
AcDbSpline
 62
7
  6
CONTINUOUS
 70
0
 71
3
 72
13
 73
9
 74
0
 42
0.0000001
 43
0.0000001
 44
0.0000000001
 40
0.0
 40
0.0
 40
0.0
 40
0.0
 40
0.1141759018
 40
0.2375697245
 40
0.4999990825
 40
0.762428944
 40
0.8858232992
 40
1.0
 40
1.0
 40
1.0
 40
1.0
 10
45.9003290563
 20
27.1651687125
 30
0.0
 10
45.8640496152
 20
27.1861141837
 30
0.0
 10
45.7923509133
 20
27.2364241321
 30
0.0
 10
45.6580305383
 20
27.3620197293
 30
0.0
 10
45.5162808192
 20
27.5558093953
 30
0.0
 10
45.4193279229
 20
27.7754628215
 30
0.0
 10
45.3777178227
 20
27.9545858572
 30
0.0
 10
45.3699967624
 20
28.0418341449
 30
0.0
 10
45.3699967624
 20
28.0837260913
 30
0.0
  0
SPLINE
  5
2B2
100
AcDbEntity
  8
0
100
AcDbSpline
 62
7
  6
CONTINUOUS
 70
0
 71
3
 72
11
 73
7
 74
0
 42
0.0000001
 43
0.0000001
 44
0.0000000001
 40
0.0
 40
0.0
 40
0.0
 40
0.0
 40
0.2895401978
 40
0.5491171512
 40
0.782255066
 40
1.0
 40
1.0
 40
1.0
 40
1.0
 10
45.3699967624
 20
28.0837260913
 30
0.0
 10
45.3699967624
 20
28.1217050587
 30
0.0
 10
45.3757957998
 20
28.1939724475
 30
0.0
 10
45.4050106017
 20
28.2932805791
 30
0.0
 10
45.4542904508
 20
28.3738914695
 30
0.0
 10
45.5006166172
 20
28.4127484792
 30
0.0
 10
45.5253517171
 20
28.4270292048
 30
0.0
  0
SPLINE
  5
2B3
100
AcDbEntity
  8
0
100
AcDbSpline
 62
7
  6
CONTINUOUS
 70
0
 71
3
 72
17
 73
13
 74
0
 42
0.0000001
 43
0.0000001
 44
0.0000000001
 40
0.0
 40
0.0
 40
0.0
 40
0.0
 40
0.0428567682
 40
0.0874846361
 40
0.1353115866
 40
0.1872772446
 40
0.3045367808
 40
0.4381985211
 40
0.5825369695
 40
0.729684371
 40
0.8713138527
 40
1.0
 40
1.0
 40
1.0
 40
1.0
 10
8.9711642532
 20
62.7722318749
 30
0.0
 10
8.9495943118
 20
62.7846855331
 30
0.0
 10
8.9020618532
 20
62.8044938302
 30
0.0
 10
8.8235655394
 20
62.8159421842
 30
0.0
 10
8.739275235
 20
62.8097901862
 30
0.0
 10
8.6168122187
 20
62.7771580812
 30
0.0
 10
8.4602404963
 20
62.691586344
 30
0.0
 10
8.2872593916
 20
62.5383910584
 30
0.0
 10
8.1343663284
 20
62.3426831504
 30
0.0
 10
8.0139918433
 20
62.1202565972
 30
0.0
 10
7.935914038
 20
61.8893359583
 30
0.0
 10
7.9149737904
 20
61.7320610608
 30
0.0
 10
7.9149737904
 20
61.6572728978
 30
0.0
  0
SPLINE
  5
2B4
100
AcDbEntity
  8
0
100
AcDbSpline
 62
7
  6
CONTINUOUS
 70
0
 71
3
 72
17
 73
13
 74
0
 42
0.0000001
 43
0.0000001
 44
0.0000000001
 40
0.0
 40
0.0
 40
0.0
 40
0.0
 40
0.0428890131
 40
0.0878102535
 40
0.1360686266
 40
0.1884989232
 40
0.3064943073
 40
0.4403897504
 40
0.584457487
 40
0.7309909214
 40
0.8719060422
 40
1.0
 40
1.0
 40
1.0
 40
1.0
 10
11.2490043567
 20
61.5056957639
 30
0.0
 10
11.2259498811
 20
61.5175450929
 30
0.0
 10
11.1754275754
 20
61.5358129281
 30
0.0
 10
11.0929743507
 20
61.5444547595
 30
0.0
 10
11.0048934274
 20
61.5351651232
 30
0.0
 10
10.8775267508
 20
61.4977718389
 30
0.0
 10
10.7155550879
 20
61.4057749842
 30
0.0
 10
10.5370590381
 20
61.2443443488
 30
0.0
 10
10.3797835245
 20
61.0400351931
 30
0.0
 10
10.256224678
 20
60.8089830069
 30
0.0
 10
10.1762162633
 20
60.5696906184
 30
0.0
 10
10.154807438
 20
60.4069239055
 30
0.0
 10
10.154807438
 20
60.3295062702
 30
0.0
  0
SPLINE
  5
2B5
100
AcDbEntity
  8
0
100
AcDbSpline
 62
7
  6
CONTINUOUS
 70
0
 71
3
 72
9
 73
5
 74
0
 42
0.0000001
 43
0.0000001
 44
0.0000000001
 40
0.0
 40
0.0
 40
0.0
 40
0.0
 40
0.2485770065
 40
1.0
 40
1.0
 40
1.0
 40
1.0
 10
14.0906282081
 20
59.8655411663
 30
0.0
 10
14.0963351534
 20
59.8622466271
 30
0.0
 10
14.1188646406
 20
59.8482604868
 30
0.0
 10
14.1395611877
 20
59.831345075
 30
0.0
 10
14.1537494562
 20
59.8173632796
 30
0.0
  0
SPLINE
  5
2B6
100
AcDbEntity
  8
0
100
AcDbSpline
 62
7
  6
CONTINUOUS
 70
0
 71
3
 72
9
 73
5
 74
0
 42
0.0000001
 43
0.0000001
 44
0.0000000001
 40
0.0
 40
0.0
 40
0.0
 40
0.0
 40
0.4716938083
 40
1.0
 40
1.0
 40
1.0
 40
1.0
 10
35.5979528551
 20
45.3443570409
 30
0.0
 10
35.7304497994
 20
45.2217252422
 30
0.0
 10
36.0461538851
 20
44.9988161138
 30
0.0
 10
36.3972570816
 20
44.8415666063
 30
0.0
 10
36.5875023251
 20
44.7730533127
 30
0.0
  0
SPLINE
  5
2B7
100
AcDbEntity
  8
0
100
AcDbSpline
 62
7
  6
CONTINUOUS
 70
0
 71
3
 72
15
 73
11
 74
0
 42
0.0000001
 43
0.0000001
 44
0.0000000001
 40
0.0
 40
0.0
 40
0.0
 40
0.0
 40
0.1118750621
 40
0.231664991
 40
0.3575479274
 40
0.4874883858
 40
0.6191141225
 40
0.7499778013
 40
0.8776794742
 40
1.0
 40
1.0
 40
1.0
 40
1.0
 10
36.0361410306
 20
49.1085034531
 30
0.0
 10
36.163310277
 20
49.1819242134
 30
0.0
 10
36.438248913
 20
49.3143317162
 30
0.0
 10
36.8837710593
 20
49.4648457148
 30
0.0
 10
37.3662288509
 20
49.570734189
 30
0.0
 10
37.8722249804
 20
49.6292164215
 30
0.0
 10
38.3880168175
 20
49.6386171906
 30
0.0
 10
38.8994311336
 20
49.5987117782
 30
0.0
 10
39.3923630644
 20
49.5106364116
 30
0.0
 10
39.7082957128
 20
49.4188808117
 30
0.0
 10
39.859487768
 20
49.3648618946
 30
0.0
  0
SPLINE
  5
2B8
100
AcDbEntity
  8
0
100
AcDbSpline
 62
7
  6
CONTINUOUS
 70
0
 71
3
 72
15
 73
11
 74
0
 42
0.0000001
 43
0.0000001
 44
0.0000000001
 40
0.0
 40
0.0
 40
0.0
 40
0.0
 40
0.1544050986
 40
0.3003639325
 40
0.4371538311
 40
0.564564467
 40
0.6830023084
 40
0.7935973747
 40
0.8983564429
 40
1.0
 40
1.0
 40
1.0
 40
1.0
 10
39.859487768
 20
49.3648618946
 30
0.0
 10
39.9683626055
 20
49.3259623583
 30
0.0
 10
40.1770025223
 20
49.2409537742
 30
0.0
 10
40.4669722186
 20
49.0878441361
 30
0.0
 10
40.7214412615
 20
48.9145807929
 30
0.0
 10
40.9363608395
 20
48.7237460298
 30
0.0
 10
41.1082307982
 20
48.518074266
 30
0.0
 10
41.2339459921
 20
48.3003989699
 30
0.0
 10
41.3108479476
 20
48.0741284096
 30
0.0
 10
41.3281261636
 20
47.9190657955
 30
0.0
 10
41.3281368193
 20
47.8429572134
 30
0.0
  0
SPLINE
  5
2B9
100
AcDbEntity
  8
0
100
AcDbSpline
 62
7
  6
CONTINUOUS
 70
0
 71
3
 72
12
 73
8
 74
0
 42
0.0000001
 43
0.0000001
 44
0.0000000001
 40
0.0
 40
0.0
 40
0.0
 40
0.0
 40
0.2894846808
 40
0.5486773519
 40
0.7816302694
 40
0.8918330336
 40
1.0
 40
1.0
 40
1.0
 40
1.0
 10
39.4302677113
 20
47.1489478314
 30
0.0
 10
39.5048610896
 20
47.1920140813
 30
0.0
 10
39.640191759
 20
47.2852734214
 30
0.0
 10
39.8019405456
 20
47.4550660482
 30
0.0
 10
39.8887548275
 20
47.6151531676
 30
0.0
 10
39.9225401196
 20
47.7456686092
 30
0.0
 10
39.9281729468
 20
47.8107732626
 30
0.0
 10
39.9281753831
 20
47.8429571173
 30
0.0
  0
SPLINE
  5
2BA
100
AcDbEntity
  8
0
100
AcDbSpline
 62
7
  6
CONTINUOUS
 70
0
 71
3
 72
12
 73
8
 74
0
 42
0.0000001
 43
0.0000001
 44
0.0000000001
 40
0.0
 40
0.0
 40
0.0
 40
0.0
 40
0.2894846808
 40
0.5486773519
 40
0.7816302694
 40
0.8918330336
 40
1.0
 40
1.0
 40
1.0
 40
1.0
 10
51.0268442407
 20
50.3334104204
 30
0.0
 10
51.101437619
 20
50.3764766704
 30
0.0
 10
51.2367682885
 20
50.4697360105
 30
0.0
 10
51.3985170751
 20
50.6395286372
 30
0.0
 10
51.485331357
 20
50.7996157566
 30
0.0
 10
51.5191166491
 20
50.9301311982
 30
0.0
 10
51.5247494763
 20
50.9952358516
 30
0.0
 10
51.5247519126
 20
51.0274197064
 30
0.0
  0
SPLINE
  5
2BB
100
AcDbEntity
  8
0
100
AcDbSpline
 62
7
  6
CONTINUOUS
 70
0
 71
3
 72
9
 73
5
 74
0
 42
0.0000001
 43
0.0000001
 44
0.0000000001
 40
0.0
 40
0.0
 40
0.0
 40
0.0
 40
0.2402351082
 40
1.0
 40
1.0
 40
1.0
 40
1.0
 10
49.0006420953
 20
33.158560198
 30
0.0
 10
49.0490578597
 20
33.2504985138
 30
0.0
 10
49.2375312041
 20
33.6400436918
 30
0.0
 10
49.3744049113
 20
34.0536728381
 30
0.0
 10
49.4531070366
 20
34.3727255493
 30
0.0
  0
SPLINE
  5
2BC
100
AcDbEntity
  8
0
100
AcDbSpline
 62
7
  6
CONTINUOUS
 70
0
 71
3
 72
19
 73
15
 74
0
 42
0.0000001
 43
0.0000001
 44
0.0000000001
 40
0.0
 40
0.0
 40
0.0
 40
0.0
 40
0.0428385813
 40
0.0874433473
 40
0.1352550426
 40
0.1871926702
 40
0.2436711226
 40
0.3046633752
 40
0.4382672724
 40
0.5825427179
 40
0.7296393023
 40
0.8711669517
 40
0.9376091523
 40
1.0
 40
1.0
 40
1.0
 40
1.0
 10
48.1247635034
 20
51.0274196998
 30
0.0
 10
48.1247598401
 20
50.9790265806
 30
0.0
 10
48.1377320056
 20
50.8798294289
 30
0.0
 10
48.1945920726
 20
50.7365771221
 30
0.0
 10
48.2869334813
 20
50.600797327
 30
0.0
 10
48.4120504244
 20
50.4751378414
 30
0.0
 10
48.567098084
 20
50.3618198171
 30
0.0
 10
48.8168830364
 20
50.2260469862
 30
0.0
 10
49.1828584773
 20
50.1037901059
 30
0.0
 10
49.6604980704
 20
50.0367268897
 30
0.0
 10
50.1515251518
 20
50.0502692518
 30
0.0
 10
50.5473206917
 20
50.1294059043
 30
0.0
 10
50.8348780163
 20
50.2336682816
 30
0.0
 10
50.9658061833
 20
50.2981702919
 30
0.0
 10
51.0268442407
 20
50.3334104204
 30
0.0
  0
SPLINE
  5
2BD
100
AcDbEntity
  8
0
100
AcDbSpline
 62
7
  6
CONTINUOUS
 70
0
 71
3
 72
14
 73
10
 74
0
 42
0.0000001
 43
0.0000001
 44
0.0000000001
 40
0.0
 40
0.0
 40
0.0
 40
0.0
 40
0.1080465317
 40
0.2181360248
 40
0.3321093061
 40
0.4514846887
 40
0.5774318864
 40
0.7107526253
 40
1.0
 40
1.0
 40
1.0
 40
1.0
 10
35.1282056022
 20
47.8429571127
 30
0.0
 10
35.1282054956
 20
47.901643197
 30
0.0
 10
35.138363532
 20
48.0203678019
 30
0.0
 10
35.1839054897
 20
48.1957072644
 30
0.0
 10
35.2589642837
 20
48.3672794107
 30
0.0
 10
35.362672848
 20
48.5333253587
 30
0.0
 10
35.4938974972
 20
48.6923942208
 30
0.0
 10
35.7095235749
 20
48.8987207204
 30
0.0
 10
35.9000827407
 20
49.0299506317
 30
0.0
 10
36.0361410306
 20
49.1085034531
 30
0.0
  0
SPLINE
  5
2BE
100
AcDbEntity
  8
0
100
AcDbSpline
 62
7
  6
CONTINUOUS
 70
0
 71
3
 72
11
 73
7
 74
0
 42
0.0000001
 43
0.0000001
 44
0.0000000001
 40
0.0
 40
0.0
 40
0.0
 40
0.0
 40
0.2177460211
 40
0.4508843679
 40
0.7104607696
 40
1.0
 40
1.0
 40
1.0
 40
1.0
 10
46.2753063954
 20
27.128061846
 30
0.0
 10
46.2505718329
 20
27.1137814306
 30
0.0
 10
46.1937589545
 20
27.0930908457
 30
0.0
 10
46.0993103968
 20
27.0907183016
 30
0.0
 10
45.9987022643
 20
27.1150700447
 30
0.0
 10
45.9332190042
 20
27.1461801218
 30
0.0
 10
45.9003290563
 20
27.1651687125
 30
0.0
  0
SPLINE
  5
2BF
100
AcDbEntity
  8
0
100
AcDbSpline
 62
7
  6
CONTINUOUS
 70
0
 71
3
 72
9
 73
5
 74
0
 42
0.0000001
 43
0.0000001
 44
0.0000000001
 40
0.0
 40
0.0
 40
0.0
 40
0.0
 40
0.2541389222
 40
1.0
 40
1.0
 40
1.0
 40
1.0
 10
13.2718465679
 20
58.2401202504
 30
0.0
 10
13.2643382273
 20
58.2415697134
 30
0.0
 10
13.2349951157
 20
58.2482618257
 30
0.0
 10
13.2065812062
 20
58.2590850514
 30
0.0
 10
13.1866143272
 20
58.2693320363
 30
0.0
  0
SPLINE
  5
2C0
100
AcDbEntity
  8
0
100
AcDbSpline
 62
7
  6
CONTINUOUS
 70
0
 71
3
 72
11
 73
7
 74
0
 42
0.0000001
 43
0.0000001
 44
0.0000000001
 40
0.0
 40
0.0
 40
0.0
 40
0.0
 40
0.2831360751
 40
0.5430689329
 40
0.7803744101
 40
1.0
 40
1.0
 40
1.0
 40
1.0
 10
10.154807438
 20
60.3295062702
 30
0.0
 10
10.154807438
 20
60.2917574338
 30
0.0
 10
10.1595908314
 20
60.2192153232
 30
0.0
 10
10.1828520991
 20
60.1172636946
 30
0.0
 10
10.2219503471
 20
60.02931612
 30
0.0
 10
10.259245814
 20
59.9802080467
 30
0.0
 10
10.2799446977
 20
59.9594968303
 30
0.0
  0
SPLINE
  5
2C1
100
AcDbEntity
  8
0
100
AcDbSpline
 62
7
  6
CONTINUOUS
 70
0
 71
3
 72
9
 73
5
 74
0
 42
0.0000001
 43
0.0000001
 44
0.0000000001
 40
0.0
 40
0.0
 40
0.0
 40
0.0
 40
0.2527590141
 40
1.0
 40
1.0
 40
1.0
 40
1.0
 10
10.2799446977
 20
59.9594968303
 30
0.0
 10
10.2848290985
 20
59.9546095193
 30
0.0
 10
10.3047608198
 20
59.9358912886
 30
0.0
 10
10.3271428601
 20
59.9197749428
 30
0.0
 10
10.3448332817
 20
59.9095611708
 30
0.0
  0
SPLINE
  5
2C2
100
AcDbEntity
  8
0
100
AcDbSpline
 62
7
  6
CONTINUOUS
 70
0
 71
3
 72
11
 73
7
 74
0
 42
0.0000001
 43
0.0000001
 44
0.0000000001
 40
0.0
 40
0.0
 40
0.0
 40
0.0
 40
0.2895463391
 40
0.5491378616
 40
0.7822784713
 40
1.0
 40
1.0
 40
1.0
 40
1.0
 10
7.9149737904
 20
61.6572728978
 30
0.0
 10
7.9149737904
 20
61.6129628497
 30
0.0
 10
7.9217396312
 20
61.528647537
 30
0.0
 10
7.9558245727
 20
61.4127821163
 30
0.0
 10
8.0133253976
 20
61.3187434408
 30
0.0
 10
8.067360513
 20
61.2734006905
 30
0.0
 10
8.0962150427
 20
61.25674119
 30
0.0
  0
SPLINE
  5
2C3
100
AcDbEntity
  8
0
100
AcDbSpline
 62
7
  6
CONTINUOUS
 70
0
 71
3
 72
9
 73
5
 74
0
 42
0.0000001
 43
0.0000001
 44
0.0000000001
 40
0.0
 40
0.0
 40
0.0
 40
0.0
 40
0.511115924
 40
1.0
 40
1.0
 40
1.0
 40
1.0
 10
12.6843507606
 20
56.5314582629
 30
0.0
 10
12.6591383367
 20
56.5316746452
 30
0.0
 10
12.6096707025
 20
56.5367726045
 30
0.0
 10
12.5624744449
 20
56.552756335
 30
0.0
 10
12.5407034341
 20
56.5631311194
 30
0.0
  0
SPLINE
  5
2C4
100
AcDbEntity
  8
0
100
AcDbSpline
 62
7
  6
CONTINUOUS
 70
0
 71
3
 72
11
 73
7
 74
0
 42
0.0000001
 43
0.0000001
 44
0.0000000001
 40
0.0
 40
0.0
 40
0.0
 40
0.0
 40
0.2831360751
 40
0.5430689329
 40
0.7803744101
 40
1.0
 40
1.0
 40
1.0
 40
1.0
 10
9.5007563605
 20
58.6273325232
 30
0.0
 10
9.5007563605
 20
58.5895836869
 30
0.0
 10
9.5055397539
 20
58.5170415763
 30
0.0
 10
9.5288010216
 20
58.4150899477
 30
0.0
 10
9.5678992697
 20
58.3271423731
 30
0.0
 10
9.6051947365
 20
58.2780342998
 30
0.0
 10
9.6258936202
 20
58.2573230834
 30
0.0
  0
SPLINE
  5
2C5
100
AcDbEntity
  8
0
100
AcDbSpline
 62
7
  6
CONTINUOUS
 70
0
 71
3
 72
9
 73
5
 74
0
 42
0.0000001
 43
0.0000001
 44
0.0000000001
 40
0.0
 40
0.0
 40
0.0
 40
0.0
 40
0.2527590141
 40
1.0
 40
1.0
 40
1.0
 40
1.0
 10
9.6258936202
 20
58.2573230834
 30
0.0
 10
9.630778021
 20
58.2524357724
 30
0.0
 10
9.6507097423
 20
58.2337175417
 30
0.0
 10
9.6730917826
 20
58.2176011959
 30
0.0
 10
9.6907822042
 20
58.2073874239
 30
0.0
  0
SPLINE
  5
2C6
100
AcDbEntity
  8
0
100
AcDbSpline
 62
7
  6
CONTINUOUS
 70
0
 71
3
 72
11
 73
7
 74
0
 42
0.0000001
 43
0.0000001
 44
0.0000000001
 40
0.0
 40
0.0
 40
0.0
 40
0.0
 40
0.2896731347
 40
0.5490952843
 40
0.7822196012
 40
1.0
 40
1.0
 40
1.0
 40
1.0
 10
7.2786003088
 20
59.9653052547
 30
0.0
 10
7.2786003088
 20
59.9222419567
 30
0.0
 10
7.2851387699
 20
59.8403361469
 30
0.0
 10
7.3182960146
 20
59.7278001404
 30
0.0
 10
7.3741459075
 20
59.6364720475
 30
0.0
 10
7.4266209672
 20
59.5923978009
 30
0.0
 10
7.454651429
 20
59.5761967875
 30
0.0
  0
SPLINE
  5
2C7
100
AcDbEntity
  8
0
100
AcDbSpline
 62
7
  6
CONTINUOUS
 70
0
 71
3
 72
15
 73
11
 74
0
 42
0.0000001
 43
0.0000001
 44
0.0000000001
 40
0.0
 40
0.0
 40
0.0
 40
0.0
 40
0.1141462769
 40
0.2373347432
 40
0.3669750849
 40
0.4999983967
 40
0.6330219315
 40
0.7626629244
 40
0.8858524171
 40
1.0
 40
1.0
 40
1.0
 40
1.0
 10
27.7488015096
 20
51.704818348
 30
0.0
 10
27.6495744546
 20
51.6475299231
 30
0.0
 10
27.453569903
 20
51.5101163146
 30
0.0
 10
27.1838621556
 20
51.2578126579
 30
0.0
 10
26.9353429426
 20
50.9595281237
 30
0.0
 10
26.7173140738
 20
50.6265345808
 30
0.0
 10
26.5379490902
 20
50.2712178102
 30
0.0
 10
26.40388757
 20
49.9068492586
 30
0.0
 10
26.3202403024
 20
49.5471205619
 30
0.0
 10
26.2992386433
 20
49.3086665512
 30
0.0
 10
26.2992386433
 20
49.1940878775
 30
0.0
  0
SPLINE
  5
2C8
100
AcDbEntity
  8
0
100
AcDbSpline
 62
7
  6
CONTINUOUS
 70
0
 71
3
 72
12
 73
8
 74
0
 42
0.0000001
 43
0.0000001
 44
0.0000000001
 40
0.0
 40
0.0
 40
0.0
 40
0.0
 40
0.2895571842
 40
0.5486545569
 40
0.7816330299
 40
0.8918394861
 40
1.0
 40
1.0
 40
1.0
 40
1.0
 10
26.2992386433
 20
49.1940878775
 30
0.0
 10
26.2992386433
 20
49.090190837
 30
0.0
 10
26.3150010682
 20
48.8926267366
 30
0.0
 10
26.3948479159
 20
48.6213262154
 30
0.0
 10
26.5096930963
 20
48.4341786236
 30
0.0
 10
26.6255819269
 20
48.3201304466
 30
0.0
 10
26.6902162697
 20
48.2750437257
 30
0.0
 10
26.7238264352
 20
48.2556393248
 30
0.0
  0
SPLINE
  5
2C9
100
AcDbEntity
  8
0
100
AcDbSpline
 62
7
  6
CONTINUOUS
 70
0
 71
3
 72
11
 73
7
 74
0
 42
0.0000001
 43
0.0000001
 44
0.0000000001
 40
0.0
 40
0.0
 40
0.0
 40
0.0
 40
0.2867928286
 40
0.5466332836
 40
0.7818369551
 40
1.0
 40
1.0
 40
1.0
 40
1.0
 10
44.875006707
 20
45.8834320722
 30
0.0
 10
44.9426251478
 20
45.9224713642
 30
0.0
 10
45.0664311771
 20
46.0064582854
 30
0.0
 10
45.2189396014
 20
46.1570035718
 30
0.0
 10
45.3240817074
 20
46.3225359541
 30
0.0
 10
45.3599143387
 20
46.4428298474
 30
0.0
 10
45.3678237421
 20
46.5016954295
 30
0.0
  0
SPLINE
  5
2CA
100
AcDbEntity
  8
0
100
AcDbSpline
 62
7
  6
CONTINUOUS
 70
0
 71
3
 72
15
 73
11
 74
0
 42
0.0000001
 43
0.0000001
 44
0.0000000001
 40
0.0
 40
0.0
 40
0.0
 40
0.0
 40
0.114993042
 40
0.2393718243
 40
0.3702448709
 40
0.5042321481
 40
0.6376192417
 40
0.7667725892
 40
0.8884131458
 40
1.0
 40
1.0
 40
1.0
 40
1.0
 10
42.0819232926
 20
47.4959830526
 30
0.0
 10
42.1955339279
 20
47.5615757919
 30
0.0
 10
42.4448052154
 20
47.676507448
 30
0.0
 10
42.8510713815
 20
47.7962828459
 30
0.0
 10
43.2906816705
 20
47.8665983301
 30
0.0
 10
43.7456828284
 20
47.8846959008
 30
0.0
 10
44.197750709
 20
47.8497856357
 30
0.0
 10
44.6286258615
 20
47.7632791563
 30
0.0
 10
45.0208375913
 20
47.6287066009
 30
0.0
 10
45.2577325955
 20
47.5041961587
 30
0.0
 10
45.3640873577
 20
47.4342389396
 30
0.0
  0
SPLINE
  5
2CB
100
AcDbEntity
  8
0
100
AcDbSpline
 62
7
  6
CONTINUOUS
 70
0
 71
3
 72
10
 73
6
 74
0
 42
0.0000001
 43
0.0000001
 44
0.0000000001
 40
0.0
 40
0.0
 40
0.0
 40
0.0
 40
0.2360474413
 40
0.4846891027
 40
1.0
 40
1.0
 40
1.0
 40
1.0
 10
32.4712929232
 20
48.6124874395
 30
0.0
 10
32.3901994608
 20
48.5500196793
 30
0.0
 10
32.232049777
 20
48.4105880406
 30
0.0
 10
31.9408047659
 20
48.0885484052
 30
0.0
 10
31.7579425683
 20
47.808655421
 30
0.0
 10
31.6545342975
 20
47.6105518197
 30
0.0
  0
SPLINE
  5
2CC
100
AcDbEntity
  8
0
100
AcDbSpline
 62
7
  6
CONTINUOUS
 70
0
 71
3
 72
11
 73
7
 74
0
 42
0.0000001
 43
0.0000001
 44
0.0000000001
 40
0.0
 40
0.0
 40
0.0
 40
0.0
 40
0.2664876136
 40
0.5251001065
 40
0.7710321492
 40
1.0
 40
1.0
 40
1.0
 40
1.0
 10
31.6545342975
 20
47.6105518197
 30
0.0
 10
31.6015475506
 20
47.509042866
 30
0.0
 10
31.5072676207
 20
47.3035330856
 30
0.0
 10
31.4015526554
 20
46.9888558818
 30
0.0
 10
31.3360000142
 20
46.6798369568
 30
0.0
 10
31.3197171031
 20
46.4756114402
 30
0.0
 10
31.3197171031
 20
46.3772270112
 30
0.0
  0
SPLINE
  5
2CD
100
AcDbEntity
  8
0
100
AcDbSpline
 62
7
  6
CONTINUOUS
 70
0
 71
3
 72
11
 73
7
 74
0
 42
0.0000001
 43
0.0000001
 44
0.0000000001
 40
0.0
 40
0.0
 40
0.0
 40
0.0
 40
0.2789448156
 40
0.538032166
 40
0.777443009
 40
1.0
 40
1.0
 40
1.0
 40
1.0
 10
31.3197171031
 20
46.3772270112
 30
0.0
 10
31.3197171031
 20
46.3076864782
 30
0.0
 10
31.3273478753
 20
46.1733703095
 30
0.0
 10
31.3642617568
 20
45.9824102247
 30
0.0
 10
31.4260641001
 20
45.812738048
 30
0.0
 10
31.4851956351
 20
45.7128523797
 30
0.0
 10
31.5184962062
 20
45.6684738961
 30
0.0
  0
SPLINE
  5
2CE
100
AcDbEntity
  8
0
100
AcDbSpline
 62
7
  6
CONTINUOUS
 70
0
 71
3
 72
9
 73
5
 74
0
 42
0.0000001
 43
0.0000001
 44
0.0000000001
 40
0.0
 40
0.0
 40
0.0
 40
0.0
 40
0.5069670632
 40
1.0
 40
1.0
 40
1.0
 40
1.0
 10
31.5184962062
 20
45.6684738961
 30
0.0
 10
31.5465818094
 20
45.6310452143
 30
0.0
 10
31.6089492654
 20
45.5621036867
 30
0.0
 10
31.6841765526
 20
45.507301215
 30
0.0
 10
31.7235923663
 20
45.4845550997
 30
0.0
  0
SPLINE
  5
2CF
100
AcDbEntity
  8
0
100
AcDbSpline
 62
7
  6
CONTINUOUS
 70
0
 71
3
 72
15
 73
11
 74
0
 42
0.0000001
 43
0.0000001
 44
0.0000000001
 40
0.0
 40
0.0
 40
0.0
 40
0.0
 40
0.1141462769
 40
0.2373347432
 40
0.3669750849
 40
0.4999983967
 40
0.6330219315
 40
0.7626629244
 40
0.8858524171
 40
1.0
 40
1.0
 40
1.0
 40
1.0
 10
16.456259199
 20
58.2244231977
 30
0.0
 10
16.357032144
 20
58.1671347728
 30
0.0
 10
16.1610275924
 20
58.0297211642
 30
0.0
 10
15.891319845
 20
57.7774175076
 30
0.0
 10
15.642800632
 20
57.4791329734
 30
0.0
 10
15.4247717632
 20
57.1461394305
 30
0.0
 10
15.2454067796
 20
56.7908226599
 30
0.0
 10
15.1113452594
 20
56.4264541082
 30
0.0
 10
15.0276979918
 20
56.0667254116
 30
0.0
 10
15.0066963327
 20
55.8282714009
 30
0.0
 10
15.0066963327
 20
55.7136927272
 30
0.0
  0
SPLINE
  5
2D0
100
AcDbEntity
  8
0
100
AcDbSpline
 62
7
  6
CONTINUOUS
 70
0
 71
3
 72
12
 73
8
 74
0
 42
0.0000001
 43
0.0000001
 44
0.0000000001
 40
0.0
 40
0.0
 40
0.0
 40
0.0
 40
0.2895571842
 40
0.5486545569
 40
0.7816330299
 40
0.8918394861
 40
1.0
 40
1.0
 40
1.0
 40
1.0
 10
15.0066963327
 20
55.7136927272
 30
0.0
 10
15.0066963327
 20
55.6097956867
 30
0.0
 10
15.0224587576
 20
55.4122315863
 30
0.0
 10
15.1023056053
 20
55.1409310651
 30
0.0
 10
15.2171507857
 20
54.9537834732
 30
0.0
 10
15.3330396163
 20
54.8397352963
 30
0.0
 10
15.3976739591
 20
54.7946485754
 30
0.0
 10
15.4312841246
 20
54.7752441744
 30
0.0
  0
SPLINE
  5
2D1
100
AcDbEntity
  8
0
100
AcDbSpline
 62
7
  6
CONTINUOUS
 70
0
 71
3
 72
11
 73
7
 74
0
 42
0.0000001
 43
0.0000001
 44
0.0000000001
 40
0.0
 40
0.0
 40
0.0
 40
0.0
 40
0.2789448156
 40
0.538032166
 40
0.777443009
 40
1.0
 40
1.0
 40
1.0
 40
1.0
 10
20.0271747925
 20
52.8968318609
 30
0.0
 10
20.0271747925
 20
52.8272913279
 30
0.0
 10
20.0348055647
 20
52.6929751592
 30
0.0
 10
20.0717194462
 20
52.5020150744
 30
0.0
 10
20.1335217895
 20
52.3323428977
 30
0.0
 10
20.1926533245
 20
52.2324572294
 30
0.0
 10
20.2259538956
 20
52.1880787458
 30
0.0
  0
SPLINE
  5
2D2
100
AcDbEntity
  8
0
100
AcDbSpline
 62
7
  6
CONTINUOUS
 70
0
 71
3
 72
9
 73
5
 74
0
 42
0.0000001
 43
0.0000001
 44
0.0000000001
 40
0.0
 40
0.0
 40
0.0
 40
0.0
 40
0.5069670632
 40
1.0
 40
1.0
 40
1.0
 40
1.0
 10
20.2259538956
 20
52.1880787458
 30
0.0
 10
20.2540394988
 20
52.150650064
 30
0.0
 10
20.3164069548
 20
52.0817085364
 30
0.0
 10
20.391634242
 20
52.0269060647
 30
0.0
 10
20.4310500557
 20
52.0041599494
 30
0.0
  0
SPLINE
  5
2D3
100
AcDbEntity
  8
0
100
AcDbSpline
 62
7
  6
CONTINUOUS
 70
0
 71
3
 72
15
 73
11
 74
0
 42
0.0000001
 43
0.0000001
 44
0.0000000001
 40
0.0
 40
0.0
 40
0.0
 40
0.0
 40
0.1201474413
 40
0.2467543228
 40
0.3773357755
 40
0.50936918
 40
0.6401283752
 40
0.7669700255
 40
0.8876099663
 40
1.0
 40
1.0
 40
1.0
 40
1.0
 10
21.1787506126
 20
55.1320922892
 30
0.0
 10
21.0965487984
 20
55.0687707456
 30
0.0
 10
20.9363479694
 20
54.927277514
 30
0.0
 10
20.7178759831
 20
54.6846693903
 30
0.0
 10
20.520158874
 20
54.412074102
 30
0.0
 10
20.3491429246
 20
54.117865772
 30
0.0
 10
20.2100304282
 20
53.8108239211
 30
0.0
 10
20.106909958
 20
53.5001687818
 30
0.0
 10
20.0430237124
 20
53.1953109182
 30
0.0
 10
20.0271747925
 20
52.9938953085
 30
0.0
 10
20.0271747925
 20
52.8968318609
 30
0.0
  0
SPLINE
  5
2D4
100
AcDbEntity
  8
0
100
AcDbSpline
 62
7
  6
CONTINUOUS
 70
0
 71
3
 72
9
 73
5
 74
0
 42
0.0000001
 43
0.0000001
 44
0.0000000001
 40
0.0
 40
0.0
 40
0.0
 40
0.0
 40
0.5135880268
 40
1.0
 40
1.0
 40
1.0
 40
1.0
 10
20.7892483955
 20
51.8220631661
 30
0.0
 10
20.7168052005
 20
51.8195734789
 30
0.0
 10
20.5743021652
 20
51.8312760847
 30
0.0
 10
20.4405055555
 20
51.8832342558
 30
0.0
 10
20.3810522007
 20
51.9175588928
 30
0.0
  0
SPLINE
  5
2D5
100
AcDbEntity
  8
0
100
AcDbSpline
 62
7
  6
CONTINUOUS
 70
0
 71
3
 72
12
 73
8
 74
0
 42
0.0000001
 43
0.0000001
 44
0.0000000001
 40
0.0
 40
0.0
 40
0.0
 40
0.0
 40
0.1081605139
 40
0.2183669701
 40
0.4513454431
 40
0.7104428158
 40
1.0
 40
1.0
 40
1.0
 40
1.0
 10
31.6735945113
 20
45.3979540431
 30
0.0
 10
31.6399843457
 20
45.417358444
 30
0.0
 10
31.575350003
 20
45.462445165
 30
0.0
 10
31.4594611724
 20
45.5764933419
 30
0.0
 10
31.3446159919
 20
45.7636409337
 30
0.0
 10
31.2647691442
 20
46.034941455
 30
0.0
 10
31.2490067193
 20
46.2325055554
 30
0.0
 10
31.2490067193
 20
46.3364025958
 30
0.0
  0
SPLINE
  5
2D6
100
AcDbEntity
  8
0
100
AcDbSpline
 62
7
  6
CONTINUOUS
 70
0
 71
3
 72
18
 73
14
 74
0
 42
0.0000001
 43
0.0000001
 44
0.0000000001
 40
0.0
 40
0.0
 40
0.0
 40
0.0
 40
0.0430733513
 40
0.088572466
 40
0.1376071051
 40
0.1908227147
 40
0.3100097684
 40
0.4442202181
 40
0.5877427915
 40
0.733176295
 40
0.872769905
 40
0.9383365114
 40
1.0
 40
1.0
 40
1.0
 40
1.0
 10
45.3678224497
 20
46.653266558
 30
0.0
 10
45.3614857694
 20
46.7004064047
 30
0.0
 10
45.3362541775
 20
46.7960354903
 30
0.0
 10
45.2647309861
 20
46.931324641
 30
0.0
 10
45.1612236441
 20
47.0586245719
 30
0.0
 10
44.9766989121
 20
47.2204676176
 30
0.0
 10
44.6766526175
 20
47.3855307625
 30
0.0
 10
44.2549703646
 20
47.5132696145
 30
0.0
 10
43.7888228111
 20
47.5695635973
 30
0.0
 10
43.3140765292
 20
47.5499534218
 30
0.0
 10
42.932883227
 20
47.4700844831
 30
0.0
 10
42.6560367912
 20
47.3680265931
 30
0.0
 10
42.529803162
 20
47.3054965029
 30
0.0
 10
42.4708336415
 20
47.2714506376
 30
0.0
  0
SPLINE
  5
2D7
100
AcDbEntity
  8
0
100
AcDbSpline
 62
7
  6
CONTINUOUS
 70
0
 71
3
 72
19
 73
15
 74
0
 42
0.0000001
 43
0.0000001
 44
0.0000000001
 40
0.0
 40
0.0
 40
0.0
 40
0.0
 40
0.0428385813
 40
0.0874433473
 40
0.1352550426
 40
0.1871926702
 40
0.2436711226
 40
0.3046633752
 40
0.4382672724
 40
0.5825427179
 40
0.7296393023
 40
0.8711669517
 40
0.9376091523
 40
1.0
 40
1.0
 40
1.0
 40
1.0
 10
51.5247519126
 20
51.0274197064
 30
0.0
 10
51.5247555759
 20
51.0758128256
 30
0.0
 10
51.5117834104
 20
51.1750099773
 30
0.0
 10
51.4549233434
 20
51.3182622841
 30
0.0
 10
51.3625819347
 20
51.4540420792
 30
0.0
 10
51.2374649915
 20
51.5797015648
 30
0.0
 10
51.082417332
 20
51.6930195891
 30
0.0
 10
50.8326323796
 20
51.82879242
 30
0.0
 10
50.4666569386
 20
51.9510493003
 30
0.0
 10
49.9890173456
 20
52.0181125165
 30
0.0
 10
49.4979902641
 20
52.0045701544
 30
0.0
 10
49.1021947242
 20
51.9254335019
 30
0.0
 10
48.8146373997
 20
51.8211711246
 30
0.0
 10
48.6837092326
 20
51.7566691143
 30
0.0
 10
48.6226711752
 20
51.7214289858
 30
0.0
  0
SPLINE
  5
2D8
100
AcDbEntity
  8
0
100
AcDbSpline
 62
7
  6
CONTINUOUS
 70
0
 71
3
 72
11
 73
7
 74
0
 42
0.0000001
 43
0.0000001
 44
0.0000000001
 40
0.0
 40
0.0
 40
0.0
 40
0.0
 40
0.2176960387
 40
0.451283868
 40
0.7110221112
 40
1.0
 40
1.0
 40
1.0
 40
1.0
 10
12.5119351554
 20
56.5787683494
 30
0.0
 10
12.4826965888
 20
56.5967407298
 30
0.0
 10
12.428195144
 20
56.6447866726
 30
0.0
 10
12.3703448271
 20
56.7424893302
 30
0.0
 10
12.3360337576
 20
56.8620318228
 30
0.0
 10
12.3291952611
 20
56.9488111179
 30
0.0
 10
12.3291952611
 20
56.9943695051
 30
0.0
  0
SPLINE
  5
2D9
100
AcDbEntity
  8
0
100
AcDbSpline
 62
7
  6
CONTINUOUS
 70
0
 71
3
 72
10
 73
6
 74
0
 42
0.0000001
 43
0.0000001
 44
0.0000000001
 40
0.0
 40
0.0
 40
0.0
 40
0.0
 40
0.2259096985
 40
0.594034707
 40
1.0
 40
1.0
 40
1.0
 40
1.0
 10
48.2093451789
 20
50.9249056085
 30
0.0
 10
48.2306486221
 20
50.9624204782
 30
0.0
 10
48.2953734736
 20
51.0562679039
 30
0.0
 10
48.432541375
 20
51.1910647487
 30
0.0
 10
48.5555310601
 20
51.2744146451
 30
0.0
 10
48.6226711752
 20
51.3131777772
 30
0.0
  0
SPLINE
  5
2DA
100
AcDbEntity
  8
0
100
AcDbSpline
 62
7
  6
CONTINUOUS
 70
0
 71
3
 72
16
 73
12
 74
0
 42
0.0000001
 43
0.0000001
 44
0.0000000001
 40
0.0
 40
0.0
 40
0.0
 40
0.0
 40
0.1220312897
 40
0.255461046
 40
0.3952747784
 40
0.5355834396
 40
0.6704312095
 40
0.7946091894
 40
0.8515889226
 40
0.9048012715
 40
1.0
 40
1.0
 40
1.0
 40
1.0
 10
48.6226711752
 20
51.3131777772
 30
0.0
 10
48.7307277854
 20
51.3755639178
 30
0.0
 10
48.9722042826
 20
51.4802990842
 30
0.0
 10
49.3666787378
 20
51.5751039143
 30
0.0
 10
49.7895803835
 20
51.6108159723
 30
0.0
 10
50.2146216263
 20
51.5851424535
 30
0.0
 10
50.6155014597
 20
51.4996891197
 30
0.0
 10
50.9177317468
 20
51.3795988565
 30
0.0
 10
51.1238772439
 20
51.2562618186
 30
0.0
 10
51.290110478
 20
51.1276974404
 30
0.0
 10
51.3915189605
 20
51.0102718181
 30
0.0
 10
51.4397037801
 20
50.9256975658
 30
0.0
  0
SPLINE
  5
2DB
100
AcDbEntity
  8
0
100
AcDbSpline
 62
7
  6
CONTINUOUS
 70
0
 71
3
 72
16
 73
12
 74
0
 42
0.0000001
 43
0.0000001
 44
0.0000000001
 40
0.0
 40
0.0
 40
0.0
 40
0.0
 40
0.1285239953
 40
0.2615638349
 40
0.3959600828
 40
0.5282259854
 40
0.6553815264
 40
0.7757573845
 40
0.8896222079
 40
0.9450720306
 40
1.0
 40
1.0
 40
1.0
 40
1.0
 10
45.3523648682
 20
47.9121175164
 30
0.0
 10
45.2808134516
 20
47.9363537073
 30
0.0
 10
45.1413095796
 20
48.0053527439
 30
0.0
 10
44.9613168423
 20
48.1559356979
 30
0.0
 10
44.8181763229
 20
48.3447848519
 30
0.0
 10
44.7226864672
 20
48.5579425255
 30
0.0
 10
44.6822238446
 20
48.7799193715
 30
0.0
 10
44.7006097882
 20
48.9943121297
 30
0.0
 10
44.7661218532
 20
49.1549361071
 30
0.0
 10
44.8451402552
 20
49.2611004158
 30
0.0
 10
44.8924498872
 20
49.3060575509
 30
0.0
 10
44.9176673913
 20
49.3262183606
 30
0.0
  0
SPLINE
  5
2DC
100
AcDbEntity
  8
0
100
AcDbSpline
 62
7
  6
CONTINUOUS
 70
0
 71
3
 72
11
 73
7
 74
0
 42
0.0000001
 43
0.0000001
 44
0.0000000001
 40
0.0
 40
0.0
 40
0.0
 40
0.0
 40
0.230693354
 40
0.4698252823
 40
0.7247847248
 40
1.0
 40
1.0
 40
1.0
 40
1.0
 10
35.1282289002
 20
46.2916024538
 30
0.0
 10
35.1282421323
 20
46.208051746
 30
0.0
 10
35.1492049858
 20
46.0372327542
 30
0.0
 10
35.2420658844
 20
45.789445126
 30
0.0
 10
35.3932247036
 20
45.5533147424
 30
0.0
 10
35.5248011198
 20
45.4120622166
 30
0.0
 10
35.5979528551
 20
45.3443570409
 30
0.0
  0
SPLINE
  5
2DD
100
AcDbEntity
  8
0
100
AcDbSpline
 62
7
  6
CONTINUOUS
 70
0
 71
3
 72
13
 73
9
 74
0
 42
0.0000001
 43
0.0000001
 44
0.0000000001
 40
0.0
 40
0.0
 40
0.0
 40
0.0
 40
0.1141767831
 40
0.2375713001
 40
0.500001251
 40
0.7624305195
 40
0.8858241805
 40
1.0
 40
1.0
 40
1.0
 40
1.0
 10
46.713502885
 20
27.634662621
 30
0.0
 10
46.713502885
 20
27.6765545976
 30
0.0
 10
46.7057817762
 20
27.7638029713
 30
0.0
 10
46.6641716714
 20
27.9429261298
 30
0.0
 10
46.5672186716
 20
28.1625795883
 30
0.0
 10
46.4254689288
 20
28.3563691485
 30
0.0
 10
46.2911486577
 20
28.4819646803
 30
0.0
 10
46.2194500061
 20
28.5322745437
 30
0.0
 10
46.1831705912
 20
28.5532199998
 30
0.0
  0
SPLINE
  5
2DE
100
AcDbEntity
  8
0
100
AcDbSpline
 62
7
  6
CONTINUOUS
 70
0
 71
3
 72
11
 73
7
 74
0
 42
0.0000001
 43
0.0000001
 44
0.0000000001
 40
0.0
 40
0.0
 40
0.0
 40
0.0
 40
0.2895391946
 40
0.5491157945
 40
0.7822541179
 40
1.0
 40
1.0
 40
1.0
 40
1.0
 10
46.1831705912
 20
28.5532199998
 30
0.0
 10
46.1502806478
 20
28.5722085879
 30
0.0
 10
46.0847973542
 20
28.6033186321
 30
0.0
 10
45.984189215
 20
28.6276704325
 30
0.0
 10
45.8897406566
 20
28.6252978414
 30
0.0
 10
45.8329277913
 20
28.6046072858
 30
0.0
 10
45.8081932525
 20
28.5903268666
 30
0.0
  0
SPLINE
  5
2DF
100
AcDbEntity
  8
0
100
AcDbSpline
 62
7
  6
CONTINUOUS
 70
0
 71
3
 72
18
 73
14
 74
0
 42
0.0000001
 43
0.0000001
 44
0.0000000001
 40
0.0
 40
0.0
 40
0.0
 40
0.0
 40
0.1537311603
 40
0.3047813127
 40
0.4490765219
 40
0.5831578948
 40
0.7046482396
 40
0.7604621288
 40
0.8130558781
 40
0.8627295123
 40
0.9099667647
 40
0.9554466444
 40
1.0
 40
1.0
 40
1.0
 40
1.0
 10
38.4751922053
 20
46.058890166
 30
0.0
 10
38.2626005316
 20
46.0490951193
 30
0.0
 10
37.83954269
 20
46.0546999708
 30
0.0
 10
37.2218548537
 20
46.1369095302
 30
0.0
 10
36.6454238821
 20
46.2895459103
 30
0.0
 10
36.1339286579
 20
46.5064059741
 30
0.0
 10
35.7685060114
 20
46.7405795786
 30
0.0
 10
35.5314196015
 20
46.953847254
 30
0.0
 10
35.3870482665
 20
47.1191012122
 30
0.0
 10
35.2726597502
 20
47.2924243675
 30
0.0
 10
35.1897963711
 20
47.4722018981
 30
0.0
 10
35.1394528423
 20
47.6563621747
 30
0.0
 10
35.1282057142
 20
47.7812798277
 30
0.0
 10
35.1282056022
 20
47.8429571127
 30
0.0
  0
SPLINE
  5
2E0
100
AcDbEntity
  8
0
100
AcDbSpline
 62
7
  6
CONTINUOUS
 70
0
 71
3
 72
11
 73
7
 74
0
 42
0.0000001
 43
0.0000001
 44
0.0000000001
 40
0.0
 40
0.0
 40
0.0
 40
0.0
 40
0.2177460211
 40
0.4508843679
 40
0.7104607696
 40
1.0
 40
1.0
 40
1.0
 40
1.0
 10
45.5253517171
 20
28.4270292048
 30
0.0
 10
45.5500862797
 20
28.4413096201
 30
0.0
 10
45.606899158
 20
28.4620002051
 30
0.0
 10
45.7013477158
 20
28.4643727492
 30
0.0
 10
45.8019558483
 20
28.440021006
 30
0.0
 10
45.8674391083
 20
28.408910929
 30
0.0
 10
45.9003290563
 20
28.3899223382
 30
0.0
  0
SPLINE
  5
2E1
100
AcDbEntity
  8
0
100
AcDbSpline
 62
7
  6
CONTINUOUS
 70
0
 71
3
 72
11
 73
7
 74
0
 42
0.0000001
 43
0.0000001
 44
0.0000000001
 40
0.0
 40
0.0
 40
0.0
 40
0.0
 40
0.2895401978
 40
0.5491171512
 40
0.782255066
 40
1.0
 40
1.0
 40
1.0
 40
1.0
 10
46.4306613501
 20
27.4713649595
 30
0.0
 10
46.4306613501
 20
27.4333859921
 30
0.0
 10
46.4248623128
 20
27.3611186033
 30
0.0
 10
46.3956475109
 20
27.2618104716
 30
0.0
 10
46.3463676618
 20
27.1811995813
 30
0.0
 10
46.3000414953
 20
27.1423425716
 30
0.0
 10
46.2753063954
 20
27.128061846
 30
0.0
  0
SPLINE
  5
2E2
100
AcDbEntity
  8
0
100
AcDbSpline
 62
7
  6
CONTINUOUS
 70
0
 71
3
 72
11
 73
7
 74
0
 42
0.0000001
 43
0.0000001
 44
0.0000000001
 40
0.0
 40
0.0
 40
0.0
 40
0.0
 40
0.217745073
 40
0.4508830113
 40
0.7104597664
 40
1.0
 40
1.0
 40
1.0
 40
1.0
 10
46.5581479298
 20
27.2913595072
 30
0.0
 10
46.5828830383
 20
27.3056402553
 30
0.0
 10
46.6292092367
 20
27.3444972617
 30
0.0
 10
46.6784890447
 20
27.4251081749
 30
0.0
 10
46.7077038929
 20
27.5244162722
 30
0.0
 10
46.713502885
 20
27.5966836484
 30
0.0
 10
46.713502885
 20
27.634662621
 30
0.0
  0
SPLINE
  5
2E3
100
AcDbEntity
  8
0
100
AcDbSpline
 62
7
  6
CONTINUOUS
 70
0
 71
3
 72
12
 73
8
 74
0
 42
0.0000001
 43
0.0000001
 44
0.0000000001
 40
0.0
 40
0.0
 40
0.0
 40
0.0
 40
0.2894846808
 40
0.5486773519
 40
0.7816302694
 40
0.8918330336
 40
1.0
 40
1.0
 40
1.0
 40
1.0
 10
37.0260946458
 20
48.5369663967
 30
0.0
 10
36.9515012675
 20
48.4939001467
 30
0.0
 10
36.816170598
 20
48.4006408067
 30
0.0
 10
36.6544218114
 20
48.2308481799
 30
0.0
 10
36.5676075295
 20
48.0707610605
 30
0.0
 10
36.5338222374
 20
47.9402456189
 30
0.0
 10
36.5281894102
 20
47.8751409655
 30
0.0
 10
36.5281869739
 20
47.8429571108
 30
0.0
  0
SPLINE
  5
2E4
100
AcDbEntity
  8
0
100
AcDbSpline
 62
7
  6
CONTINUOUS
 70
0
 71
3
 72
9
 73
5
 74
0
 42
0.0000001
 43
0.0000001
 44
0.0000000001
 40
0.0
 40
0.0
 40
0.0
 40
0.0
 40
0.4936784723
 40
1.0
 40
1.0
 40
1.0
 40
1.0
 10
20.4310500557
 20
52.0041599494
 30
0.0
 10
20.468550335
 20
51.9825192526
 30
0.0
 10
20.5491212781
 20
51.9462476595
 30
0.0
 10
20.6351435767
 20
51.9263915304
 30
0.0
 10
20.6791269652
 20
51.920284332
 30
0.0
  0
SPLINE
  5
2E5
100
AcDbEntity
  8
0
100
AcDbSpline
 62
7
  6
CONTINUOUS
 70
0
 71
3
 72
17
 73
13
 74
0
 42
0.0000001
 43
0.0000001
 44
0.0000000001
 40
0.0
 40
0.0
 40
0.0
 40
0.0
 40
0.1280860808
 40
0.2689825346
 40
0.4155015645
 40
0.5595655997
 40
0.6934688427
 40
0.8114768465
 40
0.8639136185
 40
0.9121793398
 40
0.9571066955
 40
1.0
 40
1.0
 40
1.0
 40
1.0
 10
12.9832463386
 20
58.6965432521
 30
0.0
 10
12.9832463386
 20
58.7739487907
 30
0.0
 10
13.0046469042
 20
58.9366841881
 30
0.0
 10
13.0846290544
 20
59.1759334197
 30
0.0
 10
13.2081456853
 20
59.4069542443
 30
0.0
 10
13.3653821182
 20
59.6112543199
 30
0.0
 10
13.5438452839
 20
59.7727012799
 30
0.0
 10
13.7057946154
 20
59.8647316273
 30
0.0
 10
13.8331529528
 20
59.9021641633
 30
0.0
 10
13.9212330558
 20
59.9114887046
 30
0.0
 10
14.0036937641
 20
59.9028891801
 30
0.0
 10
14.0542253761
 20
59.8846446591
 30
0.0
 10
14.0772872052
 20
59.8728093484
 30
0.0
  0
SPLINE
  5
2E6
100
AcDbEntity
  8
0
100
AcDbSpline
 62
7
  6
CONTINUOUS
 70
0
 71
3
 72
11
 73
7
 74
0
 42
0.0000001
 43
0.0000001
 44
0.0000000001
 40
0.0
 40
0.0
 40
0.0
 40
0.0
 40
0.2831360751
 40
0.5430689329
 40
0.7803744101
 40
1.0
 40
1.0
 40
1.0
 40
1.0
 10
13.0132349087
 20
58.7138570577
 30
0.0
 10
13.0132349087
 20
58.6778532898
 30
0.0
 10
13.0177971734
 20
58.6086646852
 30
0.0
 10
13.0399831099
 20
58.5114261176
 30
0.0
 10
13.0772739083
 20
58.427544219
 30
0.0
 10
13.1128452653
 20
58.3807063335
 30
0.0
 10
13.1325872726
 20
58.3609525636
 30
0.0
  0
SPLINE
  5
2E7
100
AcDbEntity
  8
0
100
AcDbSpline
 62
7
  6
CONTINUOUS
 70
0
 71
3
 72
9
 73
5
 74
0
 42
0.0000001
 43
0.0000001
 44
0.0000000001
 40
0.0
 40
0.0
 40
0.0
 40
0.0
 40
0.2527590141
 40
1.0
 40
1.0
 40
1.0
 40
1.0
 10
13.1325872726
 20
58.3609525636
 30
0.0
 10
13.1372458754
 20
58.3562911851
 30
0.0
 10
13.156256185
 20
58.3384382684
 30
0.0
 10
13.1776035393
 20
58.3230669555
 30
0.0
 10
13.194476161
 20
58.3133253499
 30
0.0
  0
SPLINE
  5
2E8
100
AcDbEntity
  8
0
100
AcDbSpline
 62
7
  6
CONTINUOUS
 70
0
 71
3
 72
13
 73
9
 74
0
 42
0.0000001
 43
0.0000001
 44
0.0000000001
 40
0.0
 40
0.0
 40
0.0
 40
0.0
 40
0.1141759018
 40
0.2375697245
 40
0.4999990825
 40
0.762428944
 40
0.8858232992
 40
1.0
 40
1.0
 40
1.0
 40
1.0
 10
45.9003290563
 20
28.3899223382
 30
0.0
 10
45.9366084973
 20
28.368976867
 30
0.0
 10
46.0083071992
 20
28.3186669187
 30
0.0
 10
46.1426275743
 20
28.1930713215
 30
0.0
 10
46.2843772933
 20
27.9992816554
 30
0.0
 10
46.3813301896
 20
27.7796282293
 30
0.0
 10
46.4229402899
 20
27.6005051935
 30
0.0
 10
46.4306613501
 20
27.5132569058
 30
0.0
 10
46.4306613501
 20
27.4713649595
 30
0.0
  0
SPLINE
  5
2E9
100
AcDbEntity
  8
0
100
AcDbSpline
 62
7
  6
CONTINUOUS
 70
0
 71
3
 72
17
 73
13
 74
0
 42
0.0000001
 43
0.0000001
 44
0.0000000001
 40
0.0
 40
0.0
 40
0.0
 40
0.0
 40
0.1277255486
 40
0.2681866312
 40
0.414327584
 40
0.5582162926
 40
0.692245792
 40
0.8106865283
 40
0.8634035253
 40
0.9119373854
 40
0.9570590796
 40
1.0
 40
1.0
 40
1.0
 40
1.0
 10
12.3291952611
 20
56.9943695051
 30
0.0
 10
12.3291952611
 20
57.0711744074
 30
0.0
 10
12.3502693911
 20
57.2326236719
 30
0.0
 10
12.4291403407
 20
57.4701642802
 30
0.0
 10
12.5510639913
 20
57.6998671992
 30
0.0
 10
12.7064725069
 20
57.9036013439
 30
0.0
 10
12.8831911382
 20
58.0654902619
 30
0.0
 10
13.0438004244
 20
58.1588417975
 30
0.0
 10
13.1705004415
 20
58.1981330152
 30
0.0
 10
13.2583717306
 20
58.2091340764
 30
0.0
 10
13.3408815962
 20
58.202514462
 30
0.0
 10
13.391785849
 20
58.1857709926
 30
0.0
 10
13.4150959433
 20
58.1746627715
 30
0.0
  0
SPLINE
  5
2EA
100
AcDbEntity
  8
0
100
AcDbSpline
 62
7
  6
CONTINUOUS
 70
0
 71
3
 72
12
 73
8
 74
0
 42
0.0000001
 43
0.0000001
 44
0.0000000001
 40
0.0
 40
0.0
 40
0.0
 40
0.0
 40
0.2894846808
 40
0.5486773519
 40
0.7816302694
 40
0.8918330336
 40
1.0
 40
1.0
 40
1.0
 40
1.0
 10
48.6226711752
 20
51.7214289858
 30
0.0
 10
48.5480777969
 20
51.6783627358
 30
0.0
 10
48.4127471275
 20
51.5851033957
 30
0.0
 10
48.2509983409
 20
51.415310769
 30
0.0
 10
48.164184059
 20
51.2552236496
 30
0.0
 10
48.1303987669
 20
51.124708208
 30
0.0
 10
48.1247659397
 20
51.0596035546
 30
0.0
 10
48.1247635034
 20
51.0274196998
 30
0.0
  0
SPLINE
  5
2EB
100
AcDbEntity
  8
0
100
AcDbSpline
 62
7
  6
CONTINUOUS
 70
0
 71
3
 72
11
 73
7
 74
0
 42
0.0000001
 43
0.0000001
 44
0.0000000001
 40
0.0
 40
0.0
 40
0.0
 40
0.0
 40
0.2831360751
 40
0.5430689329
 40
0.7803744101
 40
1.0
 40
1.0
 40
1.0
 40
1.0
 10
12.3768614271
 20
57.0218894146
 30
0.0
 10
12.3768614271
 20
56.9869143258
 30
0.0
 10
12.3812933414
 20
56.9197025385
 30
0.0
 10
12.402845394
 20
56.8252422157
 30
0.0
 10
12.439070741
 20
56.7437569427
 30
0.0
 10
12.4736257735
 20
56.6982572825
 30
0.0
 10
12.4928037235
 20
56.679067906
 30
0.0
  0
SPLINE
  5
2EC
100
AcDbEntity
  8
0
100
AcDbSpline
 62
7
  6
CONTINUOUS
 70
0
 71
3
 72
9
 73
5
 74
0
 42
0.0000001
 43
0.0000001
 44
0.0000000001
 40
0.0
 40
0.0
 40
0.0
 40
0.0
 40
0.2527590141
 40
1.0
 40
1.0
 40
1.0
 40
1.0
 10
12.4928037235
 20
56.679067906
 30
0.0
 10
12.4973292233
 20
56.6745397099
 30
0.0
 10
12.5157963813
 20
56.6571968765
 30
0.0
 10
12.5365338112
 20
56.642264744
 30
0.0
 10
12.5529243579
 20
56.6328014699
 30
0.0
  0
SPLINE
  5
2ED
100
AcDbEntity
  8
0
100
AcDbSpline
 62
7
  6
CONTINUOUS
 70
0
 71
3
 72
11
 73
7
 74
0
 42
0.0000001
 43
0.0000001
 44
0.0000000001
 40
0.0
 40
0.0
 40
0.0
 40
0.0
 40
0.2176995363
 40
0.4511241346
 40
0.7108124173
 40
1.0
 40
1.0
 40
1.0
 40
1.0
 10
13.1686817662
 20
58.2793041926
 30
0.0
 10
13.1390658473
 20
58.2970925445
 30
0.0
 10
13.0837668112
 20
58.3449609313
 30
0.0
 10
13.0250165586
 20
58.4430025737
 30
0.0
 10
12.9901795384
 20
58.5632684245
 30
0.0
 10
12.9832463386
 20
58.6506510958
 30
0.0
 10
12.9832463386
 20
58.6965432521
 30
0.0
  0
SPLINE
  5
2EE
100
AcDbEntity
  8
0
100
AcDbSpline
 62
7
  6
CONTINUOUS
 70
0
 71
3
 72
11
 73
7
 74
0
 42
0.0000001
 43
0.0000001
 44
0.0000000001
 40
0.0
 40
0.0
 40
0.0
 40
0.0
 40
0.2421064114
 40
0.5000473969
 40
0.7579822325
 40
1.0
 40
1.0
 40
1.0
 40
1.0
 10
37.2421601517
 20
47.0910929875
 30
0.0
 10
37.3925284783
 20
47.1529278751
 30
0.0
 10
37.7187370661
 20
47.2438542664
 30
0.0
 10
38.2283071897
 20
47.2881722069
 30
0.0
 10
38.7378104833
 20
47.243798273
 30
0.0
 10
39.0639540174
 20
47.152888416
 30
0.0
 10
39.2142681967
 20
47.0910783763
 30
0.0
  0
SPLINE
  5
2EF
100
AcDbEntity
  8
0
100
AcDbSpline
 62
7
  6
CONTINUOUS
 70
0
 71
3
 72
9
 73
5
 74
0
 42
0.0000001
 43
0.0000001
 44
0.0000000001
 40
0.0
 40
0.0
 40
0.0
 40
0.0
 40
0.4879041425
 40
1.0
 40
1.0
 40
1.0
 40
1.0
 10
36.5875023251
 20
44.7730533127
 30
0.0
 10
36.7757548366
 20
44.7052576645
 30
0.0
 10
37.1723976538
 20
44.5953660087
 30
0.0
 10
37.5794996484
 20
44.5371990028
 30
0.0
 10
37.7887957399
 20
44.5199085452
 30
0.0
  0
SPLINE
  5
2F0
100
AcDbEntity
  8
0
100
AcDbSpline
 62
7
  6
CONTINUOUS
 70
0
 71
3
 72
12
 73
8
 74
0
 42
0.0000001
 43
0.0000001
 44
0.0000000001
 40
0.0
 40
0.0
 40
0.0
 40
0.0
 40
0.1081605139
 40
0.2183669701
 40
0.4513454431
 40
0.7104428158
 40
1.0
 40
1.0
 40
1.0
 40
1.0
 10
20.3810522007
 20
51.9175588928
 30
0.0
 10
20.3474420351
 20
51.9369632937
 30
0.0
 10
20.2828076924
 20
51.9820500147
 30
0.0
 10
20.1669188618
 20
52.0960981916
 30
0.0
 10
20.0520736813
 20
52.2832457834
 30
0.0
 10
19.9722268336
 20
52.5545463047
 30
0.0
 10
19.9564644087
 20
52.7521104051
 30
0.0
 10
19.9564644087
 20
52.8560074455
 30
0.0
  0
SPLINE
  5
2F1
100
AcDbEntity
  8
0
100
AcDbSpline
 62
7
  6
CONTINUOUS
 70
0
 71
3
 72
16
 73
12
 74
0
 42
0.0000001
 43
0.0000001
 44
0.0000000001
 40
0.0
 40
0.0
 40
0.0
 40
0.0
 40
0.121067421
 40
0.2532992191
 40
0.3919730584
 40
0.5315406165
 40
0.6663281405
 40
0.7912851924
 40
0.8489493768
 40
0.9029903859
 40
1.0
 40
1.0
 40
1.0
 40
1.0
 10
42.4708336415
 20
46.7815491873
 30
0.0
 10
42.5762466392
 20
46.8424090466
 30
0.0
 10
42.8113322215
 20
46.9451221835
 30
0.0
 10
43.1953800797
 20
47.0398127544
 30
0.0
 10
43.6077503405
 20
47.0782084675
 30
0.0
 10
44.0239285419
 20
47.057987912
 30
0.0
 10
44.4193049558
 20
46.9803549715
 30
0.0
 10
44.7202387491
 20
46.8686372086
 30
0.0
 10
44.9286804434
 20
46.7528244973
 30
0.0
 10
45.0996524622
 20
46.6309436046
 30
0.0
 10
45.2069406679
 20
46.5193406126
 30
0.0
 10
45.2608009408
 20
46.4380282276
 30
0.0
  0
SPLINE
  5
2F2
100
AcDbEntity
  8
0
100
AcDbSpline
 62
7
  6
CONTINUOUS
 70
0
 71
3
 72
9
 73
5
 74
0
 42
0.0000001
 43
0.0000001
 44
0.0000000001
 40
0.0
 40
0.0
 40
0.0
 40
0.0
 40
0.255536045
 40
1.0
 40
1.0
 40
1.0
 40
1.0
 10
45.2608009408
 20
46.4380282276
 30
0.0
 10
45.2666313669
 20
46.4292260841
 30
0.0
 10
45.28876281
 20
46.3943343381
 30
0.0
 10
45.3080570513
 20
46.3576202555
 30
0.0
 10
45.3204548713
 20
46.3294703659
 30
0.0
  0
SPLINE
  5
2F3
100
AcDbEntity
  8
0
100
AcDbSpline
 62
7
  6
CONTINUOUS
 70
0
 71
3
 72
12
 73
8
 74
0
 42
0.0000001
 43
0.0000001
 44
0.0000000001
 40
0.0
 40
0.0
 40
0.0
 40
0.0
 40
0.2894846808
 40
0.5486773519
 40
0.7816302694
 40
0.8918330336
 40
1.0
 40
1.0
 40
1.0
 40
1.0
 10
42.4708336415
 20
47.2714506376
 30
0.0
 10
42.3962402632
 20
47.2283843876
 30
0.0
 10
42.2609095937
 20
47.1351250475
 30
0.0
 10
42.0991608071
 20
46.9653324208
 30
0.0
 10
42.0123465252
 20
46.8052453014
 30
0.0
 10
41.9785612331
 20
46.6747298598
 30
0.0
 10
41.9729284059
 20
46.6096252063
 30
0.0
 10
41.9729259696
 20
46.5774413516
 30
0.0
  0
SPLINE
  5
2F4
100
AcDbEntity
  8
0
100
AcDbSpline
 62
7
  6
CONTINUOUS
 70
0
 71
3
 72
21
 73
17
 74
0
 42
0.0000001
 43
0.0000001
 44
0.0000000001
 40
0.0
 40
0.0
 40
0.0
 40
0.0
 40
0.0623823125
 40
0.1287904416
 40
0.1984100692
 40
0.270413337
 40
0.417453426
 40
0.5616840409
 40
0.6303103353
 40
0.6954274284
 40
0.7564007079
 40
0.8128614124
 40
0.8647861294
 40
0.9125803679
 40
0.9571743889
 40
1.0
 40
1.0
 40
1.0
 40
1.0
 10
45.2639170558
 20
45.6588996572
 30
0.0
 10
45.1831156581
 20
45.612249227
 30
0.0
 10
45.0098422132
 20
45.526871069
 30
0.0
 10
44.7304084161
 20
45.4255419499
 30
0.0
 10
44.4283515465
 20
45.3488773807
 30
0.0
 10
44.0014507872
 20
45.2812572275
 30
0.0
 10
43.4556193178
 20
45.2662295294
 30
0.0
 10
42.919584723
 20
45.3414020117
 30
0.0
 10
42.5195212075
 20
45.4566819593
 30
0.0
 10
42.2488484898
 20
45.5657075036
 30
0.0
 10
42.00840054
 20
45.696499627
 30
0.0
 10
41.8031870733
 20
45.8464627216
 30
0.0
 10
41.6375448458
 20
46.0127534853
 30
0.0
 10
41.5153903962
 20
46.1925073148
 30
0.0
 10
41.4400445781
 20
46.3820815274
 30
0.0
 10
41.4229448107
 20
46.513389795
 30
0.0
 10
41.4229335381
 20
46.5774413512
 30
0.0
  0
SPLINE
  5
2F5
100
AcDbEntity
  8
0
100
AcDbSpline
 62
7
  6
CONTINUOUS
 70
0
 71
3
 72
21
 73
17
 74
0
 42
0.0000001
 43
0.0000001
 44
0.0000000001
 40
0.0
 40
0.0
 40
0.0
 40
0.0
 40
0.0428235056
 40
0.0874163982
 40
0.1352097472
 40
0.1871336978
 40
0.2435938563
 40
0.3045655839
 40
0.3696811689
 40
0.4383058358
 40
0.5825358635
 40
0.7295805389
 40
0.8015860659
 40
0.871208365
 40
0.9376180006
 40
1.0
 40
1.0
 40
1.0
 40
1.0
 10
41.4229331422
 20
46.0875399034
 30
0.0
 10
41.4229439928
 20
46.0234914919
 30
0.0
 10
41.440038536
 20
45.8921874564
 30
0.0
 10
41.5153834526
 20
45.7026190744
 30
0.0
 10
41.6375331412
 20
45.5228677957
 30
0.0
 10
41.8031678825
 20
45.3565737941
 30
0.0
 10
42.0083792627
 20
45.2066149998
 30
0.0
 10
42.2488183535
 20
45.075818395
 30
0.0
 10
42.5194841387
 20
44.9667936312
 30
0.0
 10
42.9195412464
 20
44.8515120647
 30
0.0
 10
43.4555782426
 20
44.7763314528
 30
0.0
 10
44.0014195552
 20
44.7913534711
 30
0.0
 10
44.4283349101
 20
44.8589727597
 30
0.0
 10
44.7304015936
 20
44.9356382006
 30
0.0
 10
45.0098407858
 20
45.0369695053
 30
0.0
 10
45.1831160583
 20
45.1223480077
 30
0.0
 10
45.2639170558
 20
45.1689982069
 30
0.0
  0
SPLINE
  5
2F6
100
AcDbEntity
  8
0
100
AcDbSpline
 62
7
  6
CONTINUOUS
 70
0
 71
3
 72
9
 73
5
 74
0
 42
0.0000001
 43
0.0000001
 44
0.0000000001
 40
0.0
 40
0.0
 40
0.0
 40
0.0
 40
0.245116461
 40
1.0
 40
1.0
 40
1.0
 40
1.0
 10
42.027448152
 20
46.334116613
 30
0.0
 10
42.0314269272
 20
46.342971398
 30
0.0
 10
42.0484382134
 20
46.3787433878
 30
0.0
 10
42.068479075
 20
46.4130554979
 30
0.0
 10
42.0849837041
 20
46.4379833409
 30
0.0
  0
SPLINE
  5
2F7
100
AcDbEntity
  8
0
100
AcDbSpline
 62
7
  6
CONTINUOUS
 70
0
 71
3
 72
10
 73
6
 74
0
 42
0.0000001
 43
0.0000001
 44
0.0000000001
 40
0.0
 40
0.0
 40
0.0
 40
0.0
 40
0.2282201337
 40
0.5973956995
 40
1.0
 40
1.0
 40
1.0
 40
1.0
 10
42.0849837041
 20
46.4379833409
 30
0.0
 10
42.1068497807
 20
46.4710088713
 30
0.0
 10
42.1705735604
 20
46.5532682227
 30
0.0
 10
42.2984891491
 20
46.6719228309
 30
0.0
 10
42.4103217062
 20
46.7466128137
 30
0.0
 10
42.4708336415
 20
46.7815491873
 30
0.0
  0
SPLINE
  5
2F8
100
AcDbEntity
  8
0
100
AcDbSpline
 62
7
  6
CONTINUOUS
 70
0
 71
3
 72
11
 73
7
 74
0
 42
0.0000001
 43
0.0000001
 44
0.0000000001
 40
0.0
 40
0.0
 40
0.0
 40
0.0
 40
0.2288969
 40
0.4748518742
 40
0.7335438712
 40
1.0
 40
1.0
 40
1.0
 40
1.0
 10
31.2490067193
 20
46.3364025958
 30
0.0
 10
31.2490067193
 20
46.441011459
 30
0.0
 10
31.2665091585
 20
46.6582058513
 30
0.0
 10
31.3369232147
 20
46.9867578641
 30
0.0
 10
31.4503936755
 20
47.3211450811
 30
0.0
 10
31.551546319
 20
47.5393550985
 30
0.0
 10
31.6083829292
 20
47.6470513717
 30
0.0
  0
SPLINE
  5
2F9
100
AcDbEntity
  8
0
100
AcDbSpline
 62
7
  6
CONTINUOUS
 70
0
 71
3
 72
11
 73
7
 74
0
 42
0.0000001
 43
0.0000001
 44
0.0000000001
 40
0.0
 40
0.0
 40
0.0
 40
0.0
 40
0.2653126365
 40
0.5251462654
 40
0.7720968679
 40
1.0
 40
1.0
 40
1.0
 40
1.0
 10
31.6083829292
 20
47.6470513717
 30
0.0
 10
31.6760880337
 20
47.775341701
 30
0.0
 10
31.8257756749
 20
48.0213423654
 30
0.0
 10
32.0885316114
 20
48.3531627548
 30
0.0
 10
32.3780099556
 20
48.6333771758
 30
0.0
 10
32.5906572311
 20
48.7848302113
 30
0.0
 10
32.6985695856
 20
48.8471330664
 30
0.0
  0
SPLINE
  5
2FA
100
AcDbEntity
  8
0
100
AcDbSpline
 62
7
  6
CONTINUOUS
 70
0
 71
3
 72
12
 73
8
 74
0
 42
0.0000001
 43
0.0000001
 44
0.0000000001
 40
0.0
 40
0.0
 40
0.0
 40
0.0
 40
0.2895557227
 40
0.5486525747
 40
0.7816316463
 40
0.8918387372
 40
1.0
 40
1.0
 40
1.0
 40
1.0
 10
32.6985695856
 20
48.8471330664
 30
0.0
 10
32.7885431739
 20
48.8990790317
 30
0.0
 10
32.9675123377
 20
48.9842063421
 30
0.0
 10
33.2423774851
 20
49.0507043631
 30
0.0
 10
33.4618660583
 20
49.0448204914
 30
0.0
 10
33.6185740202
 20
49.0014852447
 30
0.0
 10
33.6899355946
 20
48.9680559452
 30
0.0
 10
33.72354466
 20
48.9486521794
 30
0.0
  0
SPLINE
  5
2FB
100
AcDbEntity
  8
0
100
AcDbSpline
 62
7
  6
CONTINUOUS
 70
0
 71
3
 72
10
 73
6
 74
0
 42
0.0000001
 43
0.0000001
 44
0.0000000001
 40
0.0
 40
0.0
 40
0.0
 40
0.0
 40
0.4573281307
 40
0.7194950348
 40
1.0
 40
1.0
 40
1.0
 40
1.0
 10
32.8908950637
 20
48.8609570843
 30
0.0
 10
32.8168041886
 20
48.8477873058
 30
0.0
 10
32.7049369982
 20
48.7998697677
 30
0.0
 10
32.5702024628
 20
48.705452869
 30
0.0
 10
32.5037610345
 20
48.6452934884
 30
0.0
 10
32.4712929232
 20
48.6124874395
 30
0.0
  0
SPLINE
  5
2FC
100
AcDbEntity
  8
0
100
AcDbSpline
 62
7
  6
CONTINUOUS
 70
0
 71
3
 72
17
 73
13
 74
0
 42
0.0000001
 43
0.0000001
 44
0.0000000001
 40
0.0
 40
0.0
 40
0.0
 40
0.0
 40
0.0428567682
 40
0.0874846361
 40
0.1353115866
 40
0.1872772446
 40
0.3045367808
 40
0.4381985211
 40
0.5825369695
 40
0.729684371
 40
0.8713138527
 40
1.0
 40
1.0
 40
1.0
 40
1.0
 10
14.0694253715
 20
59.8288160348
 30
0.0
 10
14.0478554301
 20
59.841269693
 30
0.0
 10
14.0003229715
 20
59.8610779901
 30
0.0
 10
13.9218266578
 20
59.8725263441
 30
0.0
 10
13.8375363533
 20
59.8663743461
 30
0.0
 10
13.715073337
 20
59.8337422411
 30
0.0
 10
13.5585016146
 20
59.7481705039
 30
0.0
 10
13.3855205099
 20
59.5949752183
 30
0.0
 10
13.2326274467
 20
59.3992673103
 30
0.0
 10
13.1122529616
 20
59.1768407571
 30
0.0
 10
13.0341751563
 20
58.9459201182
 30
0.0
 10
13.0132349087
 20
58.7886452207
 30
0.0
 10
13.0132349087
 20
58.7138570577
 30
0.0
  0
SPLINE
  5
2FD
100
AcDbEntity
  8
0
100
AcDbSpline
 62
7
  6
CONTINUOUS
 70
0
 71
3
 72
9
 73
5
 74
0
 42
0.0000001
 43
0.0000001
 44
0.0000000001
 40
0.0
 40
0.0
 40
0.0
 40
0.0
 40
0.2534678469
 40
1.0
 40
1.0
 40
1.0
 40
1.0
 10
33.8256876674
 20
48.741139744
 30
0.0
 10
33.8144068086
 20
48.7531152126
 30
0.0
 10
33.7682873571
 20
48.7988108396
 30
0.0
 10
33.7155121897
 20
48.8378259802
 30
0.0
 10
33.6735429377
 20
48.8620446194
 30
0.0
  0
SPLINE
  5
2FE
100
AcDbEntity
  8
0
100
AcDbSpline
 62
7
  6
CONTINUOUS
 70
0
 71
3
 72
11
 73
7
 74
0
 42
0.0000001
 43
0.0000001
 44
0.0000000001
 40
0.0
 40
0.0
 40
0.0
 40
0.0
 40
0.2727732098
 40
0.5269588563
 40
0.7672484738
 40
1.0
 40
1.0
 40
1.0
 40
1.0
 10
22.7362964835
 20
54.8798609571
 30
0.0
 10
22.721186454
 20
54.9351178987
 30
0.0
 10
22.684188987
 20
55.0400110443
 30
0.0
 10
22.6045642248
 20
55.1811555988
 30
0.0
 10
22.5039598069
 20
55.2974972125
 30
0.0
 10
22.4233378425
 20
55.3572184942
 30
0.0
 10
22.3810006271
 20
55.381649469
 30
0.0
  0
SPLINE
  5
2FF
100
AcDbEntity
  8
0
100
AcDbSpline
 62
7
  6
CONTINUOUS
 70
0
 71
3
 72
17
 73
13
 74
0
 42
0.0000001
 43
0.0000001
 44
0.0000000001
 40
0.0
 40
0.0
 40
0.0
 40
0.0
 40
0.0428567682
 40
0.0874846361
 40
0.1353115866
 40
0.1872772446
 40
0.3045367808
 40
0.4381985211
 40
0.5825369695
 40
0.729684371
 40
0.8713138527
 40
1.0
 40
1.0
 40
1.0
 40
1.0
 10
13.4028750196
 20
58.104992421
 30
0.0
 10
13.3819213622
 20
58.1170902604
 30
0.0
 10
13.3357469738
 20
58.1363326061
 30
0.0
 10
13.2594934119
 20
58.1474538643
 30
0.0
 10
13.1776114019
 20
58.1414776376
 30
0.0
 10
13.0586473289
 20
58.1097778785
 30
0.0
 10
12.9065490843
 20
58.0266510481
 30
0.0
 10
12.7385102969
 20
57.8778327707
 30
0.0
 10
12.589985607
 20
57.6877165172
 30
0.0
 10
12.4730503928
 20
57.4716450083
 30
0.0
 10
12.3972033819
 20
57.247322102
 30
0.0
 10
12.3768614271
 20
57.094540773
 30
0.0
 10
12.3768614271
 20
57.0218894146
 30
0.0
  0
SPLINE
  5
300
100
AcDbEntity
  8
0
100
AcDbSpline
 62
7
  6
CONTINUOUS
 70
0
 71
3
 72
10
 73
6
 74
0
 42
0.0000001
 43
0.0000001
 44
0.0000000001
 40
0.0
 40
0.0
 40
0.0
 40
0.0
 40
0.4573281307
 40
0.7194950348
 40
1.0
 40
1.0
 40
1.0
 40
1.0
 10
21.5983527531
 20
55.380561934
 30
0.0
 10
21.524261878
 20
55.3673921555
 30
0.0
 10
21.4123946876
 20
55.3194746174
 30
0.0
 10
21.2776601522
 20
55.2250577187
 30
0.0
 10
21.2112187239
 20
55.1648983381
 30
0.0
 10
21.1787506126
 20
55.1320922892
 30
0.0
  0
SPLINE
  5
301
100
AcDbEntity
  8
0
100
AcDbSpline
 62
7
  6
CONTINUOUS
 70
0
 71
3
 72
12
 73
8
 74
0
 42
0.0000001
 43
0.0000001
 44
0.0000000001
 40
0.0
 40
0.0
 40
0.0
 40
0.0
 40
0.2895557227
 40
0.5486525747
 40
0.7816316463
 40
0.8918387372
 40
1.0
 40
1.0
 40
1.0
 40
1.0
 10
21.406027275
 20
55.3667379161
 30
0.0
 10
21.4960008633
 20
55.4186838814
 30
0.0
 10
21.6749700271
 20
55.5038111917
 30
0.0
 10
21.9498351745
 20
55.5703092128
 30
0.0
 10
22.1693237477
 20
55.5644253411
 30
0.0
 10
22.3260317096
 20
55.5210900944
 30
0.0
 10
22.397393284
 20
55.4876607949
 30
0.0
 10
22.4310023494
 20
55.4682570291
 30
0.0
  0
SPLINE
  5
302
100
AcDbEntity
  8
0
100
AcDbSpline
 62
7
  6
CONTINUOUS
 70
0
 71
3
 72
19
 73
15
 74
0
 42
0.0000001
 43
0.0000001
 44
0.0000000001
 40
0.0
 40
0.0
 40
0.0
 40
0.0
 40
0.0428385813
 40
0.0874433473
 40
0.1352550426
 40
0.1871926702
 40
0.2436711226
 40
0.3046633752
 40
0.4382672724
 40
0.5825427179
 40
0.7296393023
 40
0.8711669517
 40
0.9376091523
 40
1.0
 40
1.0
 40
1.0
 40
1.0
 10
39.9281753831
 20
47.8429571173
 30
0.0
 10
39.9281790464
 20
47.8913502365
 30
0.0
 10
39.9152068809
 20
47.9905473883
 30
0.0
 10
39.8583468139
 20
48.1337996951
 30
0.0
 10
39.7660054052
 20
48.2695794901
 30
0.0
 10
39.6408884621
 20
48.3952389757
 30
0.0
 10
39.4858408025
 20
48.508557
 30
0.0
 10
39.2360558501
 20
48.644329831
 30
0.0
 10
38.8700804092
 20
48.7665867112
 30
0.0
 10
38.3924408161
 20
48.8336499274
 30
0.0
 10
37.9014137347
 20
48.8201075653
 30
0.0
 10
37.5056181948
 20
48.7409709129
 30
0.0
 10
37.2180608702
 20
48.6367085356
 30
0.0
 10
37.0871327032
 20
48.5722065252
 30
0.0
 10
37.0260946458
 20
48.5369663967
 30
0.0
  0
SPLINE
  5
303
100
AcDbEntity
  8
0
100
AcDbSpline
 62
7
  6
CONTINUOUS
 70
0
 71
3
 72
15
 73
11
 74
0
 42
0.0000001
 43
0.0000001
 44
0.0000000001
 40
0.0
 40
0.0
 40
0.0
 40
0.0
 40
0.1141475829
 40
0.2373370756
 40
0.3669780685
 40
0.5000016033
 40
0.6330249151
 40
0.7626652568
 40
0.8858537231
 40
1.0
 40
1.0
 40
1.0
 40
1.0
 10
19.9564644087
 20
52.8560074455
 30
0.0
 10
19.9564644087
 20
52.9705861193
 30
0.0
 10
19.9774660678
 20
53.2090401299
 30
0.0
 10
20.0611133354
 20
53.5687688266
 30
0.0
 10
20.1951748556
 20
53.9331373783
 30
0.0
 10
20.3745398393
 20
54.2884541488
 30
0.0
 10
20.592568708
 20
54.6214476918
 30
0.0
 10
20.841087921
 20
54.919732226
 30
0.0
 10
21.1107956684
 20
55.1720358826
 30
0.0
 10
21.30680022
 20
55.3094494911
 30
0.0
 10
21.406027275
 20
55.3667379161
 30
0.0
  0
ENDSEC
  0
SECTION
  2
OBJECTS
  0
DICTIONARY
  5
C
100
AcDbDictionary
280
0
281
1
  3
ACAD_GROUP
350
D
  3
ACAD_MLINESTYLE
350
17
  3
ACAD_LAYOUT
350
1A
  3
ACAD_PLOTSETTINGS
350
19
  3
ACAD_PLOTSTYLENAME
350
E
  0
DICTIONARY
  5
D
102
{ACAD_REACTORS
330
C
102
}
100
AcDbDictionary
280
0
281
1
  0
ACDBDICTIONARYWDFLT
  5
E
102
{ACAD_REACTORS
330
C
102
}
100
AcDbDictionary
281
1
  3
Normal
350
F
100
AcDbDictionaryWithDefault
340
F
  0
DICTIONARY
  5
17
102
{ACAD_REACTORS
330
C
102
}
100
AcDbDictionary
280
0
281
1
  3
Standard
350
18
  0
DICTIONARY
  5
19
102
{ACAD_REACTORS
330
C
102
}
100
AcDbDictionary
281
1
  0
DICTIONARY
  5
1A
102
{ACAD_REACTORS
330
C
102
}
100
AcDbDictionary
281
1
  3
Model
350
304
  3
Layout1
350
305
  0
ACDBPLACEHOLDER
  5
F
102
{ACAD_REACTORS
330
E
102
}
  0
MLINESTYLE
  5
18
102
{ACAD_REACTORS
330
17
102
}
100
AcDbMlineStyle
  2
STANDARD
 70
0
  3

 62
256
 51
90.0
 52
90.0
 71
2
 49
0.5
 62
256
  6
BYLAYER
 49
-0.5
 62
256
  6
BYLAYER
  0
LAYOUT
  5
304
102
{ACAD_REACTORS
330
1A
102
}
100
AcDbPlotSettings
  1

  2
none_device
  4

  6

 40
0.0
 41
0.0
 42
0.0
 43
0.0
 44
210.0
 45
297.0
 46
0.0
 47
0.0
 48
0.0
 49
0.0
140
0.0
141
0.0
142
1.0
143
1.0
 70
1024
 72
1
 73
0
 74
0
  7

 75
0
147
1.0
148
0.0
149
0.0
100
AcDbLayout
  1
Model
 70
0
 71
0
 10
0.0
 20
0.0
 11
210.0
 21
297.0
 12
0.0
 22
0.0
 32
0.0
 14
0.0
 24
0.0
 34
0.0
 15
0.0
 25
0.0
 35
0.0
146
0.0
 13
0.0
 23
0.0
 33
0.0
 16
1.0
 26
0.0
 36
0.0
 17
0.0
 27
1.0
 37
0.0
 76
0
330
210
345
0
346
0
  0
LAYOUT
  5
305
102
{ACAD_REACTORS
330
1A
102
}
100
AcDbPlotSettings
  1

  2
none_device
  4

  6

 40
0.0
 41
0.0
 42
0.0
 43
0.0
 44
210.0
 45
297.0
 46
0.0
 47
0.0
 48
0.0
 49
0.0
140
0.0
141
0.0
142
1.0
143
1.0
 70
0
 72
1
 73
0
 74
0
  7

 75
0
147
1.0
148
0.0
149
0.0
100
AcDbLayout
  1
Layout1
 70
0
 71
1
 10
0.0
 20
0.0
 11
210.0
 21
297.0
 12
0.0
 22
0.0
 32
0.0
 14
0.0
 24
0.0
 34
0.0
 15
0.0
 25
0.0
 35
0.0
146
0.0
 13
0.0
 23
0.0
 33
0.0
 16
1.0
 26
0.0
 36
0.0
 17
0.0
 27
1.0
 37
0.0
 76
0
330
211
345
0
346
0
  0
ENDSEC
  0
EOF
