999
DXF file: C:\Users\SESA621925\Desktop\Projects\Drawing_creation_tool\Gen2D (3) (1)\CAD\G40-80SHT110AC_3D-CAD\drw0001_1.dxf
999
Pro/ENGINEER 2019471 by Parametric Technology Corporation
  0
SECTION
  2
HEADER
  9
$ACADVER
  1
AC1024
  9
$DWGCODEPAGE
  3
ANSI_1252
  9
$EXTMAX
 10
42.2671431207
 20
59.7778166992
 30
0.0
  9
$EXTMIN
 10
0.0
 20
0.0
 30
0.0
  9
$LIMMIN
 10
0.0
 20
0.0
  9
$LIMMAX
 10
42.2671431207
 20
59.7778166992
  9
$VIEWCTR
 10
21.1335715603
 20
29.8889083496
  9
$VIEWSIZE
 40
59.7778166992
  9
$CLAYER
  8
0
  9
$LTSCALE
 40
3.8966280515
  9
$CELTYPE
  6
BYLAYER
  9
$DIMSCALE
 40
1.0
  9
$DIMASZ
 40
0.5031802752
  9
$DIMEXO
 40
1.0
  9
$DIMDLI
 40
2.6922157447
  9
$DIMEXE
 40
1.0
  9
$DIMCEN
 40
0.6376300448
  9
$DIMLFAC
 40
1.0
  9
$DIMBLK
  1
_FILLED
  9
$DIMALT
 70
0
  9
$DIMALTF
 40
0.0393700787
  9
$DIMTXT
 40
0.7044523853
  9
$DIMTOL
 70
1
  9
$DIMLIM
 70
0
  9
$DIMTFAC
 40
1.0
  9
$DIMTP
 40
0.01
  9
$DIMTM
 40
0.01
  9
$DIMGAP
 40
0.625
  9
$DIMDSEP
 70
46
  9
$AUNITS
 70
0
  9
$PDMODE
 70
3
  9
$PDSIZE
 40
0.3125
  9
$HANDSEED
  5
356
  9
$TILEMODE
 70
1
  9
$MEASUREMENT
 70
1
  9
$INSUNITS
 70
4
  0
ENDSEC
  0
SECTION
  2
CLASSES
  0
CLASS
  1
ACDBDICTIONARYWDFLT
  2
AcDbDictionaryWithDefault
  3
AutoCAD 2000
 90
0
 91
1
280
0
281
0
  0
CLASS
  1
ACDBPLACEHOLDER
  2
AcDbPlaceHolder
  3
AutoCAD 2000
 90
0
 91
1
280
0
281
0
  0
CLASS
  1
LAYOUT
  2
AcDbLayout
  3
AutoCAD 2000
 90
0
 91
0
280
0
281
0
  0
ENDSEC
  0
SECTION
  2
TABLES
  0
TABLE
  2
VPORT
  5
8
100
AcDbSymbolTable
 70
2
  0
VPORT
  5
1F4
100
AcDbSymbolTableRecord
100
AcDbViewportTableRecord
  2
*ACTIVE
 70
0
 10
0.0
 20
0.0
 11
1.0
 21
1.0
 12
21.1335715603
 22
29.8889083496
 13
0.0
 23
0.0
 14
1.0
 24
1.0
 15
0.0
 25
0.0
 16
0.0
 26
0.0
 36
1.0
 17
0.0
 27
0.0
 37
0.0
 40
59.7778166992
 41
0.7070707071
 42
50.0
 43
0.0
 44
0.0
 50
0.0
 51
0.0
 71
0
 72
100
 73
1
 74
1
 75
0
 76
0
 77
0
 78
0
  0
ENDTAB
  0
TABLE
  2
LTYPE
  5
5
100
AcDbSymbolTable
 70
6
  0
LTYPE
  5
14
100
AcDbSymbolTableRecord
100
AcDbLinetypeTableRecord
  2
BYBLOCK
 70
0
  3

 72
65
 73
0
 40
0.0
  0
LTYPE
  5
15
100
AcDbSymbolTableRecord
100
AcDbLinetypeTableRecord
  2
BYLAYER
 70
0
  3

 72
65
 73
0
 40
0.0
  0
LTYPE
  5
16
100
AcDbSymbolTableRecord
100
AcDbLinetypeTableRecord
  2
CONTINUOUS
 70
64
  3
Solid line
 72
65
 73
0
 40
0.0
  0
LTYPE
  5
1F5
100
AcDbSymbolTableRecord
100
AcDbLinetypeTableRecord
  2
CENTER
 70
64
  3
____ _ ____ _ ____ _ ____ _ ____ _ ____ _ ____
 72
65
 73
4
 40
0.6
 49
0.375
 74
0
 49
-0.075
 74
0
 49
0.075
 74
0
 49
-0.075
 74
0
  0
LTYPE
  5
1F6
100
AcDbSymbolTableRecord
100
AcDbLinetypeTableRecord
  2
HIDDEN
 70
64
  3
- - - - - - - - - - - - - - - - - - - -
 72
65
 73
2
 40
0.2
 49
0.1
 74
0
 49
-0.1
 74
0
  0
LTYPE
  5
1F7
100
AcDbSymbolTableRecord
100
AcDbLinetypeTableRecord
  2
PHANTOM
 70
64
  3
_____ _ _ _____ _ _ _____ _ _ _____
 72
65
 73
6
 40
0.8
 49
0.45
 74
0
 49
-0.05
 74
0
 49
0.1
 74
0
 49
-0.05
 74
0
 49
0.1
 74
0
 49
-0.05
 74
0
  0
LTYPE
  5
1F8
100
AcDbSymbolTableRecord
100
AcDbLinetypeTableRecord
  2
DOT
 70
64
  3
. . . . . . . . . . . . . . . . . . . .
 72
65
 73
2
 40
0.2
 49
0.1
 74
0
 49
-0.1
 74
0
  0
LTYPE
  5
1F9
100
AcDbSymbolTableRecord
100
AcDbLinetypeTableRecord
  2
DASHED
 70
64
  3
- - - - - - - - - - - - - - - - - - - -
 72
65
 73
2
 40
0.2
 49
0.1
 74
0
 49
-0.1
 74
0
  0
ENDTAB
  0
TABLE
  2
LAYER
  5
2
100
AcDbSymbolTable
 70
36
  0
LAYER
  5
10
100
AcDbSymbolTableRecord
100
AcDbLayerTableRecord
  2
0
 70
0
 62
7
  6
CONTINUOUS
370
-3
390
F
  0
LAYER
  5
1FA
100
AcDbSymbolTableRecord
100
AcDbLayerTableRecord
  2
DEFAULT_1
 70
0
 62
7
  6
CENTER
370
-3
390
F
  0
LAYER
  5
1FB
100
AcDbSymbolTableRecord
100
AcDbLayerTableRecord
  2
DEFAULT_2
 70
0
 62
8
  6
HIDDEN
370
-3
390
F
  0
LAYER
  5
1FC
100
AcDbSymbolTableRecord
100
AcDbLayerTableRecord
  2
DEFAULT_3
 70
0
 62
7
  6
PHANTOM
370
-3
390
F
  0
LAYER
  5
1FD
100
AcDbSymbolTableRecord
100
AcDbLayerTableRecord
  2
00_COMPONENTS
 70
0
 62
7
  6
CONTINUOUS
370
-3
390
F
  0
LAYER
  5
1FE
100
AcDbSymbolTableRecord
100
AcDbLayerTableRecord
  2
01_1_DEFAULT_DATUMS
 70
0
 62
7
  6
CONTINUOUS
370
-3
390
F
  0
LAYER
  5
1FF
100
AcDbSymbolTableRecord
100
AcDbLayerTableRecord
  2
01_PLANES
 70
0
 62
7
  6
CONTINUOUS
370
-3
390
F
  0
LAYER
  5
200
100
AcDbSymbolTableRecord
100
AcDbLayerTableRecord
  2
02_COORD_SYS
 70
0
 62
7
  6
CONTINUOUS
370
-3
390
F
  0
LAYER
  5
201
100
AcDbSymbolTableRecord
100
AcDbLayerTableRecord
  2
03_AXES
 70
0
 62
7
  6
CONTINUOUS
370
-3
390
F
  0
LAYER
  5
202
100
AcDbSymbolTableRecord
100
AcDbLayerTableRecord
  2
04_POINTS
 70
0
 62
7
  6
CONTINUOUS
370
-3
390
F
  0
LAYER
  5
203
100
AcDbSymbolTableRecord
100
AcDbLayerTableRecord
  2
05_CURVES
 70
0
 62
7
  6
CONTINUOUS
370
-3
390
F
  0
LAYER
  5
204
100
AcDbSymbolTableRecord
100
AcDbLayerTableRecord
  2
06_SURFS
 70
0
 62
7
  6
CONTINUOUS
370
-3
390
F
  0
LAYER
  5
205
100
AcDbSymbolTableRecord
100
AcDbLayerTableRecord
  2
07_COSMETICS
 70
0
 62
7
  6
CONTINUOUS
370
-3
390
F
  0
LAYER
  5
206
100
AcDbSymbolTableRecord
100
AcDbLayerTableRecord
  2
10_NOTES
 70
0
 62
7
  6
CONTINUOUS
370
-3
390
F
  0
LAYER
  5
207
100
AcDbSymbolTableRecord
100
AcDbLayerTableRecord
  2
11_NOTES_PUB
 70
0
 62
7
  6
CONTINUOUS
370
-3
390
F
  0
LAYER
  5
208
100
AcDbSymbolTableRecord
100
AcDbLayerTableRecord
  2
13_REF_GTOL
 70
0
 62
7
  6
CONTINUOUS
370
-3
390
F
  0
LAYER
  5
209
100
AcDbSymbolTableRecord
100
AcDbLayerTableRecord
  2
16_MISC
 70
0
 62
7
  6
CONTINUOUS
370
-3
390
F
  0
LAYER
  5
20A
100
AcDbSymbolTableRecord
100
AcDbLayerTableRecord
  2
17_NO_PRINT
 70
0
 62
7
  6
CONTINUOUS
370
-3
390
F
  0
LAYER
  5
20B
100
AcDbSymbolTableRecord
100
AcDbLayerTableRecord
  2
18_DATUM_CAMS_JOINTS
 70
0
 62
7
  6
CONTINUOUS
370
-3
390
F
  0
LAYER
  5
20C
100
AcDbSymbolTableRecord
100
AcDbLayerTableRecord
  2
19_DATUM_FUNCTIONAL
 70
0
 62
7
  6
CONTINUOUS
370
-3
390
F
  0
LAYER
  5
20D
100
AcDbSymbolTableRecord
100
AcDbLayerTableRecord
  2
20_DATUM_KINEMATIC_SCHEME
 70
0
 62
7
  6
CONTINUOUS
370
-3
390
F
  0
LAYER
  5
20E
100
AcDbSymbolTableRecord
100
AcDbLayerTableRecord
  2
INTFCLR_75
 70
0
 62
7
  6
CONTINUOUS
370
-3
390
F
  0
LAYER
  5
20F
100
AcDbSymbolTableRecord
100
AcDbLayerTableRecord
  2
black
 70
0
 62
7
  6
CONTINUOUS
370
-3
390
F
  0
ENDTAB
  0
TABLE
  2
STYLE
  5
3
100
AcDbSymbolTable
 70
1
  0
STYLE
  5
11
100
AcDbSymbolTableRecord
100
AcDbTextStyleTableRecord
  2
STANDARD
 70
0
 40
0.0
 41
0.8
 50
0.0
 71
0
 42
0.2
  3
txt
  4

  0
STYLE
  5
210
100
AcDbSymbolTableRecord
100
AcDbTextStyleTableRecord
  2
TEXTSTYLE_1
 70
0
 40
0.0
 41
0.8
 50
0.0
 71
0
 42
0.2
  3
gdt
  4

  0
ENDTAB
  0
TABLE
  2
VIEW
  5
6
100
AcDbSymbolTable
 70
0
  0
ENDTAB
  0
TABLE
  2
UCS
  5
7
100
AcDbSymbolTable
 70
0
  0
ENDTAB
  0
TABLE
  2
APPID
  5
9
100
AcDbSymbolTable
 70
1
  0
APPID
  5
211
100
AcDbSymbolTableRecord
100
AcDbRegAppTableRecord
  2
ACAD
 70
0
  0
ENDTAB
  0
TABLE
  2
BLOCK_RECORD
  5
1
100
AcDbSymbolTable
 70
0
  0
BLOCK_RECORD
  5
212
100
AcDbSymbolTableRecord
100
AcDbBlockTableRecord
  2
*Model_Space
  0
BLOCK_RECORD
  5
213
100
AcDbSymbolTableRecord
100
AcDbBlockTableRecord
  2
*Paper_Space
  0
BLOCK_RECORD
  5
214
100
AcDbSymbolTableRecord
100
AcDbBlockTableRecord
  2
_FILLED
  0
ENDTAB
  0
TABLE
  2
DIMSTYLE
  5
A
100
AcDbSymbolTable
 70
1
100
AcDbDimStyleTable
 71
0
  0
DIMSTYLE
105
215
100
AcDbSymbolTableRecord
100
AcDbDimStyleTableRecord
  2
STANDARD
 70
0
  3

  4

 40
1.0
 41
0.5031802752
 42
1.0
 43
0.38
 44
1.0
 45
0.0
 46
0.0
 47
0.01
 48
0.01
140
0.7044523853
141
0.09
142
0.0
143
25.4
144
1.0
145
0.0
146
1.0
147
0.625
 71
1
 72
0
 73
0
 74
0
 75
0
 76
0
 77
1
 78
8
 79
2
170
0
171
1
172
0
173
0
174
0
175
0
176
0
177
0
178
0
270
2
179
2
271
2
272
2
273
2
274
2
275
0
280
0
281
0
282
0
283
1
284
8
285
0
286
0
287
3
288
0
340
11
278
46
341
214
342
214
343
214
344
214
  0
ENDTAB
  0
ENDSEC
  0
SECTION
  2
BLOCKS
  0
BLOCK
  5
20
100
AcDbEntity
  8
0
100
AcDbBlockBegin
  2
*Model_Space
 70
0
 10
0.0
 20
0.0
 30
0.0
  3
*Model_Space
  1

  0
ENDBLK
  5
21
100
AcDbEntity
  8
0
100
AcDbBlockEnd
  0
BLOCK
  5
1C
100
AcDbEntity
  8
0
100
AcDbBlockBegin
  2
*Paper_Space
 70
0
 10
0.0
 20
0.0
 30
0.0
  3
*Paper_Space
  1

  0
ENDBLK
  5
1D
100
AcDbEntity
  8
0
100
AcDbBlockEnd
  0
BLOCK
  5
216
100
AcDbEntity
  8
0
100
AcDbBlockBegin
  2
_FILLED
 70
64
 10
0.0
 20
0.0
  3
_FILLED
  1

  0
SOLID
  5
217
100
AcDbEntity
  8
0
  6
BYBLOCK
 62
0
100
AcDbTrace
 10
0.0
 20
0.0
 11
-1.0
 21
0.25
 12
-1.0
 22
-0.25
 13
-1.0
 23
-0.25
  0
ENDBLK
  5
218
100
AcDbEntity
  8
0
  6
BYBLOCK
 62
0
100
AcDbBlockEnd
  0
ENDSEC
  0
SECTION
  2
ENTITIES
  0
LINE
  5
219
100
AcDbEntity
  8
0
100
AcDbLine
 62
7
  6
CONTINUOUS
 10
7.3196721293
 20
48.0024107466
 11
5.62262292
 21
47.0226247773
  0
LINE
  5
21A
100
AcDbEntity
  8
0
100
AcDbLine
 62
7
  6
CONTINUOUS
 10
18.2797816061
 20
54.3301951316
 11
19.9768308154
 21
55.3099811009
  0
LINE
  5
21B
100
AcDbEntity
  8
0
100
AcDbLine
 62
7
  6
CONTINUOUS
 10
8.8399500896
 20
48.2351127749
 11
17.890879206
 21
53.4606379444
  0
LINE
  5
21C
100
AcDbEntity
  8
0
100
AcDbLine
 62
7
  6
CONTINUOUS
 10
8.8399500896
 20
48.2269477507
 11
7.8853599094
 21
47.675818143
  0
LINE
  5
21D
100
AcDbEntity
  8
0
100
AcDbLine
 62
7
  6
CONTINUOUS
 10
17.890879206
 20
53.4524729203
 11
18.8454693862
 21
54.003602528
  0
LWPOLYLINE
  5
21E
100
AcDbEntity
  8
0
100
AcDbPolyline
 62
7
  6
CONTINUOUS
 90
6
 70
0
 10
23.6539144345
 20
7.5832773636
 10
25.9885062468
 20
7.7016951603
 10
28.7780959809
 20
8.4554374167
 10
30.9476944531
 20
9.7124611489
 10
32.2420444275
 20
11.3227782526
 10
32.5389435734
 20
12.6357148948
  0
LINE
  5
21F
100
AcDbEntity
  8
0
100
AcDbLine
 62
7
  6
CONTINUOUS
 10
21.3911703795
 20
4.6137241077
 11
10.0774147772
 21
11.14557618
  0
LINE
  5
220
100
AcDbEntity
  8
0
100
AcDbLine
 62
7
  6
CONTINUOUS
 10
10.0774141884
 20
11.3088749125
 11
9.2288825182
 21
11.798763818
  0
LINE
  5
221
100
AcDbEntity
  8
0
100
AcDbLine
 62
7
  6
CONTINUOUS
 10
21.3910496769
 20
54.5751480827
 11
21.3203392932
 21
54.5343236673
  0
LINE
  5
222
100
AcDbEntity
  8
0
100
AcDbLine
 62
7
  6
CONTINUOUS
 10
6.895421014
 20
46.2061429283
 11
6.9661313977
 21
46.2469673437
  0
LINE
  5
223
100
AcDbEntity
  8
0
100
AcDbLine
 62
7
  6
CONTINUOUS
 10
18.8101218487
 20
52.9299249636
 11
18.7040562731
 21
52.8686883405
  0
LINE
  5
224
100
AcDbEntity
  8
0
100
AcDbLine
 62
7
  6
CONTINUOUS
 10
9.8652583079
 20
47.7656364171
 11
9.7591927323
 21
47.704399794
  0
LINE
  5
225
100
AcDbEntity
  8
0
100
AcDbLine
 62
7
  6
CONTINUOUS
 10
7.8853675637
 20
46.6225527862
 11
7.036842959
 21
46.1326598016
  0
LINE
  5
226
100
AcDbEntity
  8
0
100
AcDbLine
 62
7
  6
CONTINUOUS
 10
20.6839470173
 20
54.0117719713
 11
21.5324716219
 21
54.501664956
  0
LINE
  5
227
100
AcDbEntity
  8
0
100
AcDbLine
 62
7
  6
CONTINUOUS
 10
9.7591927323
 20
47.6962347698
 11
7.8853675637
 21
46.6143877621
  0
LINE
  5
228
100
AcDbEntity
  8
0
100
AcDbLine
 62
7
  6
CONTINUOUS
 10
18.8101218487
 20
52.9217599394
 11
20.6839470173
 21
54.0036069471
  0
LINE
  5
229
100
AcDbEntity
  8
0
100
AcDbLine
 62
7
  6
CONTINUOUS
 10
10.1610921257
 20
47.1496972377
 11
9.1004363698
 21
46.5373310069
  0
LINE
  5
22A
100
AcDbEntity
  8
0
100
AcDbLine
 62
7
  6
CONTINUOUS
 10
20.484808149
 20
53.1100618842
 11
21.5454639048
 21
53.722428115
  0
LINE
  5
22B
100
AcDbEntity
  8
0
100
AcDbLine
 62
7
  6
CONTINUOUS
 10
25.7497015113
 20
52.9355430603
 11
25.6520759551
 21
52.8991170172
  0
LINE
  5
22C
100
AcDbEntity
  8
0
100
AcDbLine
 62
7
  6
CONTINUOUS
 10
9.2288825182
 20
13.1051676854
 11
6.1883107001
 21
14.8606029298
  0
LINE
  5
22D
100
AcDbEntity
  8
0
100
AcDbLine
 62
7
  6
CONTINUOUS
 10
25.0681221089
 20
5.103623891
 11
23.6539026586
 21
5.9201054
  0
LINE
  5
22E
100
AcDbEntity
  8
0
100
AcDbLine
 62
7
  6
CONTINUOUS
 10
21.3911703795
 20
7.2265318425
 11
22.8053898298
 21
6.4100503334
  0
LINE
  5
22F
100
AcDbEntity
  8
0
100
AcDbLine
 62
7
  6
CONTINUOUS
 10
9.2470480109
 20
43.4277469577
 11
9.0351268218
 21
43.3053949324
  0
LINE
  5
230
100
AcDbEntity
  8
0
100
AcDbLine
 62
7
  6
CONTINUOUS
 10
24.9801400765
 20
52.511197676
 11
25.6520669964
 21
52.8991325484
  0
LINE
  5
231
100
AcDbEntity
  8
0
100
AcDbLine
 62
7
  6
CONTINUOUS
 10
23.6539026586
 20
6.8999083006
 11
25.0681221089
 21
6.0834267916
  0
LINE
  5
232
100
AcDbEntity
  8
0
100
AcDbLine
 62
7
  6
CONTINUOUS
 10
5.62262292
 20
47.0226247773
 11
5.62262292
 21
27.5980322738
  0
LINE
  5
233
100
AcDbEntity
  8
0
100
AcDbLine
 62
7
  6
CONTINUOUS
 10
10.4309696397
 20
41.9750875404
 11
9.9601226807
 21
41.7032455446
  0
LINE
  5
234
100
AcDbEntity
  8
0
100
AcDbLine
 62
7
  6
CONTINUOUS
 10
9.0351788068
 20
43.3053046797
 11
9.1327613368
 21
43.3418054443
  0
LINE
  5
235
100
AcDbEntity
  8
0
100
AcDbLine
 62
7
  6
CONTINUOUS
 10
10.9966892147
 20
16.9836765999
 11
19.0577400814
 21
12.3297319984
  0
LINE
  5
236
100
AcDbEntity
  8
0
100
AcDbLine
 62
7
  6
CONTINUOUS
 10
6.1883107001
 20
14.8606029298
 11
6.1883107001
 21
27.2714396702
  0
LINE
  5
237
100
AcDbEntity
  8
0
100
AcDbLine
 62
7
  6
CONTINUOUS
 10
6.895421014
 20
46.2061429283
 11
6.895421014
 21
33.6401707287
  0
LINE
  5
238
100
AcDbEntity
  8
0
100
AcDbLine
 62
7
  6
CONTINUOUS
 10
7.036842959
 20
46.1244947774
 11
7.036842959
 21
46.1326598016
  0
LINE
  5
239
100
AcDbEntity
  8
0
100
AcDbLine
 62
7
  6
CONTINUOUS
 10
9.0200054107
 20
45.9674841395
 11
9.1004363698
 21
46.5373310069
  0
LINE
  5
23A
100
AcDbEntity
  8
0
100
AcDbLine
 62
7
  6
CONTINUOUS
 10
14.5856518353
 20
43.825298169
 11
14.7894101979
 21
43.9429374122
  0
LINE
  5
23B
100
AcDbEntity
  8
0
100
AcDbLine
 62
7
  6
CONTINUOUS
 10
9.9600706958
 20
41.7033357973
 11
9.8624881657
 21
41.6668350327
  0
LINE
  5
23C
100
AcDbEntity
  8
0
100
AcDbLine
 62
7
  6
CONTINUOUS
 10
18.0677864662
 20
14.1260226804
 11
17.219254796
 21
14.6159115858
  0
LINE
  5
23D
100
AcDbEntity
  8
0
100
AcDbLine
 62
7
  6
CONTINUOUS
 10
16.3707231258
 20
15.1058004912
 11
12.7644635276
 21
17.1878283393
  0
LINE
  5
23E
100
AcDbEntity
  8
0
100
AcDbLine
 62
7
  6
CONTINUOUS
 10
18.0677864662
 20
14.2076708313
 11
17.2899651797
 21
14.6567360012
  0
LINE
  5
23F
100
AcDbEntity
  8
0
100
AcDbLine
 62
7
  6
CONTINUOUS
 10
12.7644635276
 20
18.0043307564
 11
10.9966892147
 21
19.0249326427
  0
LINE
  5
240
100
AcDbEntity
  8
0
100
AcDbLine
 62
7
  6
CONTINUOUS
 10
17.219254796
 20
15.8406652115
 11
16.3707231258
 21
16.3305541169
  0
LINE
  5
241
100
AcDbEntity
  8
0
100
AcDbLine
 62
7
  6
CONTINUOUS
 10
18.0677864662
 20
15.3507763061
 11
19.0577400814
 21
14.7792392498
  0
LINE
  5
242
100
AcDbEntity
  8
0
100
AcDbLine
 62
7
  6
CONTINUOUS
 10
16.7218404434
 20
16.5332705847
 11
15.1674336258
 21
17.430687477
  0
LINE
  5
243
100
AcDbEntity
  8
0
100
AcDbLine
 62
7
  6
CONTINUOUS
 10
7.9560856017
 20
33.0278095969
 11
7.9560856017
 21
27.2306424353
  0
LINE
  5
244
100
AcDbEntity
  8
0
100
AcDbLine
 62
7
  6
CONTINUOUS
 10
8.0267959855
 20
27.1898186998
 11
8.0267959855
 21
27.1081663673
  0
LINE
  5
245
100
AcDbEntity
  8
0
100
AcDbLine
 62
7
  6
CONTINUOUS
 10
8.3096404643
 20
36.5387752176
 11
8.3096404643
 21
43.9689472135
  0
LINE
  5
246
100
AcDbEntity
  8
0
100
AcDbLine
 62
7
  6
CONTINUOUS
 10
8.8399500896
 20
48.2269477507
 11
8.8399500896
 21
48.2351127749
  0
LINE
  5
247
100
AcDbEntity
  8
0
100
AcDbLine
 62
7
  6
CONTINUOUS
 10
9.0874546852
 20
36.9878437869
 11
9.0874546852
 21
42.1812052667
  0
LINE
  5
248
100
AcDbEntity
  8
0
100
AcDbLine
 62
7
  6
CONTINUOUS
 10
9.0874546852
 20
43.3356062581
 11
9.0874546852
 21
43.5198861228
  0
LINE
  5
249
100
AcDbEntity
  8
0
100
AcDbLine
 62
7
  6
CONTINUOUS
 10
9.2288825182
 20
11.798763818
 11
9.2288825182
 21
13.1051676854
  0
LINE
  5
24A
100
AcDbEntity
  8
0
100
AcDbLine
 62
7
  6
CONTINUOUS
 10
9.7591927323
 20
47.6962347698
 11
9.7591927323
 21
47.704399794
  0
LINE
  5
24B
100
AcDbEntity
  8
0
100
AcDbLine
 62
7
  6
CONTINUOUS
 10
17.2418904087
 20
41.8295296362
 11
18.0931262359
 21
42.3209879366
  0
LINE
  5
24C
100
AcDbEntity
  8
0
100
AcDbLine
 62
7
  6
CONTINUOUS
 10
9.0874546852
 20
36.9878437869
 11
8.3096404643
 21
36.5387752176
  0
LINE
  5
24D
100
AcDbEntity
  8
0
100
AcDbLine
 62
7
  6
CONTINUOUS
 10
18.7785311919
 20
42.220869513
 11
17.6150637856
 21
41.5491453025
  0
LINE
  5
24E
100
AcDbEntity
  8
0
100
AcDbLine
 62
7
  6
CONTINUOUS
 10
19.1562691682
 20
16.3379192793
 11
24.4595921068
 21
13.2761136204
  0
LINE
  5
24F
100
AcDbEntity
  8
0
100
AcDbLine
 62
7
  6
CONTINUOUS
 10
14.7443542754
 20
19.1474143894
 11
12.9765799617
 21
20.1680162752
  0
LINE
  5
250
100
AcDbEntity
  8
0
100
AcDbLine
 62
7
  6
CONTINUOUS
 10
16.3707231258
 20
18.7800613683
 11
17.219254796
 21
18.2901724629
  0
LINE
  5
251
100
AcDbEntity
  8
0
100
AcDbLine
 62
7
  6
CONTINUOUS
 10
18.0677864662
 20
17.8002835575
 11
19.0577400814
 21
17.2287465011
  0
LINE
  5
252
100
AcDbEntity
  8
0
100
AcDbLine
 62
7
  6
CONTINUOUS
 10
12.7644635276
 20
21.2703404249
 11
10.9966892147
 21
22.2909423112
  0
LINE
  5
253
100
AcDbEntity
  8
0
100
AcDbLine
 62
7
  6
CONTINUOUS
 10
10.0774147772
 20
24.5362158209
 11
8.8046172719
 21
26.7407535299
  0
LINE
  5
254
100
AcDbEntity
  8
0
100
AcDbLine
 62
7
  6
CONTINUOUS
 10
9.8652583079
 20
47.7656364171
 11
9.8652583079
 21
46.9788985229
  0
LINE
  5
255
100
AcDbEntity
  8
0
100
AcDbLine
 62
7
  6
CONTINUOUS
 10
10.0774147772
 20
24.5362158209
 11
10.0774147772
 21
11.14557618
  0
LINE
  5
256
100
AcDbEntity
  8
0
100
AcDbLine
 62
7
  6
CONTINUOUS
 10
10.4309696397
 20
42.7442249499
 11
10.4309696397
 21
35.314052954
  0
LINE
  5
257
100
AcDbEntity
  8
0
100
AcDbLine
 62
7
  6
CONTINUOUS
 10
10.9966892147
 20
16.9836765999
 11
10.9966892147
 21
19.0249326427
  0
LINE
  5
258
100
AcDbEntity
  8
0
100
AcDbLine
 62
7
  6
CONTINUOUS
 10
10.9966892147
 20
22.2909423112
 11
10.9966892147
 21
24.3321983541
  0
LINE
  5
259
100
AcDbEntity
  8
0
100
AcDbLine
 62
7
  6
CONTINUOUS
 10
19.625824885
 20
40.6728830973
 11
20.7392166349
 21
41.3156962868
  0
LINE
  5
25A
100
AcDbEntity
  8
0
100
AcDbLine
 62
7
  6
CONTINUOUS
 10
12.7644635276
 20
22.0868428421
 11
16.3707231258
 21
20.004814994
  0
LINE
  5
25B
100
AcDbEntity
  8
0
100
AcDbLine
 62
7
  6
CONTINUOUS
 10
17.219254796
 20
19.5149260886
 11
18.0677864662
 21
19.0250371832
  0
LINE
  5
25C
100
AcDbEntity
  8
0
100
AcDbLine
 62
7
  6
CONTINUOUS
 10
19.0577400814
 20
19.6782537525
 11
10.9966892147
 21
24.3321983541
  0
LINE
  5
25D
100
AcDbEntity
  8
0
100
AcDbLine
 62
7
  6
CONTINUOUS
 10
5.62262292
 20
27.5980322738
 11
6.1883107001
 21
27.2714396702
  0
LINE
  5
25E
100
AcDbEntity
  8
0
100
AcDbLine
 62
7
  6
CONTINUOUS
 10
21.6461973329
 20
18.3644731281
 11
25.9595666563
 21
15.8742045255
  0
LINE
  5
25F
100
AcDbEntity
  8
0
100
AcDbLine
 62
7
  6
CONTINUOUS
 10
12.7644635276
 20
17.1878283393
 11
12.7644635276
 21
18.0043307564
  0
LINE
  5
260
100
AcDbEntity
  8
0
100
AcDbLine
 62
7
  6
CONTINUOUS
 10
12.7644635276
 20
21.2703404249
 11
12.7644635276
 21
22.0868428421
  0
LINE
  5
261
100
AcDbEntity
  8
0
100
AcDbLine
 62
7
  6
CONTINUOUS
 10
8.0267959855
 20
27.1081663673
 11
8.8753300551
 21
26.6182760765
  0
LINE
  5
262
100
AcDbEntity
  8
0
100
AcDbLine
 62
7
  6
CONTINUOUS
 10
8.8046172719
 20
26.7407535299
 11
7.9560856017
 21
27.2306424353
  0
LINE
  5
263
100
AcDbEntity
  8
0
100
AcDbLine
 62
7
  6
CONTINUOUS
 10
33.6240667633
 20
12.6561508702
 11
35.0382862136
 21
11.8396693611
  0
LINE
  5
264
100
AcDbEntity
  8
0
100
AcDbLine
 62
7
  6
CONTINUOUS
 10
25.9873417887
 20
40.98885043
 11
30.4420959631
 21
43.5607885994
  0
LINE
  5
265
100
AcDbEntity
  8
0
100
AcDbLine
 62
7
  6
CONTINUOUS
 10
21.8444875475
 20
38.5634334276
 11
22.111649954
 21
38.7176787942
  0
LINE
  5
266
100
AcDbEntity
  8
0
100
AcDbLine
 62
7
  6
CONTINUOUS
 10
32.441376462
 20
44.1264777147
 11
33.5020322178
 21
44.7388439455
  0
LINE
  5
267
100
AcDbEntity
  8
0
100
AcDbLine
 62
7
  6
CONTINUOUS
 10
32.5392166349
 20
14.9154382326
 11
35.0382744378
 21
13.4726391779
  0
LINE
  5
268
100
AcDbEntity
  8
0
100
AcDbLine
 62
7
  6
CONTINUOUS
 10
14.8150499357
 20
26.536716785
 11
22.8761008023
 21
21.8827721834
  0
LINE
  5
269
100
AcDbEntity
  8
0
100
AcDbLine
 62
7
  6
CONTINUOUS
 10
35.0382744378
 20
15.1056440122
 11
36.452493888
 21
14.2891625032
  0
LINE
  5
26A
100
AcDbEntity
  8
0
100
AcDbLine
 62
7
  6
CONTINUOUS
 10
16.3707231258
 20
20.004814994
 11
16.3707231258
 21
18.7800613683
  0
LINE
  5
26B
100
AcDbEntity
  8
0
100
AcDbLine
 62
7
  6
CONTINUOUS
 10
16.3707231258
 20
16.3305541169
 11
16.3707231258
 21
15.1058004912
  0
LINE
  5
26C
100
AcDbEntity
  8
0
100
AcDbLine
 62
7
  6
CONTINUOUS
 10
17.219254796
 20
14.6159115858
 11
17.219254796
 21
15.8406652115
  0
LINE
  5
26D
100
AcDbEntity
  8
0
100
AcDbLine
 62
7
  6
CONTINUOUS
 10
17.219254796
 20
18.2901724629
 11
17.219254796
 21
19.5149260886
  0
LINE
  5
26E
100
AcDbEntity
  8
0
100
AcDbLine
 62
7
  6
CONTINUOUS
 10
17.2899651797
 20
14.6567360012
 11
17.2899651797
 21
19.4741023531
  0
LINE
  5
26F
100
AcDbEntity
  8
0
100
AcDbLine
 62
7
  6
CONTINUOUS
 10
17.431332367
 20
42.4176574432
 11
17.431332367
 21
43.3974603437
  0
LINE
  5
270
100
AcDbEntity
  8
0
100
AcDbLine
 62
7
  6
CONTINUOUS
 10
16.3823211951
 20
43.0232906244
 11
16.3796732137
 21
42.4773577205
  0
LINE
  5
271
100
AcDbEntity
  8
0
100
AcDbLine
 62
7
  6
CONTINUOUS
 10
20.3191300837
 20
51.9362461358
 11
20.484808149
 21
53.1100618842
  0
LINE
  5
272
100
AcDbEntity
  8
0
100
AcDbLine
 62
7
  6
CONTINUOUS
 10
22.8053898298
 20
37.0288909758
 11
23.6539144345
 21
37.5187839604
  0
LINE
  5
273
100
AcDbEntity
  8
0
100
AcDbLine
 62
7
  6
CONTINUOUS
 10
36.452493888
 20
44.9080031455
 11
37.3010184927
 21
45.3978961302
  0
LINE
  5
274
100
AcDbEntity
  8
0
100
AcDbLine
 62
7
  6
CONTINUOUS
 10
33.1539877249
 20
42.6001898775
 11
34.2146434807
 21
43.2125561083
  0
LINE
  5
275
100
AcDbEntity
  8
0
100
AcDbLine
 62
7
  6
CONTINUOUS
 10
23.6539144345
 20
36.8462072932
 11
26.4896099283
 21
38.4833870773
  0
LINE
  5
276
100
AcDbEntity
  8
0
100
AcDbLine
 62
7
  6
CONTINUOUS
 10
31.5466632615
 20
41.4030607524
 11
32.1651807091
 21
41.7601598357
  0
LINE
  5
277
100
AcDbEntity
  8
0
100
AcDbLine
 62
7
  6
CONTINUOUS
 10
8.0267959855
 20
27.1081663673
 11
8.0975099906
 21
27.1489928735
  0
LINE
  5
278
100
AcDbEntity
  8
0
100
AcDbLine
 62
7
  6
CONTINUOUS
 10
24.5024296184
 20
36.5389445803
 11
26.6944515138
 21
37.8045014573
  0
LINE
  5
279
100
AcDbEntity
  8
0
100
AcDbLine
 62
7
  6
CONTINUOUS
 10
31.8616419888
 20
40.7877624613
 11
33.3412275836
 21
41.6419965037
  0
LINE
  5
27A
100
AcDbEntity
  8
0
100
AcDbLine
 62
7
  6
CONTINUOUS
 10
31.9977373584
 20
40.5219056237
 11
27.542983184
 21
37.9499674543
  0
LINE
  5
27B
100
AcDbEntity
  8
0
100
AcDbLine
 62
7
  6
CONTINUOUS
 10
6.895421014
 20
33.6401707287
 11
7.9560856017
 21
33.0278095969
  0
LINE
  5
27C
100
AcDbEntity
  8
0
100
AcDbLine
 62
7
  6
CONTINUOUS
 10
18.0677864662
 20
19.0250371832
 11
18.0677864662
 21
17.8002835575
  0
LINE
  5
27D
100
AcDbEntity
  8
0
100
AcDbLine
 62
7
  6
CONTINUOUS
 10
18.0677864662
 20
15.3507763061
 11
18.0677864662
 21
14.1260226804
  0
LINE
  5
27E
100
AcDbEntity
  8
0
100
AcDbLine
 62
7
  6
CONTINUOUS
 10
18.1384968499
 20
17.759459822
 11
18.1384968499
 21
15.3916007215
  0
LINE
  5
27F
100
AcDbEntity
  8
0
100
AcDbLine
 62
7
  6
CONTINUOUS
 10
18.2797816061
 20
53.6770044854
 11
18.2797816061
 21
54.3301951316
  0
LINE
  5
280
100
AcDbEntity
  8
0
100
AcDbLine
 62
7
  6
CONTINUOUS
 10
18.8101218487
 20
52.9217599394
 11
18.8101218487
 21
52.9299249636
  0
LINE
  5
281
100
AcDbEntity
  8
0
100
AcDbLine
 62
7
  6
CONTINUOUS
 10
19.0577400814
 20
12.3297319984
 11
19.0577400814
 21
14.7792392498
  0
LINE
  5
282
100
AcDbEntity
  8
0
100
AcDbLine
 62
7
  6
CONTINUOUS
 10
19.0577400814
 20
17.2287465011
 11
19.0577400814
 21
19.6782537525
  0
LINE
  5
283
100
AcDbEntity
  8
0
100
AcDbLine
 62
7
  6
CONTINUOUS
 10
25.3509612886
 20
36.0490556748
 11
27.542983184
 21
37.3146125518
  0
LINE
  5
284
100
AcDbEntity
  8
0
100
AcDbLine
 62
7
  6
CONTINUOUS
 10
31.9977373584
 20
39.8865507212
 11
34.1897592538
 21
41.1521075982
  0
LINE
  5
285
100
AcDbEntity
  8
0
100
AcDbLine
 62
7
  6
CONTINUOUS
 10
24.5783080046
 20
35.3264357325
 11
23.6539144345
 21
34.7927400417
  0
LINE
  5
286
100
AcDbEntity
  8
0
100
AcDbLine
 62
7
  6
CONTINUOUS
 10
34.9020240279
 20
41.286800379
 11
35.9626797838
 21
41.8991666098
  0
LINE
  5
287
100
AcDbEntity
  8
0
100
AcDbLine
 62
7
  6
CONTINUOUS
 10
20.4657391633
 20
32.9019434958
 11
20.3305057918
 21
32.8238669384
  0
LINE
  5
288
100
AcDbEntity
  8
0
100
AcDbLine
 62
7
  6
CONTINUOUS
 10
21.8058043412
 20
33.4120742313
 11
20.8512141609
 21
32.8609446235
  0
LINE
  5
289
100
AcDbEntity
  8
0
100
AcDbLine
 62
7
  6
CONTINUOUS
 10
24.4857481429
 20
34.6706565669
 11
24.5024296185
 21
34.6802875638
  0
LINE
  5
28A
100
AcDbEntity
  8
0
100
AcDbLine
 62
7
  6
CONTINUOUS
 10
23.6539144345
 20
33.4362718748
 11
22.8053898298
 21
32.9463788901
  0
LINE
  5
28B
100
AcDbEntity
  8
0
100
AcDbLine
 62
7
  6
CONTINUOUS
 10
36.452493888
 20
40.8254910599
 11
37.3010184927
 21
41.3153840445
  0
LINE
  5
28C
100
AcDbEntity
  8
0
100
AcDbLine
 62
7
  6
CONTINUOUS
 10
20.6839470173
 20
53.2250340771
 11
20.6839470173
 21
54.0117719713
  0
LINE
  5
28D
100
AcDbEntity
  8
0
100
AcDbLine
 62
7
  6
CONTINUOUS
 10
20.7392166349
 20
40.1518463243
 11
20.7392166349
 21
41.6215506751
  0
LINE
  5
28E
100
AcDbEntity
  8
0
100
AcDbLine
 62
7
  6
CONTINUOUS
 10
21.3911703795
 20
7.2265318425
 11
21.3911703795
 21
4.6137241077
  0
LINE
  5
28F
100
AcDbEntity
  8
0
100
AcDbLine
 62
7
  6
CONTINUOUS
 10
25.3509612886
 20
33.92614939
 11
34.1897592538
 21
39.0292013134
  0
LINE
  5
290
100
AcDbEntity
  8
0
100
AcDbLine
 62
7
  6
CONTINUOUS
 10
23.6539144345
 20
31.8849172822
 11
22.8053898298
 21
31.3950242976
  0
LINE
  5
291
100
AcDbEntity
  8
0
100
AcDbLine
 62
7
  6
CONTINUOUS
 10
36.452493888
 20
39.2741364673
 11
37.3010184927
 21
39.764029452
  0
LINE
  5
292
100
AcDbEntity
  8
0
100
AcDbLine
 62
7
  6
CONTINUOUS
 10
33.4648673813
 20
37.4269505179
 11
31.4849766371
 21
36.2838668871
  0
LINE
  5
293
100
AcDbEntity
  8
0
100
AcDbLine
 62
7
  6
CONTINUOUS
 10
26.6059601604
 20
33.4669822254
 11
24.6260694162
 21
32.3238985945
  0
LINE
  5
294
100
AcDbEntity
  8
0
100
AcDbLine
 62
7
  6
CONTINUOUS
 10
10.9966892147
 20
24.3321983541
 11
14.8150499357
 21
26.536716785
  0
LWPOLYLINE
  5
295
100
AcDbEntity
  8
0
100
AcDbPolyline
 62
7
  6
CONTINUOUS
 90
3
 70
0
 10
24.6260227533
 20
32.3239793549
 10
24.534193093
 20
32.2761607537
 10
24.142640833
 20
32.2397689117
  0
LINE
  5
296
100
AcDbEntity
  8
0
100
AcDbLine
 62
7
  6
CONTINUOUS
 10
10.4309696397
 20
35.314052954
 11
8.3096404643
 21
36.5387752176
  0
LINE
  5
297
100
AcDbEntity
  8
0
100
AcDbLine
 62
7
  6
CONTINUOUS
 10
10.4309696397
 20
36.212182614
 11
9.0874546852
 21
36.9878437869
  0
LINE
  5
298
100
AcDbEntity
  8
0
100
AcDbLine
 62
7
  6
CONTINUOUS
 10
22.2396949842
 20
6.7366470162
 11
22.2396949842
 21
6.0834199929
  0
LINE
  5
299
100
AcDbEntity
  8
0
100
AcDbLine
 62
7
  6
CONTINUOUS
 10
22.8053898298
 20
37.0288909758
 11
22.8053898298
 21
32.9463788901
  0
LINE
  5
29A
100
AcDbEntity
  8
0
100
AcDbLine
 62
7
  6
CONTINUOUS
 10
22.8053898298
 20
31.3950242976
 11
22.8053898298
 21
21.9235962589
  0
LINE
  5
29B
100
AcDbEntity
  8
0
100
AcDbLine
 62
7
  6
CONTINUOUS
 10
22.8053898298
 20
14.2311461446
 11
22.8053898298
 21
6.4100503334
  0
LINE
  5
29C
100
AcDbEntity
  8
0
100
AcDbLine
 62
7
  6
CONTINUOUS
 10
22.8761008023
 20
21.8827721834
 11
22.8761008023
 21
17.6544040928
  0
LINE
  5
29D
100
AcDbEntity
  8
0
100
AcDbLine
 62
7
  6
CONTINUOUS
 10
23.3003248331
 20
41.5603623967
 11
23.3003248331
 21
42.5401652972
  0
LINE
  5
29E
100
AcDbEntity
  8
0
100
AcDbLine
 62
7
  6
CONTINUOUS
 10
23.6539026586
 20
5.9201054
 11
23.6539144345
 21
13.7412613184
  0
LINE
  5
29F
100
AcDbEntity
  8
0
100
AcDbLine
 62
7
  6
CONTINUOUS
 10
23.6539144345
 20
17.205343342
 11
23.6539144345
 21
22.576789727
  0
LINE
  5
2A0
100
AcDbEntity
  8
0
100
AcDbLine
 62
7
  6
CONTINUOUS
 10
23.6539144345
 20
26.0877501206
 11
23.6539144345
 21
31.8849172822
  0
LINE
  5
2A1
100
AcDbEntity
  8
0
100
AcDbLine
 62
7
  6
CONTINUOUS
 10
23.6539144345
 20
33.4362718748
 11
23.6539144345
 21
37.5187839604
  0
LINE
  5
2A2
100
AcDbEntity
  8
0
100
AcDbLine
 62
7
  6
CONTINUOUS
 10
23.3092076807
 20
33.2372565257
 11
23.1586871149
 21
32.1708304403
  0
LINE
  5
2A3
100
AcDbEntity
  8
0
100
AcDbLine
 62
7
  6
CONTINUOUS
 10
34.2065701334
 20
36.3595655503
 11
23.8828541101
 21
30.3992009038
  0
LINE
  5
2A4
100
AcDbEntity
  8
0
100
AcDbLine
 62
7
  6
CONTINUOUS
 10
35.109168186
 20
35.8521056837
 11
24.2816775278
 21
29.6008883523
  0
LINE
  5
2A5
100
AcDbEntity
  8
0
100
AcDbLine
 62
7
  6
CONTINUOUS
 10
24.2808400721
 20
29.5949550462
 11
23.6539144345
 21
29.2330015211
  0
LINE
  5
2A6
100
AcDbEntity
  8
0
100
AcDbLine
 62
7
  6
CONTINUOUS
 10
20.3305057918
 20
32.8238669384
 11
22.8053898298
 21
31.3950242976
  0
LINE
  5
2A7
100
AcDbEntity
  8
0
100
AcDbLine
 62
7
  6
CONTINUOUS
 10
23.7246248182
 20
22.6176141424
 11
23.7246248182
 21
24.0056682515
  0
LINE
  5
2A8
100
AcDbEntity
  8
0
100
AcDbLine
 62
7
  6
CONTINUOUS
 10
24.5024296185
 20
34.4160382943
 11
24.5024296185
 21
34.788843478
  0
LINE
  5
2A9
100
AcDbEntity
  8
0
100
AcDbLine
 62
7
  6
CONTINUOUS
 10
24.5024296185
 20
35.3834470631
 11
24.5024296184
 21
36.5389445803
  0
LINE
  5
2AA
100
AcDbEntity
  8
0
100
AcDbLine
 62
7
  6
CONTINUOUS
 10
24.6892166349
 20
37.4439357294
 11
24.6892166349
 21
38.5780786301
  0
LINE
  5
2AB
100
AcDbEntity
  8
0
100
AcDbLine
 62
7
  6
CONTINUOUS
 10
25.0681221089
 20
6.0834267916
 11
25.0681221089
 21
5.103623891
  0
LINE
  5
2AC
100
AcDbEntity
  8
0
100
AcDbLine
 62
7
  6
CONTINUOUS
 10
25.3509612886
 20
36.0490556748
 11
25.3509612886
 21
33.9261493893
  0
LINE
  5
2AD
100
AcDbEntity
  8
0
100
AcDbLine
 62
7
  6
CONTINUOUS
 10
23.8828541101
 20
30.3992009038
 11
24.5783080046
 21
35.3264357325
  0
LINE
  5
2AE
100
AcDbEntity
  8
0
100
AcDbLine
 62
7
  6
CONTINUOUS
 10
24.2816775278
 20
29.6008883523
 11
24.2808400721
 21
29.5949550462
  0
LINE
  5
2AF
100
AcDbEntity
  8
0
100
AcDbLine
 62
7
  6
CONTINUOUS
 10
13.471585472
 20
21.6785950329
 11
12.7644635276
 21
21.2703404249
  0
LINE
  5
2B0
100
AcDbEntity
  8
0
100
AcDbLine
 62
7
  6
CONTINUOUS
 10
12.9765799617
 20
20.1680162752
 11
10.9966892147
 21
19.0249326427
  0
LINE
  5
2B1
100
AcDbEntity
  8
0
100
AcDbLine
 62
7
  6
CONTINUOUS
 10
21.4072760727
 20
33.1819852016
 11
23.6539144345
 21
31.8849172822
  0
LINE
  5
2B2
100
AcDbEntity
  8
0
100
AcDbLine
 62
7
  6
CONTINUOUS
 10
22.8053898298
 20
32.9463788901
 11
20.3305057918
 21
34.375221531
  0
LINE
  5
2B3
100
AcDbEntity
  8
0
100
AcDbLine
 62
7
  6
CONTINUOUS
 10
29.8082449465
 20
29.8450553657
 11
29.9850223778
 21
29.7429951771
  0
LINE
  5
2B4
100
AcDbEntity
  8
0
100
AcDbLine
 62
7
  6
CONTINUOUS
 10
31.856318063
 20
28.8229487573
 11
31.9623845217
 21
28.7617126441
  0
LINE
  5
2B5
100
AcDbEntity
  8
0
100
AcDbLine
 62
7
  6
CONTINUOUS
 10
26.6944515138
 20
37.8045014573
 11
26.6944515138
 21
38.0832372685
  0
LINE
  5
2B6
100
AcDbEntity
  8
0
100
AcDbLine
 62
7
  6
CONTINUOUS
 10
27.542983184
 20
37.9499674543
 11
27.542983184
 21
37.3146125518
  0
LINE
  5
2B7
100
AcDbEntity
  8
0
100
AcDbLine
 62
7
  6
CONTINUOUS
 10
36.452493888
 20
33.4769693057
 11
31.9623845217
 21
30.8846189286
  0
LINE
  5
2B8
100
AcDbEntity
  8
0
100
AcDbLine
 62
7
  6
CONTINUOUS
 10
29.9850223778
 20
29.7429951771
 11
23.6539144345
 21
26.0877501206
  0
LINE
  5
2B9
100
AcDbEntity
  8
0
100
AcDbLine
 62
7
  6
CONTINUOUS
 10
31.8563186518
 20
29.8027534087
 11
30.017848675
 21
28.7413186086
  0
LINE
  5
2BA
100
AcDbEntity
  8
0
100
AcDbLine
 62
7
  6
CONTINUOUS
 10
14.7386316217
 20
19.1441104334
 11
12.7644635276
 21
18.0043307564
  0
LINE
  5
2BB
100
AcDbEntity
  8
0
100
AcDbLine
 62
7
  6
CONTINUOUS
 10
8.3096404643
 20
43.9689472135
 11
10.4309696397
 21
42.7442249499
  0
LINE
  5
2BC
100
AcDbEntity
  8
0
100
AcDbLine
 62
7
  6
CONTINUOUS
 10
31.856318063
 20
30.9458550418
 11
31.9623845217
 21
30.8846189286
  0
LINE
  5
2BD
100
AcDbEntity
  8
0
100
AcDbLine
 62
7
  6
CONTINUOUS
 10
9.1004363698
 20
46.5373310069
 11
12.6420021285
 21
43.8763706668
  0
LINE
  5
2BE
100
AcDbEntity
  8
0
100
AcDbLine
 62
7
  6
CONTINUOUS
 10
24.5783080046
 20
35.3264357325
 11
23.6539144345
 21
36.0209801223
  0
LINE
  5
2BF
100
AcDbEntity
  8
0
100
AcDbLine
 62
7
  6
CONTINUOUS
 10
36.3817835043
 20
31.3132386058
 11
31.9623845217
 21
28.7617126441
  0
LINE
  5
2C0
100
AcDbEntity
  8
0
100
AcDbLine
 62
7
  6
CONTINUOUS
 10
29.9850223778
 20
27.6200888925
 11
23.7246248182
 21
24.0056682515
  0
LINE
  5
2C1
100
AcDbEntity
  8
0
100
AcDbLine
 62
7
  6
CONTINUOUS
 10
36.3464280181
 20
31.2520004018
 11
31.8563186518
 21
28.6596500247
  0
LINE
  5
2C2
100
AcDbEntity
  8
0
100
AcDbLine
 62
7
  6
CONTINUOUS
 10
30.017848675
 20
27.5982152246
 11
23.7246248182
 21
23.9648424251
  0
LINE
  5
2C3
100
AcDbEntity
  8
0
100
AcDbLine
 62
7
  6
CONTINUOUS
 10
14.7056664686
 20
18.3085756899
 11
12.7644635276
 21
17.1878283393
  0
LINE
  5
2C4
100
AcDbEntity
  8
0
100
AcDbLine
 62
7
  6
CONTINUOUS
 10
36.3464280181
 20
29.9455965344
 11
23.7246248182
 21
22.6584385577
  0
LINE
  5
2C5
100
AcDbEntity
  8
0
100
AcDbLine
 62
7
  6
CONTINUOUS
 10
23.6539144345
 20
22.576789727
 11
23.7246248182
 21
22.6176141424
  0
LINE
  5
2C6
100
AcDbEntity
  8
0
100
AcDbLine
 62
7
  6
CONTINUOUS
 10
36.3817835043
 20
29.9251844967
 11
36.452493888
 21
29.966008912
  0
LINE
  5
2C7
100
AcDbEntity
  8
0
100
AcDbLine
 62
7
  6
CONTINUOUS
 10
19.0577400814
 20
19.6782537525
 11
22.8761008023
 21
21.8827721834
  0
LINE
  5
2C8
100
AcDbEntity
  8
0
100
AcDbLine
 62
7
  6
CONTINUOUS
 10
17.219254796
 20
18.2901724629
 11
17.2899651797
 21
18.3309968783
  0
LINE
  5
2C9
100
AcDbEntity
  8
0
100
AcDbLine
 62
7
  6
CONTINUOUS
 10
7.036842959
 20
46.1244947774
 11
6.895421014
 21
46.2061429283
  0
LINE
  5
2CA
100
AcDbEntity
  8
0
100
AcDbLine
 62
7
  6
CONTINUOUS
 10
7.036842959
 20
46.1326598016
 11
22.8053898298
 21
37.0288909758
  0
LINE
  5
2CB
100
AcDbEntity
  8
0
100
AcDbLine
 62
7
  6
CONTINUOUS
 10
6.9661313977
 20
46.2469673437
 11
5.62262292
 21
47.0226247773
  0
LINE
  5
2CC
100
AcDbEntity
  8
0
100
AcDbLine
 62
7
  6
CONTINUOUS
 10
24.5024296184
 20
36.5389445803
 11
25.3509612886
 21
36.0490556748
  0
LINE
  5
2CD
100
AcDbEntity
  8
0
100
AcDbLine
 62
7
  6
CONTINUOUS
 10
36.3464280181
 20
29.9455965344
 11
36.3817835043
 21
29.9251844967
  0
LINE
  5
2CE
100
AcDbEntity
  8
0
100
AcDbLine
 62
7
  6
CONTINUOUS
 10
7.8853675637
 20
46.6225527862
 11
23.6539144345
 21
37.5187839604
  0
LINE
  5
2CF
100
AcDbEntity
  8
0
100
AcDbLine
 62
7
  6
CONTINUOUS
 10
20.7407181202
 20
39.2006805871
 11
10.1610921257
 21
47.1496972377
  0
LINE
  5
2D0
100
AcDbEntity
  8
0
100
AcDbLine
 62
7
  6
CONTINUOUS
 10
29.9850223778
 20
29.7429951771
 11
29.9850223778
 21
27.6200888925
  0
LINE
  5
2D1
100
AcDbEntity
  8
0
100
AcDbLine
 62
7
  6
CONTINUOUS
 10
30.017848675
 20
28.7413186086
 11
30.017848675
 21
27.5982152246
  0
LINE
  5
2D2
100
AcDbEntity
  8
0
100
AcDbLine
 62
7
  6
CONTINUOUS
 10
16.3707231258
 20
16.3305541169
 11
17.2899651797
 21
16.8612755962
  0
LINE
  5
2D3
100
AcDbEntity
  8
0
100
AcDbLine
 62
7
  6
CONTINUOUS
 10
20.8962100581
 20
18.2901813012
 11
19.0577400814
 21
17.2287465011
  0
LINE
  5
2D4
100
AcDbEntity
  8
0
100
AcDbLine
 62
7
  6
CONTINUOUS
 10
17.219254796
 20
15.8406652115
 11
17.2899651797
 21
15.8814896269
  0
LINE
  5
2D5
100
AcDbEntity
  8
0
100
AcDbLine
 62
7
  6
CONTINUOUS
 10
19.625824885
 20
40.6728830973
 11
20.6978878017
 21
40.0772782042
  0
LINE
  5
2D6
100
AcDbEntity
  8
0
100
AcDbLine
 62
7
  6
CONTINUOUS
 10
7.8853599094
 20
47.675818143
 11
7.3196721293
 21
48.0024107466
  0
LINE
  5
2D7
100
AcDbEntity
  8
0
100
AcDbLine
 62
7
  6
CONTINUOUS
 10
36.3464280181
 20
31.2520004018
 11
36.3110713099
 21
31.272413145
  0
LINE
  5
2D8
100
AcDbEntity
  8
0
100
AcDbLine
 62
7
  6
CONTINUOUS
 10
17.431332367
 20
42.4176574432
 11
13.2335980504
 21
44.8411656538
  0
LINE
  5
2D9
100
AcDbEntity
  8
0
100
AcDbLine
 62
7
  6
CONTINUOUS
 10
26.6944515138
 20
37.8045014573
 11
27.542983184
 21
37.3146125518
  0
LINE
  5
2DA
100
AcDbEntity
  8
0
100
AcDbLine
 62
7
  6
CONTINUOUS
 10
8.8399500896
 20
48.2269477507
 11
9.7591927323
 21
47.6962347698
  0
LINE
  5
2DB
100
AcDbEntity
  8
0
100
AcDbLine
 62
7
  6
CONTINUOUS
 10
9.7591927323
 20
47.704399794
 11
8.8399500896
 21
48.2351127749
  0
LINE
  5
2DC
100
AcDbEntity
  8
0
100
AcDbLine
 62
7
  6
CONTINUOUS
 10
17.431332367
 20
43.3974603437
 11
9.8652583079
 21
47.7656364171
  0
LINE
  5
2DD
100
AcDbEntity
  8
0
100
AcDbLine
 62
7
  6
CONTINUOUS
 10
26.6944515138
 20
38.0832372685
 11
25.5916649727
 21
40.2374864777
  0
LINE
  5
2DE
100
AcDbEntity
  8
0
100
AcDbLine
 62
7
  6
CONTINUOUS
 10
25.9873417887
 20
40.98885043
 11
27.542983184
 21
37.9499674543
  0
LINE
  5
2DF
100
AcDbEntity
  8
0
100
AcDbLine
 62
7
  6
CONTINUOUS
 10
31.8563186518
 20
28.6596500247
 11
31.856318063
 21
30.9458550418
  0
LINE
  5
2E0
100
AcDbEntity
  8
0
100
AcDbLine
 62
7
  6
CONTINUOUS
 10
31.9623845217
 20
30.8846189286
 11
31.9623845217
 21
28.7617126441
  0
LINE
  5
2E1
100
AcDbEntity
  8
0
100
AcDbLine
 62
7
  6
CONTINUOUS
 10
31.9977373584
 20
40.5219056237
 11
31.9977373584
 21
39.8865507212
  0
LINE
  5
2E2
100
AcDbEntity
  8
0
100
AcDbLine
 62
7
  6
CONTINUOUS
 10
32.5392166349
 20
12.635714867
 11
32.5392166349
 21
27.7475151382
  0
LINE
  5
2E3
100
AcDbEntity
  8
0
100
AcDbLine
 62
7
  6
CONTINUOUS
 10
34.9020240279
 20
41.286800379
 11
34.2065701334
 21
36.3595655503
  0
LINE
  5
2E4
100
AcDbEntity
  8
0
100
AcDbLine
 62
7
  6
CONTINUOUS
 10
18.0677864662
 20
15.3507763061
 11
19.4669263989
 21
16.1585653011
  0
LINE
  5
2E5
100
AcDbEntity
  8
0
100
AcDbLine
 62
7
  6
CONTINUOUS
 10
17.2899651797
 20
14.6567360012
 11
17.219254796
 21
14.6159115858
  0
LINE
  5
2E6
100
AcDbEntity
  8
0
100
AcDbLine
 62
7
  6
CONTINUOUS
 10
20.4568800141
 20
15.5870282447
 11
19.0577400814
 21
14.7792392498
  0
LINE
  5
2E7
100
AcDbEntity
  8
0
100
AcDbLine
 62
7
  6
CONTINUOUS
 10
17.431332367
 20
42.4176574432
 11
23.3003248331
 21
41.5603623967
  0
LINE
  5
2E8
100
AcDbEntity
  8
0
100
AcDbLine
 62
7
  6
CONTINUOUS
 10
33.7238675975
 20
35.0523067902
 11
36.452493888
 21
33.4769693057
  0
LINE
  5
2E9
100
AcDbEntity
  8
0
100
AcDbLine
 62
7
  6
CONTINUOUS
 10
25.5916649727
 20
40.2374864777
 11
23.3003248331
 21
41.5603623967
  0
LINE
  5
2EA
100
AcDbEntity
  8
0
100
AcDbLine
 62
7
  6
CONTINUOUS
 10
25.9873417887
 20
40.98885043
 11
23.3003248331
 21
42.5401652972
  0
LINE
  5
2EB
100
AcDbEntity
  8
0
100
AcDbLine
 62
7
  6
CONTINUOUS
 10
26.2701303321
 20
48.5005122671
 11
27.7550790075
 21
45.1121034666
  0
LINE
  5
2EC
100
AcDbEntity
  8
0
100
AcDbLine
 62
7
  6
CONTINUOUS
 10
34.1897592538
 20
41.1521075982
 11
34.1897592538
 21
39.0292013134
  0
LINE
  5
2ED
100
AcDbEntity
  8
0
100
AcDbLine
 62
7
  6
CONTINUOUS
 10
35.0382744378
 20
15.1056440122
 11
35.0382744378
 21
13.4726391779
  0
LINE
  5
2EE
100
AcDbEntity
  8
0
100
AcDbLine
 62
7
  6
CONTINUOUS
 10
35.0382862136
 20
11.8396693611
 11
35.0382862136
 21
10.8598664606
  0
LINE
  5
2EF
100
AcDbEntity
  8
0
100
AcDbLine
 62
7
  6
CONTINUOUS
 10
35.109168186
 20
35.8521056837
 11
35.9626797838
 21
41.8991666098
  0
LINE
  5
2F0
100
AcDbEntity
  8
0
100
AcDbLine
 62
7
  6
CONTINUOUS
 10
22.5782458473
 20
14.3622848173
 11
19.0577400814
 21
12.3297319984
  0
LINE
  5
2F1
100
AcDbEntity
  8
0
100
AcDbLine
 62
7
  6
CONTINUOUS
 10
23.3003248331
 20
42.5401652972
 11
17.431332367
 21
43.3974603437
  0
LINE
  5
2F2
100
AcDbEntity
  8
0
100
AcDbLine
 62
7
  6
CONTINUOUS
 10
34.2065701334
 20
36.3595655503
 11
33.0809535823
 21
37.2052991058
  0
LINE
  5
2F3
100
AcDbEntity
  8
0
100
AcDbLine
 62
7
  6
CONTINUOUS
 10
31.9977373584
 20
40.5219056237
 11
30.4420959631
 21
43.5607885994
  0
LINE
  5
2F4
100
AcDbEntity
  8
0
100
AcDbLine
 62
7
  6
CONTINUOUS
 10
35.8867990424
 20
14.615759186
 11
35.8867990424
 21
12.982729262
  0
LINE
  5
2F5
100
AcDbEntity
  8
0
100
AcDbLine
 62
7
  6
CONTINUOUS
 10
36.3464280181
 20
31.2520004018
 11
36.3464280181
 21
29.9455965344
  0
LINE
  5
2F6
100
AcDbEntity
  8
0
100
AcDbLine
 62
7
  6
CONTINUOUS
 10
36.3817835043
 20
29.9251844967
 11
36.3817835043
 21
31.3132386058
  0
LINE
  5
2F7
100
AcDbEntity
  8
0
100
AcDbLine
 62
7
  6
CONTINUOUS
 10
36.452493888
 20
29.966008912
 11
36.452493888
 21
14.2891625032
  0
LINE
  5
2F8
100
AcDbEntity
  8
0
100
AcDbLine
 62
7
  6
CONTINUOUS
 10
36.452493888
 20
33.4769693057
 11
36.452493888
 21
39.2741364673
  0
LINE
  5
2F9
100
AcDbEntity
  8
0
100
AcDbLine
 62
7
  6
CONTINUOUS
 10
36.452493888
 20
40.8254910599
 11
36.452493888
 21
44.9080031455
  0
LINE
  5
2FA
100
AcDbEntity
  8
0
100
AcDbLine
 62
7
  6
CONTINUOUS
 10
37.3010184927
 20
45.3978961302
 11
37.3010184927
 21
41.3153840445
  0
LINE
  5
2FB
100
AcDbEntity
  8
0
100
AcDbLine
 62
7
  6
CONTINUOUS
 10
37.3010184927
 20
39.764029452
 11
37.3010184927
 21
14.7790554878
  0
LINE
  5
2FC
100
AcDbEntity
  8
0
100
AcDbLine
 62
7
  6
CONTINUOUS
 10
35.6569940912
 20
39.733408099
 11
36.452493888
 21
39.2741364673
  0
LINE
  5
2FD
100
AcDbEntity
  8
0
100
AcDbLine
 62
7
  6
CONTINUOUS
 10
33.3412275836
 20
41.6419965037
 11
34.1897592538
 21
41.1521075982
  0
LINE
  5
2FE
100
AcDbEntity
  8
0
100
AcDbLine
 62
7
  6
CONTINUOUS
 10
32.441376462
 20
44.1264777147
 11
33.1539877249
 21
42.6001898775
  0
LINE
  5
2FF
100
AcDbEntity
  8
0
100
AcDbLine
 62
7
  6
CONTINUOUS
 10
27.7550790075
 20
45.1121034666
 11
30.4420959631
 21
43.5607885994
  0
LINE
  5
300
100
AcDbEntity
  8
0
100
AcDbLine
 62
7
  6
CONTINUOUS
 10
35.7848647505
 20
40.6393614205
 11
37.3010184927
 21
39.764029452
  0
LINE
  5
301
100
AcDbEntity
  8
0
100
AcDbLine
 62
7
  6
CONTINUOUS
 10
36.452493888
 20
40.8254910599
 11
35.8594611529
 21
41.1678709235
  0
LINE
  5
302
100
AcDbEntity
  8
0
100
AcDbLine
 62
7
  6
CONTINUOUS
 10
33.1539877249
 20
42.6001898775
 11
34.9020240279
 21
41.286800379
  0
LINE
  5
303
100
AcDbEntity
  8
0
100
AcDbLine
 62
7
  6
CONTINUOUS
 10
20.484808149
 20
53.1100618842
 11
32.441376462
 21
44.1264777147
  0
LINE
  5
304
100
AcDbEntity
  8
0
100
AcDbLine
 62
7
  6
CONTINUOUS
 10
34.2146434807
 20
43.2125561083
 11
33.5020322178
 21
44.7388439455
  0
LINE
  5
305
100
AcDbEntity
  8
0
100
AcDbLine
 62
7
  6
CONTINUOUS
 10
18.7040562731
 20
52.8686883405
 11
26.2701303321
 21
48.5005122671
  0
LINE
  5
306
100
AcDbEntity
  8
0
100
AcDbLine
 62
7
  6
CONTINUOUS
 10
17.890879206
 20
53.4606379444
 11
18.8101218487
 21
52.9299249636
  0
LINE
  5
307
100
AcDbEntity
  8
0
100
AcDbLine
 62
7
  6
CONTINUOUS
 10
18.2797816061
 20
54.3301951316
 11
18.8454693862
 21
54.003602528
  0
LINE
  5
308
100
AcDbEntity
  8
0
100
AcDbLine
 62
7
  6
CONTINUOUS
 10
35.9626797838
 20
41.8991666098
 11
34.2146434807
 21
43.2125561083
  0
LINE
  5
309
100
AcDbEntity
  8
0
100
AcDbLine
 62
7
  6
CONTINUOUS
 10
33.5020322178
 20
44.7388439455
 11
21.5454639048
 21
53.722428115
  0
LINE
  5
30A
100
AcDbEntity
  8
0
100
AcDbLine
 62
7
  6
CONTINUOUS
 10
36.452493888
 20
14.2891625032
 11
37.3010184927
 21
14.7790554878
  0
LINE
  5
30B
100
AcDbEntity
  8
0
100
AcDbLine
 62
7
  6
CONTINUOUS
 10
23.6539144345
 20
6.8999433181
 11
22.2396949842
 21
6.0834199929
  0
LINE
  5
30C
100
AcDbEntity
  8
0
100
AcDbLine
 62
7
  6
CONTINUOUS
 10
33.6240667633
 20
12.6561508702
 11
35.0382744378
 21
13.4726391779
  0
LINE
  5
30D
100
AcDbEntity
  8
0
100
AcDbLine
 62
7
  6
CONTINUOUS
 10
35.8867990424
 20
12.982729262
 11
34.4726130966
 21
12.1662534992
  0
LINE
  5
30E
100
AcDbEntity
  8
0
100
AcDbLine
 62
7
  6
CONTINUOUS
 10
21.3911703795
 20
4.6137241077
 11
23.6539026586
 21
5.9201054
  0
LINE
  5
30F
100
AcDbEntity
  8
0
100
AcDbLine
 62
7
  6
CONTINUOUS
 10
20.6839470173
 20
54.0117719713
 11
21.3652917602
 21
53.6184062997
  0
LINE
  5
310
100
AcDbEntity
  8
0
100
AcDbLine
 62
7
  6
CONTINUOUS
 10
22.7410095848
 20
52.8241532117
 11
36.452493888
 21
44.9080031455
  0
LINE
  5
311
100
AcDbEntity
  8
0
100
AcDbLine
 62
7
  6
CONTINUOUS
 10
21.3203392932
 20
54.5343236673
 11
19.9768308154
 21
55.3099811009
  0
LINE
  5
312
100
AcDbEntity
  8
0
100
AcDbLine
 62
7
  6
CONTINUOUS
 10
21.5324716219
 20
54.4934999318
 11
21.3910496769
 21
54.5751480827
  0
LINE
  5
313
100
AcDbEntity
  8
0
100
AcDbLine
 62
7
  6
CONTINUOUS
 10
21.5324716219
 20
54.501664956
 11
37.3010184927
 21
45.3978961302
  0
LINE
  5
314
100
AcDbEntity
  8
0
100
AcDbLine
 62
7
  6
CONTINUOUS
 10
35.0382862136
 20
11.8396693611
 11
25.0681221089
 21
6.0834267916
  0
LINE
  5
315
100
AcDbEntity
  8
0
100
AcDbLine
 62
7
  6
CONTINUOUS
 10
25.0681221089
 20
5.103623891
 11
35.0382862136
 21
10.8598664606
  0
ARC
  5
316
100
AcDbEntity
  8
0
100
AcDbCircle
 62
7
  6
CONTINUOUS
 10
24.1574873628
 20
43.2675911408
 40
3.2781008422
100
AcDbArc
 50
294.1376371663
 51
294.4186341693
  0
ARC
  5
317
100
AcDbEntity
  8
0
100
AcDbCircle
 62
7
  6
CONTINUOUS
 10
18.9421900731
 20
18.0073189393
 40
1.8664092032
100
AcDbArc
 50
170.1726810461
 51
171.0891007543
  0
ARC
  5
318
100
AcDbEntity
  8
0
100
AcDbCircle
 62
7
  6
CONTINUOUS
 10
20.6982502633
 20
16.9887002771
 40
1.8545281203
100
AcDbArc
 50
170.1596305367
 51
171.8885457952
  0
ARC
  5
319
100
AcDbEntity
  8
0
100
AcDbCircle
 62
7
  6
CONTINUOUS
 10
30.6074200761
 20
29.762789717
 40
1.1794056394
100
AcDbArc
 50
237.4902718101
 51
240.0073717327
  0
ARC
  5
31A
100
AcDbEntity
  8
0
100
AcDbCircle
 62
7
  6
CONTINUOUS
 10
30.6046508094
 20
28.615192287
 40
1.1741290774
100
AcDbArc
 50
237.9090404738
 51
240.0147847772
  0
ARC
  5
31B
100
AcDbEntity
  8
0
100
AcDbCircle
 62
7
  6
CONTINUOUS
 10
30.5902875693
 20
28.8091133566
 40
1.1467287494
100
AcDbArc
 50
120.1550974758
 51
123.5786562148
  0
ARC
  5
31C
100
AcDbEntity
  8
0
100
AcDbCircle
 62
7
  6
CONTINUOUS
 10
20.4977424974
 20
33.9879825536
 40
0.8389911659
100
AcDbArc
 50
176.4489126431
 51
180.0416305115
  0
SPLINE
  5
31D
100
AcDbEntity
  8
0
100
AcDbSpline
 62
7
  6
CONTINUOUS
 70
0
 71
3
 72
10
 73
6
 74
0
 42
0.0000001
 43
0.0000001
 44
0.0000000001
 40
0.0
 40
0.0
 40
0.0
 40
0.0
 40
0.2783296535
 40
0.537709705
 40
1.0
 40
1.0
 40
1.0
 40
1.0
 10
20.3305057918
 20
34.375221531
 30
0.0
 10
20.302185717
 20
34.3915717639
 30
0.0
 10
20.2456050609
 20
34.4201887838
 30
0.0
 10
20.1348083244
 20
34.4594883186
 30
0.0
 10
20.0483899574
 20
34.4700695966
 30
0.0
 10
19.9942957686
 20
34.4651813676
 30
0.0
  0
SPLINE
  5
31E
100
AcDbEntity
  8
0
100
AcDbSpline
 62
7
  6
CONTINUOUS
 70
0
 71
3
 72
9
 73
5
 74
0
 42
0.0000001
 43
0.0000001
 44
0.0000000001
 40
0.0
 40
0.0
 40
0.0
 40
0.0
 40
0.5080253381
 40
1.0
 40
1.0
 40
1.0
 40
1.0
 10
19.9942957686
 20
34.4651813676
 30
0.0
 10
19.9696493487
 20
34.4629541904
 30
0.0
 10
19.921400513
 20
34.453786881
 30
0.0
 10
19.8762646054
 20
34.4342479334
 30
0.0
 10
19.8555102885
 20
34.4222654907
 30
0.0
  0
SPLINE
  5
31F
100
AcDbEntity
  8
0
100
AcDbSpline
 62
7
  6
CONTINUOUS
 70
0
 71
3
 72
9
 73
5
 74
0
 42
0.0000001
 43
0.0000001
 44
0.0000000001
 40
0.0
 40
0.0
 40
0.0
 40
0.0
 40
0.4960767682
 40
1.0
 40
1.0
 40
1.0
 40
1.0
 10
20.7392334136
 20
41.6215507048
 30
0.0
 10
20.7392280883
 20
41.6725498218
 30
0.0
 10
20.7472769026
 20
41.7755109348
 30
0.0
 10
20.7710429983
 20
41.8759751958
 30
0.0
 10
20.7865631203
 20
41.9254015434
 30
0.0
  0
SPLINE
  5
320
100
AcDbEntity
  8
0
100
AcDbSpline
 62
7
  6
CONTINUOUS
 70
0
 71
3
 72
15
 73
11
 74
0
 42
0.0000001
 43
0.0000001
 44
0.0000000001
 40
0.0
 40
0.0
 40
0.0
 40
0.0
 40
0.1080119137
 40
0.2180626988
 40
0.3320042827
 40
0.4513461586
 40
0.5772503315
 40
0.7105108382
 40
0.8514977596
 40
1.0
 40
1.0
 40
1.0
 40
1.0
 10
20.7392334091
 20
40.1518463539
 30
0.0
 10
20.739239242
 20
40.0959991809
 30
0.0
 10
20.748924263
 20
39.9830236654
 30
0.0
 10
20.7922214354
 20
39.8161534822
 30
0.0
 10
20.8636879522
 20
39.6528941476
 30
0.0
 10
20.962367543
 20
39.4948653274
 30
0.0
 10
21.0872408552
 20
39.3435221854
 30
0.0
 10
21.2370109068
 20
39.2001615387
 30
0.0
 10
21.4101641373
 20
39.0661990804
 30
0.0
 10
21.5367642987
 20
38.9859166949
 30
0.0
 10
21.6032603152
 20
38.9475260704
 30
0.0
  0
SPLINE
  5
321
100
AcDbEntity
  8
0
100
AcDbSpline
 62
7
  6
CONTINUOUS
 70
0
 71
3
 72
9
 73
5
 74
0
 42
0.0000001
 43
0.0000001
 44
0.0000000001
 40
0.0
 40
0.0
 40
0.0
 40
0.0
 40
0.5145509592
 40
1.0
 40
1.0
 40
1.0
 40
1.0
 10
24.6921042976
 20
38.2426027136
 30
0.0
 10
24.8469967322
 20
38.2102790088
 30
0.0
 10
25.1450178094
 20
38.1317411103
 30
0.0
 10
25.4320138486
 20
38.018706794
 30
0.0
 10
25.5667860838
 20
37.9545117995
 30
0.0
  0
SPLINE
  5
322
100
AcDbEntity
  8
0
100
AcDbSpline
 62
7
  6
CONTINUOUS
 70
0
 71
3
 72
14
 73
10
 74
0
 42
0.0000001
 43
0.0000001
 44
0.0000000001
 40
0.0
 40
0.0
 40
0.0
 40
0.0
 40
0.1037989046
 40
0.2103528894
 40
0.3220292264
 40
0.4406775165
 40
0.5675289237
 40
0.7032618006
 40
1.0
 40
1.0
 40
1.0
 40
1.0
 10
20.8512052539
 20
32.860959928
 30
0.0
 10
20.8336284578
 20
32.8508029412
 30
0.0
 10
20.7957830735
 20
32.8338366822
 30
0.0
 10
20.7339842603
 20
32.8199147666
 30
0.0
 10
20.667813052
 20
32.8173299001
 30
0.0
 10
20.5982392808
 20
32.8261187215
 30
0.0
 10
20.5261342116
 20
32.8459758509
 30
0.0
 10
20.4249636036
 20
32.8881267927
 30
0.0
 10
20.3527790437
 20
32.9336121731
 30
0.0
 10
20.3063815535
 20
32.9684729916
 30
0.0
  0
SPLINE
  5
323
100
AcDbEntity
  8
0
100
AcDbSpline
 62
7
  6
CONTINUOUS
 70
0
 71
3
 72
10
 73
6
 74
0
 42
0.0000001
 43
0.0000001
 44
0.0000000001
 40
0.0
 40
0.0
 40
0.0
 40
0.0
 40
0.2250941457
 40
0.5928687225
 40
1.0
 40
1.0
 40
1.0
 40
1.0
 10
23.0971943752
 20
37.8351999502
 30
0.0
 10
23.1075590608
 20
37.851835117
 30
0.0
 10
23.1308297777
 20
37.8982359137
 30
0.0
 10
23.1537134211
 20
37.9829528417
 30
0.0
 10
23.1587740342
 20
38.0506055348
 30
0.0
 10
23.1587740342
 20
38.0860561507
 30
0.0
  0
SPLINE
  5
324
100
AcDbEntity
  8
0
100
AcDbSpline
 62
7
  6
CONTINUOUS
 70
0
 71
3
 72
9
 73
5
 74
0
 42
0.0000001
 43
0.0000001
 44
0.0000000001
 40
0.0
 40
0.0
 40
0.0
 40
0.0
 40
0.2329887112
 40
1.0
 40
1.0
 40
1.0
 40
1.0
 10
26.7323035115
 20
51.4931910613
 30
0.0
 10
26.7384492962
 20
51.5100304733
 30
0.0
 10
26.7609254869
 20
51.5837305013
 30
0.0
 10
26.7686414216
 20
51.6614222666
 30
0.0
 10
26.7686414216
 20
51.7204351566
 30
0.0
  0
SPLINE
  5
325
100
AcDbEntity
  8
0
100
AcDbSpline
 62
7
  6
CONTINUOUS
 70
0
 71
3
 72
15
 73
11
 74
0
 42
0.0000001
 43
0.0000001
 44
0.0000000001
 40
0.0
 40
0.0
 40
0.0
 40
0.0
 40
0.1139977135
 40
0.2370741808
 40
0.366688155
 40
0.49973363
 40
0.6328237806
 40
0.7625300249
 40
0.8858279087
 40
1.0
 40
1.0
 40
1.0
 40
1.0
 10
30.0142370252
 20
29.8006538728
 30
0.0
 10
30.0770916778
 20
29.8372294461
 30
0.0
 10
30.2146782321
 20
29.9017667305
 30
0.0
 10
30.4389335206
 20
29.9704398629
 30
0.0
 10
30.6819300279
 20
30.0128479779
 30
0.0
 10
30.9345102739
 20
30.0273599655
 30
0.0
 10
31.1871783917
 20
30.0134121941
 30
0.0
 10
31.4305084965
 20
29.9715874197
 30
0.0
 10
31.6552262605
 20
29.9033692507
 30
0.0
 10
31.7932429148
 20
29.8391693785
 30
0.0
 10
31.8563186518
 20
29.8027534087
 30
0.0
  0
SPLINE
  5
326
100
AcDbEntity
  8
0
100
AcDbSpline
 62
7
  6
CONTINUOUS
 70
0
 71
3
 72
12
 73
8
 74
0
 42
0.0000001
 43
0.0000001
 44
0.0000000001
 40
0.0
 40
0.0
 40
0.0
 40
0.0
 40
0.1102793434
 40
0.2222677045
 40
0.4569954654
 40
0.7147669246
 40
1.0
 40
1.0
 40
1.0
 40
1.0
 10
29.4663873212
 20
30.3743132696
 30
0.0
 10
29.4663946353
 20
30.35022903
 30
0.0
 10
29.4701995206
 20
30.3016051036
 30
0.0
 10
29.4930510728
 20
30.2041165834
 30
0.0
 10
29.5517724641
 20
30.083821381
 30
0.0
 10
29.6625877799
 20
29.9533726654
 30
0.0
 10
29.756407805
 20
29.8795998058
 30
0.0
 10
29.8082449465
 20
29.8450553657
 30
0.0
  0
SPLINE
  5
327
100
AcDbEntity
  8
0
100
AcDbSpline
 62
7
  6
CONTINUOUS
 70
0
 71
3
 72
13
 73
9
 74
0
 42
0.0000001
 43
0.0000001
 44
0.0000000001
 40
0.0
 40
0.0
 40
0.0
 40
0.0
 40
0.1081033366
 40
0.2182377598
 40
0.332238321
 40
0.4516627248
 40
0.7106932938
 40
1.0
 40
1.0
 40
1.0
 40
1.0
 10
25.9595629139
 20
15.8741980434
 30
0.0
 10
25.9841576339
 20
15.8599985936
 30
0.0
 10
26.0314264251
 20
15.8269794734
 30
0.0
 10
26.0939051874
 20
15.7655078254
 30
0.0
 10
26.1476518429
 20
15.6925538048
 30
0.0
 10
26.2085827277
 20
15.5779808957
 30
0.0
 10
26.2587491289
 20
15.4080073332
 30
0.0
 10
26.2702351374
 20
15.2635278634
 30
0.0
 10
26.2702351374
 20
15.1875253038
 30
0.0
  0
SPLINE
  5
328
100
AcDbEntity
  8
0
100
AcDbSpline
 62
7
  6
CONTINUOUS
 70
0
 71
3
 72
14
 73
10
 74
0
 42
0.0000001
 43
0.0000001
 44
0.0000000001
 40
0.0
 40
0.0
 40
0.0
 40
0.0
 40
0.1080603346
 40
0.2181598569
 40
0.3321534292
 40
0.4515501839
 40
0.7103781113
 40
0.8514270385
 40
1.0
 40
1.0
 40
1.0
 40
1.0
 10
26.6059524779
 20
33.466995475
 30
0.0
 10
26.663332626
 20
33.5001318858
 30
0.0
 10
26.7736662618
 20
33.5771107888
 30
0.0
 10
26.9194489124
 20
33.7205791119
 30
0.0
 10
27.0448087188
 20
33.8908807342
 30
0.0
 10
27.186994639
 20
34.1581009023
 30
0.0
 10
27.2782154949
 20
34.4669041335
 30
0.0
 10
27.3234529681
 20
34.8003627102
 30
0.0
 10
27.3308520329
 20
34.9781304534
 30
0.0
 10
27.3308520329
 20
35.0692330211
 30
0.0
  0
SPLINE
  5
329
100
AcDbEntity
  8
0
100
AcDbSpline
 62
7
  6
CONTINUOUS
 70
0
 71
3
 72
9
 73
5
 74
0
 42
0.0000001
 43
0.0000001
 44
0.0000000001
 40
0.0
 40
0.0
 40
0.0
 40
0.0
 40
0.4745440864
 40
1.0
 40
1.0
 40
1.0
 40
1.0
 10
24.3966321421
 20
33.8108566911
 30
0.0
 10
24.4333245095
 20
33.9013239003
 30
0.0
 10
24.4872075971
 20
34.1017434285
 30
0.0
 10
24.5024296185
 20
34.3079394919
 30
0.0
 10
24.5024296185
 20
34.4160382943
 30
0.0
  0
SPLINE
  5
32A
100
AcDbEntity
  8
0
100
AcDbSpline
 62
7
  6
CONTINUOUS
 70
0
 71
3
 72
14
 73
10
 74
0
 42
0.0000001
 43
0.0000001
 44
0.0000000001
 40
0.0
 40
0.0
 40
0.0
 40
0.0
 40
0.1085787019
 40
0.2191155083
 40
0.3333917715
 40
0.4529051975
 40
0.5787703691
 40
0.7117513634
 40
1.0
 40
1.0
 40
1.0
 40
1.0
 10
31.4849689546
 20
36.2838801367
 30
0.0
 10
31.4289160491
 20
36.2515101941
 30
0.0
 10
31.3100838676
 20
36.1955820462
 30
0.0
 10
31.1180528273
 20
36.1412938842
 30
0.0
 10
30.9134904511
 20
36.1165964733
 30
0.0
 10
30.698487118
 20
36.1216553993
 30
0.0
 10
30.4749846363
 20
36.156106873
 30
0.0
 10
30.1600857185
 20
36.2430980641
 30
0.0
 10
29.92987093
 20
36.3483057582
 30
0.0
 10
29.779718867
 20
36.4318656198
 30
0.0
  0
SPLINE
  5
32B
100
AcDbEntity
  8
0
100
AcDbSpline
 62
7
  6
CONTINUOUS
 70
0
 71
3
 72
14
 73
10
 74
0
 42
0.0000001
 43
0.0000001
 44
0.0000000001
 40
0.0
 40
0.0
 40
0.0
 40
0.0
 40
0.1080603346
 40
0.2181598569
 40
0.3321534292
 40
0.451550184
 40
0.7103781113
 40
0.8514270385
 40
1.0
 40
1.0
 40
1.0
 40
1.0
 10
33.4648596988
 20
37.4269637675
 30
0.0
 10
33.5222398469
 20
37.4601001783
 30
0.0
 10
33.6325734826
 20
37.5370790812
 30
0.0
 10
33.7783561332
 20
37.6805474042
 30
0.0
 10
33.9037159395
 20
37.8508490264
 30
0.0
 10
34.0459018597
 20
38.1180691942
 30
0.0
 10
34.1371227157
 20
38.4268724251
 30
0.0
 10
34.182360189
 20
38.7603310015
 30
0.0
 10
34.1897592538
 20
38.9380987445
 30
0.0
 10
34.1897592538
 20
39.0292013121
 30
0.0
  0
SPLINE
  5
32C
100
AcDbEntity
  8
0
100
AcDbSpline
 62
7
  6
CONTINUOUS
 70
0
 71
3
 72
20
 73
16
 74
0
 42
0.0000001
 43
0.0000001
 44
0.0000000001
 40
0.0
 40
0.0
 40
0.0
 40
0.0
 40
0.0623623718
 40
0.1287978666
 40
0.2702900728
 40
0.4173462783
 40
0.5615916576
 40
0.6302259195
 40
0.6953492735
 40
0.7563316169
 40
0.8128017219
 40
0.8647350214
 40
0.9125311014
 40
0.957131464
 40
1.0
 40
1.0
 40
1.0
 40
1.0
 10
9.4976247513
 20
41.7490555027
 30
0.0
 10
9.4644217253
 20
41.768224845
 30
0.0
 10
9.398417944
 20
41.8123765372
 30
0.0
 10
9.2710521846
 20
41.9194863894
 30
0.0
 10
9.1260753035
 20
42.0844717248
 30
0.0
 10
8.986148461
 20
42.3120767969
 30
0.0
 10
8.9027073697
 20
42.5184158421
 30
0.0
 10
8.8615166985
 20
42.6845340099
 30
0.0
 10
8.8446898181
 20
42.8033104245
 30
0.0
 10
8.8418239744
 20
42.9158006319
 30
0.0
 10
8.8530248956
 20
43.0196929183
 30
0.0
 10
8.8781916965
 20
43.1128420879
 30
0.0
 10
8.9170371085
 20
43.1932989631
 30
0.0
 10
8.9690467522
 20
43.2591187436
 30
0.0
 10
9.0123123529
 20
43.2922008609
 30
0.0
 10
9.0351423994
 20
43.3053677618
 30
0.0
  0
SPLINE
  5
32D
100
AcDbEntity
  8
0
100
AcDbSpline
 62
7
  6
CONTINUOUS
 70
0
 71
3
 72
11
 73
7
 74
0
 42
0.0000001
 43
0.0000001
 44
0.0000000001
 40
0.0
 40
0.0
 40
0.0
 40
0.0
 40
0.2208534145
 40
0.4591139805
 40
0.7184518752
 40
1.0
 40
1.0
 40
1.0
 40
1.0
 10
9.8624881657
 20
41.6668350327
 30
0.0
 10
9.8349393795
 20
41.6613593568
 30
0.0
 10
9.7761158439
 20
41.6570755789
 30
0.0
 10
9.6850775797
 20
41.6696256015
 30
0.0
 10
9.5904212221
 20
41.7003561493
 30
0.0
 10
9.5286344623
 20
41.7311524427
 30
0.0
 10
9.4976247513
 20
41.7490555027
 30
0.0
  0
SPLINE
  5
32E
100
AcDbEntity
  8
0
100
AcDbSpline
 62
7
  6
CONTINUOUS
 70
0
 71
3
 72
15
 73
11
 74
0
 42
0.0000001
 43
0.0000001
 44
0.0000000001
 40
0.0
 40
0.0
 40
0.0
 40
0.0
 40
0.1127733221
 40
0.2339534478
 40
0.3614372531
 40
0.4927187369
 40
0.6249952743
 40
0.7553972372
 40
0.8812186803
 40
1.0
 40
1.0
 40
1.0
 40
1.0
 10
21.6032603152
 20
38.9475260704
 30
0.0
 10
21.734227344
 20
38.8719139316
 30
0.0
 10
22.0188554249
 20
38.7369166361
 30
0.0
 10
22.4812582743
 20
38.5879858474
 30
0.0
 10
22.9821359059
 20
38.4889239482
 30
0.0
 10
23.5054473357
 20
38.4428234979
 30
0.0
 10
24.0346137143
 20
38.4512010022
 30
0.0
 10
24.5528334153
 20
38.5137274805
 30
0.0
 10
25.0434775986
 20
38.6284666326
 30
0.0
 10
25.3526447241
 20
38.7412680327
 30
0.0
 10
25.4980011603
 20
38.8064042327
 30
0.0
  0
SPLINE
  5
32F
100
AcDbEntity
  8
0
100
AcDbSpline
 62
7
  6
CONTINUOUS
 70
0
 71
3
 72
9
 73
5
 74
0
 42
0.0000001
 43
0.0000001
 44
0.0000000001
 40
0.0
 40
0.0
 40
0.0
 40
0.0
 40
0.520904659
 40
1.0
 40
1.0
 40
1.0
 40
1.0
 10
25.4980011603
 20
38.8064042327
 30
0.0
 10
25.6197890841
 20
38.860979061
 30
0.0
 10
25.8476163782
 20
38.9799185727
 30
0.0
 10
26.0562571895
 20
39.1308008147
 30
0.0
 10
26.1487777285
 20
39.2114625814
 30
0.0
  0
SPLINE
  5
330
100
AcDbEntity
  8
0
100
AcDbSpline
 62
7
  6
CONTINUOUS
 70
0
 71
3
 72
11
 73
7
 74
0
 42
0.0000001
 43
0.0000001
 44
0.0000000001
 40
0.0
 40
0.0
 40
0.0
 40
0.0
 40
0.2803851416
 40
0.5398586217
 40
0.7785846315
 40
1.0
 40
1.0
 40
1.0
 40
1.0
 10
19.7648174229
 20
34.0077853291
 30
0.0
 10
19.7648174229
 20
34.0415984097
 30
0.0
 10
19.7687375502
 20
34.1068029651
 30
0.0
 10
19.7876834509
 20
34.1991497238
 30
0.0
 10
19.8194679511
 20
34.2803981094
 30
0.0
 10
19.8498507205
 20
34.3274445971
 30
0.0
 10
19.8668852805
 20
34.3480066965
 30
0.0
  0
SPLINE
  5
331
100
AcDbEntity
  8
0
100
AcDbSpline
 62
7
  6
CONTINUOUS
 70
0
 71
3
 72
9
 73
5
 74
0
 42
0.0000001
 43
0.0000001
 44
0.0000000001
 40
0.0
 40
0.0
 40
0.0
 40
0.0
 40
0.5053172426
 40
1.0
 40
1.0
 40
1.0
 40
1.0
 10
19.8668852805
 20
34.3480066965
 30
0.0
 10
19.8788330785
 20
34.3624286603
 30
0.0
 10
19.9049122421
 20
34.3890575624
 30
0.0
 10
19.9353529199
 20
34.4106042665
 30
0.0
 10
19.9512270972
 20
34.4197773722
 30
0.0
  0
SPLINE
  5
332
100
AcDbEntity
  8
0
100
AcDbSpline
 62
7
  6
CONTINUOUS
 70
0
 71
3
 72
14
 73
10
 74
0
 42
0.0000001
 43
0.0000001
 44
0.0000000001
 40
0.0
 40
0.0
 40
0.0
 40
0.0
 40
0.1195994553
 40
0.2460096426
 40
0.5083786516
 40
0.639381055
 40
0.766516668
 40
0.8874705782
 40
1.0
 40
1.0
 40
1.0
 40
1.0
 10
20.3063815535
 20
32.9684729916
 30
0.0
 10
20.2678799858
 20
32.9974011979
 30
0.0
 10
20.1927340854
 20
33.0624362718
 30
0.0
 10
20.0543078095
 20
33.2136530484
 30
0.0
 10
19.9385550746
 20
33.3902127887
 30
0.0
 10
19.8510967455
 20
33.580961814
 30
0.0
 10
19.8024471242
 20
33.7260076293
 30
0.0
 10
19.7723330787
 20
33.8683830556
 30
0.0
 10
19.7648174229
 20
33.9624739695
 30
0.0
 10
19.7648174229
 20
34.0077853291
 30
0.0
  0
SPLINE
  5
333
100
AcDbEntity
  8
0
100
AcDbSpline
 62
7
  6
CONTINUOUS
 70
0
 71
3
 72
10
 73
6
 74
0
 42
0.0000001
 43
0.0000001
 44
0.0000000001
 40
0.0
 40
0.0
 40
0.0
 40
0.0
 40
0.2299945297
 40
0.4759377571
 40
1.0
 40
1.0
 40
1.0
 40
1.0
 10
23.1587740342
 20
38.0860561507
 30
0.0
 10
23.1587740342
 20
38.119342415
 30
0.0
 10
23.1538840318
 20
38.1882780635
 30
0.0
 10
23.1270150528
 20
38.3306951773
 30
0.0
 10
23.0889487178
 20
38.4364581214
 30
0.0
 10
23.0571075184
 20
38.5052962931
 30
0.0
  0
SPLINE
  5
334
100
AcDbEntity
  8
0
100
AcDbSpline
 62
7
  6
CONTINUOUS
 70
0
 71
3
 72
18
 73
14
 74
0
 42
0.0000001
 43
0.0000001
 44
0.0000000001
 40
0.0
 40
0.0
 40
0.0
 40
0.0
 40
0.1245622179
 40
0.2611240298
 40
0.4038367
 40
0.5458923058
 40
0.6805807529
 40
0.7434338857
 40
0.8025445388
 40
0.8576074256
 40
0.9086294317
 40
0.9559019235
 40
1.0
 40
1.0
 40
1.0
 40
1.0
 10
26.7686414216
 20
51.7204351566
 30
0.0
 10
26.7686414216
 20
51.7926715932
 30
0.0
 10
26.7501506524
 20
51.9442767885
 30
0.0
 10
26.6800057568
 20
52.1687391917
 30
0.0
 10
26.5707199603
 20
52.3884181235
 30
0.0
 10
26.4298983576
 20
52.5878874479
 30
0.0
 10
26.2911234163
 20
52.7292366053
 30
0.0
 10
26.1723310206
 20
52.8192898402
 30
0.0
 10
26.0841760024
 20
52.8723466558
 30
0.0
 10
25.9964168047
 20
52.9114374907
 30
0.0
 10
25.9105285927
 20
52.9358736869
 30
0.0
 10
25.8280383932
 20
52.9449633352
 30
0.0
 10
25.7747843097
 20
52.9405285894
 30
0.0
 10
25.7497015113
 20
52.9355430603
 30
0.0
  0
SPLINE
  5
335
100
AcDbEntity
  8
0
100
AcDbSpline
 62
7
  6
CONTINUOUS
 70
0
 71
3
 72
12
 73
8
 74
0
 42
0.0000001
 43
0.0000001
 44
0.0000000001
 40
0.0
 40
0.0
 40
0.0
 40
0.0
 40
0.2645562829
 40
0.5246917081
 40
0.7720805915
 40
0.8889131493
 40
1.0
 40
1.0
 40
1.0
 40
1.0
 10
15.3173603887
 20
20.6142762611
 30
0.0
 10
15.2118896109
 20
20.4561366833
 30
0.0
 10
15.0228243968
 20
20.128530672
 30
0.0
 10
14.8090318669
 20
19.61507637
 30
0.0
 10
14.6943893046
 20
19.1794450586
 30
0.0
 10
14.6478919466
 20
18.8407872033
 30
0.0
 10
14.6397086242
 20
18.6769491355
 30
0.0
 10
14.6397086242
 20
18.5971327892
 30
0.0
  0
SPLINE
  5
336
100
AcDbEntity
  8
0
100
AcDbSpline
 62
7
  6
CONTINUOUS
 70
0
 71
3
 72
15
 73
11
 74
0
 42
0.0000001
 43
0.0000001
 44
0.0000000001
 40
0.0
 40
0.0
 40
0.0
 40
0.0
 40
0.1484711652
 40
0.2894652764
 40
0.4227516619
 40
0.548659668
 40
0.6679944014
 40
0.7819273683
 40
0.8919837779
 40
1.0
 40
1.0
 40
1.0
 40
1.0
 10
14.6397086242
 20
18.5971327892
 30
0.0
 10
14.6397086242
 20
18.5308256097
 30
0.0
 10
14.6450941341
 20
18.4014634472
 30
0.0
 10
14.6705255033
 20
18.2140852464
 30
0.0
 10
14.7130668988
 20
18.0401167105
 30
0.0
 10
14.772369125
 20
17.8813451544
 30
0.0
 10
14.8479376672
 20
17.7392718086
 30
0.0
 10
14.9392309733
 20
17.6153378989
 30
0.0
 10
15.045323212
 20
17.510850414
 30
0.0
 10
15.1256687363
 20
17.4548286268
 30
0.0
 10
15.167448171
 20
17.4307127038
 30
0.0
  0
SPLINE
  5
337
100
AcDbEntity
  8
0
100
AcDbSpline
 62
7
  6
CONTINUOUS
 70
0
 71
3
 72
15
 73
11
 74
0
 42
0.0000001
 43
0.0000001
 44
0.0000000001
 40
0.0
 40
0.0
 40
0.0
 40
0.0
 40
0.1141242661
 40
0.2373486253
 40
0.3669740476
 40
0.5000015346
 40
0.6330288076
 40
0.7626536034
 40
0.8858770013
 40
1.0
 40
1.0
 40
1.0
 40
1.0
 10
26.2702351374
 20
15.1875253038
 30
0.0
 10
26.2702351374
 20
15.1037045708
 30
0.0
 10
26.2548446119
 20
14.9292208512
 30
0.0
 10
26.193672005
 20
14.6660013547
 30
0.0
 10
26.0955586401
 20
14.3993791484
 30
0.0
 10
25.9643327845
 20
14.1393899864
 30
0.0
 10
25.8047899676
 20
13.8957500628
 30
0.0
 10
25.6229468164
 20
13.6774705249
 30
0.0
 10
25.4255803329
 20
13.4928846719
 30
0.0
 10
25.2821695678
 20
13.3923151607
 30
0.0
 10
25.2095793815
 20
13.3504054473
 30
0.0
  0
SPLINE
  5
338
100
AcDbEntity
  8
0
100
AcDbSpline
 62
7
  6
CONTINUOUS
 70
0
 71
3
 72
13
 73
9
 74
0
 42
0.0000001
 43
0.0000001
 44
0.0000000001
 40
0.0
 40
0.0
 40
0.0
 40
0.0
 40
0.2893052466
 40
0.5483352362
 40
0.6677598057
 40
0.78176081
 40
0.8918958892
 40
1.0
 40
1.0
 40
1.0
 40
1.0
 10
25.2095793815
 20
13.3504054473
 30
0.0
 10
25.1437620795
 20
13.312406037
 30
0.0
 10
25.0129017438
 20
13.250116448
 30
0.0
 10
24.8406244779
 20
13.208576882
 30
0.0
 10
24.7109411576
 20
13.2040578274
 30
0.0
 10
24.6208909847
 20
13.2141257979
 30
0.0
 10
24.5364182217
 20
13.2374963907
 30
0.0
 10
24.4841897694
 20
13.2619211144
 30
0.0
 10
24.4595958491
 20
13.2761201025
 30
0.0
  0
SPLINE
  5
339
100
AcDbEntity
  8
0
100
AcDbSpline
 62
7
  6
CONTINUOUS
 70
0
 71
3
 72
14
 73
10
 74
0
 42
0.0000001
 43
0.0000001
 44
0.0000000001
 40
0.0
 40
0.0
 40
0.0
 40
0.0
 40
0.1485729615
 40
0.2896218887
 40
0.5484498161
 40
0.6678465708
 40
0.7818401431
 40
0.8919396654
 40
1.0
 40
1.0
 40
1.0
 40
1.0
 10
25.3509612886
 20
33.9261493893
 30
0.0
 10
25.3509612886
 20
33.8350468217
 30
0.0
 10
25.3435622238
 20
33.6572790786
 30
0.0
 10
25.2983247506
 20
33.3238205021
 30
0.0
 10
25.2071038946
 20
33.0150172711
 30
0.0
 10
25.0649179744
 20
32.7477971032
 30
0.0
 10
24.9395581681
 20
32.5774954809
 30
0.0
 10
24.7937755175
 20
32.4340271579
 30
0.0
 10
24.6834418818
 20
32.3570482549
 30
0.0
 10
24.6260617337
 20
32.3239118441
 30
0.0
  0
SPLINE
  5
33A
100
AcDbEntity
  8
0
100
AcDbSpline
 62
7
  6
CONTINUOUS
 70
0
 71
3
 72
12
 73
8
 74
0
 42
0.0000001
 43
0.0000001
 44
0.0000000001
 40
0.0
 40
0.0
 40
0.0
 40
0.0
 40
0.2894180669
 40
0.5486931629
 40
0.7816428812
 40
0.891829633
 40
1.0
 40
1.0
 40
1.0
 40
1.0
 10
21.0376149282
 20
33.272951971
 30
0.0
 10
21.0376149282
 20
33.2273614629
 30
0.0
 10
21.0306621805
 20
33.140625357
 30
0.0
 10
20.9956486509
 20
33.0215129668
 30
0.0
 10
20.9452340856
 20
32.9393134848
 30
0.0
 10
20.8943215428
 20
32.8892906955
 30
0.0
 10
20.8659586232
 20
32.8694853598
 30
0.0
 10
20.8512052539
 20
32.860959928
 30
0.0
  0
SPLINE
  5
33B
100
AcDbEntity
  8
0
100
AcDbSpline
 62
7
  6
CONTINUOUS
 70
0
 71
3
 72
12
 73
8
 74
0
 42
0.0000001
 43
0.0000001
 44
0.0000000001
 40
0.0
 40
0.0
 40
0.0
 40
0.0
 40
0.1078721141
 40
0.2188915056
 40
0.4544975424
 40
0.7141176937
 40
1.0
 40
1.0
 40
1.0
 40
1.0
 10
16.746978725
 20
16.5326239751
 30
0.0
 10
16.7138397299
 20
16.5600146934
 30
0.0
 10
16.6506557556
 20
16.6206968944
 30
0.0
 10
16.5384696203
 20
16.7635376867
 30
0.0
 10
16.4288119423
 20
16.9818126794
 30
0.0
 10
16.3521782577
 20
17.2854298812
 30
0.0
 10
16.3367719646
 20
17.5034136475
 30
0.0
 10
16.3367719646
 20
17.6173549783
 30
0.0
  0
SPLINE
  5
33C
100
AcDbEntity
  8
0
100
AcDbSpline
 62
7
  6
CONTINUOUS
 70
0
 71
3
 72
12
 73
8
 74
0
 42
0.0000001
 43
0.0000001
 44
0.0000000001
 40
0.0
 40
0.0
 40
0.0
 40
0.0
 40
0.2510989711
 40
0.5134246844
 40
0.7685518004
 40
0.8882394391
 40
1.0
 40
1.0
 40
1.0
 40
1.0
 10
20.5608823347
 20
34.2595107905
 30
0.0
 10
20.6316051049
 20
34.1974865955
 30
0.0
 10
20.7616036759
 20
34.053466607
 30
0.0
 10
20.911421536
 20
33.805949478
 30
0.0
 10
20.9958895009
 20
33.5807536433
 30
0.0
 10
21.0311985865
 20
33.4015951008
 30
0.0
 10
21.0376149282
 20
33.3148201088
 30
0.0
 10
21.0376149282
 20
33.272951971
 30
0.0
  0
SPLINE
  5
33D
100
AcDbEntity
  8
0
100
AcDbSpline
 62
7
  6
CONTINUOUS
 70
0
 71
3
 72
9
 73
5
 74
0
 42
0.0000001
 43
0.0000001
 44
0.0000000001
 40
0.0
 40
0.0
 40
0.0
 40
0.0
 40
0.2475550156
 40
1.0
 40
1.0
 40
1.0
 40
1.0
 10
21.8057954277
 20
33.4120895467
 30
0.0
 10
21.8131249007
 20
33.4163249808
 30
0.0
 10
21.842005895
 20
33.4346735655
 30
0.0
 10
21.8676896789
 20
33.4579599726
 30
0.0
 10
21.8846031404
 20
33.4773500068
 30
0.0
  0
SPLINE
  5
33E
100
AcDbEntity
  8
0
100
AcDbSpline
 62
7
  6
CONTINUOUS
 70
0
 71
3
 72
9
 73
5
 74
0
 42
0.0000001
 43
0.0000001
 44
0.0000000001
 40
0.0
 40
0.0
 40
0.0
 40
0.0
 40
0.2584957192
 40
1.0
 40
1.0
 40
1.0
 40
1.0
 10
17.0983076494
 20
18.2964225909
 30
0.0
 10
17.094942305
 20
18.2749543855
 30
0.0
 10
17.0833949716
 20
18.1916870771
 30
0.0
 10
17.0778263742
 20
18.1075347632
 30
0.0
 10
17.0778263742
 20
18.0452003873
 30
0.0
  0
SPLINE
  5
33F
100
AcDbEntity
  8
0
100
AcDbSpline
 62
7
  6
CONTINUOUS
 70
0
 71
3
 72
13
 73
9
 74
0
 42
0.0000001
 43
0.0000001
 44
0.0000000001
 40
0.0
 40
0.0
 40
0.0
 40
0.0
 40
0.1081040887
 40
0.2182391431
 40
0.3322401274
 40
0.4516646903
 40
0.7106947514
 40
1.0
 40
1.0
 40
1.0
 40
1.0
 10
21.6461935905
 20
18.364466646
 30
0.0
 10
21.6215996688
 20
18.3786656197
 30
0.0
 10
21.5693712302
 20
18.4030903356
 30
0.0
 10
21.4848984915
 20
18.4264609526
 30
0.0
 10
21.3948483312
 20
18.4365289097
 30
0.0
 10
21.2651649995
 20
18.4320098802
 30
0.0
 10
21.0928877221
 20
18.3904702818
 30
0.0
 10
20.9620273601
 20
18.3281807114
 30
0.0
 10
20.8962100581
 20
18.2901813012
 30
0.0
  0
SPLINE
  5
340
100
AcDbEntity
  8
0
100
AcDbSpline
 62
7
  6
CONTINUOUS
 70
0
 71
3
 72
9
 73
5
 74
0
 42
0.0000001
 43
0.0000001
 44
0.0000000001
 40
0.0
 40
0.0
 40
0.0
 40
0.0
 40
0.4939499864
 40
1.0
 40
1.0
 40
1.0
 40
1.0
 10
19.9512270972
 20
34.4197773722
 30
0.0
 10
19.9680845485
 20
34.429518676
 30
0.0
 10
20.0042394809
 20
34.4459177791
 30
0.0
 10
20.0428277388
 20
34.4550975416
 30
0.0
 10
20.0625580516
 20
34.4580267867
 30
0.0
  0
SPLINE
  5
341
100
AcDbEntity
  8
0
100
AcDbSpline
 62
7
  6
CONTINUOUS
 70
0
 71
3
 72
13
 73
9
 74
0
 42
0.0000001
 43
0.0000001
 44
0.0000000001
 40
0.0
 40
0.0
 40
0.0
 40
0.0
 40
0.1081033366
 40
0.2182377598
 40
0.332238321
 40
0.4516627248
 40
0.7106932938
 40
1.0
 40
1.0
 40
1.0
 40
1.0
 10
24.4595958491
 20
13.2761201025
 30
0.0
 10
24.4350011291
 20
13.2903195523
 30
0.0
 10
24.3877323379
 20
13.3233386725
 30
0.0
 10
24.3252535757
 20
13.3848103205
 30
0.0
 10
24.2715069202
 20
13.4577643411
 30
0.0
 10
24.2105760353
 20
13.5723372502
 30
0.0
 10
24.1604096342
 20
13.7423108127
 30
0.0
 10
24.1489236257
 20
13.8867902825
 30
0.0
 10
24.1489236257
 20
13.9627928421
 30
0.0
  0
SPLINE
  5
342
100
AcDbEntity
  8
0
100
AcDbSpline
 62
7
  6
CONTINUOUS
 70
0
 71
3
 72
9
 73
5
 74
0
 42
0.0000001
 43
0.0000001
 44
0.0000000001
 40
0.0
 40
0.0
 40
0.0
 40
0.0
 40
0.2577956947
 40
1.0
 40
1.0
 40
1.0
 40
1.0
 10
18.8622758255
 20
17.2503726153
 30
0.0
 10
18.8595328839
 20
17.2311039571
 30
0.0
 10
18.8501038907
 20
17.1561975856
 30
0.0
 10
18.8456006871
 20
17.0806330156
 30
0.0
 10
18.8456006871
 20
17.024598501
 30
0.0
  0
SPLINE
  5
343
100
AcDbEntity
  8
0
100
AcDbSpline
 62
7
  6
CONTINUOUS
 70
0
 71
3
 72
13
 73
9
 74
0
 42
0.0000001
 43
0.0000001
 44
0.0000000001
 40
0.0
 40
0.0
 40
0.0
 40
0.0
 40
0.2893067043
 40
0.5483372018
 40
0.6677616121
 40
0.7817621933
 40
0.8918966414
 40
1.0
 40
1.0
 40
1.0
 40
1.0
 10
18.8456006871
 20
17.024598501
 30
0.0
 10
18.8456006871
 20
16.9485959414
 30
0.0
 10
18.8570866663
 20
16.804116485
 30
0.0
 10
18.9072530897
 20
16.6341429486
 30
0.0
 10
18.9681839473
 20
16.5195700369
 30
0.0
 10
19.0219306206
 20
16.4466160121
 30
0.0
 10
19.084409374
 20
16.3851443309
 30
0.0
 10
19.1316781787
 20
16.3521252028
 30
0.0
 10
19.1562729105
 20
16.3379257614
 30
0.0
  0
SPLINE
  5
344
100
AcDbEntity
  8
0
100
AcDbSpline
 62
7
  6
CONTINUOUS
 70
0
 71
3
 72
12
 73
8
 74
0
 42
0.0000001
 43
0.0000001
 44
0.0000000001
 40
0.0
 40
0.0
 40
0.0
 40
0.0
 40
0.2894218987
 40
0.5486856763
 40
0.7816345088
 40
0.8918284328
 40
1.0
 40
1.0
 40
1.0
 40
1.0
 10
32.7401781349
 20
41.7032069148
 30
0.0
 10
32.6897288004
 20
41.7323331928
 30
0.0
 10
32.5893095646
 20
41.7800511245
 30
0.0
 10
32.4351386698
 20
41.8174044513
 30
0.0
 10
32.3119715932
 20
41.8141329295
 30
0.0
 10
32.2240940248
 20
41.7897413688
 30
0.0
 10
32.1840561252
 20
41.7710111051
 30
0.0
 10
32.1651951342
 20
41.7601347277
 30
0.0
  0
SPLINE
  5
345
100
AcDbEntity
  8
0
100
AcDbSpline
 62
7
  6
CONTINUOUS
 70
0
 71
3
 72
11
 73
7
 74
0
 42
0.0000001
 43
0.0000001
 44
0.0000000001
 40
0.0
 40
0.0
 40
0.0
 40
0.0
 40
0.2216062609
 40
0.4563692811
 40
0.7141842182
 40
1.0
 40
1.0
 40
1.0
 40
1.0
 10
19.8555102885
 20
34.4222654907
 30
0.0
 10
19.8269694154
 20
34.4057875032
 30
0.0
 10
19.7733341021
 20
34.3621575565
 30
0.0
 10
19.713468925
 20
34.2728965341
 30
0.0
 10
19.6743339828
 20
34.1629345156
 30
0.0
 10
19.6630057309
 20
34.0823711364
 30
0.0
 10
19.6603622212
 20
34.0399484034
 30
0.0
  0
SPLINE
  5
346
100
AcDbEntity
  8
0
100
AcDbSpline
 62
7
  6
CONTINUOUS
 70
0
 71
3
 72
9
 73
5
 74
0
 42
0.0000001
 43
0.0000001
 44
0.0000000001
 40
0.0
 40
0.0
 40
0.0
 40
0.0
 40
0.518101607
 40
1.0
 40
1.0
 40
1.0
 40
1.0
 10
33.024083615
 20
41.4802120003
 30
0.0
 10
32.9800712041
 20
41.5245612938
 30
0.0
 10
32.8901803874
 20
41.6054305947
 30
0.0
 10
32.790508012
 20
41.6741496041
 30
0.0
 10
32.7401781349
 20
41.7032069148
 30
0.0
  0
SPLINE
  5
347
100
AcDbEntity
  8
0
100
AcDbSpline
 62
7
  6
CONTINUOUS
 70
0
 71
3
 72
10
 73
6
 74
0
 42
0.0000001
 43
0.0000001
 44
0.0000000001
 40
0.0
 40
0.0
 40
0.0
 40
0.0
 40
0.2331444111
 40
0.4788812546
 40
1.0
 40
1.0
 40
1.0
 40
1.0
 10
16.3367719646
 20
17.6173549783
 30
0.0
 10
16.3367719646
 20
17.7017433498
 30
0.0
 10
16.345921281
 20
17.8751748
 30
0.0
 10
16.3977451692
 20
18.233730203
 30
0.0
 10
16.4721839348
 20
18.5027031392
 30
0.0
 10
16.5350237174
 20
18.6805506571
 30
0.0
  0
SPLINE
  5
348
100
AcDbEntity
  8
0
100
AcDbSpline
 62
7
  6
CONTINUOUS
 70
0
 71
3
 72
11
 73
7
 74
0
 42
0.0000001
 43
0.0000001
 44
0.0000000001
 40
0.0
 40
0.0
 40
0.0
 40
0.0
 40
0.2833878145
 40
0.5431571436
 40
0.7803533228
 40
1.0
 40
1.0
 40
1.0
 40
1.0
 10
17.0778263742
 20
18.0452003873
 30
0.0
 10
17.0778263742
 20
17.9833580373
 30
0.0
 10
17.0856032731
 20
17.8645919876
 30
0.0
 10
17.1238243248
 20
17.6977544373
 30
0.0
 10
17.1878561282
 20
17.553872649
 30
0.0
 10
17.2490207902
 20
17.4736015817
 30
0.0
 10
17.2829434306
 20
17.4397375543
 30
0.0
  0
SPLINE
  5
349
100
AcDbEntity
  8
0
100
AcDbSpline
 62
7
  6
CONTINUOUS
 70
0
 71
3
 72
15
 73
11
 74
0
 42
0.0000001
 43
0.0000001
 44
0.0000000001
 40
0.0
 40
0.0
 40
0.0
 40
0.0
 40
0.1126785563
 40
0.2338241485
 40
0.3611962709
 40
0.4923951314
 40
0.6246345958
 40
0.7550518474
 40
0.8809447036
 40
1.0
 40
1.0
 40
1.0
 40
1.0
 10
19.6587515529
 20
33.9873729515
 30
0.0
 10
19.6587515529
 20
33.9388785555
 30
0.0
 10
19.6668879868
 20
33.8381627332
 30
0.0
 10
19.6995339713
 20
33.6858157359
 30
0.0
 10
19.7521836563
 20
33.5307421646
 30
0.0
 10
19.823097063
 20
33.3778893055
 30
0.0
 10
19.9100647504
 20
33.2320441135
 30
0.0
 10
20.0103175997
 20
33.097806254
 30
0.0
 10
20.1207067866
 20
32.9794151326
 30
0.0
 10
20.2015642369
 20
32.9112331007
 30
0.0
 10
20.2429652952
 20
32.8810442349
 30
0.0
  0
SPLINE
  5
34A
100
AcDbEntity
  8
0
100
AcDbSpline
 62
7
  6
CONTINUOUS
 70
0
 71
3
 72
9
 73
5
 74
0
 42
0.0000001
 43
0.0000001
 44
0.0000000001
 40
0.0
 40
0.0
 40
0.0
 40
0.0
 40
0.2559873231
 40
1.0
 40
1.0
 40
1.0
 40
1.0
 10
20.2429652952
 20
32.8810442349
 30
0.0
 10
20.2501761045
 20
32.8757862497
 30
0.0
 10
20.2785973808
 20
32.85559666
 30
0.0
 10
20.3080428552
 20
32.8368356275
 30
0.0
 10
20.3305057918
 20
32.8238669384
 30
0.0
  0
SPLINE
  5
34B
100
AcDbEntity
  8
0
100
AcDbSpline
 62
7
  6
CONTINUOUS
 70
0
 71
3
 72
20
 73
16
 74
0
 42
0.0000001
 43
0.0000001
 44
0.0000000001
 40
0.0
 40
0.0
 40
0.0
 40
0.0
 40
0.0623623718
 40
0.1287978666
 40
0.2702900728
 40
0.4173462783
 40
0.5615916576
 40
0.6302259195
 40
0.6953492735
 40
0.7563316169
 40
0.8128017219
 40
0.8647350214
 40
0.9125311014
 40
0.957131464
 40
1.0
 40
1.0
 40
1.0
 40
1.0
 10
9.4976247513
 20
43.2595849744
 30
0.0
 10
9.5308277773
 20
43.240415632
 30
0.0
 10
9.5968315585
 20
43.1962639398
 30
0.0
 10
9.7241973179
 20
43.0891540877
 30
0.0
 10
9.8691741991
 20
42.9241687522
 30
0.0
 10
10.0091010416
 20
42.6965636801
 30
0.0
 10
10.0925421328
 20
42.4902246349
 30
0.0
 10
10.1337328041
 20
42.3241064671
 30
0.0
 10
10.1505596845
 20
42.2053300525
 30
0.0
 10
10.1534255281
 20
42.0928398451
 30
0.0
 10
10.142224607
 20
41.9889475587
 30
0.0
 10
10.117057806
 20
41.8957983891
 30
0.0
 10
10.078212394
 20
41.8153415139
 30
0.0
 10
10.0262027504
 20
41.7495217334
 30
0.0
 10
9.9829371496
 20
41.7164396162
 30
0.0
 10
9.9601071031
 20
41.7032727152
 30
0.0
  0
SPLINE
  5
34C
100
AcDbEntity
  8
0
100
AcDbSpline
 62
7
  6
CONTINUOUS
 70
0
 71
3
 72
11
 73
7
 74
0
 42
0.0000001
 43
0.0000001
 44
0.0000000001
 40
0.0
 40
0.0
 40
0.0
 40
0.0
 40
0.2208534145
 40
0.4591139805
 40
0.7184518752
 40
1.0
 40
1.0
 40
1.0
 40
1.0
 10
9.1327613368
 20
43.3418054443
 30
0.0
 10
9.160310123
 20
43.3472811202
 30
0.0
 10
9.2191336586
 20
43.3515648981
 30
0.0
 10
9.3101719228
 20
43.3390148755
 30
0.0
 10
9.4048282805
 20
43.3082843277
 30
0.0
 10
9.4666150402
 20
43.2774880344
 30
0.0
 10
9.4976247513
 20
43.2595849744
 30
0.0
  0
SPLINE
  5
34D
100
AcDbEntity
  8
0
100
AcDbSpline
 62
7
  6
CONTINUOUS
 70
0
 71
3
 72
14
 73
10
 74
0
 42
0.0000001
 43
0.0000001
 44
0.0000000001
 40
0.0
 40
0.0
 40
0.0
 40
0.0
 40
0.1485729615
 40
0.2896218887
 40
0.5484498161
 40
0.6678465708
 40
0.7818401431
 40
0.8919396654
 40
1.0
 40
1.0
 40
1.0
 40
1.0
 10
32.2098685097
 20
37.8861176828
 30
0.0
 10
32.2098685097
 20
37.7950151152
 30
0.0
 10
32.2024694449
 20
37.617247372
 30
0.0
 10
32.1572319717
 20
37.2837887953
 30
0.0
 10
32.0660111157
 20
36.974985564
 30
0.0
 10
31.9238251956
 20
36.707765396
 30
0.0
 10
31.7984653892
 20
36.5374637736
 30
0.0
 10
31.6526827386
 20
36.3939954505
 30
0.0
 10
31.5423491028
 20
36.3170165475
 30
0.0
 10
31.4849689546
 20
36.2838801367
 30
0.0
  0
SPLINE
  5
34E
100
AcDbEntity
  8
0
100
AcDbSpline
 62
7
  6
CONTINUOUS
 70
0
 71
3
 72
15
 73
11
 74
0
 42
0.0000001
 43
0.0000001
 44
0.0000000001
 40
0.0
 40
0.0
 40
0.0
 40
0.0
 40
0.1141242661
 40
0.2373486253
 40
0.3669740476
 40
0.5000015346
 40
0.6330288076
 40
0.7626536034
 40
0.8858770013
 40
1.0
 40
1.0
 40
1.0
 40
1.0
 10
24.1489236257
 20
13.9627928421
 30
0.0
 10
24.1489236257
 20
14.0466135751
 30
0.0
 10
24.1643141511
 20
14.2210972947
 30
0.0
 10
24.2254867581
 20
14.4843167912
 30
0.0
 10
24.3236001229
 20
14.7509389975
 30
0.0
 10
24.4548259785
 20
15.0109281595
 30
0.0
 10
24.6143687955
 20
15.2545680831
 30
0.0
 10
24.7962119467
 20
15.472847621
 30
0.0
 10
24.9935784302
 20
15.6574334739
 30
0.0
 10
25.1369891952
 20
15.7580029852
 30
0.0
 10
25.2095793815
 20
15.7999126986
 30
0.0
  0
SPLINE
  5
34F
100
AcDbEntity
  8
0
100
AcDbSpline
 62
7
  6
CONTINUOUS
 70
0
 71
3
 72
13
 73
9
 74
0
 42
0.0000001
 43
0.0000001
 44
0.0000000001
 40
0.0
 40
0.0
 40
0.0
 40
0.0
 40
0.2893052466
 40
0.5483352362
 40
0.6677598057
 40
0.78176081
 40
0.8918958892
 40
1.0
 40
1.0
 40
1.0
 40
1.0
 10
25.2095793815
 20
15.7999126986
 30
0.0
 10
25.2753966835
 20
15.8379121088
 30
0.0
 10
25.4062570192
 20
15.9002016979
 30
0.0
 10
25.5785342852
 20
15.9417412639
 30
0.0
 10
25.7082176055
 20
15.9462603185
 30
0.0
 10
25.7982677783
 20
15.9361923479
 30
0.0
 10
25.8827405413
 20
15.9128217552
 30
0.0
 10
25.9349689936
 20
15.8883970315
 30
0.0
 10
25.9595629139
 20
15.8741980434
 30
0.0
  0
SPLINE
  5
350
100
AcDbEntity
  8
0
100
AcDbSpline
 62
7
  6
CONTINUOUS
 70
0
 71
3
 72
15
 73
11
 74
0
 42
0.0000001
 43
0.0000001
 44
0.0000000001
 40
0.0
 40
0.0
 40
0.0
 40
0.0
 40
0.1485022347
 40
0.2894891688
 40
0.4227496912
 40
0.5486538651
 40
0.6679957353
 40
0.7819373129
 40
0.891988094
 40
1.0
 40
1.0
 40
1.0
 40
1.0
 10
21.6032603152
 20
40.4172304212
 30
0.0
 10
21.5367643013
 20
40.4556210442
 30
0.0
 10
21.4101641398
 20
40.5359034359
 30
0.0
 10
21.2370109017
 20
40.6698659021
 30
0.0
 10
21.0872408341
 20
40.8132265544
 30
0.0
 10
20.9623675283
 20
40.9645697082
 30
0.0
 10
20.8636879355
 20
41.1225985211
 30
0.0
 10
20.7922214454
 20
41.2858578568
 30
0.0
 10
20.7489242519
 20
41.4527280244
 30
0.0
 10
20.739239245
 20
41.5657035359
 30
0.0
 10
20.7392334136
 20
41.6215507048
 30
0.0
  0
SPLINE
  5
351
100
AcDbEntity
  8
0
100
AcDbSpline
 62
7
  6
CONTINUOUS
 70
0
 71
3
 72
15
 73
11
 74
0
 42
0.0000001
 43
0.0000001
 44
0.0000000001
 40
0.0
 40
0.0
 40
0.0
 40
0.0
 40
0.1187813197
 40
0.2446027628
 40
0.3750047257
 40
0.5072812631
 40
0.6385627469
 40
0.7660465522
 40
0.8872266779
 40
1.0
 40
1.0
 40
1.0
 40
1.0
 10
25.4980011603
 20
40.2761085835
 30
0.0
 10
25.3526447241
 20
40.2109723836
 30
0.0
 10
25.0434775986
 20
40.0981709835
 30
0.0
 10
24.5528334153
 20
39.9834318313
 30
0.0
 10
24.0346137143
 20
39.9209053531
 30
0.0
 10
23.5054473357
 20
39.9125278487
 30
0.0
 10
22.9821359059
 20
39.9586282991
 30
0.0
 10
22.4812582743
 20
40.0576901982
 30
0.0
 10
22.0188554249
 20
40.2066209869
 30
0.0
 10
21.734227344
 20
40.3416182824
 30
0.0
 10
21.6032603152
 20
40.4172304212
 30
0.0
  0
SPLINE
  5
352
100
AcDbEntity
  8
0
100
AcDbSpline
 62
7
  6
CONTINUOUS
 70
0
 71
3
 72
21
 73
17
 74
0
 42
0.0000001
 43
0.0000001
 44
0.0000000001
 40
0.0
 40
0.0
 40
0.0
 40
0.0
 40
0.062374172
 40
0.1287897434
 40
0.1984141007
 40
0.2704120655
 40
0.4174552958
 40
0.561685441
 40
0.6303123058
 40
0.6954279552
 40
0.7564001742
 40
0.8128637142
 40
0.8647841791
 40
0.9125812044
 40
0.9571738228
 40
1.0
 40
1.0
 40
1.0
 40
1.0
 10
31.856318063
 20
30.9458550418
 30
0.0
 10
31.8060482619
 20
30.9748776684
 30
0.0
 10
31.6982306198
 20
31.027991959
 30
0.0
 10
31.5243634765
 20
31.0910561624
 30
0.0
 10
31.3364092877
 20
31.1387523225
 30
0.0
 10
31.0707823494
 20
31.1808297593
 30
0.0
 10
30.7311556998
 20
31.1901784856
 30
0.0
 10
30.3976279822
 20
31.1433821191
 30
0.0
 10
30.1486933995
 20
31.071682556
 30
0.0
 10
29.9802833209
 20
31.0038271784
 30
0.0
 10
29.830675346
 20
30.9224457106
 30
0.0
 10
29.7029688565
 20
30.8291579846
 30
0.0
 10
29.5999439712
 20
30.7256527522
 30
0.0
 10
29.5238822113
 20
30.6138432863
 30
0.0
 10
29.4770551562
 20
30.4958650745
 30
0.0
 10
29.4663752179
 20
30.4141678806
 30
0.0
 10
29.4663873212
 20
30.3743132696
 30
0.0
  0
ELLIPSE
  5
353
100
AcDbEntity
  8
0
100
AcDbEllipse
 62
7
  6
CONTINUOUS
 10
12.9765799626
 20
21.8010211099
 30
0.0
 11
0.999983029
 21
1.7320606034
 31
0.0
 40
0.5773519922
 41
-2.3562072964
 42
-1.4984608366
  0
ENDSEC
  0
SECTION
  2
OBJECTS
  0
DICTIONARY
  5
C
100
AcDbDictionary
280
0
281
1
  3
ACAD_GROUP
350
D
  3
ACAD_MLINESTYLE
350
17
  3
ACAD_LAYOUT
350
1A
  3
ACAD_PLOTSETTINGS
350
19
  3
ACAD_PLOTSTYLENAME
350
E
  0
DICTIONARY
  5
D
102
{ACAD_REACTORS
330
C
102
}
100
AcDbDictionary
280
0
281
1
  0
ACDBDICTIONARYWDFLT
  5
E
102
{ACAD_REACTORS
330
C
102
}
100
AcDbDictionary
281
1
  3
Normal
350
F
100
AcDbDictionaryWithDefault
340
F
  0
DICTIONARY
  5
17
102
{ACAD_REACTORS
330
C
102
}
100
AcDbDictionary
280
0
281
1
  3
Standard
350
18
  0
DICTIONARY
  5
19
102
{ACAD_REACTORS
330
C
102
}
100
AcDbDictionary
281
1
  0
DICTIONARY
  5
1A
102
{ACAD_REACTORS
330
C
102
}
100
AcDbDictionary
281
1
  3
Model
350
354
  3
Layout1
350
355
  0
ACDBPLACEHOLDER
  5
F
102
{ACAD_REACTORS
330
E
102
}
  0
MLINESTYLE
  5
18
102
{ACAD_REACTORS
330
17
102
}
100
AcDbMlineStyle
  2
STANDARD
 70
0
  3

 62
256
 51
90.0
 52
90.0
 71
2
 49
0.5
 62
256
  6
BYLAYER
 49
-0.5
 62
256
  6
BYLAYER
  0
LAYOUT
  5
354
102
{ACAD_REACTORS
330
1A
102
}
100
AcDbPlotSettings
  1

  2
none_device
  4

  6

 40
0.0
 41
0.0
 42
0.0
 43
0.0
 44
210.0
 45
297.0
 46
0.0
 47
0.0
 48
0.0
 49
0.0
140
0.0
141
0.0
142
1.0
143
1.0
 70
1024
 72
1
 73
0
 74
0
  7

 75
0
147
1.0
148
0.0
149
0.0
100
AcDbLayout
  1
Model
 70
0
 71
0
 10
0.0
 20
0.0
 11
210.0
 21
297.0
 12
0.0
 22
0.0
 32
0.0
 14
0.0
 24
0.0
 34
0.0
 15
0.0
 25
0.0
 35
0.0
146
0.0
 13
0.0
 23
0.0
 33
0.0
 16
1.0
 26
0.0
 36
0.0
 17
0.0
 27
1.0
 37
0.0
 76
0
330
212
345
0
346
0
  0
LAYOUT
  5
355
102
{ACAD_REACTORS
330
1A
102
}
100
AcDbPlotSettings
  1

  2
none_device
  4

  6

 40
0.0
 41
0.0
 42
0.0
 43
0.0
 44
210.0
 45
297.0
 46
0.0
 47
0.0
 48
0.0
 49
0.0
140
0.0
141
0.0
142
1.0
143
1.0
 70
0
 72
1
 73
0
 74
0
  7

 75
0
147
1.0
148
0.0
149
0.0
100
AcDbLayout
  1
Layout1
 70
0
 71
1
 10
0.0
 20
0.0
 11
210.0
 21
297.0
 12
0.0
 22
0.0
 32
0.0
 14
0.0
 24
0.0
 34
0.0
 15
0.0
 25
0.0
 35
0.0
146
0.0
 13
0.0
 23
0.0
 33
0.0
 16
1.0
 26
0.0
 36
0.0
 17
0.0
 27
1.0
 37
0.0
 76
0
330
213
345
0
346
0
  0
ENDSEC
  0
EOF
