999
DXF file: C:\Users\SESA621925\Desktop\Projects\Drawing_creation_tool\Gen2D (3) (1)\CAD\G40ROTDS_3D-CAD\drw0001_1.dxf
999
Pro/ENGINEER 2019471 by Parametric Technology Corporation
  0
SECTION
  2
HEADER
  9
$ACADVER
  1
AC1024
  9
$DWGCODEPAGE
  3
ANSI_1252
  9
$EXTMAX
 10
180.7115924018
 20
255.5778235396
 30
0.0
  9
$EXTMIN
 10
-0.0
 20
0.0
 30
0.0
  9
$LIMMIN
 10
-0.0
 20
0.0
  9
$LIMMAX
 10
180.7115924018
 20
255.5778235396
  9
$VIEWCTR
 10
90.3557962009
 20
127.7889117698
  9
$VIEWSIZE
 40
255.5778235396
  9
$CLAYER
  8
0
  9
$LTSCALE
 40
16.6598877567
  9
$CELTYPE
  6
BYLAYER
  9
$DIMSCALE
 40
1.0
  9
$DIMASZ
 40
2.151328481
  9
$DIMEXO
 40
1.0
  9
$DIMDLI
 40
11.5104679046
  9
$DIMEXE
 40
1.0
  9
$DIMCEN
 40
2.7261634511
  9
$DIMLFAC
 40
1.0
  9
$DIMBLK
  1
_FILLED
  9
$DIMALT
 70
0
  9
$DIMALTF
 40
0.0393700787
  9
$DIMTXT
 40
3.0118598734
  9
$DIMTOL
 70
1
  9
$DIMLIM
 70
0
  9
$DIMTFAC
 40
1.0
  9
$DIMTP
 40
0.01
  9
$DIMTM
 40
0.01
  9
$DIMGAP
 40
0.625
  9
$DIMDSEP
 70
46
  9
$AUNITS
 70
0
  9
$PDMODE
 70
3
  9
$PDSIZE
 40
0.3125
  9
$HANDSEED
  5
31B
  9
$TILEMODE
 70
1
  9
$MEASUREMENT
 70
1
  9
$INSUNITS
 70
4
  0
ENDSEC
  0
SECTION
  2
CLASSES
  0
CLASS
  1
ACDBDICTIONARYWDFLT
  2
AcDbDictionaryWithDefault
  3
AutoCAD 2000
 90
0
 91
1
280
0
281
0
  0
CLASS
  1
ACDBPLACEHOLDER
  2
AcDbPlaceHolder
  3
AutoCAD 2000
 90
0
 91
1
280
0
281
0
  0
CLASS
  1
LAYOUT
  2
AcDbLayout
  3
AutoCAD 2000
 90
0
 91
0
280
0
281
0
  0
ENDSEC
  0
SECTION
  2
TABLES
  0
TABLE
  2
VPORT
  5
8
100
AcDbSymbolTable
 70
2
  0
VPORT
  5
1F4
100
AcDbSymbolTableRecord
100
AcDbViewportTableRecord
  2
*ACTIVE
 70
0
 10
0.0
 20
0.0
 11
1.0
 21
1.0
 12
90.3557962009
 22
127.7889117698
 13
0.0
 23
0.0
 14
1.0
 24
1.0
 15
0.0
 25
0.0
 16
0.0
 26
0.0
 36
1.0
 17
0.0
 27
0.0
 37
0.0
 40
255.5778235396
 41
0.7070707071
 42
50.0
 43
0.0
 44
0.0
 50
0.0
 51
0.0
 71
0
 72
100
 73
1
 74
1
 75
0
 76
0
 77
0
 78
0
  0
ENDTAB
  0
TABLE
  2
LTYPE
  5
5
100
AcDbSymbolTable
 70
6
  0
LTYPE
  5
14
100
AcDbSymbolTableRecord
100
AcDbLinetypeTableRecord
  2
BYBLOCK
 70
0
  3

 72
65
 73
0
 40
0.0
  0
LTYPE
  5
15
100
AcDbSymbolTableRecord
100
AcDbLinetypeTableRecord
  2
BYLAYER
 70
0
  3

 72
65
 73
0
 40
0.0
  0
LTYPE
  5
16
100
AcDbSymbolTableRecord
100
AcDbLinetypeTableRecord
  2
CONTINUOUS
 70
64
  3
Solid line
 72
65
 73
0
 40
0.0
  0
LTYPE
  5
1F5
100
AcDbSymbolTableRecord
100
AcDbLinetypeTableRecord
  2
CENTER
 70
64
  3
____ _ ____ _ ____ _ ____ _ ____ _ ____ _ ____
 72
65
 73
4
 40
0.6
 49
0.375
 74
0
 49
-0.075
 74
0
 49
0.075
 74
0
 49
-0.075
 74
0
  0
LTYPE
  5
1F6
100
AcDbSymbolTableRecord
100
AcDbLinetypeTableRecord
  2
HIDDEN
 70
64
  3
- - - - - - - - - - - - - - - - - - - -
 72
65
 73
2
 40
0.2
 49
0.1
 74
0
 49
-0.1
 74
0
  0
LTYPE
  5
1F7
100
AcDbSymbolTableRecord
100
AcDbLinetypeTableRecord
  2
PHANTOM
 70
64
  3
_____ _ _ _____ _ _ _____ _ _ _____
 72
65
 73
6
 40
0.8
 49
0.45
 74
0
 49
-0.05
 74
0
 49
0.1
 74
0
 49
-0.05
 74
0
 49
0.1
 74
0
 49
-0.05
 74
0
  0
LTYPE
  5
1F8
100
AcDbSymbolTableRecord
100
AcDbLinetypeTableRecord
  2
DOT
 70
64
  3
. . . . . . . . . . . . . . . . . . . .
 72
65
 73
2
 40
0.2
 49
0.1
 74
0
 49
-0.1
 74
0
  0
LTYPE
  5
1F9
100
AcDbSymbolTableRecord
100
AcDbLinetypeTableRecord
  2
DASHED
 70
64
  3
- - - - - - - - - - - - - - - - - - - -
 72
65
 73
2
 40
0.2
 49
0.1
 74
0
 49
-0.1
 74
0
  0
ENDTAB
  0
TABLE
  2
LAYER
  5
2
100
AcDbSymbolTable
 70
36
  0
LAYER
  5
10
100
AcDbSymbolTableRecord
100
AcDbLayerTableRecord
  2
0
 70
0
 62
7
  6
CONTINUOUS
370
-3
390
F
  0
LAYER
  5
1FA
100
AcDbSymbolTableRecord
100
AcDbLayerTableRecord
  2
DEFAULT_1
 70
0
 62
7
  6
CENTER
370
-3
390
F
  0
LAYER
  5
1FB
100
AcDbSymbolTableRecord
100
AcDbLayerTableRecord
  2
DEFAULT_2
 70
0
 62
8
  6
HIDDEN
370
-3
390
F
  0
LAYER
  5
1FC
100
AcDbSymbolTableRecord
100
AcDbLayerTableRecord
  2
DEFAULT_3
 70
0
 62
7
  6
PHANTOM
370
-3
390
F
  0
LAYER
  5
1FD
100
AcDbSymbolTableRecord
100
AcDbLayerTableRecord
  2
00_COMPONENTS
 70
0
 62
7
  6
CONTINUOUS
370
-3
390
F
  0
LAYER
  5
1FE
100
AcDbSymbolTableRecord
100
AcDbLayerTableRecord
  2
01_1_DEFAULT_DATUMS
 70
0
 62
7
  6
CONTINUOUS
370
-3
390
F
  0
LAYER
  5
1FF
100
AcDbSymbolTableRecord
100
AcDbLayerTableRecord
  2
01_PLANES
 70
0
 62
7
  6
CONTINUOUS
370
-3
390
F
  0
LAYER
  5
200
100
AcDbSymbolTableRecord
100
AcDbLayerTableRecord
  2
02_COORD_SYS
 70
0
 62
7
  6
CONTINUOUS
370
-3
390
F
  0
LAYER
  5
201
100
AcDbSymbolTableRecord
100
AcDbLayerTableRecord
  2
03_AXES
 70
0
 62
7
  6
CONTINUOUS
370
-3
390
F
  0
LAYER
  5
202
100
AcDbSymbolTableRecord
100
AcDbLayerTableRecord
  2
04_POINTS
 70
0
 62
7
  6
CONTINUOUS
370
-3
390
F
  0
LAYER
  5
203
100
AcDbSymbolTableRecord
100
AcDbLayerTableRecord
  2
05_CURVES
 70
0
 62
7
  6
CONTINUOUS
370
-3
390
F
  0
LAYER
  5
204
100
AcDbSymbolTableRecord
100
AcDbLayerTableRecord
  2
06_SURFS
 70
0
 62
7
  6
CONTINUOUS
370
-3
390
F
  0
LAYER
  5
205
100
AcDbSymbolTableRecord
100
AcDbLayerTableRecord
  2
07_COSMETICS
 70
0
 62
7
  6
CONTINUOUS
370
-3
390
F
  0
LAYER
  5
206
100
AcDbSymbolTableRecord
100
AcDbLayerTableRecord
  2
10_NOTES
 70
0
 62
7
  6
CONTINUOUS
370
-3
390
F
  0
LAYER
  5
207
100
AcDbSymbolTableRecord
100
AcDbLayerTableRecord
  2
11_NOTES_PUB
 70
0
 62
7
  6
CONTINUOUS
370
-3
390
F
  0
LAYER
  5
208
100
AcDbSymbolTableRecord
100
AcDbLayerTableRecord
  2
13_REF_GTOL
 70
0
 62
7
  6
CONTINUOUS
370
-3
390
F
  0
LAYER
  5
209
100
AcDbSymbolTableRecord
100
AcDbLayerTableRecord
  2
16_MISC
 70
0
 62
7
  6
CONTINUOUS
370
-3
390
F
  0
LAYER
  5
20A
100
AcDbSymbolTableRecord
100
AcDbLayerTableRecord
  2
17_NO_PRINT
 70
0
 62
7
  6
CONTINUOUS
370
-3
390
F
  0
LAYER
  5
20B
100
AcDbSymbolTableRecord
100
AcDbLayerTableRecord
  2
18_DATUM_CAMS_JOINTS
 70
0
 62
7
  6
CONTINUOUS
370
-3
390
F
  0
LAYER
  5
20C
100
AcDbSymbolTableRecord
100
AcDbLayerTableRecord
  2
19_DATUM_FUNCTIONAL
 70
0
 62
7
  6
CONTINUOUS
370
-3
390
F
  0
LAYER
  5
20D
100
AcDbSymbolTableRecord
100
AcDbLayerTableRecord
  2
20_DATUM_KINEMATIC_SCHEME
 70
0
 62
7
  6
CONTINUOUS
370
-3
390
F
  0
LAYER
  5
20E
100
AcDbSymbolTableRecord
100
AcDbLayerTableRecord
  2
black
 70
0
 62
7
  6
CONTINUOUS
370
-3
390
F
  0
ENDTAB
  0
TABLE
  2
STYLE
  5
3
100
AcDbSymbolTable
 70
1
  0
STYLE
  5
11
100
AcDbSymbolTableRecord
100
AcDbTextStyleTableRecord
  2
STANDARD
 70
0
 40
0.0
 41
0.8
 50
0.0
 71
0
 42
0.2
  3
txt
  4

  0
STYLE
  5
20F
100
AcDbSymbolTableRecord
100
AcDbTextStyleTableRecord
  2
TEXTSTYLE_1
 70
0
 40
0.0
 41
0.8
 50
0.0
 71
0
 42
0.2
  3
gdt
  4

  0
ENDTAB
  0
TABLE
  2
VIEW
  5
6
100
AcDbSymbolTable
 70
0
  0
ENDTAB
  0
TABLE
  2
UCS
  5
7
100
AcDbSymbolTable
 70
0
  0
ENDTAB
  0
TABLE
  2
APPID
  5
9
100
AcDbSymbolTable
 70
1
  0
APPID
  5
210
100
AcDbSymbolTableRecord
100
AcDbRegAppTableRecord
  2
ACAD
 70
0
  0
ENDTAB
  0
TABLE
  2
BLOCK_RECORD
  5
1
100
AcDbSymbolTable
 70
0
  0
BLOCK_RECORD
  5
211
100
AcDbSymbolTableRecord
100
AcDbBlockTableRecord
  2
*Model_Space
  0
BLOCK_RECORD
  5
212
100
AcDbSymbolTableRecord
100
AcDbBlockTableRecord
  2
*Paper_Space
  0
BLOCK_RECORD
  5
213
100
AcDbSymbolTableRecord
100
AcDbBlockTableRecord
  2
_FILLED
  0
ENDTAB
  0
TABLE
  2
DIMSTYLE
  5
A
100
AcDbSymbolTable
 70
1
100
AcDbDimStyleTable
 71
0
  0
DIMSTYLE
105
214
100
AcDbSymbolTableRecord
100
AcDbDimStyleTableRecord
  2
STANDARD
 70
0
  3

  4

 40
1.0
 41
2.151328481
 42
1.0
 43
0.38
 44
1.0
 45
0.0
 46
0.0
 47
0.01
 48
0.01
140
3.0118598734
141
0.09
142
0.0
143
25.4
144
1.0
145
0.0
146
1.0
147
0.625
 71
1
 72
0
 73
0
 74
0
 75
0
 76
0
 77
1
 78
8
 79
2
170
0
171
1
172
0
173
0
174
0
175
0
176
0
177
0
178
0
270
2
179
2
271
2
272
2
273
2
274
2
275
0
280
0
281
0
282
0
283
1
284
8
285
0
286
0
287
3
288
0
340
11
278
46
341
213
342
213
343
213
344
213
  0
ENDTAB
  0
ENDSEC
  0
SECTION
  2
BLOCKS
  0
BLOCK
  5
20
100
AcDbEntity
  8
0
100
AcDbBlockBegin
  2
*Model_Space
 70
0
 10
0.0
 20
0.0
 30
0.0
  3
*Model_Space
  1

  0
ENDBLK
  5
21
100
AcDbEntity
  8
0
100
AcDbBlockEnd
  0
BLOCK
  5
1C
100
AcDbEntity
  8
0
100
AcDbBlockBegin
  2
*Paper_Space
 70
0
 10
0.0
 20
0.0
 30
0.0
  3
*Paper_Space
  1

  0
ENDBLK
  5
1D
100
AcDbEntity
  8
0
100
AcDbBlockEnd
  0
BLOCK
  5
215
100
AcDbEntity
  8
0
100
AcDbBlockBegin
  2
_FILLED
 70
64
 10
0.0
 20
0.0
  3
_FILLED
  1

  0
SOLID
  5
216
100
AcDbEntity
  8
0
  6
BYBLOCK
 62
0
100
AcDbTrace
 10
0.0
 20
0.0
 11
-1.0
 21
0.25
 12
-1.0
 22
-0.25
 13
-1.0
 23
-0.25
  0
ENDBLK
  5
217
100
AcDbEntity
  8
0
  6
BYBLOCK
 62
0
100
AcDbBlockEnd
  0
ENDSEC
  0
SECTION
  2
ENTITIES
  0
LINE
  5
218
100
AcDbEntity
  8
0
100
AcDbLine
 62
7
  6
CONTINUOUS
 10
30.492278519
 20
185.8258048807
 11
77.1446778638
 21
212.7604194228
  0
LINE
  5
219
100
AcDbEntity
  8
0
100
AcDbLine
 62
7
  6
CONTINUOUS
 10
24.9547386311
 20
95.5101966444
 11
26.5797450479
 21
92.997532267
  0
LINE
  5
21A
100
AcDbEntity
  8
0
100
AcDbLine
 62
7
  6
CONTINUOUS
 10
34.1632565598
 20
81.2715359668
 11
35.7882881436
 21
78.7588326751
  0
LWPOLYLINE
  5
21B
100
AcDbEntity
  8
0
100
AcDbPolyline
 62
7
  6
CONTINUOUS
 90
3
 70
0
 10
24.6675261891
 20
135.9254692778
 10
26.1312380541
 20
113.2601028711
 10
29.3147231854
 20
98.2887408846
  0
LINE
  5
21C
100
AcDbEntity
  8
0
100
AcDbLine
 62
7
  6
CONTINUOUS
 10
32.4768079299
 20
88.663081053
 11
32.3595779423
 21
88.8443477918
  0
LWPOLYLINE
  5
21D
100
AcDbEntity
  8
0
100
AcDbPolyline
 62
7
  6
CONTINUOUS
 90
3
 70
0
 10
27.3742315866
 20
132.6974805673
 10
28.7363779211
 20
112.5524238603
 10
31.3379512681
 20
99.5781098413
  0
LINE
  5
21E
100
AcDbEntity
  8
0
100
AcDbLine
 62
7
  6
CONTINUOUS
 10
33.6528855325
 20
140.3840639509
 11
33.6528855325
 21
147.2408997231
  0
LINE
  5
21F
100
AcDbEntity
  8
0
100
AcDbLine
 62
7
  6
CONTINUOUS
 10
115.9013814343
 20
43.4411449918
 11
46.0232502632
 21
83.7843901477
  0
LINE
  5
220
100
AcDbEntity
  8
0
100
AcDbLine
 62
7
  6
CONTINUOUS
 10
67.1726091617
 20
73.024679155
 11
78.203520874
 21
66.6561233845
  0
LINE
  5
221
100
AcDbEntity
  8
0
100
AcDbLine
 62
7
  6
CONTINUOUS
 10
47.7897446078
 20
84.804270045
 11
66.6221515732
 21
73.9316207862
  0
LINE
  5
222
100
AcDbEntity
  8
0
100
AcDbLine
 62
7
  6
CONTINUOUS
 10
78.3601730106
 20
67.1548242612
 11
112.7257056528
 21
47.3143235915
  0
LINE
  5
223
100
AcDbEntity
  8
0
100
AcDbLine
 62
7
  6
CONTINUOUS
 10
112.6554605525
 20
47.6089754393
 11
78.5802303864
 21
67.2818736879
  0
LINE
  5
224
100
AcDbEntity
  8
0
100
AcDbLine
 62
7
  6
CONTINUOUS
 10
66.5413316643
 20
74.2323778645
 11
48.0098019836
 21
84.9313194717
  0
LINE
  5
225
100
AcDbEntity
  8
0
100
AcDbLine
 62
7
  6
CONTINUOUS
 10
68.1178462146
 20
73.4887627555
 11
77.8739890371
 21
67.8561784968
  0
LINE
  5
226
100
AcDbEntity
  8
0
100
AcDbLine
 62
7
  6
CONTINUOUS
 10
48.3920345534
 20
86.7909865867
 11
46.7670020791
 21
89.3036912555
  0
LINE
  5
227
100
AcDbEntity
  8
0
100
AcDbLine
 62
7
  6
CONTINUOUS
 10
38.5958878082
 20
101.9382676728
 11
37.5584850409
 21
103.542350556
  0
LWPOLYLINE
  5
228
100
AcDbEntity
  8
0
100
AcDbPolyline
 62
7
  6
CONTINUOUS
 90
3
 70
0
 10
31.1220043613
 20
99.4404905386
 10
28.5220878994
 20
112.4292943877
 10
27.144853314
 20
132.8299091788
  0
LINE
  5
229
100
AcDbEntity
  8
0
100
AcDbLine
 62
7
  6
CONTINUOUS
 10
34.0064374511
 20
140.5881860279
 11
34.0064374511
 21
147.1321471252
  0
LINE
  5
22A
100
AcDbEntity
  8
0
100
AcDbLine
 62
7
  6
CONTINUOUS
 10
34.3599952577
 20
147.0233927163
 11
34.3599952577
 21
139.9758231964
  0
LINE
  5
22B
100
AcDbEntity
  8
0
100
AcDbLine
 62
7
  6
CONTINUOUS
 10
28.0655859293
 20
151.4878448893
 11
27.8523823495
 21
151.3647524799
  0
LINE
  5
22C
100
AcDbEntity
  8
0
100
AcDbLine
 62
7
  6
CONTINUOUS
 10
76.7036843833
 20
72.4855173722
 11
65.672772671
 21
78.8540731428
  0
LINE
  5
22D
100
AcDbEntity
  8
0
100
AcDbLine
 62
7
  6
CONTINUOUS
 10
65.2361349473
 20
79.4184771027
 11
76.9741563847
 21
72.6416805776
  0
LINE
  5
22E
100
AcDbEntity
  8
0
100
AcDbLine
 62
7
  6
CONTINUOUS
 10
77.1920097879
 20
72.7674575478
 11
65.4539883504
 21
79.5442540728
  0
LINE
  5
22F
100
AcDbEntity
  8
0
100
AcDbLine
 62
7
  6
CONTINUOUS
 10
46.1390215122
 20
99.8511663267
 11
46.2562514998
 21
99.6698995879
  0
LINE
  5
230
100
AcDbEntity
  8
0
100
AcDbLine
 62
7
  6
CONTINUOUS
 10
53.5196699425
 20
92.9224018239
 11
51.8946337299
 21
95.4351122729
  0
LINE
  5
231
100
AcDbEntity
  8
0
100
AcDbLine
 62
7
  6
CONTINUOUS
 10
44.3111541459
 20
107.1610592046
 11
42.68612043
 21
109.6737657932
  0
LINE
  5
232
100
AcDbEntity
  8
0
100
AcDbLine
 62
7
  6
CONTINUOUS
 10
34.8881241147
 20
147.3027569724
 11
35.1013276945
 21
147.4258493818
  0
LINE
  5
233
100
AcDbEntity
  8
0
100
AcDbLine
 62
7
  6
CONTINUOUS
 10
67.4577963095
 20
86.8535107279
 11
77.3148483779
 21
85.074177582
  0
LWPOLYLINE
  5
234
100
AcDbEntity
  8
0
100
AcDbPolyline
 62
7
  6
CONTINUOUS
 90
4
 70
0
 10
72.5124763898
 20
85.9410716187
 10
76.1673047273
 20
84.3800588605
 10
81.523004391
 20
84.0351610726
 10
84.3613699567
 20
85.0452300524
  0
LWPOLYLINE
  5
235
100
AcDbEntity
  8
0
100
AcDbPolyline
 62
7
  6
CONTINUOUS
 90
4
 70
0
 10
68.9180150468
 20
86.5899212103
 10
73.4254719688
 20
83.9451490298
 10
79.9029342248
 20
82.2709665103
 10
85.1883442695
 20
83.4110271366
  0
LINE
  5
236
100
AcDbEntity
  8
0
100
AcDbLine
 62
7
  6
CONTINUOUS
 10
73.172187134
 20
83.837740163
 11
67.6100475025
 21
87.112213517
  0
LINE
  5
237
100
AcDbEntity
  8
0
100
AcDbLine
 62
7
  6
CONTINUOUS
 10
45.3808049238
 20
124.2117559878
 11
46.3136945387
 21
117.8773289776
  0
LINE
  5
238
100
AcDbEntity
  8
0
100
AcDbLine
 62
7
  6
CONTINUOUS
 10
46.9712837702
 20
122.337403125
 11
50.3589108261
 21
131.7635096835
  0
LINE
  5
239
100
AcDbEntity
  8
0
100
AcDbLine
 62
7
  6
CONTINUOUS
 10
33.6528855325
 20
140.3840639509
 11
34.0064374511
 21
140.5881860279
  0
LWPOLYLINE
  5
23A
100
AcDbEntity
  8
0
100
AcDbPolyline
 62
7
  6
CONTINUOUS
 90
3
 70
0
 10
85.2042603986
 20
83.3372387198
 10
79.6890049876
 20
82.1471696665
 10
73.172187134
 20
83.837740163
  0
LINE
  5
23B
100
AcDbEntity
  8
0
100
AcDbLine
 62
7
  6
CONTINUOUS
 10
108.0557127816
 20
75.2540920712
 11
89.0256941111
 21
86.24082992
  0
LINE
  5
23C
100
AcDbEntity
  8
0
100
AcDbLine
 62
7
  6
CONTINUOUS
 10
88.7182219333
 20
87.0050065913
 11
107.8715025019
 21
75.9471050623
  0
LINE
  5
23D
100
AcDbEntity
  8
0
100
AcDbLine
 62
7
  6
CONTINUOUS
 10
107.8571827732
 20
76.2010191711
 11
88.9309613407
 21
87.1278310123
  0
LINE
  5
23E
100
AcDbEntity
  8
0
100
AcDbLine
 62
7
  6
CONTINUOUS
 10
66.908491371
 20
78.1406467585
 11
68.1178462146
 21
73.4887627555
  0
LINE
  5
23F
100
AcDbEntity
  8
0
100
AcDbLine
 62
7
  6
CONTINUOUS
 10
36.4813214892
 20
136.3015849271
 11
36.1277695705
 21
136.0974628502
  0
LINE
  5
240
100
AcDbEntity
  8
0
100
AcDbLine
 62
7
  6
CONTINUOUS
 10
40.1582950039
 20
133.7704905494
 11
40.5118469225
 21
133.9746126263
  0
LINE
  5
241
100
AcDbEntity
  8
0
100
AcDbLine
 62
7
  6
CONTINUOUS
 10
57.050201937
 20
139.1415413019
 11
55.4205507117
 21
138.2006673445
  0
LINE
  5
242
100
AcDbEntity
  8
0
100
AcDbLine
 62
7
  6
CONTINUOUS
 10
52.803909224
 20
139.4554821357
 11
55.7060458119
 21
140.7040772391
  0
LINE
  5
243
100
AcDbEntity
  8
0
100
AcDbLine
 62
7
  6
CONTINUOUS
 10
34.1805950792
 20
128.7679136714
 11
27.144853314
 21
132.8299091788
  0
LINE
  5
244
100
AcDbEntity
  8
0
100
AcDbLine
 62
7
  6
CONTINUOUS
 10
42.68612043
 20
109.6737657932
 11
58.249920148
 21
122.1059019627
  0
LINE
  5
245
100
AcDbEntity
  8
0
100
AcDbLine
 62
7
  6
CONTINUOUS
 10
20.9646238557
 20
92.3229511905
 11
24.9547386311
 21
95.5101966444
  0
LINE
  5
246
100
AcDbEntity
  8
0
100
AcDbLine
 62
7
  6
CONTINUOUS
 10
37.5584850409
 20
103.542350556
 11
43.5541398318
 21
108.3315917518
  0
LINE
  5
247
100
AcDbEntity
  8
0
100
AcDbLine
 62
7
  6
CONTINUOUS
 10
38.7179934847
 20
127.8137103199
 11
39.7256507215
 21
128.2153539102
  0
LINE
  5
248
100
AcDbEntity
  8
0
100
AcDbLine
 62
7
  6
CONTINUOUS
 10
38.0756053851
 20
128.1844764734
 11
39.4774728249
 21
128.6493303463
  0
LINE
  5
249
100
AcDbEntity
  8
0
100
AcDbLine
 62
7
  6
CONTINUOUS
 10
40.1582950039
 20
133.7704905494
 11
36.1277695705
 21
136.0974628502
  0
LINE
  5
24A
100
AcDbEntity
  8
0
100
AcDbLine
 62
7
  6
CONTINUOUS
 10
40.5118469225
 20
133.9746126263
 11
36.4813214892
 21
136.3015849271
  0
LINE
  5
24B
100
AcDbEntity
  8
0
100
AcDbLine
 62
7
  6
CONTINUOUS
 10
36.1277695705
 20
136.9139652673
 11
40.1582950039
 21
134.5869929665
  0
LINE
  5
24C
100
AcDbEntity
  8
0
100
AcDbLine
 62
7
  6
CONTINUOUS
 10
107.8715025019
 20
100.768778543
 11
88.7182219333
 21
111.826680072
  0
LINE
  5
24D
100
AcDbEntity
  8
0
100
AcDbLine
 62
7
  6
CONTINUOUS
 10
89.0256941111
 20
112.3346404993
 11
108.0557127816
 21
101.3479026504
  0
LINE
  5
24E
100
AcDbEntity
  8
0
100
AcDbLine
 62
7
  6
CONTINUOUS
 10
108.0770617233
 20
101.5812980966
 11
89.2384977682
 21
112.4575020146
  0
LINE
  5
24F
100
AcDbEntity
  8
0
100
AcDbLine
 62
7
  6
CONTINUOUS
 10
24.0424012347
 20
90.3131548768
 11
47.4093019264
 21
108.9782943168
  0
LINE
  5
250
100
AcDbEntity
  8
0
100
AcDbLine
 62
7
  6
CONTINUOUS
 10
43.8806768119
 20
101.1645806327
 11
31.5721759278
 21
91.3327296598
  0
LINE
  5
251
100
AcDbEntity
  8
0
100
AcDbLine
 62
7
  6
CONTINUOUS
 10
32.1852673904
 20
91.2455914117
 11
44.1466427871
 21
100.8001636085
  0
LINE
  5
252
100
AcDbEntity
  8
0
100
AcDbLine
 62
7
  6
CONTINUOUS
 10
47.2969395014
 20
109.5460502158
 11
44.3111541459
 21
107.1610592046
  0
LINE
  5
253
100
AcDbEntity
  8
0
100
AcDbLine
 62
7
  6
CONTINUOUS
 10
26.5797450479
 20
92.997532267
 11
23.5939680141
 21
90.612547903
  0
LINE
  5
254
100
AcDbEntity
  8
0
100
AcDbLine
 62
7
  6
CONTINUOUS
 10
37.5584850409
 20
103.542350556
 11
24.9547386311
 21
95.5101966444
  0
LINE
  5
255
100
AcDbEntity
  8
0
100
AcDbLine
 62
7
  6
CONTINUOUS
 10
58.2499201386
 20
122.1059019849
 11
85.4734178714
 21
137.8233019089
  0
LINE
  5
256
100
AcDbEntity
  8
0
100
AcDbLine
 62
7
  6
CONTINUOUS
 10
93.8817540725
 20
137.9258047435
 11
98.6964293404
 21
140.7055422127
  0
LINE
  5
257
100
AcDbEntity
  8
0
100
AcDbLine
 62
7
  6
CONTINUOUS
 10
27.8523823495
 20
151.3647524799
 11
34.8881241147
 21
147.3027569724
  0
LINE
  5
258
100
AcDbEntity
  8
0
100
AcDbLine
 62
7
  6
CONTINUOUS
 10
35.1013276945
 20
147.4258493818
 11
28.0655859293
 21
151.4878448893
  0
LWPOLYLINE
  5
259
100
AcDbEntity
  8
0
100
AcDbPolyline
 62
7
  6
CONTINUOUS
 90
5
 70
0
 10
77.3087597611
 20
133.1094624889
 10
72.7048516978
 20
137.5236915234
 10
65.2392258154
 20
141.3139164098
 10
57.8850382855
 20
141.964624411
 10
52.7085394897
 20
140.2078435279
  0
LWPOLYLINE
  5
25A
100
AcDbEntity
  8
0
100
AcDbPolyline
 62
7
  6
CONTINUOUS
 90
6
 70
0
 10
77.0847540434
 20
132.9801334995
 10
73.0969592507
 20
136.9483184897
 10
65.8824353364
 20
140.9128454652
 10
62.2477897646
 20
141.806518091
 10
55.3656880498
 20
141.3339859962
 10
52.494373614
 20
140.0850619054
  0
LINE
  5
25B
100
AcDbEntity
  8
0
100
AcDbLine
 62
7
  6
CONTINUOUS
 10
87.7543788242
 20
114.2402549628
 11
88.7182219333
 21
111.826680072
  0
LINE
  5
25C
100
AcDbEntity
  8
0
100
AcDbLine
 62
7
  6
CONTINUOUS
 10
88.6557368147
 20
108.1263509657
 11
86.9147606065
 21
113.5695801764
  0
LINE
  5
25D
100
AcDbEntity
  8
0
100
AcDbLine
 62
7
  6
CONTINUOUS
 10
46.4305620517
 20
97.268655968
 11
34.469186655
 21
87.7140837713
  0
LINE
  5
25E
100
AcDbEntity
  8
0
100
AcDbLine
 62
7
  6
CONTINUOUS
 10
34.4322329991
 20
86.9103695719
 11
46.7407338832
 21
96.7422205448
  0
LINE
  5
25F
100
AcDbEntity
  8
0
100
AcDbLine
 62
7
  6
CONTINUOUS
 10
54.432037521
 20
98.1193782258
 11
31.0651529771
 21
79.4542516844
  0
LINE
  5
260
100
AcDbEntity
  8
0
100
AcDbLine
 62
7
  6
CONTINUOUS
 10
31.177478373
 20
78.8865380744
 11
34.1632565598
 21
81.2715359668
  0
LINE
  5
261
100
AcDbEntity
  8
0
100
AcDbLine
 62
7
  6
CONTINUOUS
 10
51.8946337299
 20
95.4351122729
 11
54.8804134116
 21
97.8201113595
  0
LINE
  5
262
100
AcDbEntity
  8
0
100
AcDbLine
 62
7
  6
CONTINUOUS
 10
43.990796199
 20
101.2395640242
 11
43.8806768119
 21
101.1645806327
  0
LINE
  5
263
100
AcDbEntity
  8
0
100
AcDbLine
 62
7
  6
CONTINUOUS
 10
44.1466427871
 20
100.8001636085
 11
44.2302015723
 21
100.8567658343
  0
LINE
  5
264
100
AcDbEntity
  8
0
100
AcDbLine
 62
7
  6
CONTINUOUS
 10
24.8517838619
 20
84.6230107596
 11
24.8063455259
 21
84.5939226199
  0
LINE
  5
265
100
AcDbEntity
  8
0
100
AcDbLine
 62
7
  6
CONTINUOUS
 10
26.5797450479
 20
92.997532267
 11
30.6513909856
 21
95.5923194903
  0
LINE
  5
266
100
AcDbEntity
  8
0
100
AcDbLine
 62
7
  6
CONTINUOUS
 10
47.4093019264
 20
108.9782943168
 11
47.6316762933
 21
109.106681451
  0
LINE
  5
267
100
AcDbEntity
  8
0
100
AcDbLine
 62
7
  6
CONTINUOUS
 10
97.7001465883
 20
135.7213046691
 11
102.5148212453
 21
138.5010417855
  0
LINE
  5
268
100
AcDbEntity
  8
0
100
AcDbLine
 62
7
  6
CONTINUOUS
 10
23.593968014
 20
90.612547903
 11
26.5636172475
 21
92.327065453
  0
LINE
  5
269
100
AcDbEntity
  8
0
100
AcDbLine
 62
7
  6
CONTINUOUS
 10
44.2300201624
 20
100.85708
 11
44.8967199144
 21
101.2419969836
  0
LINE
  5
26A
100
AcDbEntity
  8
0
100
AcDbLine
 62
7
  6
CONTINUOUS
 10
46.1785141641
 20
107.9951590047
 11
44.3111541459
 21
107.1610592046
  0
LINE
  5
26B
100
AcDbEntity
  8
0
100
AcDbLine
 62
7
  6
CONTINUOUS
 10
100.0452399286
 20
121.4800491569
 11
95.3643621069
 21
124.1824940898
  0
LINE
  5
26C
100
AcDbEntity
  8
0
100
AcDbLine
 62
7
  6
CONTINUOUS
 10
95.6494774025
 20
124.4942971759
 11
99.7507138084
 21
122.1265007996
  0
LINE
  5
26D
100
AcDbEntity
  8
0
100
AcDbLine
 62
7
  6
CONTINUOUS
 10
98.3433560044
 20
140.5016964439
 11
98.4135842284
 21
140.86883922
  0
LINE
  5
26E
100
AcDbEntity
  8
0
100
AcDbLine
 62
7
  6
CONTINUOUS
 10
98.3393215731
 20
140.5005898527
 11
98.4135842284
 21
140.86883922
  0
LINE
  5
26F
100
AcDbEntity
  8
0
100
AcDbLine
 62
7
  6
CONTINUOUS
 10
46.7670020791
 20
89.3036912555
 11
52.7626553048
 21
94.0929348714
  0
LINE
  5
270
100
AcDbEntity
  8
0
100
AcDbLine
 62
7
  6
CONTINUOUS
 10
69.0834696367
 20
105.3545380278
 11
53.5196699425
 21
92.9224018239
  0
LINE
  5
271
100
AcDbEntity
  8
0
100
AcDbLine
 62
7
  6
CONTINUOUS
 10
35.7882881436
 20
78.7588326751
 11
31.7981733634
 21
75.5715872131
  0
LINE
  5
272
100
AcDbEntity
  8
0
100
AcDbLine
 62
7
  6
CONTINUOUS
 10
48.3920345534
 20
86.7909865867
 11
59.3005700208
 21
95.504564881
  0
LINE
  5
273
100
AcDbEntity
  8
0
100
AcDbLine
 62
7
  6
CONTINUOUS
 10
58.3217120406
 20
91.6693504935
 11
76.9479955655
 21
106.5477540878
  0
LINE
  5
274
100
AcDbEntity
  8
0
100
AcDbLine
 62
7
  6
CONTINUOUS
 10
84.73328254
 20
111.8270473141
 11
96.3069673694
 21
121.0719379518
  0
LINE
  5
275
100
AcDbEntity
  8
0
100
AcDbLine
 62
7
  6
CONTINUOUS
 10
34.469186655
 20
87.7140837713
 11
34.3856278698
 21
87.6574815454
  0
LINE
  5
276
100
AcDbEntity
  8
0
100
AcDbLine
 62
7
  6
CONTINUOUS
 10
46.4028071507
 20
100.0034621271
 11
46.1390215122
 21
99.8511663267
  0
LINE
  5
277
100
AcDbEntity
  8
0
100
AcDbLine
 62
7
  6
CONTINUOUS
 10
31.5721759278
 20
91.3327296598
 11
34.1772627974
 21
92.8367682874
  0
LINE
  5
278
100
AcDbEntity
  8
0
100
AcDbLine
 62
7
  6
CONTINUOUS
 10
46.2562514998
 20
99.6698995879
 11
46.5136661944
 21
99.818517144
  0
LINE
  5
279
100
AcDbEntity
  8
0
100
AcDbLine
 62
7
  6
CONTINUOUS
 10
47.1333438847
 20
97.6744048265
 11
46.4305620517
 21
97.268655968
  0
LINE
  5
27A
100
AcDbEntity
  8
0
100
AcDbLine
 62
7
  6
CONTINUOUS
 10
162.5538024845
 20
163.45055387
 11
115.9014031397
 21
136.5159393279
  0
LINE
  5
27B
100
AcDbEntity
  8
0
100
AcDbLine
 62
7
  6
CONTINUOUS
 10
97.856524457
 20
125.7685287807
 11
95.6494774025
 21
124.4942971759
  0
LINE
  5
27C
100
AcDbEntity
  8
0
100
AcDbLine
 62
7
  6
CONTINUOUS
 10
98.0686390456
 20
125.6460671363
 11
99.3109872786
 21
126.3633329415
  0
LINE
  5
27D
100
AcDbEntity
  8
0
100
AcDbLine
 62
7
  6
CONTINUOUS
 10
34.469186655
 20
87.7140837713
 11
37.9339954573
 21
89.7144801252
  0
LINE
  5
27E
100
AcDbEntity
  8
0
100
AcDbLine
 62
7
  6
CONTINUOUS
 10
34.3858092797
 20
87.6571673798
 11
37.850618082
 21
89.6575637337
  0
LINE
  5
27F
100
AcDbEntity
  8
0
100
AcDbLine
 62
7
  6
CONTINUOUS
 10
54.6493419456
 20
98.2448382449
 11
54.432037521
 21
98.1193782258
  0
LINE
  5
280
100
AcDbEntity
  8
0
100
AcDbLine
 62
7
  6
CONTINUOUS
 10
100.0937985177
 20
124.4768672208
 11
99.765702386
 21
124.6662893254
  0
LINE
  5
281
100
AcDbEntity
  8
0
100
AcDbLine
 62
7
  6
CONTINUOUS
 10
98.0686390456
 20
125.6460671363
 11
97.0079744579
 21
126.2584282681
  0
LINE
  5
282
100
AcDbEntity
  8
0
100
AcDbLine
 62
7
  6
CONTINUOUS
 10
99.4285435286
 20
125.9246009082
 11
98.9898063961
 21
126.1779001794
  0
LINE
  5
283
100
AcDbEntity
  8
0
100
AcDbLine
 62
7
  6
CONTINUOUS
 10
142.7548950425
 20
103.1960669886
 11
143.1084469611
 21
102.991948311
  0
LINE
  5
284
100
AcDbEntity
  8
0
100
AcDbLine
 62
7
  6
CONTINUOUS
 10
93.8817540725
 20
137.9258047435
 11
97.0079744579
 21
126.2584282681
  0
LINE
  5
285
100
AcDbEntity
  8
0
100
AcDbLine
 62
7
  6
CONTINUOUS
 10
98.0686390457
 20
125.6460671363
 11
95.2266205134
 21
136.2527730231
  0
LINE
  5
286
100
AcDbEntity
  8
0
100
AcDbLine
 62
7
  6
CONTINUOUS
 10
96.9236838538
 20
135.2729952123
 11
99.765702386
 21
124.6662893254
  0
LINE
  5
287
100
AcDbEntity
  8
0
100
AcDbLine
 62
7
  6
CONTINUOUS
 10
100.3121796449
 20
125.9729282655
 11
97.7001465883
 21
135.7213046691
  0
LINE
  5
288
100
AcDbEntity
  8
0
100
AcDbLine
 62
7
  6
CONTINUOUS
 10
46.7670020791
 20
89.3036912555
 11
34.1632565598
 21
81.2715359668
  0
LINE
  5
289
100
AcDbEntity
  8
0
100
AcDbLine
 62
7
  6
CONTINUOUS
 10
35.7882881436
 20
78.7588326751
 11
48.3920345534
 21
86.7909865867
  0
LINE
  5
28A
100
AcDbEntity
  8
0
100
AcDbLine
 62
7
  6
CONTINUOUS
 10
96.3069673821
 20
121.0719379383
 11
69.0834696494
 21
105.3545380142
  0
LINE
  5
28B
100
AcDbEntity
  8
0
100
AcDbLine
 62
7
  6
CONTINUOUS
 10
100.2602667474
 20
121.6041942076
 11
100.0452399286
 21
121.4800491569
  0
LINE
  5
28C
100
AcDbEntity
  8
0
100
AcDbLine
 62
7
  6
CONTINUOUS
 10
87.0451813392
 20
113.1618147292
 11
84.7332825459
 21
111.8270473063
  0
LINE
  5
28D
100
AcDbEntity
  8
0
100
AcDbLine
 62
7
  6
CONTINUOUS
 10
31.0651529771
 20
79.4542516844
 11
34.034083308
 21
81.1683541784
  0
LINE
  5
28E
100
AcDbEntity
  8
0
100
AcDbLine
 62
7
  6
CONTINUOUS
 10
89.2384977682
 20
112.4575020146
 11
89.0256941111
 21
112.3346404993
  0
LINE
  5
28F
100
AcDbEntity
  8
0
100
AcDbLine
 62
7
  6
CONTINUOUS
 10
31.7981733961
 20
75.5715872151
 11
58.8849292662
 21
91.2100396554
  0
LWPOLYLINE
  5
290
100
AcDbEntity
  8
0
100
AcDbPolyline
 62
7
  6
CONTINUOUS
 90
5
 70
0
 10
55.7060458119
 20
140.7040772391
 10
62.5235048644
 20
141.1027556932
 10
66.1157983263
 20
140.1746496074
 10
73.1965077549
 20
136.1846758555
 10
76.6275705066
 20
132.7161800371
  0
LINE
  5
291
100
AcDbEntity
  8
0
100
AcDbLine
 62
7
  6
CONTINUOUS
 10
95.2266205134
 20
136.2527730231
 11
96.9236838538
 21
135.2729952123
  0
LINE
  5
292
100
AcDbEntity
  8
0
100
AcDbLine
 62
7
  6
CONTINUOUS
 10
93.8817540725
 20
137.9258047435
 11
97.7001465883
 21
135.7213046691
  0
LINE
  5
293
100
AcDbEntity
  8
0
100
AcDbLine
 62
7
  6
CONTINUOUS
 10
102.5148206343
 20
138.5010428437
 11
98.4135842284
 21
140.86883922
  0
LINE
  5
294
100
AcDbEntity
  8
0
100
AcDbLine
 62
7
  6
CONTINUOUS
 10
89.1064386755
 20
86.1475071363
 11
89.1160395204
 21
86.1628814622
  0
LINE
  5
295
100
AcDbEntity
  8
0
100
AcDbLine
 62
7
  6
CONTINUOUS
 10
59.3005700208
 20
95.504564881
 11
53.5196699425
 21
92.9224018239
  0
LINE
  5
296
100
AcDbEntity
  8
0
100
AcDbLine
 62
7
  6
CONTINUOUS
 10
112.7257056528
 20
134.6800822243
 11
103.2504353358
 21
140.1505083349
  0
LINE
  5
297
100
AcDbEntity
  8
0
100
AcDbLine
 62
7
  6
CONTINUOUS
 10
98.4420892048
 20
142.9265454656
 11
32.256618931
 21
181.1378800887
  0
LINE
  5
298
100
AcDbEntity
  8
0
100
AcDbLine
 62
7
  6
CONTINUOUS
 10
30.492278519
 20
185.8258048807
 11
115.9014031397
 21
136.5159393279
  0
LINE
  5
299
100
AcDbEntity
  8
0
100
AcDbLine
 62
7
  6
CONTINUOUS
 10
142.7548905158
 20
121.1591227789
 11
143.1084469611
 21
120.9550014878
  0
LINE
  5
29A
100
AcDbEntity
  8
0
100
AcDbLine
 62
7
  6
CONTINUOUS
 10
162.2002415123
 20
114.0145352385
 11
162.5538024845
 21
113.8104113339
  0
LINE
  5
29B
100
AcDbEntity
  8
0
100
AcDbLine
 62
7
  6
CONTINUOUS
 10
88.7182219333
 20
87.0050065913
 11
85.2042603986
 21
83.3372387198
  0
LINE
  5
29C
100
AcDbEntity
  8
0
100
AcDbLine
 62
7
  6
CONTINUOUS
 10
85.5949234146
 20
82.7544976003
 11
89.0256941111
 21
86.24082992
  0
LINE
  5
29D
100
AcDbEntity
  8
0
100
AcDbLine
 62
7
  6
CONTINUOUS
 10
89.0723643392
 20
86.1948957718
 11
89.0842823405
 21
86.2070047552
  0
LINE
  5
29E
100
AcDbEntity
  8
0
100
AcDbLine
 62
7
  6
CONTINUOUS
 10
65.4539883504
 20
79.5442540728
 11
65.2361349473
 21
79.4184771027
  0
LINE
  5
29F
100
AcDbEntity
  8
0
100
AcDbLine
 62
7
  6
CONTINUOUS
 10
142.7548950425
 20
121.1591306195
 11
162.5538024845
 21
132.5899669279
  0
LINE
  5
2A0
100
AcDbEntity
  8
0
100
AcDbLine
 62
7
  6
CONTINUOUS
 10
143.1084469611
 20
120.9550014878
 11
162.5538024845
 21
132.1817157193
  0
LINE
  5
2A1
100
AcDbEntity
  8
0
100
AcDbLine
 62
7
  6
CONTINUOUS
 10
86.2434610528
 20
86.7142477882
 11
85.4204164053
 21
86.2390655759
  0
LINE
  5
2A2
100
AcDbEntity
  8
0
100
AcDbLine
 62
7
  6
CONTINUOUS
 10
88.9309613407
 20
87.1278310123
 11
88.7182219333
 21
87.0050065913
  0
LINE
  5
2A3
100
AcDbEntity
  8
0
100
AcDbLine
 62
7
  6
CONTINUOUS
 10
67.1726091617
 20
73.024679155
 11
68.0993906765
 21
73.5597535181
  0
LINE
  5
2A4
100
AcDbEntity
  8
0
100
AcDbLine
 62
7
  6
CONTINUOUS
 10
77.1920097879
 20
72.7674575478
 11
76.9741563847
 21
72.6416805776
  0
LINE
  5
2A5
100
AcDbEntity
  8
0
100
AcDbLine
 62
7
  6
CONTINUOUS
 10
162.2002415123
 20
132.3858396239
 11
162.5538024845
 21
132.1817157193
  0
LINE
  5
2A6
100
AcDbEntity
  8
0
100
AcDbLine
 62
7
  6
CONTINUOUS
 10
142.7548950425
 20
102.3795750255
 11
142.7548950425
 21
121.1591306195
  0
LINE
  5
2A7
100
AcDbEntity
  8
0
100
AcDbLine
 62
7
  6
CONTINUOUS
 10
143.1084469611
 20
120.9550014878
 11
143.1084469611
 21
102.991948311
  0
LINE
  5
2A8
100
AcDbEntity
  8
0
100
AcDbLine
 62
7
  6
CONTINUOUS
 10
78.5802303864
 20
67.2818736879
 11
78.3601730106
 21
67.1548242612
  0
LINE
  5
2A9
100
AcDbEntity
  8
0
100
AcDbLine
 62
7
  6
CONTINUOUS
 10
143.1084469611
 20
102.991948311
 11
162.5538024845
 21
114.2186625425
  0
LINE
  5
2AA
100
AcDbEntity
  8
0
100
AcDbLine
 62
7
  6
CONTINUOUS
 10
142.7548950425
 20
102.3795750255
 11
162.5538024845
 21
113.8104113339
  0
LINE
  5
2AB
100
AcDbEntity
  8
0
100
AcDbLine
 62
7
  6
CONTINUOUS
 10
77.1446778638
 20
212.7604194228
 11
162.5538024845
 21
163.45055387
  0
LINE
  5
2AC
100
AcDbEntity
  8
0
100
AcDbLine
 62
7
  6
CONTINUOUS
 10
162.5538024845
 20
163.45055387
 11
162.5538024845
 21
132.5899669279
  0
LINE
  5
2AD
100
AcDbEntity
  8
0
100
AcDbLine
 62
7
  6
CONTINUOUS
 10
162.5538024845
 20
132.1817157193
 11
162.5538024845
 21
114.2186625425
  0
LINE
  5
2AE
100
AcDbEntity
  8
0
100
AcDbLine
 62
7
  6
CONTINUOUS
 10
162.5538024845
 20
113.8104113339
 11
162.5538024845
 21
70.3757720655
  0
LINE
  5
2AF
100
AcDbEntity
  8
0
100
AcDbLine
 62
7
  6
CONTINUOUS
 10
115.9013814343
 20
43.4411449918
 11
162.5538024845
 21
70.3757720655
  0
ARC
  5
2B0
100
AcDbEntity
  8
0
100
AcDbCircle
 62
7
  6
CONTINUOUS
 10
363.4584789962
 20
85.5504396052
 40
265.8747703165
100
AcDbArc
 50
168.1494203847
 51
168.5305069075
  0
ARC
  5
2B1
100
AcDbEntity
  8
0
100
AcDbCircle
 62
7
  6
CONTINUOUS
 10
358.2832150908
 20
88.4031801
 40
265.4999210405
100
AcDbArc
 50
168.1493595876
 51
168.7391927087
  0
ARC
  5
2B2
100
AcDbEntity
  8
0
100
AcDbCircle
 62
7
  6
CONTINUOUS
 10
336.1323272681
 20
92.3085696142
 40
243.0046636535
100
AcDbArc
 50
171.1170568675
 51
172.3900650778
  0
ARC
  5
2B3
100
AcDbEntity
  8
0
100
AcDbCircle
 62
7
  6
CONTINUOUS
 10
334.7507836034
 20
92.3524793108
 40
241.2520074168
100
AcDbArc
 50
171.2830789634
 51
172.3437630314
  0
ARC
  5
2B4
100
AcDbEntity
  8
0
100
AcDbCircle
 62
7
  6
CONTINUOUS
 10
338.2171141112
 20
90.0702870455
 40
240.6113565766
100
AcDbArc
 50
171.7468213153
 51
172.3438232656
  0
ARC
  5
2B5
100
AcDbEntity
  8
0
100
AcDbCircle
 62
7
  6
CONTINUOUS
 10
337.7648172828
 20
90.0862133169
 40
239.5867163356
100
AcDbArc
 50
171.8439876926
 51
172.4407458908
  0
ARC
  5
2B6
100
AcDbEntity
  8
0
100
AcDbCircle
 62
7
  6
CONTINUOUS
 10
337.256006168
 20
90.0489724846
 40
239.2840575564
100
AcDbArc
 50
171.8178141097
 51
172.4521198997
  0
ARC
  5
2B7
100
AcDbEntity
  8
0
100
AcDbCircle
 62
7
  6
CONTINUOUS
 10
191.8031328782
 20
108.4156499526
 40
129.8462205786
100
AcDbArc
 50
192.9040692281
 51
193.1915353029
  0
ARC
  5
2B8
100
AcDbEntity
  8
0
100
AcDbCircle
 62
7
  6
CONTINUOUS
 10
200.4176625194
 20
101.0333632372
 40
126.4259582347
100
AcDbArc
 50
192.9192004407
 51
195.483832521
  0
ARC
  5
2B9
100
AcDbEntity
  8
0
100
AcDbCircle
 62
7
  6
CONTINUOUS
 10
188.1805756912
 20
107.5540213865
 40
126.1226240458
100
AcDbArc
 50
193.1859932731
 51
195.4611554608
  0
ARC
  5
2BA
100
AcDbEntity
  8
0
100
AcDbCircle
 62
7
  6
CONTINUOUS
 10
199.3493880515
 20
100.9332136944
 40
125.9017079086
100
AcDbArc
 50
193.0588438242
 51
195.7983646209
  0
ARC
  5
2BB
100
AcDbEntity
  8
0
100
AcDbCircle
 62
7
  6
CONTINUOUS
 10
187.7256491387
 20
107.1443920637
 40
125.2886539105
100
AcDbArc
 50
193.0499916176
 51
195.3372315713
  0
ARC
  5
2BC
100
AcDbEntity
  8
0
100
AcDbCircle
 62
7
  6
CONTINUOUS
 10
199.083583667
 20
100.5688524213
 40
125.2622814673
100
AcDbArc
 50
192.8823347647
 51
195.4711133528
  0
ARC
  5
2BD
100
AcDbEntity
  8
0
100
AcDbCircle
 62
7
  6
CONTINUOUS
 10
183.9879001457
 20
106.1308268675
 40
121.4159348029
100
AcDbArc
 50
195.3425007441
 51
195.8230449526
  0
ARC
  5
2BE
100
AcDbEntity
  8
0
100
AcDbCircle
 62
7
  6
CONTINUOUS
 10
31.3255312319
 20
94.4800268194
 40
60.6391070797
100
AcDbArc
 50
17.2455072174
 51
19.4974247996
  0
ARC
  5
2BF
100
AcDbEntity
  8
0
100
AcDbCircle
 62
7
  6
CONTINUOUS
 10
31.1277869673
 20
94.3565209789
 40
60.6249159432
100
AcDbArc
 50
17.2503082244
 51
19.4696344046
  0
ARC
  5
2C0
100
AcDbEntity
  8
0
100
AcDbCircle
 62
7
  6
CONTINUOUS
 10
65.0162824567
 20
109.2036839159
 40
45.4030667691
100
AcDbArc
 50
204.1714655169
 51
204.7648278865
  0
ARC
  5
2C1
100
AcDbEntity
  8
0
100
AcDbCircle
 62
7
  6
CONTINUOUS
 10
92.6980455244
 20
123.6585504195
 40
44.8668064436
100
AcDbArc
 50
235.3423022442
 51
235.7050314019
  0
ARC
  5
2C2
100
AcDbEntity
  8
0
100
AcDbCircle
 62
7
  6
CONTINUOUS
 10
16.3184585485
 20
81.7664959161
 40
41.6097334676
100
AcDbArc
 50
41.1445401336
 51
41.8837584012
  0
ARC
  5
2C3
100
AcDbEntity
  8
0
100
AcDbCircle
 62
7
  6
CONTINUOUS
 10
62.1412572388
 20
106.6530364376
 40
41.5900713273
100
AcDbArc
 50
221.1882937349
 51
221.8838896544
  0
ARC
  5
2C4
100
AcDbEntity
  8
0
100
AcDbCircle
 62
7
  6
CONTINUOUS
 10
73.098026488
 20
123.4744893193
 40
26.3741814256
100
AcDbArc
 50
182.3656568945
 51
182.6955126049
  0
ARC
  5
2C5
100
AcDbEntity
  8
0
100
AcDbCircle
 62
7
  6
CONTINUOUS
 10
72.0417349186
 20
123.4389726294
 40
25.3173253657
100
AcDbArc
 50
180.0063784489
 51
182.3840194734
  0
ARC
  5
2C6
100
AcDbEntity
  8
0
100
AcDbCircle
 62
7
  6
CONTINUOUS
 10
50.8698134328
 20
106.4624876594
 40
22.6811429221
100
AcDbArc
 50
55.7702870534
 51
59.9775541008
  0
ARC
  5
2C7
100
AcDbEntity
  8
0
100
AcDbCircle
 62
7
  6
CONTINUOUS
 10
80.3969739333
 20
94.9377759266
 40
10.0449939087
100
AcDbArc
 50
300.0061238356
 51
306.0926715018
  0
SPLINE
  5
2C8
100
AcDbEntity
  8
0
100
AcDbSpline
 62
7
  6
CONTINUOUS
 70
0
 71
3
 72
9
 73
5
 74
0
 42
0.0000001
 43
0.0000001
 44
0.0000000001
 40
0.0
 40
0.0
 40
0.0
 40
0.0
 40
0.4767445831
 40
1.0
 40
1.0
 40
1.0
 40
1.0
 10
67.4577907735
 20
86.8535324938
 30
0.0
 10
66.5766551689
 20
87.0125428547
 30
0.0
 10
64.7624144234
 20
87.5462326692
 30
0.0
 10
63.0691440438
 20
88.3766276755
 30
0.0
 10
62.2180790468
 20
88.8679791648
 30
0.0
  0
SPLINE
  5
2C9
100
AcDbEntity
  8
0
100
AcDbSpline
 62
7
  6
CONTINUOUS
 70
0
 71
3
 72
11
 73
7
 74
0
 42
0.0000001
 43
0.0000001
 44
0.0000000001
 40
0.0
 40
0.0
 40
0.0
 40
0.0
 40
0.2684321574
 40
0.5216832828
 40
0.7638000919
 40
1.0
 40
1.0
 40
1.0
 40
1.0
 10
50.3589366938
 20
131.7634844828
 30
0.0
 10
50.6117116045
 20
132.4667696788
 30
0.0
 10
51.1978613546
 20
133.8026418314
 30
0.0
 10
52.3591570218
 20
135.5960706512
 30
0.0
 10
53.7613027724
 20
137.0890175064
 30
0.0
 10
54.8510712623
 20
137.8718437783
 30
0.0
 10
55.4205664759
 20
138.20064004
 30
0.0
  0
SPLINE
  5
2CA
100
AcDbEntity
  8
0
100
AcDbSpline
 62
7
  6
CONTINUOUS
 70
0
 71
3
 72
13
 73
9
 74
0
 42
0.0000001
 43
0.0000001
 44
0.0000000001
 40
0.0
 40
0.0
 40
0.0
 40
0.0
 40
0.0921489174
 40
0.190106925
 40
0.2981310456
 40
0.4182497468
 40
0.6927575993
 40
1.0
 40
1.0
 40
1.0
 40
1.0
 10
34.3857931949
 20
87.6571950833
 30
0.0
 10
34.3234852038
 20
87.6212628222
 30
0.0
 10
34.1817833878
 20
87.5680553396
 30
0.0
 10
33.9464480831
 20
87.5560419121
 30
0.0
 10
33.6949336276
 20
87.6076804687
 30
0.0
 10
33.3326844174
 20
87.7637751942
 30
0.0
 10
32.8935130548
 20
88.1046310594
 30
0.0
 10
32.6070396922
 20
88.4617063863
 30
0.0
 10
32.4768079299
 20
88.663081053
 30
0.0
  0
SPLINE
  5
2CB
100
AcDbEntity
  8
0
100
AcDbSpline
 62
7
  6
CONTINUOUS
 70
0
 71
3
 72
11
 73
7
 74
0
 42
0.0000001
 43
0.0000001
 44
0.0000000001
 40
0.0
 40
0.0
 40
0.0
 40
0.0
 40
0.2361999084
 40
0.4783167173
 40
0.731567843
 40
1.0
 40
1.0
 40
1.0
 40
1.0
 10
85.4204006411
 20
86.2390928805
 30
0.0
 10
84.8509054273
 20
85.9102966186
 30
0.0
 10
83.6280708701
 20
85.3579489158
 30
0.0
 10
81.6340656834
 20
84.8901387967
 30
0.0
 10
79.5002623684
 20
84.7811526664
 30
0.0
 10
78.050289106
 20
84.9414756808
 30
0.0
 10
77.3148394902
 20
85.0742125737
 30
0.0
  0
SPLINE
  5
2CC
100
AcDbEntity
  8
0
100
AcDbSpline
 62
7
  6
CONTINUOUS
 70
0
 71
3
 72
9
 73
5
 74
0
 42
0.0000001
 43
0.0000001
 44
0.0000000001
 40
0.0
 40
0.0
 40
0.0
 40
0.0
 40
0.2440684467
 40
1.0
 40
1.0
 40
1.0
 40
1.0
 10
96.3069673694
 20
121.0719379518
 30
0.0
 10
96.2560735051
 20
121.3375837674
 30
0.0
 10
96.0273860703
 20
122.4220715383
 30
0.0
 10
95.7213741254
 20
123.4899165023
 30
0.0
 10
95.4526384437
 20
124.2833672464
 30
0.0
  0
SPLINE
  5
2CD
100
AcDbEntity
  8
0
100
AcDbSpline
 62
7
  6
CONTINUOUS
 70
0
 71
3
 72
12
 73
8
 74
0
 42
0.0000001
 43
0.0000001
 44
0.0000000001
 40
0.0
 40
0.0
 40
0.0
 40
0.0
 40
0.2565822245
 40
0.5163586586
 40
0.7675757108
 40
0.886729923
 40
1.0
 40
1.0
 40
1.0
 40
1.0
 10
95.4526384437
 20
124.2833672464
 30
0.0
 10
94.9836750832
 20
125.6679966527
 30
0.0
 10
93.808822291
 20
128.3806983786
 30
0.0
 10
91.4862812257
 20
132.1032924409
 30
0.0
 10
89.1351192913
 20
134.8401411601
 30
0.0
 10
87.0802489656
 20
136.6806537845
 30
0.0
 10
86.0126780611
 20
137.46877262
 30
0.0
 10
85.4734178808
 20
137.8233018868
 30
0.0
  0
SPLINE
  5
2CE
100
AcDbEntity
  8
0
100
AcDbSpline
 62
7
  6
CONTINUOUS
 70
0
 71
3
 72
9
 73
5
 74
0
 42
0.0000001
 43
0.0000001
 44
0.0000000001
 40
0.0
 40
0.0
 40
0.0
 40
0.0
 40
0.5032217804
 40
1.0
 40
1.0
 40
1.0
 40
1.0
 10
54.8804134116
 20
97.8201113595
 30
0.0
 10
53.9552366484
 20
99.8814968003
 30
0.0
 10
51.810953861
 20
103.8463147261
 30
0.0
 10
49.1204015288
 20
107.4643756087
 30
0.0
 10
47.652757363
 20
109.1440713574
 30
0.0
  0
SPLINE
  5
2CF
100
AcDbEntity
  8
0
100
AcDbSpline
 62
7
  6
CONTINUOUS
 70
0
 71
3
 72
9
 73
5
 74
0
 42
0.0000001
 43
0.0000001
 44
0.0000000001
 40
0.0
 40
0.0
 40
0.0
 40
0.0
 40
0.2400591213
 40
1.0
 40
1.0
 40
1.0
 40
1.0
 10
62.2180790468
 20
88.8679791648
 30
0.0
 10
61.8852328044
 20
89.0601436851
 30
0.0
 10
60.5202790819
 20
89.8977985733
 30
0.0
 10
59.2419255369
 20
90.8734304697
 30
0.0
 10
58.3217120406
 20
91.6693504935
 30
0.0
  0
SPLINE
  5
2D0
100
AcDbEntity
  8
0
100
AcDbSpline
 62
7
  6
CONTINUOUS
 70
0
 71
3
 72
11
 73
7
 74
0
 42
0.0000001
 43
0.0000001
 44
0.0000000001
 40
0.0
 40
0.0
 40
0.0
 40
0.0
 40
0.2187037384
 40
0.454902863
 40
0.7146269262
 40
1.0
 40
1.0
 40
1.0
 40
1.0
 10
26.4308700507
 20
82.0820033674
 30
0.0
 10
26.468823211
 20
82.1150538047
 30
0.0
 10
26.5378133622
 20
82.1958141048
 30
0.0
 10
26.6102936429
 20
82.3449727761
 30
0.0
 10
26.6535297033
 20
82.5205927212
 30
0.0
 10
26.6622278247
 20
82.6463187418
 30
0.0
 10
26.6622278247
 20
82.7119869229
 30
0.0
  0
SPLINE
  5
2D1
100
AcDbEntity
  8
0
100
AcDbSpline
 62
7
  6
CONTINUOUS
 70
0
 71
3
 72
16
 73
12
 74
0
 42
0.0000001
 43
0.0000001
 44
0.0000000001
 40
0.0
 40
0.0
 40
0.0
 40
0.0
 40
0.1287290147
 40
0.2703812437
 40
0.4175869183
 40
0.5619856222
 40
0.6957062385
 40
0.8130214787
 40
0.9124204512
 40
0.9571093895
 40
1.0
 40
1.0
 40
1.0
 40
1.0
 10
26.6622278247
 20
82.7119869229
 30
0.0
 10
26.6622278247
 20
82.8401834925
 30
0.0
 10
26.6263512806
 20
83.1097515706
 30
0.0
 10
26.4925262522
 20
83.5055606403
 30
0.0
 10
26.2861940576
 20
83.8868548874
 30
0.0
 10
26.0242441213
 20
84.2223370848
 30
0.0
 10
25.727266675
 20
84.4850722103
 30
0.0
 10
25.4183075047
 20
84.6545247866
 30
0.0
 10
25.1559880008
 20
84.705918529
 30
0.0
 10
24.9701540242
 20
84.6785623514
 30
0.0
 10
24.8885897476
 20
84.6446877094
 30
0.0
 10
24.8515810779
 20
84.6233622207
 30
0.0
  0
SPLINE
  5
2D2
100
AcDbEntity
  8
0
100
AcDbSpline
 62
7
  6
CONTINUOUS
 70
0
 71
3
 72
9
 73
5
 74
0
 42
0.0000001
 43
0.0000001
 44
0.0000000001
 40
0.0
 40
0.0
 40
0.0
 40
0.0
 40
0.2516156486
 40
1.0
 40
1.0
 40
1.0
 40
1.0
 10
24.8063455259
 20
84.5939226199
 30
0.0
 10
24.4307326131
 20
85.2133248122
 30
0.0
 10
22.9897102825
 20
87.7059710675
 30
0.0
 10
21.755156102
 20
90.3186468822
 30
0.0
 10
20.9646238557
 20
92.3229511905
 30
0.0
  0
SPLINE
  5
2D3
100
AcDbEntity
  8
0
100
AcDbSpline
 62
7
  6
CONTINUOUS
 70
0
 71
3
 72
9
 73
5
 74
0
 42
0.0000001
 43
0.0000001
 44
0.0000000001
 40
0.0
 40
0.0
 40
0.0
 40
0.0
 40
0.4931895446
 40
1.0
 40
1.0
 40
1.0
 40
1.0
 10
31.7981733634
 20
75.5715872131
 30
0.0
 10
30.8211390979
 20
76.5581226888
 30
0.0
 10
28.9350881994
 20
78.6542159024
 30
0.0
 10
27.2402626351
 20
80.9069761516
 30
0.0
 10
26.4308700507
 20
82.0820033674
 30
0.0
  0
SPLINE
  5
2D4
100
AcDbEntity
  8
0
100
AcDbSpline
 62
7
  6
CONTINUOUS
 70
0
 71
3
 72
11
 73
7
 74
0
 42
0.0000001
 43
0.0000001
 44
0.0000000001
 40
0.0
 40
0.0
 40
0.0
 40
0.0
 40
0.2756306338
 40
0.5347698195
 40
0.7762324789
 40
1.0
 40
1.0
 40
1.0
 40
1.0
 10
46.4284264996
 20
112.8391416579
 30
0.0
 10
46.2873393624
 20
113.7103935169
 30
0.0
 10
46.0924462392
 20
115.4150748513
 30
0.0
 10
46.0764740267
 20
117.9059921991
 30
0.0
 10
46.3460079686
 20
120.2160466357
 30
0.0
 10
46.7289782446
 20
121.6630788046
 30
0.0
 10
46.9712963131
 20
122.3373909155
 30
0.0
  0
SPLINE
  5
2D5
100
AcDbEntity
  8
0
100
AcDbSpline
 62
7
  6
CONTINUOUS
 70
0
 71
3
 72
9
 73
5
 74
0
 42
0.0000001
 43
0.0000001
 44
0.0000000001
 40
0.0
 40
0.0
 40
0.0
 40
0.0
 40
0.49640697
 40
1.0
 40
1.0
 40
1.0
 40
1.0
 10
31.0651529771
 20
79.4542516844
 30
0.0
 10
29.6480810876
 20
81.0650157189
 30
0.0
 10
27.0425012515
 20
84.5349584789
 30
0.0
 10
24.9513420378
 20
88.3356053748
 30
0.0
 10
24.0424012347
 20
90.3131548768
 30
0.0
  0
SPLINE
  5
2D6
100
AcDbEntity
  8
0
100
AcDbSpline
 62
7
  6
CONTINUOUS
 70
0
 71
3
 72
17
 73
13
 74
0
 42
0.0000001
 43
0.0000001
 44
0.0000000001
 40
0.0
 40
0.0
 40
0.0
 40
0.0
 40
0.043115864
 40
0.0887872133
 40
0.1380000768
 40
0.1913799931
 40
0.31083504
 40
0.4451311934
 40
0.5885669697
 40
0.7337940584
 40
0.8731443826
 40
1.0
 40
1.0
 40
1.0
 40
1.0
 10
46.7407338832
 20
96.7422205448
 30
0.0
 10
46.7983231148
 20
96.788221983
 30
0.0
 10
46.9053729236
 20
96.8981514809
 30
0.0
 10
47.0292287419
 20
97.1008350845
 30
0.0
 10
47.1174423652
 20
97.3399418681
 30
0.0
 10
47.1887353306
 20
97.7141785352
 30
0.0
 10
47.1748273185
 20
98.2449204588
 30
0.0
 10
47.0171799278
 20
98.9089907321
 30
0.0
 10
46.7303596778
 20
99.5763867763
 30
0.0
 10
46.3358064808
 20
100.1964387067
 30
0.0
 10
45.8639109244
 20
100.7222226683
 30
0.0
 10
45.498512288
 20
101.0005390353
 30
0.0
 10
45.3107053476
 20
101.10896697
 30
0.0
  0
SPLINE
  5
2D7
100
AcDbEntity
  8
0
100
AcDbSpline
 62
7
  6
CONTINUOUS
 70
0
 71
3
 72
11
 73
7
 74
0
 42
0.0000001
 43
0.0000001
 44
0.0000000001
 40
0.0
 40
0.0
 40
0.0
 40
0.0
 40
0.2897522512
 40
0.5490149592
 40
0.7821434681
 40
1.0
 40
1.0
 40
1.0
 40
1.0
 10
45.3107053476
 20
101.10896697
 30
0.0
 10
45.1948441097
 20
101.1758579736
 30
0.0
 10
44.9644486243
 20
101.2855346856
 30
0.0
 10
44.6102710222
 20
101.3709540669
 30
0.0
 10
44.2779375705
 20
101.3626837781
 30
0.0
 10
44.0778483226
 20
101.2899625742
 30
0.0
 10
43.9907266118
 20
101.2396845706
 30
0.0
  0
SPLINE
  5
2D8
100
AcDbEntity
  8
0
100
AcDbSpline
 62
7
  6
CONTINUOUS
 70
0
 71
3
 72
13
 73
9
 74
0
 42
0.0000001
 43
0.0000001
 44
0.0000000001
 40
0.0
 40
0.0
 40
0.0
 40
0.0
 40
0.3002245719
 40
0.5773776235
 40
0.7003406202
 40
0.8108140133
 40
0.9096750342
 40
1.0
 40
1.0
 40
1.0
 40
1.0
 10
32.3595779423
 20
88.8443477918
 30
0.0
 10
32.218865991
 20
89.0619192188
 30
0.0
 10
31.9940219135
 20
89.5115469051
 30
0.0
 10
31.8520438982
 20
90.1072123166
 30
0.0
 10
31.8522954569
 20
90.5498677743
 30
0.0
 10
31.9065130156
 20
90.8336775301
 30
0.0
 10
32.0142399927
 20
91.0719212451
 30
0.0
 10
32.1243575335
 20
91.196940129
 30
0.0
 10
32.1852673904
 20
91.2455914117
 30
0.0
  0
SPLINE
  5
2D9
100
AcDbEntity
  8
0
100
AcDbSpline
 62
7
  6
CONTINUOUS
 70
0
 71
3
 72
15
 73
11
 74
0
 42
0.0000001
 43
0.0000001
 44
0.0000000001
 40
0.0
 40
0.0
 40
0.0
 40
0.0
 40
0.1142459301
 40
0.2353075203
 40
0.3615596726
 40
0.4910873389
 40
0.6218052464
 40
0.7515684884
 40
0.8782799861
 40
1.0
 40
1.0
 40
1.0
 40
1.0
 10
58.249920148
 20
122.1059019627
 30
0.0
 10
58.8998599931
 20
121.6786078567
 30
0.0
 10
60.1817930275
 20
120.7102754845
 30
0.0
 10
61.9730564302
 20
119.015758455
 30
0.0
 10
63.6538072868
 20
117.0718997783
 30
0.0
 10
65.1830656084
 20
114.9259855513
 30
0.0
 10
66.523920356
 20
112.6299529684
 30
0.0
 10
67.6438342038
 20
110.239405683
 30
0.0
 10
68.5155719527
 20
107.8126942675
 30
0.0
 10
68.9275378919
 20
106.1684399791
 30
0.0
 10
69.0834696367
 20
105.3545380278
 30
0.0
  0
SPLINE
  5
2DA
100
AcDbEntity
  8
0
100
AcDbSpline
 62
7
  6
CONTINUOUS
 70
0
 71
3
 72
17
 73
13
 74
0
 42
0.0000001
 43
0.0000001
 44
0.0000000001
 40
0.0
 40
0.0
 40
0.0
 40
0.0
 40
0.125370282
 40
0.2418424863
 40
0.298104496
 40
0.3537952114
 40
0.40957656
 40
0.4661050192
 40
0.583575602
 40
0.7103916964
 40
0.8489179342
 40
1.0
 40
1.0
 40
1.0
 40
1.0
 10
46.9712963131
 20
122.3373909155
 30
0.0
 10
47.2302829048
 20
123.0580874627
 30
0.0
 10
47.8605823009
 20
124.4077208352
 30
0.0
 10
49.0000447145
 20
125.8534538858
 30
0.0
 10
50.0645565644
 20
126.7612410116
 30
0.0
 10
50.9282089314
 20
127.3183331739
 30
0.0
 10
51.8605278152
 20
127.7546375795
 30
0.0
 10
53.2026324224
 20
128.1777107763
 30
0.0
 10
55.0487310803
 20
128.3823457542
 30
0.0
 10
57.387550528
 20
128.1122779607
 30
0.0
 10
59.8271925642
 20
127.3501942751
 30
0.0
 10
61.4188392474
 20
126.5619202602
 30
0.0
 10
62.2180790468
 20
126.1004893859
 30
0.0
  0
SPLINE
  5
2DB
100
AcDbEntity
  8
0
100
AcDbSpline
 62
7
  6
CONTINUOUS
 70
0
 71
3
 72
13
 73
9
 74
0
 42
0.0000001
 43
0.0000001
 44
0.0000000001
 40
0.0
 40
0.0
 40
0.0
 40
0.0
 40
0.0921489174
 40
0.190106925
 40
0.2981310456
 40
0.4182497468
 40
0.6927575993
 40
1.0
 40
1.0
 40
1.0
 40
1.0
 10
44.2300362473
 20
100.8570522964
 30
0.0
 10
44.2923442383
 20
100.8929845576
 30
0.0
 10
44.4340460543
 20
100.9461920401
 30
0.0
 10
44.669381359
 20
100.9582054676
 30
0.0
 10
44.9208958146
 20
100.9065669111
 30
0.0
 10
45.2831450247
 20
100.7504721855
 30
0.0
 10
45.7223163873
 20
100.4096163204
 30
0.0
 10
46.0087897499
 20
100.0525409935
 30
0.0
 10
46.1390215122
 20
99.8511663267
 30
0.0
  0
SPLINE
  5
2DC
100
AcDbEntity
  8
0
100
AcDbSpline
 62
7
  6
CONTINUOUS
 70
0
 71
3
 72
9
 73
5
 74
0
 42
0.0000001
 43
0.0000001
 44
0.0000000001
 40
0.0
 40
0.0
 40
0.0
 40
0.0
 40
0.5035071997
 40
1.0
 40
1.0
 40
1.0
 40
1.0
 10
23.7887179769
 20
90.1845777565
 30
0.0
 10
24.7050000263
 20
88.1983259812
 30
0.0
 10
26.808264987
 20
84.378999636
 30
0.0
 10
29.4222251014
 20
80.8876700426
 30
0.0
 10
30.8426710242
 20
79.264488941
 30
0.0
  0
SPLINE
  5
2DD
100
AcDbEntity
  8
0
100
AcDbSpline
 62
7
  6
CONTINUOUS
 70
0
 71
3
 72
21
 73
17
 74
0
 42
0.0000001
 43
0.0000001
 44
0.0000000001
 40
0.0
 40
0.0
 40
0.0
 40
0.0
 40
0.1632606919
 40
0.3142108706
 40
0.3843157537
 40
0.4505816853
 40
0.5130373907
 40
0.5718952092
 40
0.6275769962
 40
0.6807260019
 40
0.7321966362
 40
0.7830022466
 40
0.8342238118
 40
0.8868990384
 40
0.9419260557
 40
1.0
 40
1.0
 40
1.0
 40
1.0
 10
76.9479955655
 20
106.5477540878
 30
0.0
 10
77.387218323
 20
105.1542777753
 30
0.0
 10
78.0648819307
 20
102.4153197638
 30
0.0
 10
78.3958932763
 20
98.9754005896
 30
0.0
 10
78.2935348929
 20
96.4025991995
 30
0.0
 10
78.0464292716
 20
94.6371504819
 30
0.0
 10
77.6292770735
 20
93.0070872416
 30
0.0
 10
77.0454461921
 20
91.5295843012
 30
0.0
 10
76.2998451937
 20
90.2207904639
 30
0.0
 10
75.398936758
 20
89.0960518877
 30
0.0
 10
74.3517858433
 20
88.1696340262
 30
0.0
 10
73.170490513
 20
87.4539056144
 30
0.0
 10
71.8699680934
 20
86.9582403521
 30
0.0
 10
70.4668302751
 20
86.6877702686
 30
0.0
 10
68.9783036042
 20
86.6437701236
 30
0.0
 10
67.9692469939
 20
86.7612347387
 30
0.0
 10
67.4577907735
 20
86.8535324938
 30
0.0
  0
SPLINE
  5
2DE
100
AcDbEntity
  8
0
100
AcDbSpline
 62
7
  6
CONTINUOUS
 70
0
 71
3
 72
9
 73
5
 74
0
 42
0.0000001
 43
0.0000001
 44
0.0000000001
 40
0.0
 40
0.0
 40
0.0
 40
0.0
 40
0.2500441541
 40
1.0
 40
1.0
 40
1.0
 40
1.0
 10
76.9479955655
 20
106.5477540878
 30
0.0
 10
77.7915409575
 20
107.0922033942
 30
0.0
 10
81.1657104263
 20
109.2687116637
 30
0.0
 10
84.5416905024
 20
111.4424117856
 30
0.0
 10
87.0740765769
 20
113.071735029
 30
0.0
  0
SPLINE
  5
2DF
100
AcDbEntity
  8
0
100
AcDbSpline
 62
7
  6
CONTINUOUS
 70
0
 71
3
 72
9
 73
5
 74
0
 42
0.0000001
 43
0.0000001
 44
0.0000000001
 40
0.0
 40
0.0
 40
0.0
 40
0.0
 40
0.4964070827
 40
1.0
 40
1.0
 40
1.0
 40
1.0
 10
47.4093019264
 20
108.9782943168
 30
0.0
 10
48.8263716161
 20
107.3675272468
 30
0.0
 10
51.4319463086
 20
103.897579809
 30
0.0
 10
53.5230999605
 20
100.0969290595
 30
0.0
 10
54.432037521
 20
98.1193782258
 30
0.0
  0
SPLINE
  5
2E0
100
AcDbEntity
  8
0
100
AcDbSpline
 62
7
  6
CONTINUOUS
 70
0
 71
3
 72
15
 73
11
 74
0
 42
0.0000001
 43
0.0000001
 44
0.0000000001
 40
0.0
 40
0.0
 40
0.0
 40
0.0
 40
0.0911470778
 40
0.1971885698
 40
0.319163826
 40
0.4539786406
 40
0.5961018822
 40
0.7388421013
 40
0.8754163594
 40
1.0
 40
1.0
 40
1.0
 40
1.0
 10
31.5721759278
 20
91.3327296598
 30
0.0
 10
31.4730695845
 20
91.2181952902
 30
0.0
 10
31.316524955
 20
90.9193087746
 30
0.0
 10
31.2356777568
 20
90.3890169741
 30
0.0
 10
31.286960968
 20
89.7838118461
 30
0.0
 10
31.4661300775
 20
89.142234921
 30
0.0
 10
31.7602091824
 20
88.5068126969
 30
0.0
 10
32.1492726687
 20
87.9210679123
 30
0.0
 10
32.6060950373
 20
87.4255586635
 30
0.0
 10
32.9559100216
 20
87.1625262884
 30
0.0
 10
33.135197456
 20
87.0590169816
 30
0.0
  0
SPLINE
  5
2E1
100
AcDbEntity
  8
0
100
AcDbSpline
 62
7
  6
CONTINUOUS
 70
0
 71
3
 72
11
 73
7
 74
0
 42
0.0000001
 43
0.0000001
 44
0.0000000001
 40
0.0
 40
0.0
 40
0.0
 40
0.0
 40
0.288918951
 40
0.5484443474
 40
0.7822897446
 40
1.0
 40
1.0
 40
1.0
 40
1.0
 10
33.135197456
 20
87.0590169816
 30
0.0
 10
33.2485086314
 20
86.9935982239
 30
0.0
 10
33.4739529856
 20
86.8857910769
 30
0.0
 10
33.8203395904
 20
86.7985967239
 30
0.0
 10
34.1463650929
 20
86.8002677785
 30
0.0
 10
34.3449461011
 20
86.8645283524
 30
0.0
 10
34.4322329991
 20
86.9103695719
 30
0.0
  0
SPLINE
  5
2E2
100
AcDbEntity
  8
0
100
AcDbSpline
 62
7
  6
CONTINUOUS
 70
0
 71
3
 72
9
 73
5
 74
0
 42
0.0000001
 43
0.0000001
 44
0.0000000001
 40
0.0
 40
0.0
 40
0.0
 40
0.0
 40
0.4927998341
 40
1.0
 40
1.0
 40
1.0
 40
1.0
 10
55.4205664759
 20
138.20064004
 30
0.0
 10
56.0374867284
 20
138.5568169981
 30
0.0
 10
57.3711477455
 20
139.1458771336
 30
0.0
 10
58.7964894363
 20
139.4445511718
 30
0.0
 10
59.5249569334
 20
139.5274852142
 30
0.0
  0
SPLINE
  5
2E3
100
AcDbEntity
  8
0
100
AcDbSpline
 62
7
  6
CONTINUOUS
 70
0
 71
3
 72
9
 73
5
 74
0
 42
0.0000001
 43
0.0000001
 44
0.0000000001
 40
0.0
 40
0.0
 40
0.0
 40
0.0
 40
0.2444961738
 40
1.0
 40
1.0
 40
1.0
 40
1.0
 10
36.9999967701
 20
88.9437782922
 30
0.0
 10
36.9828624489
 20
88.9501514219
 30
0.0
 10
36.9131616978
 20
88.9772315049
 30
0.0
 10
36.8450007146
 20
89.0082353281
 30
0.0
 10
36.79448907
 20
89.0335267377
 30
0.0
  0
SPLINE
  5
2E4
100
AcDbEntity
  8
0
100
AcDbSpline
 62
7
  6
CONTINUOUS
 70
0
 71
3
 72
13
 73
9
 74
0
 42
0.0000001
 43
0.0000001
 44
0.0000000001
 40
0.0
 40
0.0
 40
0.0
 40
0.0
 40
0.3002245719
 40
0.5773776235
 40
0.7003406202
 40
0.8108140133
 40
0.9096750342
 40
1.0
 40
1.0
 40
1.0
 40
1.0
 10
46.2562514998
 20
99.6698995879
 30
0.0
 10
46.3969634511
 20
99.4523281609
 30
0.0
 10
46.6218075286
 20
99.0027004746
 30
0.0
 10
46.7637855439
 20
98.4070350632
 30
0.0
 10
46.7635339852
 20
97.9643796054
 30
0.0
 10
46.7093164265
 20
97.6805698497
 30
0.0
 10
46.6015894494
 20
97.4423261347
 30
0.0
 10
46.4914719086
 20
97.3173072507
 30
0.0
 10
46.4305620517
 20
97.268655968
 30
0.0
  0
SPLINE
  5
2E5
100
AcDbEntity
  8
0
100
AcDbSpline
 62
7
  6
CONTINUOUS
 70
0
 71
3
 72
15
 73
11
 74
0
 42
0.0000001
 43
0.0000001
 44
0.0000000001
 40
0.0
 40
0.0
 40
0.0
 40
0.0
 40
0.0869269073
 40
0.1863915199
 40
0.3037788483
 40
0.4375862564
 40
0.5820820083
 40
0.7293897746
 40
0.8711736074
 40
1.0
 40
1.0
 40
1.0
 40
1.0
 10
156.2827176763
 20
90.5377003669
 30
0.0
 10
156.202803715
 20
90.583839628
 30
0.0
 10
156.0020341618
 20
90.6354624283
 30
0.0
 10
155.6788562605
 20
90.5707201993
 30
0.0
 10
155.3486880288
 20
90.3903896516
 30
0.0
 10
155.0320777584
 20
90.1100579358
 30
0.0
 10
154.7525930073
 20
89.7522533727
 30
0.0
 10
154.5324543073
 20
89.3455134704
 30
0.0
 10
154.3896900421
 20
88.9232630148
 30
0.0
 10
154.3513979728
 20
88.6356737353
 30
0.0
 10
154.3513979728
 20
88.4989182373
 30
0.0
  0
SPLINE
  5
2E6
100
AcDbEntity
  8
0
100
AcDbSpline
 62
7
  6
CONTINUOUS
 70
0
 71
3
 72
15
 73
11
 74
0
 42
0.0000001
 43
0.0000001
 44
0.0000000001
 40
0.0
 40
0.0
 40
0.0
 40
0.0
 40
0.0869269073
 40
0.1863915199
 40
0.3037788483
 40
0.4375862564
 40
0.5820820083
 40
0.7293897746
 40
0.8711736074
 40
1.0
 40
1.0
 40
1.0
 40
1.0
 10
156.2827176763
 20
103.6017390409
 30
0.0
 10
156.202803715
 20
103.647878302
 30
0.0
 10
156.0020341618
 20
103.6995011024
 30
0.0
 10
155.6788562605
 20
103.6347588734
 30
0.0
 10
155.3486880288
 20
103.4544283257
 30
0.0
 10
155.0320777584
 20
103.1740966099
 30
0.0
 10
154.7525930073
 20
102.8162920468
 30
0.0
 10
154.5324543073
 20
102.4095521445
 30
0.0
 10
154.3896900421
 20
101.9873016889
 30
0.0
 10
154.3513979728
 20
101.6997124094
 30
0.0
 10
154.3513979728
 20
101.5629569114
 30
0.0
  0
SPLINE
  5
2E7
100
AcDbEntity
  8
0
100
AcDbSpline
 62
7
  6
CONTINUOUS
 70
0
 71
3
 72
9
 73
5
 74
0
 42
0.0000001
 43
0.0000001
 44
0.0000000001
 40
0.0
 40
0.0
 40
0.0
 40
0.0
 40
0.2308977251
 40
1.0
 40
1.0
 40
1.0
 40
1.0
 10
41.6885314354
 20
134.0392938139
 30
0.0
 10
41.5638703981
 20
134.0545126921
 30
0.0
 10
41.0281118321
 20
134.1546635018
 30
0.0
 10
40.5205719976
 20
134.3778369784
 30
0.0
 10
40.1582950039
 20
134.5869929665
 30
0.0
  0
SPLINE
  5
2E8
100
AcDbEntity
  8
0
100
AcDbSpline
 62
7
  6
CONTINUOUS
 70
0
 71
3
 72
11
 73
7
 74
0
 42
0.0000001
 43
0.0000001
 44
0.0000000001
 40
0.0
 40
0.0
 40
0.0
 40
0.0
 40
0.2895463391
 40
0.5491378616
 40
0.7822784713
 40
1.0
 40
1.0
 40
1.0
 40
1.0
 10
154.3513979728
 20
101.5629569114
 30
0.0
 10
154.3513979728
 20
101.4819328234
 30
0.0
 10
154.3637697961
 20
101.3277562517
 30
0.0
 10
154.4260965463
 20
101.1158880538
 30
0.0
 10
154.5312409117
 20
100.9439316185
 30
0.0
 10
154.63004798
 20
100.8610191608
 30
0.0
 10
154.6828105485
 20
100.8305560742
 30
0.0
  0
SPLINE
  5
2E9
100
AcDbEntity
  8
0
100
AcDbSpline
 62
7
  6
CONTINUOUS
 70
0
 71
3
 72
11
 73
7
 74
0
 42
0.0000001
 43
0.0000001
 44
0.0000000001
 40
0.0
 40
0.0
 40
0.0
 40
0.0
 40
0.2895463391
 40
0.5491378616
 40
0.7822784713
 40
1.0
 40
1.0
 40
1.0
 40
1.0
 10
154.3513979728
 20
88.4989182373
 30
0.0
 10
154.3513979728
 20
88.4178941493
 30
0.0
 10
154.3637697961
 20
88.2637175776
 30
0.0
 10
154.4260965463
 20
88.0518493797
 30
0.0
 10
154.5312409117
 20
87.8798929444
 30
0.0
 10
154.63004798
 20
87.7969804868
 30
0.0
 10
154.6828105485
 20
87.7665174001
 30
0.0
  0
SPLINE
  5
2EA
100
AcDbEntity
  8
0
100
AcDbSpline
 62
7
  6
CONTINUOUS
 70
0
 71
3
 72
24
 73
20
 74
0
 42
0.0000001
 43
0.0000001
 44
0.0000000001
 40
0.0
 40
0.0
 40
0.0
 40
0.0
 40
0.0224757798
 40
0.045474765
 40
0.0943989918
 40
0.1490022751
 40
0.2100034931
 40
0.2770257002
 40
0.3489448264
 40
0.4241774905
 40
0.5009004156
 40
0.577226595
 40
0.651357357
 40
0.7217288187
 40
0.7871716527
 40
0.8470877778
 40
0.9016443785
 40
0.9519390898
 40
1.0
 40
1.0
 40
1.0
 40
1.0
 10
39.4774372829
 20
128.6493941791
 30
0.0
 10
39.6531411565
 20
128.7508235818
 30
0.0
 10
39.9917064317
 20
128.9869861405
 30
0.0
 10
40.6033896271
 20
129.5848980246
 30
0.0
 10
41.2188858159
 20
130.5671036142
 30
0.0
 10
41.6732362386
 20
131.9929175866
 30
0.0
 10
41.8604405062
 20
133.6392947798
 30
0.0
 10
41.7785437867
 20
135.448495677
 30
0.0
 10
41.431739407
 20
137.3556718688
 30
0.0
 10
40.8306037118
 20
139.2899137469
 30
0.0
 10
39.9936144855
 20
141.177908178
 30
0.0
 10
38.9471134467
 20
142.9471152564
 30
0.0
 10
37.7251235005
 20
144.5289590032
 30
0.0
 10
36.3686101221
 20
145.8618240695
 30
0.0
 10
34.9240556631
 20
146.8936284149
 30
0.0
 10
33.4416701874
 20
147.5834274986
 30
0.0
 10
31.9731904538
 20
147.9004512556
 30
0.0
 10
30.5765430189
 20
147.8237478054
 30
0.0
 10
29.7305983415
 20
147.5016016762
 30
0.0
 10
29.3548747511
 20
147.2847257392
 30
0.0
  0
SPLINE
  5
2EB
100
AcDbEntity
  8
0
100
AcDbSpline
 62
7
  6
CONTINUOUS
 70
0
 71
3
 72
9
 73
5
 74
0
 42
0.0000001
 43
0.0000001
 44
0.0000000001
 40
0.0
 40
0.0
 40
0.0
 40
0.0
 40
0.5150542456
 40
1.0
 40
1.0
 40
1.0
 40
1.0
 10
30.492278519
 20
185.8258048807
 30
0.0
 10
28.613912867
 20
177.3943803984
 30
0.0
 10
25.7397705649
 20
160.8393267211
 30
0.0
 10
24.6675261891
 20
144.0586345071
 30
0.0
 10
24.6675261891
 20
135.9254692778
 30
0.0
  0
SPLINE
  5
2EC
100
AcDbEntity
  8
0
100
AcDbSpline
 62
7
  6
CONTINUOUS
 70
0
 71
3
 72
9
 73
5
 74
0
 42
0.0000001
 43
0.0000001
 44
0.0000000001
 40
0.0
 40
0.0
 40
0.0
 40
0.0
 40
0.5095059135
 40
1.0
 40
1.0
 40
1.0
 40
1.0
 10
112.7257056528
 20
134.6800822243
 30
0.0
 10
111.5511193326
 20
129.082196115
 30
0.0
 10
109.5970476622
 20
118.0179663636
 30
0.0
 10
108.4200975419
 20
106.8421918417
 30
0.0
 10
108.0557127816
 20
101.3479026504
 30
0.0
  0
SPLINE
  5
2ED
100
AcDbEntity
  8
0
100
AcDbSpline
 62
7
  6
CONTINUOUS
 70
0
 71
3
 72
9
 73
5
 74
0
 42
0.0000001
 43
0.0000001
 44
0.0000000001
 40
0.0
 40
0.0
 40
0.0
 40
0.0
 40
0.2386308617
 40
1.0
 40
1.0
 40
1.0
 40
1.0
 10
44.673684527
 20
124.375044111
 30
0.0
 10
44.673684527
 20
123.6197140207
 30
0.0
 10
44.8081286489
 20
120.4547150368
 30
0.0
 10
45.4454951875
 20
117.320866979
 30
0.0
 10
46.1366658006
 20
115.0121718925
 30
0.0
  0
SPLINE
  5
2EE
100
AcDbEntity
  8
0
100
AcDbSpline
 62
7
  6
CONTINUOUS
 70
0
 71
3
 72
15
 73
11
 74
0
 42
0.0000001
 43
0.0000001
 44
0.0000000001
 40
0.0
 40
0.0
 40
0.0
 40
0.0
 40
0.1600592075
 40
0.3099603985
 40
0.4489574142
 40
0.5768345494
 40
0.6940638869
 40
0.8019801691
 40
0.90288726
 40
1.0
 40
1.0
 40
1.0
 40
1.0
 10
67.4176862504
 20
86.5919380111
 30
0.0
 10
68.2774472475
 20
86.005568361
 30
0.0
 10
69.9827905159
 20
84.9274424853
 30
0.0
 10
72.5704120606
 20
83.569001613
 30
0.0
 10
75.0804588661
 20
82.5357514851
 30
0.0
 10
77.4858201574
 20
81.8422001155
 30
0.0
 10
79.7635788071
 20
81.5005950177
 30
0.0
 10
81.8942333461
 20
81.5226280924
 30
0.0
 10
83.8567817182
 20
81.9179546179
 30
0.0
 10
85.0476131335
 20
82.4384987333
 30
0.0
 10
85.5944325911
 20
82.7542054509
 30
0.0
  0
SPLINE
  5
2EF
100
AcDbEntity
  8
0
100
AcDbSpline
 62
7
  6
CONTINUOUS
 70
0
 71
3
 72
9
 73
5
 74
0
 42
0.0000001
 43
0.0000001
 44
0.0000000001
 40
0.0
 40
0.0
 40
0.0
 40
0.0
 40
0.5134038356
 40
1.0
 40
1.0
 40
1.0
 40
1.0
 10
108.0557127816
 20
75.2540920712
 30
0.0
 10
108.4034158259
 20
70.4128246739
 30
0.0
 10
109.4892758789
 20
61.0063234594
 30
0.0
 10
111.497992611
 20
51.7477705102
 30
0.0
 10
112.7257056528
 20
47.3143235915
 30
0.0
  0
SPLINE
  5
2F0
100
AcDbEntity
  8
0
100
AcDbSpline
 62
7
  6
CONTINUOUS
 70
0
 71
3
 72
11
 73
7
 74
0
 42
0.0000001
 43
0.0000001
 44
0.0000000001
 40
0.0
 40
0.0
 40
0.0
 40
0.0
 40
0.2830618207
 40
0.5425292895
 40
0.779945335
 40
1.0
 40
1.0
 40
1.0
 40
1.0
 10
34.1805950792
 20
128.7679136714
 30
0.0
 10
34.5680306431
 20
128.5442327046
 30
0.0
 10
35.3390759992
 20
128.1616158164
 30
0.0
 10
36.520199087
 20
127.7887811994
 30
0.0
 10
37.6527639634
 20
127.6539963665
 30
0.0
 10
38.3800192065
 20
127.7316707841
 30
0.0
 10
38.7179934847
 20
127.8137103199
 30
0.0
  0
SPLINE
  5
2F1
100
AcDbEntity
  8
0
100
AcDbSpline
 62
7
  6
CONTINUOUS
 70
0
 71
3
 72
9
 73
5
 74
0
 42
0.0000001
 43
0.0000001
 44
0.0000000001
 40
0.0
 40
0.0
 40
0.0
 40
0.0
 40
0.2534047348
 40
1.0
 40
1.0
 40
1.0
 40
1.0
 10
107.8715025019
 20
100.768778543
 30
0.0
 10
107.8041033649
 20
99.7021166213
 30
0.0
 10
107.570024511
 20
95.4908626468
 30
0.0
 10
107.4651368663
 20
91.2722546011
 30
0.0
 10
107.4651368663
 20
88.123327894
 30
0.0
  0
SPLINE
  5
2F2
100
AcDbEntity
  8
0
100
AcDbSpline
 62
7
  6
CONTINUOUS
 70
0
 71
3
 72
9
 73
5
 74
0
 42
0.0000001
 43
0.0000001
 44
0.0000000001
 40
0.0
 40
0.0
 40
0.0
 40
0.0
 40
0.2536792358
 40
1.0
 40
1.0
 40
1.0
 40
1.0
 10
107.4651368663
 20
88.123327894
 30
0.0
 10
107.4651368663
 20
87.0930256923
 30
0.0
 10
107.4982099262
 20
83.0316825945
 30
0.0
 10
107.6653785
 20
78.9712231612
 30
0.0
 10
107.8715025019
 20
75.9471050623
 30
0.0
  0
SPLINE
  5
2F3
100
AcDbEntity
  8
0
100
AcDbSpline
 62
7
  6
CONTINUOUS
 70
0
 71
3
 72
9
 73
5
 74
0
 42
0.0000001
 43
0.0000001
 44
0.0000000001
 40
0.0
 40
0.0
 40
0.0
 40
0.0
 40
0.481039278
 40
1.0
 40
1.0
 40
1.0
 40
1.0
 10
89.8581029438
 20
98.5334681541
 30
0.0
 10
89.8581029438
 20
100.0833860275
 30
0.0
 10
89.6390755039
 20
103.3067640258
 30
0.0
 10
89.0756365708
 20
106.4852604365
 30
0.0
 10
88.7039305946
 20
108.115523635
 30
0.0
  0
SPLINE
  5
2F4
100
AcDbEntity
  8
0
100
AcDbSpline
 62
7
  6
CONTINUOUS
 70
0
 71
3
 72
16
 73
12
 74
0
 42
0.0000001
 43
0.0000001
 44
0.0000000001
 40
0.0
 40
0.0
 40
0.0
 40
0.0
 40
0.1489055323
 40
0.2904793132
 40
0.4243351524
 40
0.4884450299
 40
0.5507172193
 40
0.6700066889
 40
0.7835196986
 40
0.8928578253
 40
1.0
 40
1.0
 40
1.0
 40
1.0
 10
75.8384772478
 20
132.2885900524
 30
0.0
 10
74.976041406
 20
133.1338868083
 30
0.0
 10
73.2069376612
 20
134.6980958316
 30
0.0
 10
70.373742886
 20
136.6658625567
 30
0.0
 10
67.9164696087
 20
137.9304478985
 30
0.0
 10
65.9423856082
 20
138.6822367619
 30
0.0
 10
64.0297367075
 20
139.246050971
 30
0.0
 10
61.6562109182
 20
139.6387845593
 30
0.0
 10
58.8656425424
 20
139.5921620181
 30
0.0
 10
56.2319004686
 20
139.0272751195
 30
0.0
 10
54.6144511264
 20
138.3066077109
 30
0.0
 10
53.8619257818
 20
137.8721935622
 30
0.0
  0
SPLINE
  5
2F5
100
AcDbEntity
  8
0
100
AcDbSpline
 62
7
  6
CONTINUOUS
 70
0
 71
3
 72
9
 73
5
 74
0
 42
0.0000001
 43
0.0000001
 44
0.0000000001
 40
0.0
 40
0.0
 40
0.0
 40
0.0
 40
0.2527115414
 40
1.0
 40
1.0
 40
1.0
 40
1.0
 10
102.5148206343
 20
138.5010428437
 30
0.0
 10
102.2791720909
 20
137.3367950944
 30
0.0
 10
101.3777570501
 20
132.7235548911
 30
0.0
 10
100.6018646733
 20
128.0856651065
 30
0.0
 10
100.0976672057
 20
124.6094520477
 30
0.0
  0
SPLINE
  5
2F6
100
AcDbEntity
  8
0
100
AcDbSpline
 62
7
  6
CONTINUOUS
 70
0
 71
3
 72
15
 73
11
 74
0
 42
0.0000001
 43
0.0000001
 44
0.0000000001
 40
0.0
 40
0.0
 40
0.0
 40
0.0
 40
0.1015372977
 40
0.2060737016
 40
0.3162309959
 40
0.4340130482
 40
0.5608013845
 40
0.6973805443
 40
0.8439068157
 40
1.0
 40
1.0
 40
1.0
 40
1.0
 10
84.3616477411
 20
85.0448169692
 30
0.0
 10
84.8078043004
 20
85.3023553983
 30
0.0
 10
85.6651289651
 20
85.9137102754
 30
0.0
 10
86.7806671459
 20
87.0782206529
 30
0.0
 10
87.7290230891
 20
88.4818875811
 30
0.0
 10
88.5081809624
 20
90.1104407008
 30
0.0
 10
89.1145107126
 20
91.9514713519
 30
0.0
 10
89.5458031028
 20
93.9894540761
 30
0.0
 10
89.8039526179
 20
96.2053871037
 30
0.0
 10
89.8581029438
 20
97.7415253079
 30
0.0
 10
89.8581029438
 20
98.5334681541
 30
0.0
  0
SPLINE
  5
2F7
100
AcDbEntity
  8
0
100
AcDbSpline
 62
7
  6
CONTINUOUS
 70
0
 71
3
 72
14
 73
10
 74
0
 42
0.0000001
 43
0.0000001
 44
0.0000000001
 40
0.0
 40
0.0
 40
0.0
 40
0.0
 40
0.1139572964
 40
0.2291062923
 40
0.3466085387
 40
0.4675282123
 40
0.592745117
 40
0.7229748745
 40
1.0
 40
1.0
 40
1.0
 40
1.0
 10
52.4945913134
 20
140.0851853721
 30
0.0
 10
51.8901462712
 20
139.7362271312
 30
0.0
 10
50.7266886954
 20
138.9404358829
 30
0.0
 10
49.1696217869
 20
137.4864667679
 30
0.0
 10
47.8162550319
 20
135.7861713895
 30
0.0
 10
46.6850327497
 20
133.8596682548
 30
0.0
 10
45.7903443543
 20
131.7279825091
 30
0.0
 10
44.9121148631
 20
128.5806484146
 30
0.0
 10
44.673684527
 20
126.0717146853
 30
0.0
 10
44.673684527
 20
124.375044111
 30
0.0
  0
SPLINE
  5
2F8
100
AcDbEntity
  8
0
100
AcDbSpline
 62
7
  6
CONTINUOUS
 70
0
 71
3
 72
11
 73
7
 74
0
 42
0.0000001
 43
0.0000001
 44
0.0000000001
 40
0.0
 40
0.0
 40
0.0
 40
0.0
 40
0.237239768
 40
0.4999988393
 40
0.7627585384
 40
1.0
 40
1.0
 40
1.0
 40
1.0
 10
36.1277695705
 20
136.9139652673
 30
0.0
 10
35.8767954201
 20
137.0588619826
 30
0.0
 10
35.4018609861
 20
137.4585793402
 30
0.0
 10
34.8475479558
 20
138.2160648835
 30
0.0
 10
34.4686979353
 20
139.0748569686
 30
0.0
 10
34.3599952577
 20
139.68602278
 30
0.0
 10
34.3599952577
 20
139.9758231964
 30
0.0
  0
SPLINE
  5
2F9
100
AcDbEntity
  8
0
100
AcDbSpline
 62
7
  6
CONTINUOUS
 70
0
 71
3
 72
9
 73
5
 74
0
 42
0.0000001
 43
0.0000001
 44
0.0000000001
 40
0.0
 40
0.0
 40
0.0
 40
0.0
 40
0.2408164997
 40
1.0
 40
1.0
 40
1.0
 40
1.0
 10
36.4813214892
 20
136.3015849271
 30
0.0
 10
36.4372634776
 20
136.3270212565
 30
0.0
 10
36.2567934337
 20
136.4369247738
 30
0.0
 10
36.0861633572
 20
136.5626974934
 30
0.0
 10
35.9624240562
 20
136.6647297456
 30
0.0
  0
SPLINE
  5
2FA
100
AcDbEntity
  8
0
100
AcDbSpline
 62
7
  6
CONTINUOUS
 70
0
 71
3
 72
11
 73
7
 74
0
 42
0.0000001
 43
0.0000001
 44
0.0000000001
 40
0.0
 40
0.0
 40
0.0
 40
0.0
 40
0.2431661443
 40
0.499999383
 40
0.7568329285
 40
1.0
 40
1.0
 40
1.0
 40
1.0
 10
35.9624240562
 20
136.6647297456
 30
0.0
 10
35.7202997527
 20
136.8643792328
 30
0.0
 10
35.2654960955
 20
137.3284713916
 30
0.0
 10
34.708023019
 20
138.1355113525
 30
0.0
 10
34.2878404936
 20
139.0218175737
 30
0.0
 10
34.1133248653
 20
139.647736259
 30
0.0
 10
34.061484272
 20
139.9572478097
 30
0.0
  0
SPLINE
  5
2FB
100
AcDbEntity
  8
0
100
AcDbSpline
 62
7
  6
CONTINUOUS
 70
0
 71
3
 72
9
 73
5
 74
0
 42
0.0000001
 43
0.0000001
 44
0.0000000001
 40
0.0
 40
0.0
 40
0.0
 40
0.0
 40
0.2589955222
 40
1.0
 40
1.0
 40
1.0
 40
1.0
 10
34.061484272
 20
139.9572478097
 30
0.0
 10
34.0524465078
 20
140.011207308
 30
0.0
 10
34.0214772681
 20
140.2201653953
 30
0.0
 10
34.0064374511
 20
140.4316535982
 30
0.0
 10
34.0064374511
 20
140.5881860279
 30
0.0
  0
SPLINE
  5
2FC
100
AcDbEntity
  8
0
100
AcDbSpline
 62
7
  6
CONTINUOUS
 70
0
 71
3
 72
9
 73
5
 74
0
 42
0.0000001
 43
0.0000001
 44
0.0000000001
 40
0.0
 40
0.0
 40
0.0
 40
0.0
 40
0.2668690208
 40
1.0
 40
1.0
 40
1.0
 40
1.0
 10
40.1582950039
 20
133.7704905494
 30
0.0
 10
40.2850335803
 20
133.6973196535
 30
0.0
 10
40.7687540493
 20
133.4395170059
 30
0.0
 10
41.291865281
 20
133.2492376015
 30
0.0
 10
41.6863522659
 20
133.171722125
 30
0.0
  0
SPLINE
  5
2FD
100
AcDbEntity
  8
0
100
AcDbSpline
 62
7
  6
CONTINUOUS
 70
0
 71
3
 72
11
 73
7
 74
0
 42
0.0000001
 43
0.0000001
 44
0.0000000001
 40
0.0
 40
0.0
 40
0.0
 40
0.0
 40
0.2328177836
 40
0.4903301015
 40
0.7530220427
 40
1.0
 40
1.0
 40
1.0
 40
1.0
 10
33.6528855325
 20
140.3840639509
 30
0.0
 10
33.6528855325
 20
140.0247233283
 30
0.0
 10
33.7729899227
 20
139.2672101555
 30
0.0
 10
34.2043396439
 20
138.1802263884
 30
0.0
 10
34.8506269356
 20
137.1794893803
 30
0.0
 10
35.4086004457
 20
136.6133130319
 30
0.0
 10
35.7099106613
 20
136.3798123656
 30
0.0
  0
SPLINE
  5
2FE
100
AcDbEntity
  8
0
100
AcDbSpline
 62
7
  6
CONTINUOUS
 70
0
 71
3
 72
9
 73
5
 74
0
 42
0.0000001
 43
0.0000001
 44
0.0000000001
 40
0.0
 40
0.0
 40
0.0
 40
0.0
 40
0.2575076466
 40
1.0
 40
1.0
 40
1.0
 40
1.0
 10
35.7099106613
 20
136.3798123656
 30
0.0
 10
35.744141171
 20
136.3532853964
 30
0.0
 10
35.8786593456
 20
136.2523527822
 30
0.0
 10
36.0196304552
 20
136.1598955851
 30
0.0
 10
36.1277695705
 20
136.0974628502
 30
0.0
  0
SPLINE
  5
2FF
100
AcDbEntity
  8
0
100
AcDbSpline
 62
7
  6
CONTINUOUS
 70
0
 71
3
 72
11
 73
7
 74
0
 42
0.0000001
 43
0.0000001
 44
0.0000000001
 40
0.0
 40
0.0
 40
0.0
 40
0.0
 40
0.2166136884
 40
0.4578788389
 40
0.720815705
 40
1.0
 40
1.0
 40
1.0
 40
1.0
 10
41.3363903156
 20
131.3192752371
 30
0.0
 10
40.8160181022
 20
131.454128093
 30
0.0
 10
39.7502929679
 20
131.8768401085
 30
0.0
 10
38.2319925824
 20
132.8367484194
 30
0.0
 10
36.7607860132
 20
134.117482165
 30
0.0
 10
35.8689300695
 20
135.1302646766
 30
0.0
 10
35.4426959715
 20
135.6764813733
 30
0.0
  0
SPLINE
  5
300
100
AcDbEntity
  8
0
100
AcDbSpline
 62
7
  6
CONTINUOUS
 70
0
 71
3
 72
9
 73
5
 74
0
 42
0.0000001
 43
0.0000001
 44
0.0000000001
 40
0.0
 40
0.0
 40
0.0
 40
0.0
 40
0.2680142269
 40
1.0
 40
1.0
 40
1.0
 40
1.0
 10
31.8497557334
 20
145.1401638729
 30
0.0
 10
31.8497557334
 20
145.3773739776
 30
0.0
 10
31.8813065697
 20
146.2613808745
 30
0.0
 10
32.0466894692
 20
147.1464016343
 30
0.0
 10
32.2699054558
 20
147.7545883146
 30
0.0
  0
SPLINE
  5
301
100
AcDbEntity
  8
0
100
AcDbSpline
 62
7
  6
CONTINUOUS
 70
0
 71
3
 72
11
 73
7
 74
0
 42
0.0000001
 43
0.0000001
 44
0.0000000001
 40
0.0
 40
0.0
 40
0.0
 40
0.0
 40
0.2618938502
 40
0.5229556674
 40
0.7721240093
 40
1.0
 40
1.0
 40
1.0
 40
1.0
 10
35.4426959715
 20
135.6764813733
 30
0.0
 10
34.8903830547
 20
136.3842673962
 30
0.0
 10
33.8947973574
 20
137.8843933002
 30
0.0
 10
32.7618681081
 20
140.2869016436
 30
0.0
 10
32.0384586779
 20
142.7218466427
 30
0.0
 10
31.8497557334
 20
144.358997303
 30
0.0
 10
31.8497557334
 20
145.1401638729
 30
0.0
  0
SPLINE
  5
302
100
AcDbEntity
  8
0
100
AcDbSpline
 62
7
  6
CONTINUOUS
 70
0
 71
3
 72
9
 73
5
 74
0
 42
0.0000001
 43
0.0000001
 44
0.0000000001
 40
0.0
 40
0.0
 40
0.0
 40
0.0
 40
0.5252338146
 40
1.0
 40
1.0
 40
1.0
 40
1.0
 10
30.270798647
 20
132.6904872694
 30
0.0
 10
30.869420043
 20
131.9233571984
 30
0.0
 10
32.135023029
 20
130.5560750621
 30
0.0
 10
33.6479473524
 20
129.4555025658
 30
0.0
 10
34.421940676
 20
129.0377027259
 30
0.0
  0
SPLINE
  5
303
100
AcDbEntity
  8
0
100
AcDbSpline
 62
7
  6
CONTINUOUS
 70
0
 71
3
 72
10
 73
6
 74
0
 42
0.0000001
 43
0.0000001
 44
0.0000000001
 40
0.0
 40
0.0
 40
0.0
 40
0.0
 40
0.2783203392
 40
0.5370399329
 40
1.0
 40
1.0
 40
1.0
 40
1.0
 10
34.421940676
 20
129.0377027259
 30
0.0
 10
34.7322619127
 20
128.8701920264
 30
0.0
 10
35.3502842436
 20
128.5794716546
 30
0.0
 10
36.557744875
 20
128.1926568256
 30
0.0
 10
37.4936721896
 20
128.1106801171
 30
0.0
 10
38.0756053851
 20
128.1844764734
 30
0.0
  0
SPLINE
  5
304
100
AcDbEntity
  8
0
100
AcDbSpline
 62
7
  6
CONTINUOUS
 70
0
 71
3
 72
10
 73
6
 74
0
 42
0.0000001
 43
0.0000001
 44
0.0000000001
 40
0.0
 40
0.0
 40
0.0
 40
0.0
 40
0.4798859178
 40
0.7349728968
 40
1.0
 40
1.0
 40
1.0
 40
1.0
 10
115.9013814343
 20
43.4411449918
 30
0.0
 10
113.8934246553
 20
50.1357061246
 30
0.0
 10
111.7219560317
 20
60.6765857831
 30
0.0
 10
110.3075995157
 20
75.1767979069
 30
0.0
 10
110.0766508098
 20
82.7556660092
 30
0.0
 10
110.0766508098
 20
86.6156037251
 30
0.0
  0
SPLINE
  5
305
100
AcDbEntity
  8
0
100
AcDbSpline
 62
7
  6
CONTINUOUS
 70
0
 71
3
 72
9
 73
5
 74
0
 42
0.0000001
 43
0.0000001
 44
0.0000000001
 40
0.0
 40
0.0
 40
0.0
 40
0.0
 40
0.4849457544
 40
1.0
 40
1.0
 40
1.0
 40
1.0
 10
110.0766508098
 20
86.6156037251
 30
0.0
 10
110.0766508098
 20
94.7487689544
 30
0.0
 10
111.1488951855
 20
111.5294611683
 30
0.0
 10
114.0230374877
 20
128.0845148456
 30
0.0
 10
115.9014031396
 20
136.5159393279
 30
0.0
  0
SPLINE
  5
306
100
AcDbEntity
  8
0
100
AcDbSpline
 62
7
  6
CONTINUOUS
 70
0
 71
3
 72
11
 73
7
 74
0
 42
0.0000001
 43
0.0000001
 44
0.0000000001
 40
0.0
 40
0.0
 40
0.0
 40
0.0
 40
0.2895463391
 40
0.5491378616
 40
0.7822784713
 40
1.0
 40
1.0
 40
1.0
 40
1.0
 10
156.6141302519
 20
102.8693382038
 30
0.0
 10
156.6141302519
 20
102.9503622918
 30
0.0
 10
156.6017584287
 20
103.1045388635
 30
0.0
 10
156.5394316785
 20
103.3164070613
 30
0.0
 10
156.434287313
 20
103.4883634967
 30
0.0
 10
156.3354802448
 20
103.5712759543
 30
0.0
 10
156.2827176763
 20
103.6017390409
 30
0.0
  0
SPLINE
  5
307
100
AcDbEntity
  8
0
100
AcDbSpline
 62
7
  6
CONTINUOUS
 70
0
 71
3
 72
15
 73
11
 74
0
 42
0.0000001
 43
0.0000001
 44
0.0000000001
 40
0.0
 40
0.0
 40
0.0
 40
0.0
 40
0.1161241647
 40
0.2407503792
 40
0.371118707
 40
0.5040588129
 40
0.6362966333
 40
0.7647191415
 40
0.8866249855
 40
1.0
 40
1.0
 40
1.0
 40
1.0
 10
42.3783628001
 20
133.5010684719
 30
0.0
 10
42.4025356942
 20
134.1343369429
 30
0.0
 10
42.3436478617
 20
135.4525579573
 30
0.0
 10
41.9819818112
 20
137.4503524999
 30
0.0
 10
41.354382853
 20
139.4775431656
 30
0.0
 10
40.4799128044
 20
141.4563663551
 30
0.0
 10
39.3859310679
 20
143.3108458063
 30
0.0
 10
38.107501386
 20
144.9690422682
 30
0.0
 10
36.6881452842
 20
146.3656949529
 30
0.0
 10
35.6371636789
 20
147.1164913306
 30
0.0
 10
35.1013276945
 20
147.4258493818
 30
0.0
  0
SPLINE
  5
308
100
AcDbEntity
  8
0
100
AcDbSpline
 62
7
  6
CONTINUOUS
 70
0
 71
3
 72
14
 73
10
 74
0
 42
0.0000001
 43
0.0000001
 44
0.0000000001
 40
0.0
 40
0.0
 40
0.0
 40
0.0
 40
0.1135274271
 40
0.2283125284
 40
0.3455702607
 40
0.4663594726
 40
0.5916155699
 40
0.7221040849
 40
1.0
 40
1.0
 40
1.0
 40
1.0
 10
53.8619257818
 20
137.8721935622
 30
0.0
 10
53.3093480587
 20
137.553204198
 30
0.0
 10
52.2454917327
 20
136.8252006994
 30
0.0
 10
50.8236444294
 20
135.4918799976
 30
0.0
 10
49.5888891476
 20
133.9312912143
 30
0.0
 10
48.5562938659
 20
132.1624802019
 30
0.0
 10
47.7406442759
 20
130.2030678687
 30
0.0
 10
46.941575858
 20
127.3063161924
 30
0.0
 10
46.7244097098
 20
124.997970563
 30
0.0
 10
46.7244097098
 20
123.4361541798
 30
0.0
  0
SPLINE
  5
309
100
AcDbEntity
  8
0
100
AcDbSpline
 62
7
  6
CONTINUOUS
 70
0
 71
3
 72
11
 73
7
 74
0
 42
0.0000001
 43
0.0000001
 44
0.0000000001
 40
0.0
 40
0.0
 40
0.0
 40
0.0
 40
0.2895463391
 40
0.5491378616
 40
0.7822784713
 40
1.0
 40
1.0
 40
1.0
 40
1.0
 10
156.6141302519
 20
89.8052995297
 30
0.0
 10
156.6141302519
 20
89.8863236177
 30
0.0
 10
156.6017584287
 20
90.0405001894
 30
0.0
 10
156.5394316785
 20
90.2523683873
 30
0.0
 10
156.434287313
 20
90.4243248226
 30
0.0
 10
156.3354802448
 20
90.5072372802
 30
0.0
 10
156.2827176763
 20
90.5377003669
 30
0.0
  0
SPLINE
  5
30A
100
AcDbEntity
  8
0
100
AcDbSpline
 62
7
  6
CONTINUOUS
 70
0
 71
3
 72
13
 73
9
 74
0
 42
0.0000001
 43
0.0000001
 44
0.0000000001
 40
0.0
 40
0.0
 40
0.0
 40
0.0
 40
0.1138208404
 40
0.2289522085
 40
0.3465268772
 40
0.4675735522
 40
0.7228194227
 40
1.0
 40
1.0
 40
1.0
 40
1.0
 10
52.8079332336
 20
139.4552559061
 30
0.0
 10
52.2320534725
 20
139.1086872972
 30
0.0
 10
51.1245094623
 20
138.3229100132
 30
0.0
 10
49.6449069126
 20
136.8992784231
 30
0.0
 10
48.3600701019
 20
135.2430318565
 30
0.0
 10
46.9040557807
 20
132.7067390752
 30
0.0
 10
45.6735779579
 20
129.0047472923
 30
0.0
 10
45.3808049226
 20
125.8485302603
 30
0.0
 10
45.3808049238
 20
124.2117559878
 30
0.0
  0
SPLINE
  5
30B
100
AcDbEntity
  8
0
100
AcDbSpline
 62
7
  6
CONTINUOUS
 70
0
 71
3
 72
14
 73
10
 74
0
 42
0.0000001
 43
0.0000001
 44
0.0000000001
 40
0.0
 40
0.0
 40
0.0
 40
0.0
 40
0.2772658259
 40
0.4075542011
 40
0.5327843119
 40
0.6536737565
 40
0.7711069193
 40
0.886157211
 40
1.0
 40
1.0
 40
1.0
 40
1.0
 10
45.1686651816
 20
124.0892778039
 30
0.0
 10
45.1686651816
 20
125.7496191359
 30
0.0
 10
45.4011344957
 20
128.2044543125
 30
0.0
 10
46.2582319674
 20
131.2840950355
 30
0.0
 10
47.1313817524
 20
133.3692644865
 30
0.0
 10
48.2355529499
 20
135.2533817814
 30
0.0
 10
49.5568257115
 20
136.9158912178
 30
0.0
 10
51.0772758934
 20
138.3371405176
 30
0.0
 10
52.2136582769
 20
139.1147126448
 30
0.0
 10
52.8040514423
 20
139.4555633386
 30
0.0
  0
SPLINE
  5
30C
100
AcDbEntity
  8
0
100
AcDbSpline
 62
7
  6
CONTINUOUS
 70
0
 71
3
 72
9
 73
5
 74
0
 42
0.0000001
 43
0.0000001
 44
0.0000000001
 40
0.0
 40
0.0
 40
0.0
 40
0.0
 40
0.2597373651
 40
1.0
 40
1.0
 40
1.0
 40
1.0
 10
46.1209526103
 20
116.6662001362
 30
0.0
 10
45.965537273
 20
117.2961206663
 30
0.0
 10
45.4320319809
 20
119.7362768669
 30
0.0
 10
45.1686651816
 20
122.2401428162
 30
0.0
 10
45.1686651816
 20
124.0892778039
 30
0.0
  0
SPLINE
  5
30D
100
AcDbEntity
  8
0
100
AcDbSpline
 62
7
  6
CONTINUOUS
 70
0
 71
3
 72
12
 73
8
 74
0
 42
0.0000001
 43
0.0000001
 44
0.0000000001
 40
0.0
 40
0.0
 40
0.0
 40
0.0
 40
0.1069489788
 40
0.2163960845
 40
0.4492921478
 40
0.7093522215
 40
1.0
 40
1.0
 40
1.0
 40
1.0
 10
39.7257143985
 20
128.2154194123
 30
0.0
 10
39.909329988
 20
128.3213775543
 30
0.0
 10
40.2631208328
 20
128.5681817625
 30
0.0
 10
40.9022448842
 20
129.1933031297
 30
0.0
 10
41.5452640269
 20
130.2206089016
 30
0.0
 10
42.0199937877
 20
131.7115846038
 30
0.0
 10
42.1441099413
 20
132.802743773
 30
0.0
 10
42.1660534681
 20
133.3784493154
 30
0.0
  0
SPLINE
  5
30E
100
AcDbEntity
  8
0
100
AcDbSpline
 62
7
  6
CONTINUOUS
 70
0
 71
3
 72
9
 73
5
 74
0
 42
0.0000001
 43
0.0000001
 44
0.0000000001
 40
0.0
 40
0.0
 40
0.0
 40
0.0
 40
0.238113909
 40
1.0
 40
1.0
 40
1.0
 40
1.0
 10
41.6626458206
 20
133.4691660859
 30
0.0
 10
41.5668898274
 20
133.4976206161
 30
0.0
 10
41.1688683376
 20
133.6308969168
 30
0.0
 10
40.788655193
 20
133.8148009123
 30
0.0
 10
40.5118469225
 20
133.9746126263
 30
0.0
  0
SPLINE
  5
30F
100
AcDbEntity
  8
0
100
AcDbSpline
 62
7
  6
CONTINUOUS
 70
0
 71
3
 72
12
 73
8
 74
0
 42
0.0000001
 43
0.0000001
 44
0.0000000001
 40
0.0
 40
0.0
 40
0.0
 40
0.0
 40
0.1069516633
 40
0.2164000934
 40
0.4492942216
 40
0.7093535428
 40
1.0
 40
1.0
 40
1.0
 40
1.0
 10
39.9378338191
 20
128.3379117747
 30
0.0
 10
40.1214576153
 20
128.4438782687
 30
0.0
 10
40.4752602208
 20
128.6907008933
 30
0.0
 10
41.1143972037
 20
129.3158498909
 30
0.0
 10
41.7574413237
 20
130.3431744322
 30
0.0
 10
42.232208283
 20
131.8341737844
 30
0.0
 10
42.3563867058
 20
132.9253505806
 30
0.0
 10
42.3783628001
 20
133.5010684719
 30
0.0
  0
SPLINE
  5
310
100
AcDbEntity
  8
0
100
AcDbSpline
 62
7
  6
CONTINUOUS
 70
0
 71
3
 72
9
 73
5
 74
0
 42
0.0000001
 43
0.0000001
 44
0.0000000001
 40
0.0
 40
0.0
 40
0.0
 40
0.0
 40
0.2471791088
 40
1.0
 40
1.0
 40
1.0
 40
1.0
 10
100.4077338503
 20
124.1041644644
 30
0.0
 10
100.5780835029
 20
125.2891308835
 30
0.0
 10
101.3028470575
 20
130.0779224839
 30
0.0
 10
102.1680442492
 20
134.845325434
 30
0.0
 10
102.8930368471
 20
138.4186138549
 30
0.0
  0
SPLINE
  5
311
100
AcDbEntity
  8
0
100
AcDbSpline
 62
7
  6
CONTINUOUS
 70
0
 71
3
 72
9
 73
5
 74
0
 42
0.0000001
 43
0.0000001
 44
0.0000000001
 40
0.0
 40
0.0
 40
0.0
 40
0.0
 40
0.253099119
 40
1.0
 40
1.0
 40
1.0
 40
1.0
 10
103.4225097484
 20
140.0487027341
 30
0.0
 10
103.1422691649
 20
138.7091694332
 30
0.0
 10
102.0758130142
 20
133.4082222811
 30
0.0
 10
101.1743336058
 20
128.0738714385
 30
0.0
 10
100.6014152305
 20
124.0761437584
 30
0.0
  0
SPLINE
  5
312
100
AcDbEntity
  8
0
100
AcDbSpline
 62
7
  6
CONTINUOUS
 70
0
 71
3
 72
10
 73
6
 74
0
 42
0.0000001
 43
0.0000001
 44
0.0000000001
 40
0.0
 40
0.0
 40
0.0
 40
0.0
 40
0.24170407
 40
0.4869944184
 40
1.0
 40
1.0
 40
1.0
 40
1.0
 10
85.80804936
 20
82.8775642938
 30
0.0
 10
86.1349288387
 20
83.0662910216
 30
0.0
 10
86.7692060712
 20
83.4907729095
 30
0.0
 10
87.9458675331
 20
84.5223579023
 30
0.0
 10
88.6815840959
 20
85.4683242474
 30
0.0
 10
89.1064386755
 20
86.1475071363
 30
0.0
  0
SPLINE
  5
313
100
AcDbEntity
  8
0
100
AcDbSpline
 62
7
  6
CONTINUOUS
 70
0
 71
3
 72
15
 73
11
 74
0
 42
0.0000001
 43
0.0000001
 44
0.0000000001
 40
0.0
 40
0.0
 40
0.0
 40
0.0
 40
0.0869269073
 40
0.1863915199
 40
0.3037788483
 40
0.4375862564
 40
0.5820820083
 40
0.7293897746
 40
0.8711736074
 40
1.0
 40
1.0
 40
1.0
 40
1.0
 10
154.6828105485
 20
87.7665174001
 30
0.0
 10
154.7627245097
 20
87.720378139
 30
0.0
 10
154.9634940629
 20
87.6687553387
 30
0.0
 10
155.2866719642
 20
87.7334975677
 30
0.0
 10
155.6168401959
 20
87.9138281154
 30
0.0
 10
155.9334504664
 20
88.1941598312
 30
0.0
 10
156.2129352174
 20
88.5519643943
 30
0.0
 10
156.4330739175
 20
88.9587042966
 30
0.0
 10
156.5758381826
 20
89.3809547522
 30
0.0
 10
156.6141302519
 20
89.6685440317
 30
0.0
 10
156.6141302519
 20
89.8052995297
 30
0.0
  0
SPLINE
  5
314
100
AcDbEntity
  8
0
100
AcDbSpline
 62
7
  6
CONTINUOUS
 70
0
 71
3
 72
16
 73
12
 74
0
 42
0.0000001
 43
0.0000001
 44
0.0000000001
 40
0.0
 40
0.0
 40
0.0
 40
0.0
 40
0.0463164976
 40
0.0936713859
 40
0.1939825199
 40
0.3052480834
 40
0.428697351
 40
0.5632394117
 40
0.7060723953
 40
0.8532032836
 40
1.0
 40
1.0
 40
1.0
 40
1.0
 10
29.3548747511
 20
147.2847257392
 30
0.0
 10
29.1380214473
 20
147.159553233
 30
0.0
 10
28.721696331
 20
146.8655655243
 30
0.0
 10
27.9816298536
 20
146.1160906502
 30
0.0
 10
27.2691551663
 20
144.8825423381
 30
0.0
 10
26.8245028624
 20
143.1086462923
 30
0.0
 10
26.7770019797
 20
141.099412012
 30
0.0
 10
27.1238294785
 20
138.9501244874
 30
0.0
 10
27.8423914179
 20
136.7616740389
 30
0.0
 10
28.8909726675
 20
134.6383260486
 30
0.0
 10
29.7825885523
 20
133.316125857
 30
0.0
 10
30.270798647
 20
132.6904872694
 30
0.0
  0
SPLINE
  5
315
100
AcDbEntity
  8
0
100
AcDbSpline
 62
7
  6
CONTINUOUS
 70
0
 71
3
 72
15
 73
11
 74
0
 42
0.0000001
 43
0.0000001
 44
0.0000000001
 40
0.0
 40
0.0
 40
0.0
 40
0.0
 40
0.0869269073
 40
0.1863915199
 40
0.3037788483
 40
0.4375862564
 40
0.5820820083
 40
0.7293897746
 40
0.8711736074
 40
1.0
 40
1.0
 40
1.0
 40
1.0
 10
154.6828105485
 20
100.8305560742
 30
0.0
 10
154.7627245097
 20
100.7844168131
 30
0.0
 10
154.9634940629
 20
100.7327940128
 30
0.0
 10
155.2866719642
 20
100.7975362418
 30
0.0
 10
155.6168401959
 20
100.9778667894
 30
0.0
 10
155.9334504664
 20
101.2581985053
 30
0.0
 10
156.2129352174
 20
101.6160030684
 30
0.0
 10
156.4330739175
 20
102.0227429707
 30
0.0
 10
156.5758381826
 20
102.4449934262
 30
0.0
 10
156.6141302519
 20
102.7325827058
 30
0.0
 10
156.6141302519
 20
102.8693382038
 30
0.0
  0
SPLINE
  5
316
100
AcDbEntity
  8
0
100
AcDbSpline
 62
7
  6
CONTINUOUS
 70
0
 71
3
 72
15
 73
11
 74
0
 42
0.0000001
 43
0.0000001
 44
0.0000000001
 40
0.0
 40
0.0
 40
0.0
 40
0.0
 40
0.1161275217
 40
0.2407572105
 40
0.3711244304
 40
0.5040612394
 40
0.6362953441
 40
0.7647149483
 40
0.8866245765
 40
1.0
 40
1.0
 40
1.0
 40
1.0
 10
42.1660534681
 20
133.3784493154
 30
0.0
 10
42.1901916947
 20
134.0117345186
 30
0.0
 10
42.1312160356
 20
135.3299833913
 30
0.0
 10
41.769398487
 20
137.3277764638
 30
0.0
 10
41.1415734509
 20
139.3548787626
 30
0.0
 10
40.2670381649
 20
141.3336135926
 30
0.0
 10
39.172875827
 20
143.1879153731
 30
0.0
 10
37.8943619542
 20
144.8460058845
 30
0.0
 10
36.4749774488
 20
146.2426275859
 30
0.0
 10
35.4239595622
 20
146.9933992311
 30
0.0
 10
34.8881241147
 20
147.3027569724
 30
0.0
  0
SPLINE
  5
317
100
AcDbEntity
  8
0
100
AcDbSpline
 62
7
  6
CONTINUOUS
 70
0
 71
3
 72
9
 73
5
 74
0
 42
0.0000001
 43
0.0000001
 44
0.0000000001
 40
0.0
 40
0.0
 40
0.0
 40
0.0
 40
0.4916715876
 40
1.0
 40
1.0
 40
1.0
 40
1.0
 10
27.8523823495
 20
151.3647524799
 30
0.0
 10
28.2603517767
 20
156.2828578263
 30
0.0
 10
29.4280369389
 20
166.2598099667
 30
0.0
 10
31.2088605131
 20
176.1444349981
 30
0.0
 10
32.256618931
 20
181.1378800887
 30
0.0
  0
SPLINE
  5
318
100
AcDbEntity
  8
0
100
AcDbSpline
 62
7
  6
CONTINUOUS
 70
0
 71
3
 72
9
 73
5
 74
0
 42
0.0000001
 43
0.0000001
 44
0.0000000001
 40
0.0
 40
0.0
 40
0.0
 40
0.0
 40
0.5082832879
 40
1.0
 40
1.0
 40
1.0
 40
1.0
 10
32.4283981995
 20
181.034663519
 30
0.0
 10
31.3917095984
 20
176.0792124275
 30
0.0
 10
29.6288811723
 20
166.2694417181
 30
0.0
 10
28.4710506951
 20
156.3687504391
 30
0.0
 10
28.0655859293
 20
151.4878448893
 30
0.0
  0
ENDSEC
  0
SECTION
  2
OBJECTS
  0
DICTIONARY
  5
C
100
AcDbDictionary
280
0
281
1
  3
ACAD_GROUP
350
D
  3
ACAD_MLINESTYLE
350
17
  3
ACAD_LAYOUT
350
1A
  3
ACAD_PLOTSETTINGS
350
19
  3
ACAD_PLOTSTYLENAME
350
E
  0
DICTIONARY
  5
D
102
{ACAD_REACTORS
330
C
102
}
100
AcDbDictionary
280
0
281
1
  0
ACDBDICTIONARYWDFLT
  5
E
102
{ACAD_REACTORS
330
C
102
}
100
AcDbDictionary
281
1
  3
Normal
350
F
100
AcDbDictionaryWithDefault
340
F
  0
DICTIONARY
  5
17
102
{ACAD_REACTORS
330
C
102
}
100
AcDbDictionary
280
0
281
1
  3
Standard
350
18
  0
DICTIONARY
  5
19
102
{ACAD_REACTORS
330
C
102
}
100
AcDbDictionary
281
1
  0
DICTIONARY
  5
1A
102
{ACAD_REACTORS
330
C
102
}
100
AcDbDictionary
281
1
  3
Model
350
319
  3
Layout1
350
31A
  0
ACDBPLACEHOLDER
  5
F
102
{ACAD_REACTORS
330
E
102
}
  0
MLINESTYLE
  5
18
102
{ACAD_REACTORS
330
17
102
}
100
AcDbMlineStyle
  2
STANDARD
 70
0
  3

 62
256
 51
90.0
 52
90.0
 71
2
 49
0.5
 62
256
  6
BYLAYER
 49
-0.5
 62
256
  6
BYLAYER
  0
LAYOUT
  5
319
102
{ACAD_REACTORS
330
1A
102
}
100
AcDbPlotSettings
  1

  2
none_device
  4

  6

 40
0.0
 41
0.0
 42
0.0
 43
0.0
 44
210.0
 45
297.0
 46
0.0
 47
0.0
 48
0.0
 49
0.0
140
0.0
141
0.0
142
1.0
143
1.0
 70
1024
 72
1
 73
0
 74
0
  7

 75
0
147
1.0
148
0.0
149
0.0
100
AcDbLayout
  1
Model
 70
0
 71
0
 10
0.0
 20
0.0
 11
210.0
 21
297.0
 12
0.0
 22
0.0
 32
0.0
 14
0.0
 24
0.0
 34
0.0
 15
0.0
 25
0.0
 35
0.0
146
0.0
 13
0.0
 23
0.0
 33
0.0
 16
1.0
 26
0.0
 36
0.0
 17
0.0
 27
1.0
 37
0.0
 76
0
330
211
345
0
346
0
  0
LAYOUT
  5
31A
102
{ACAD_REACTORS
330
1A
102
}
100
AcDbPlotSettings
  1

  2
none_device
  4

  6

 40
0.0
 41
0.0
 42
0.0
 43
0.0
 44
210.0
 45
297.0
 46
0.0
 47
0.0
 48
0.0
 49
0.0
140
0.0
141
0.0
142
1.0
143
1.0
 70
0
 72
1
 73
0
 74
0
  7

 75
0
147
1.0
148
0.0
149
0.0
100
AcDbLayout
  1
Layout1
 70
0
 71
1
 10
0.0
 20
0.0
 11
210.0
 21
297.0
 12
0.0
 22
0.0
 32
0.0
 14
0.0
 24
0.0
 34
0.0
 15
0.0
 25
0.0
 35
0.0
146
0.0
 13
0.0
 23
0.0
 33
0.0
 16
1.0
 26
0.0
 36
0.0
 17
0.0
 27
1.0
 37
0.0
 76
0
330
212
345
0
346
0
  0
ENDSEC
  0
EOF
