999
DXF file: C:\Users\SESA621925\Desktop\Projects\Drawing_creation_tool\Gen2D (3) (1)\CAD\G80ROTDS_3D-CAD\drw0001_1.dxf
999
Pro/ENGINEER 2019471 by Parametric Technology Corporation
  0
SECTION
  2
HEADER
  9
$ACADVER
  1
AC1024
  9
$DWGCODEPAGE
  3
ANSI_1252
  9
$EXTMAX
 10
269.7713373905
 20
381.5337485952
 30
0.0
  9
$EXTMIN
 10
-0.0
 20
0.0
 30
0.0
  9
$LIMMIN
 10
-0.0
 20
0.0
  9
$LIMMAX
 10
269.7713373905
 20
381.5337485952
  9
$VIEWCTR
 10
134.8856686953
 20
190.7668742976
  9
$VIEWSIZE
 40
381.5337485952
  9
$CLAYER
  8
0
  9
$LTSCALE
 40
24.8703480566
  9
$CELTYPE
  6
BYLAYER
  9
$DIMSCALE
 40
1.0
  9
$DIMASZ
 40
3.2115635404
  9
$DIMEXO
 40
1.0
  9
$DIMDLI
 40
17.1831495664
  9
$DIMEXE
 40
1.0
  9
$DIMCEN
 40
4.0696933183
  9
$DIMLFAC
 40
1.0
  9
$DIMBLK
  1
_FILLED
  9
$DIMALT
 70
0
  9
$DIMALTF
 40
0.0393700787
  9
$DIMTXT
 40
4.4961889565
  9
$DIMTOL
 70
1
  9
$DIMLIM
 70
0
  9
$DIMTFAC
 40
1.0
  9
$DIMTP
 40
0.01
  9
$DIMTM
 40
0.01
  9
$DIMGAP
 40
0.625
  9
$DIMDSEP
 70
46
  9
$AUNITS
 70
0
  9
$PDMODE
 70
3
  9
$PDSIZE
 40
0.3125
  9
$HANDSEED
  5
380
  9
$TILEMODE
 70
1
  9
$MEASUREMENT
 70
1
  9
$INSUNITS
 70
4
  0
ENDSEC
  0
SECTION
  2
CLASSES
  0
CLASS
  1
ACDBDICTIONARYWDFLT
  2
AcDbDictionaryWithDefault
  3
AutoCAD 2000
 90
0
 91
1
280
0
281
0
  0
CLASS
  1
ACDBPLACEHOLDER
  2
AcDbPlaceHolder
  3
AutoCAD 2000
 90
0
 91
1
280
0
281
0
  0
CLASS
  1
LAYOUT
  2
AcDbLayout
  3
AutoCAD 2000
 90
0
 91
0
280
0
281
0
  0
ENDSEC
  0
SECTION
  2
TABLES
  0
TABLE
  2
VPORT
  5
8
100
AcDbSymbolTable
 70
2
  0
VPORT
  5
1F4
100
AcDbSymbolTableRecord
100
AcDbViewportTableRecord
  2
*ACTIVE
 70
0
 10
0.0
 20
0.0
 11
1.0
 21
1.0
 12
134.8856686953
 22
190.7668742976
 13
0.0
 23
0.0
 14
1.0
 24
1.0
 15
0.0
 25
0.0
 16
0.0
 26
0.0
 36
1.0
 17
0.0
 27
0.0
 37
0.0
 40
381.5337485952
 41
0.7070707071
 42
50.0
 43
0.0
 44
0.0
 50
0.0
 51
0.0
 71
0
 72
100
 73
1
 74
1
 75
0
 76
0
 77
0
 78
0
  0
ENDTAB
  0
TABLE
  2
LTYPE
  5
5
100
AcDbSymbolTable
 70
6
  0
LTYPE
  5
14
100
AcDbSymbolTableRecord
100
AcDbLinetypeTableRecord
  2
BYBLOCK
 70
0
  3

 72
65
 73
0
 40
0.0
  0
LTYPE
  5
15
100
AcDbSymbolTableRecord
100
AcDbLinetypeTableRecord
  2
BYLAYER
 70
0
  3

 72
65
 73
0
 40
0.0
  0
LTYPE
  5
16
100
AcDbSymbolTableRecord
100
AcDbLinetypeTableRecord
  2
CONTINUOUS
 70
64
  3
Solid line
 72
65
 73
0
 40
0.0
  0
LTYPE
  5
1F5
100
AcDbSymbolTableRecord
100
AcDbLinetypeTableRecord
  2
CENTER
 70
64
  3
____ _ ____ _ ____ _ ____ _ ____ _ ____ _ ____
 72
65
 73
4
 40
0.6
 49
0.375
 74
0
 49
-0.075
 74
0
 49
0.075
 74
0
 49
-0.075
 74
0
  0
LTYPE
  5
1F6
100
AcDbSymbolTableRecord
100
AcDbLinetypeTableRecord
  2
HIDDEN
 70
64
  3
- - - - - - - - - - - - - - - - - - - -
 72
65
 73
2
 40
0.2
 49
0.1
 74
0
 49
-0.1
 74
0
  0
LTYPE
  5
1F7
100
AcDbSymbolTableRecord
100
AcDbLinetypeTableRecord
  2
PHANTOM
 70
64
  3
_____ _ _ _____ _ _ _____ _ _ _____
 72
65
 73
6
 40
0.8
 49
0.45
 74
0
 49
-0.05
 74
0
 49
0.1
 74
0
 49
-0.05
 74
0
 49
0.1
 74
0
 49
-0.05
 74
0
  0
LTYPE
  5
1F8
100
AcDbSymbolTableRecord
100
AcDbLinetypeTableRecord
  2
DOT
 70
64
  3
. . . . . . . . . . . . . . . . . . . .
 72
65
 73
2
 40
0.2
 49
0.1
 74
0
 49
-0.1
 74
0
  0
LTYPE
  5
1F9
100
AcDbSymbolTableRecord
100
AcDbLinetypeTableRecord
  2
DASHED
 70
64
  3
- - - - - - - - - - - - - - - - - - - -
 72
65
 73
2
 40
0.2
 49
0.1
 74
0
 49
-0.1
 74
0
  0
ENDTAB
  0
TABLE
  2
LAYER
  5
2
100
AcDbSymbolTable
 70
36
  0
LAYER
  5
10
100
AcDbSymbolTableRecord
100
AcDbLayerTableRecord
  2
0
 70
0
 62
7
  6
CONTINUOUS
370
-3
390
F
  0
LAYER
  5
1FA
100
AcDbSymbolTableRecord
100
AcDbLayerTableRecord
  2
DEFAULT_1
 70
0
 62
7
  6
CENTER
370
-3
390
F
  0
LAYER
  5
1FB
100
AcDbSymbolTableRecord
100
AcDbLayerTableRecord
  2
DEFAULT_2
 70
0
 62
8
  6
HIDDEN
370
-3
390
F
  0
LAYER
  5
1FC
100
AcDbSymbolTableRecord
100
AcDbLayerTableRecord
  2
DEFAULT_3
 70
0
 62
7
  6
PHANTOM
370
-3
390
F
  0
LAYER
  5
1FD
100
AcDbSymbolTableRecord
100
AcDbLayerTableRecord
  2
00_COMPONENTS
 70
0
 62
7
  6
CONTINUOUS
370
-3
390
F
  0
LAYER
  5
1FE
100
AcDbSymbolTableRecord
100
AcDbLayerTableRecord
  2
01_1_DEFAULT_DATUMS
 70
0
 62
7
  6
CONTINUOUS
370
-3
390
F
  0
LAYER
  5
1FF
100
AcDbSymbolTableRecord
100
AcDbLayerTableRecord
  2
01_PLANES
 70
0
 62
7
  6
CONTINUOUS
370
-3
390
F
  0
LAYER
  5
200
100
AcDbSymbolTableRecord
100
AcDbLayerTableRecord
  2
02_COORD_SYS
 70
0
 62
7
  6
CONTINUOUS
370
-3
390
F
  0
LAYER
  5
201
100
AcDbSymbolTableRecord
100
AcDbLayerTableRecord
  2
03_AXES
 70
0
 62
7
  6
CONTINUOUS
370
-3
390
F
  0
LAYER
  5
202
100
AcDbSymbolTableRecord
100
AcDbLayerTableRecord
  2
04_POINTS
 70
0
 62
7
  6
CONTINUOUS
370
-3
390
F
  0
LAYER
  5
203
100
AcDbSymbolTableRecord
100
AcDbLayerTableRecord
  2
05_CURVES
 70
0
 62
7
  6
CONTINUOUS
370
-3
390
F
  0
LAYER
  5
204
100
AcDbSymbolTableRecord
100
AcDbLayerTableRecord
  2
06_SURFS
 70
0
 62
7
  6
CONTINUOUS
370
-3
390
F
  0
LAYER
  5
205
100
AcDbSymbolTableRecord
100
AcDbLayerTableRecord
  2
07_COSMETICS
 70
0
 62
7
  6
CONTINUOUS
370
-3
390
F
  0
LAYER
  5
206
100
AcDbSymbolTableRecord
100
AcDbLayerTableRecord
  2
10_NOTES
 70
0
 62
7
  6
CONTINUOUS
370
-3
390
F
  0
LAYER
  5
207
100
AcDbSymbolTableRecord
100
AcDbLayerTableRecord
  2
11_NOTES_PUB
 70
0
 62
7
  6
CONTINUOUS
370
-3
390
F
  0
LAYER
  5
208
100
AcDbSymbolTableRecord
100
AcDbLayerTableRecord
  2
13_REF_GTOL
 70
0
 62
7
  6
CONTINUOUS
370
-3
390
F
  0
LAYER
  5
209
100
AcDbSymbolTableRecord
100
AcDbLayerTableRecord
  2
16_MISC
 70
0
 62
7
  6
CONTINUOUS
370
-3
390
F
  0
LAYER
  5
20A
100
AcDbSymbolTableRecord
100
AcDbLayerTableRecord
  2
17_NO_PRINT
 70
0
 62
7
  6
CONTINUOUS
370
-3
390
F
  0
LAYER
  5
20B
100
AcDbSymbolTableRecord
100
AcDbLayerTableRecord
  2
18_DATUM_CAMS_JOINTS
 70
0
 62
7
  6
CONTINUOUS
370
-3
390
F
  0
LAYER
  5
20C
100
AcDbSymbolTableRecord
100
AcDbLayerTableRecord
  2
19_DATUM_FUNCTIONAL
 70
0
 62
7
  6
CONTINUOUS
370
-3
390
F
  0
LAYER
  5
20D
100
AcDbSymbolTableRecord
100
AcDbLayerTableRecord
  2
20_DATUM_KINEMATIC_SCHEME
 70
0
 62
7
  6
CONTINUOUS
370
-3
390
F
  0
LAYER
  5
20E
100
AcDbSymbolTableRecord
100
AcDbLayerTableRecord
  2
INTFCLR_15
 70
0
 62
7
  6
CONTINUOUS
370
-3
390
F
  0
LAYER
  5
20F
100
AcDbSymbolTableRecord
100
AcDbLayerTableRecord
  2
black
 70
0
 62
7
  6
CONTINUOUS
370
-3
390
F
  0
ENDTAB
  0
TABLE
  2
STYLE
  5
3
100
AcDbSymbolTable
 70
1
  0
STYLE
  5
11
100
AcDbSymbolTableRecord
100
AcDbTextStyleTableRecord
  2
STANDARD
 70
0
 40
0.0
 41
0.8
 50
0.0
 71
0
 42
0.2
  3
txt
  4

  0
STYLE
  5
210
100
AcDbSymbolTableRecord
100
AcDbTextStyleTableRecord
  2
TEXTSTYLE_1
 70
0
 40
0.0
 41
0.8
 50
0.0
 71
0
 42
0.2
  3
gdt
  4

  0
ENDTAB
  0
TABLE
  2
VIEW
  5
6
100
AcDbSymbolTable
 70
0
  0
ENDTAB
  0
TABLE
  2
UCS
  5
7
100
AcDbSymbolTable
 70
0
  0
ENDTAB
  0
TABLE
  2
APPID
  5
9
100
AcDbSymbolTable
 70
1
  0
APPID
  5
211
100
AcDbSymbolTableRecord
100
AcDbRegAppTableRecord
  2
ACAD
 70
0
  0
ENDTAB
  0
TABLE
  2
BLOCK_RECORD
  5
1
100
AcDbSymbolTable
 70
0
  0
BLOCK_RECORD
  5
212
100
AcDbSymbolTableRecord
100
AcDbBlockTableRecord
  2
*Model_Space
  0
BLOCK_RECORD
  5
213
100
AcDbSymbolTableRecord
100
AcDbBlockTableRecord
  2
*Paper_Space
  0
BLOCK_RECORD
  5
214
100
AcDbSymbolTableRecord
100
AcDbBlockTableRecord
  2
_FILLED
  0
ENDTAB
  0
TABLE
  2
DIMSTYLE
  5
A
100
AcDbSymbolTable
 70
1
100
AcDbDimStyleTable
 71
0
  0
DIMSTYLE
105
215
100
AcDbSymbolTableRecord
100
AcDbDimStyleTableRecord
  2
STANDARD
 70
0
  3

  4

 40
1.0
 41
3.2115635404
 42
1.0
 43
0.38
 44
1.0
 45
0.0
 46
0.0
 47
0.01
 48
0.01
140
4.4961889565
141
0.09
142
0.0
143
25.4
144
1.0
145
0.0
146
1.0
147
0.625
 71
1
 72
0
 73
0
 74
0
 75
0
 76
0
 77
1
 78
8
 79
2
170
0
171
1
172
0
173
0
174
0
175
0
176
0
177
0
178
0
270
2
179
2
271
2
272
2
273
2
274
2
275
0
280
0
281
0
282
0
283
1
284
8
285
0
286
0
287
3
288
0
340
11
278
46
341
214
342
214
343
214
344
214
  0
ENDTAB
  0
ENDSEC
  0
SECTION
  2
BLOCKS
  0
BLOCK
  5
20
100
AcDbEntity
  8
0
100
AcDbBlockBegin
  2
*Model_Space
 70
0
 10
0.0
 20
0.0
 30
0.0
  3
*Model_Space
  1

  0
ENDBLK
  5
21
100
AcDbEntity
  8
0
100
AcDbBlockEnd
  0
BLOCK
  5
1C
100
AcDbEntity
  8
0
100
AcDbBlockBegin
  2
*Paper_Space
 70
0
 10
0.0
 20
0.0
 30
0.0
  3
*Paper_Space
  1

  0
ENDBLK
  5
1D
100
AcDbEntity
  8
0
100
AcDbBlockEnd
  0
BLOCK
  5
216
100
AcDbEntity
  8
0
100
AcDbBlockBegin
  2
_FILLED
 70
64
 10
0.0
 20
0.0
  3
_FILLED
  1

  0
SOLID
  5
217
100
AcDbEntity
  8
0
  6
BYBLOCK
 62
0
100
AcDbTrace
 10
0.0
 20
0.0
 11
-1.0
 21
0.25
 12
-1.0
 22
-0.25
 13
-1.0
 23
-0.25
  0
ENDBLK
  5
218
100
AcDbEntity
  8
0
  6
BYBLOCK
 62
0
100
AcDbBlockEnd
  0
ENDSEC
  0
SECTION
  2
ENTITIES
  0
LINE
  5
219
100
AcDbEntity
  8
0
100
AcDbLine
 62
7
  6
CONTINUOUS
 10
37.7572907992
 20
119.3396166214
 11
35.5905808967
 21
122.6898894152
  0
LINE
  5
21A
100
AcDbEntity
  8
0
100
AcDbLine
 62
7
  6
CONTINUOUS
 10
80.5249548826
 20
284.770951525
 11
98.9096546502
 21
295.3852995257
  0
LINE
  5
21B
100
AcDbEntity
  8
0
100
AcDbLine
 62
7
  6
CONTINUOUS
 10
59.1390126081
 20
258.951746292
 11
90.0709361721
 21
276.8101940876
  0
LINE
  5
21C
100
AcDbEntity
  8
0
100
AcDbLine
 62
7
  6
CONTINUOUS
 10
59.7464228322
 20
257.8045024803
 11
59.531326336
 21
257.6803172016
  0
LINE
  5
21D
100
AcDbEntity
  8
0
100
AcDbLine
 62
7
  6
CONTINUOUS
 10
52.7332331071
 20
157.9774784613
 11
58.4750143492
 21
149.0992555568
  0
LINE
  5
21E
100
AcDbEntity
  8
0
100
AcDbLine
 62
7
  6
CONTINUOUS
 10
67.5751959385
 20
135.0281098243
 11
73.3169771808
 21
126.1498869196
  0
LINE
  5
21F
100
AcDbEntity
  8
0
100
AcDbLine
 62
7
  6
CONTINUOUS
 10
55.1400066137
 20
201.9372709387
 11
55.1533878854
 21
201.3946798821
  0
LINE
  5
220
100
AcDbEntity
  8
0
100
AcDbLine
 62
7
  6
CONTINUOUS
 10
55.1400066137
 20
201.9372709387
 11
55.1404086918
 21
201.3871610989
  0
LINE
  5
221
100
AcDbEntity
  8
0
100
AcDbLine
 62
7
  6
CONTINUOUS
 10
121.8659336302
 20
282.1317855115
 11
123.6811379318
 21
283.1797879479
  0
LINE
  5
222
100
AcDbEntity
  8
0
100
AcDbLine
 62
7
  6
CONTINUOUS
 10
211.1988038277
 20
123.0236705572
 11
207.8047054091
 21
122.2398620992
  0
LINE
  5
223
100
AcDbEntity
  8
0
100
AcDbLine
 62
7
  6
CONTINUOUS
 10
66.0512460825
 20
141.9404154029
 11
63.88453618
 21
145.2906881968
  0
LINE
  5
224
100
AcDbEntity
  8
0
100
AcDbLine
 62
7
  6
CONTINUOUS
 10
77.6967456114
 20
245.7427770108
 11
77.3431936928
 21
245.5386549339
  0
LINE
  5
225
100
AcDbEntity
  8
0
100
AcDbLine
 62
7
  6
CONTINUOUS
 10
77.3431936928
 20
237.3736307626
 11
77.6967456114
 21
237.5777528395
  0
LINE
  5
226
100
AcDbEntity
  8
0
100
AcDbLine
 62
7
  6
CONTINUOUS
 10
167.3268005556
 20
87.079586955
 11
87.4729068105
 21
133.1822110239
  0
LINE
  5
227
100
AcDbEntity
  8
0
100
AcDbLine
 62
7
  6
CONTINUOUS
 10
166.3048948332
 20
87.9875231075
 11
87.7407190048
 21
133.3455450351
  0
LINE
  5
228
100
AcDbEntity
  8
0
100
AcDbLine
 62
7
  6
CONTINUOUS
 10
107.192351824
 20
122.5122348648
 11
118.5061074263
 21
115.9803827925
  0
LINE
  5
229
100
AcDbEntity
  8
0
100
AcDbLine
 62
7
  6
CONTINUOUS
 10
118.4941213897
 20
116.0584439181
 11
107.2539627398
 21
122.5478057313
  0
LINE
  5
22A
100
AcDbEntity
  8
0
100
AcDbLine
 62
7
  6
CONTINUOUS
 10
88.4090125914
 20
133.7531256998
 11
106.0636029783
 21
123.560473776
  0
LINE
  5
22B
100
AcDbEntity
  8
0
100
AcDbLine
 62
7
  6
CONTINUOUS
 10
119.4986877561
 20
115.8038994402
 11
165.4608198907
 21
89.2682503963
  0
LINE
  5
22C
100
AcDbEntity
  8
0
100
AcDbLine
 62
7
  6
CONTINUOUS
 10
117.84908175
 20
116.8927282448
 11
107.6667017078
 21
122.7713951098
  0
LINE
  5
22D
100
AcDbEntity
  8
0
100
AcDbLine
 62
7
  6
CONTINUOUS
 10
165.4267304027
 20
89.5361780297
 11
119.7136786081
 21
115.9280237255
  0
LINE
  5
22E
100
AcDbEntity
  8
0
100
AcDbLine
 62
7
  6
CONTINUOUS
 10
106.0223584882
 20
123.8325322584
 11
88.6181116066
 21
133.8806515617
  0
LINE
  5
22F
100
AcDbEntity
  8
0
100
AcDbLine
 62
7
  6
CONTINUOUS
 10
106.9822500216
 20
127.4385440896
 11
117.1646300638
 21
121.5598772245
  0
LINE
  5
230
100
AcDbEntity
  8
0
100
AcDbLine
 62
7
  6
CONTINUOUS
 10
117.654600268
 20
121.7837051164
 11
106.3408446657
 21
128.3155571887
  0
LINE
  5
231
100
AcDbEntity
  8
0
100
AcDbLine
 62
7
  6
CONTINUOUS
 10
105.1299282735
 20
130.0433404389
 11
118.5650130513
 21
122.286766103
  0
LINE
  5
232
100
AcDbEntity
  8
0
100
AcDbLine
 62
7
  6
CONTINUOUS
 10
118.7792864956
 20
122.4104761953
 11
105.3442017178
 21
130.1670505312
  0
LINE
  5
233
100
AcDbEntity
  8
0
100
AcDbLine
 62
7
  6
CONTINUOUS
 10
80.1789802822
 20
143.0602879101
 11
85.9207615239
 21
134.1820650064
  0
LINE
  5
234
100
AcDbEntity
  8
0
100
AcDbLine
 62
7
  6
CONTINUOUS
 10
70.2174539388
 20
158.4632870173
 11
65.3370174501
 21
166.0096565481
  0
LINE
  5
235
100
AcDbEntity
  8
0
100
AcDbLine
 62
7
  6
CONTINUOUS
 10
77.7474379653
 20
156.3641719371
 11
79.9141478678
 21
153.0138991432
  0
LINE
  5
236
100
AcDbEntity
  8
0
100
AcDbLine
 62
7
  6
CONTINUOUS
 10
79.9848582515
 20
153.0547235586
 11
77.818148349
 21
156.4049963525
  0
LINE
  5
237
100
AcDbEntity
  8
0
100
AcDbLine
 62
7
  6
CONTINUOUS
 10
77.3431936928
 20
237.3736307626
 11
77.3431936928
 21
245.5386549339
  0
LINE
  5
238
100
AcDbEntity
  8
0
100
AcDbLine
 62
7
  6
CONTINUOUS
 10
77.6967456114
 20
237.5777528395
 11
77.6967456114
 21
245.5601504579
  0
LINE
  5
239
100
AcDbEntity
  8
0
100
AcDbLine
 62
7
  6
CONTINUOUS
 10
78.050303418
 20
245.1304141794
 11
78.050303418
 21
236.9653900081
  0
LINE
  5
23A
100
AcDbEntity
  8
0
100
AcDbLine
 62
7
  6
CONTINUOUS
 10
79.8180747869
 20
233.9035233246
 11
79.4645228682
 21
233.6994012477
  0
LINE
  5
23B
100
AcDbEntity
  8
0
100
AcDbLine
 62
7
  6
CONTINUOUS
 10
84.4850019168
 20
230.8008918906
 11
84.8385538354
 21
231.0050139675
  0
LINE
  5
23C
100
AcDbEntity
  8
0
100
AcDbLine
 62
7
  6
CONTINUOUS
 10
87.3057444111
 20
230.3883307133
 11
87.5198516885
 21
230.5119448697
  0
LINE
  5
23D
100
AcDbEntity
  8
0
100
AcDbLine
 62
7
  6
CONTINUOUS
 10
203.7789729989
 20
118.973622905
 11
204.7626344301
 21
118.9085022069
  0
LINE
  5
23E
100
AcDbEntity
  8
0
100
AcDbLine
 62
7
  6
CONTINUOUS
 10
204.7626344301
 20
119.3635582963
 11
204.4860768361
 21
119.3818670589
  0
LINE
  5
23F
100
AcDbEntity
  8
0
100
AcDbLine
 62
7
  6
CONTINUOUS
 10
202.2137314262
 20
121.6846857853
 11
201.230069995
 21
121.7498064834
  0
LINE
  5
240
100
AcDbEntity
  8
0
100
AcDbLine
 62
7
  6
CONTINUOUS
 10
91.0665398345
 20
140.32797867
 11
85.3247585921
 21
149.206201575
  0
LINE
  5
241
100
AcDbEntity
  8
0
100
AcDbLine
 62
7
  6
CONTINUOUS
 10
76.2245770027
 20
163.2773473075
 11
70.4827957608
 21
172.1555702117
  0
LINE
  5
242
100
AcDbEntity
  8
0
100
AcDbLine
 62
7
  6
CONTINUOUS
 10
80.5249548826
 20
284.770951525
 11
80.5249548826
 21
271.2988521187
  0
LINE
  5
243
100
AcDbEntity
  8
0
100
AcDbLine
 62
7
  6
CONTINUOUS
 10
100.4764564754
 20
142.2528946324
 11
111.9868617441
 21
140.6789715943
  0
LINE
  5
244
100
AcDbEntity
  8
0
100
AcDbLine
 62
7
  6
CONTINUOUS
 10
100.476308705
 20
142.2534267448
 11
99.9521504728
 21
142.3368223261
  0
LINE
  5
245
100
AcDbEntity
  8
0
100
AcDbLine
 62
7
  6
CONTINUOUS
 10
81.7774140656
 20
181.1775465688
 11
84.6070039706
 21
188.1064019228
  0
LINE
  5
246
100
AcDbEntity
  8
0
100
AcDbLine
 62
7
  6
CONTINUOUS
 10
207.8047054091
 20
96.9772773132
 11
196.1373582864
 21
103.7132709267
  0
LINE
  5
247
100
AcDbEntity
  8
0
100
AcDbLine
 62
7
  6
CONTINUOUS
 10
107.2539627398
 20
122.5478057313
 11
107.2539627398
 21
125.527887316
  0
LINE
  5
248
100
AcDbEntity
  8
0
100
AcDbLine
 62
7
  6
CONTINUOUS
 10
107.2539627398
 20
127.5954165642
 11
107.2539627398
 21
127.7883801492
  0
LINE
  5
249
100
AcDbEntity
  8
0
100
AcDbLine
 62
7
  6
CONTINUOUS
 10
198.2587241196
 20
116.4180587355
 11
207.8047054091
 21
110.9068085495
  0
LINE
  5
24A
100
AcDbEntity
  8
0
100
AcDbLine
 62
7
  6
CONTINUOUS
 10
205.1528001455
 20
117.5327268546
 11
211.1988038277
 21
114.0421439687
  0
LINE
  5
24B
100
AcDbEntity
  8
0
100
AcDbLine
 62
7
  6
CONTINUOUS
 10
203.5523114908
 20
118.5132160786
 11
202.4403929343
 21
119.1551680336
  0
LINE
  5
24C
100
AcDbEntity
  8
0
100
AcDbLine
 62
7
  6
CONTINUOUS
 10
203.9740173178
 20
119.0862311228
 11
203.1474967715
 21
119.5634121875
  0
LINE
  5
24D
100
AcDbEntity
  8
0
100
AcDbLine
 62
7
  6
CONTINUOUS
 10
106.0413932488
 20
178.9649707175
 11
108.2081031514
 21
175.6146979234
  0
LINE
  5
24E
100
AcDbEntity
  8
0
100
AcDbLine
 62
7
  6
CONTINUOUS
 10
118.002030562
 20
119.3263569472
 11
118.002030562
 21
116.9810327555
  0
LINE
  5
24F
100
AcDbEntity
  8
0
100
AcDbLine
 62
7
  6
CONTINUOUS
 10
34.1089271013
 20
143.1006544803
 11
52.7332331071
 21
157.9774784613
  0
LINE
  5
250
100
AcDbEntity
  8
0
100
AcDbLine
 62
7
  6
CONTINUOUS
 10
70.4827957608
 20
172.1555702117
 11
89.1060128728
 21
187.0315244002
  0
LINE
  5
251
100
AcDbEntity
  8
0
100
AcDbLine
 62
7
  6
CONTINUOUS
 10
71.350817605
 20
170.8133923937
 11
65.3370174501
 21
166.0096565481
  0
LINE
  5
252
100
AcDbEntity
  8
0
100
AcDbLine
 62
7
  6
CONTINUOUS
 10
89.1060128728
 20
187.0315244002
 11
89.8147510855
 21
187.5150019042
  0
LINE
  5
253
100
AcDbEntity
  8
0
100
AcDbLine
 62
7
  6
CONTINUOUS
 10
93.7343986985
 20
198.5931572518
 11
90.5969774123
 21
196.7817770402
  0
LINE
  5
254
100
AcDbEntity
  8
0
100
AcDbLine
 62
7
  6
CONTINUOUS
 10
92.2546007864
 20
195.5453025328
 11
89.42727977
 21
193.9129577267
  0
LINE
  5
255
100
AcDbEntity
  8
0
100
AcDbLine
 62
7
  6
CONTINUOUS
 10
100.7746774888
 20
193.8431032458
 11
89.814568012
 21
187.5153188608
  0
LINE
  5
256
100
AcDbEntity
  8
0
100
AcDbLine
 62
7
  6
CONTINUOUS
 10
202.4403929343
 20
122.1450926117
 11
203.5523114908
 21
121.5031406567
  0
LINE
  5
257
100
AcDbEntity
  8
0
100
AcDbLine
 62
7
  6
CONTINUOUS
 10
198.2587241196
 20
127.7511122853
 11
207.8047054091
 21
122.2398620992
  0
LINE
  5
258
100
AcDbEntity
  8
0
100
AcDbLine
 62
7
  6
CONTINUOUS
 10
119.1682126282
 20
181.9424823084
 11
117.0015027256
 21
185.2927551025
  0
LINE
  5
259
100
AcDbEntity
  8
0
100
AcDbLine
 62
7
  6
CONTINUOUS
 10
124.0182200012
 20
164.5848559701
 11
126.1732502439
 21
161.2463133529
  0
LINE
  5
25A
100
AcDbEntity
  8
0
100
AcDbLine
 62
7
  6
CONTINUOUS
 10
78.6770508978
 20
165.2363476828
 11
76.2245770027
 21
163.2773473075
  0
LINE
  5
25B
100
AcDbEntity
  8
0
100
AcDbLine
 62
7
  6
CONTINUOUS
 10
58.4750143492
 20
149.0992555568
 11
56.0214515607
 21
147.1393853893
  0
LINE
  5
25C
100
AcDbEntity
  8
0
100
AcDbLine
 62
7
  6
CONTINUOUS
 10
56.0921619444
 20
147.1802098047
 11
76.2322124996
 21
163.2677884237
  0
LINE
  5
25D
100
AcDbEntity
  8
0
100
AcDbLine
 62
7
  6
CONTINUOUS
 10
63.88453618
 20
145.2906881968
 11
77.7474379653
 21
156.3641719371
  0
LINE
  5
25E
100
AcDbEntity
  8
0
100
AcDbLine
 62
7
  6
CONTINUOUS
 10
65.3370174501
 20
166.0096565481
 11
52.7332331071
 21
157.9774784613
  0
LINE
  5
25F
100
AcDbEntity
  8
0
100
AcDbLine
 62
7
  6
CONTINUOUS
 10
211.1988038277
 20
194.8758832646
 11
207.8047054091
 21
194.0920748066
  0
LINE
  5
260
100
AcDbEntity
  8
0
100
AcDbLine
 62
7
  6
CONTINUOUS
 10
100.7392848937
 20
194.1833332865
 11
100.7676265241
 21
194.1727249822
  0
LINE
  5
261
100
AcDbEntity
  8
0
100
AcDbLine
 62
7
  6
CONTINUOUS
 10
100.7838991659
 20
193.8657328171
 11
100.8120351871
 21
193.8542672309
  0
LINE
  5
262
100
AcDbEntity
  8
0
100
AcDbLine
 62
7
  6
CONTINUOUS
 10
114.0270013512
 20
188.9930412418
 11
117.3678464436
 21
185.6599511853
  0
LWPOLYLINE
  5
263
100
AcDbEntity
  8
0
100
AcDbPolyline
 62
7
  6
CONTINUOUS
 90
4
 70
0
 10
128.113752623
 20
156.7041824203
 10
126.8132521549
 20
165.9719916047
 10
123.0774617922
 20
175.606412505
 10
119.8843292096
 20
180.5432132334
  0
LINE
  5
264
100
AcDbEntity
  8
0
100
AcDbLine
 62
7
  6
CONTINUOUS
 10
79.9141478678
 20
153.0138991432
 11
66.0512460825
 21
141.9404154029
  0
LINE
  5
265
100
AcDbEntity
  8
0
100
AcDbLine
 62
7
  6
CONTINUOUS
 10
65.1216331501
 20
133.0682396569
 11
67.5751959385
 21
135.0281098243
  0
LINE
  5
266
100
AcDbEntity
  8
0
100
AcDbLine
 62
7
  6
CONTINUOUS
 10
85.3247585921
 20
149.206201575
 11
87.7772324872
 21
151.1652019503
  0
LINE
  5
267
100
AcDbEntity
  8
0
100
AcDbLine
 62
7
  6
CONTINUOUS
 10
85.3323940896
 20
149.1966426904
 11
67.6721481261
 21
135.0898958091
  0
LINE
  5
268
100
AcDbEntity
  8
0
100
AcDbLine
 62
7
  6
CONTINUOUS
 10
58.4750143492
 20
149.0992555568
 11
58.5719665364
 21
149.1610415421
  0
LINE
  5
269
100
AcDbEntity
  8
0
100
AcDbLine
 62
7
  6
CONTINUOUS
 10
117.0015027255
 20
185.2927551026
 11
106.0413932487
 21
178.9649707176
  0
LINE
  5
26A
100
AcDbEntity
  8
0
100
AcDbLine
 62
7
  6
CONTINUOUS
 10
56.0214515607
 20
147.1393853893
 11
56.0921619444
 21
147.1802098047
  0
LINE
  5
26B
100
AcDbEntity
  8
0
100
AcDbLine
 62
7
  6
CONTINUOUS
 10
108.2081031512
 20
175.6146979237
 11
119.168212628
 21
181.9424823087
  0
LINE
  5
26C
100
AcDbEntity
  8
0
100
AcDbLine
 62
7
  6
CONTINUOUS
 10
153.5501890613
 20
200.8659520385
 11
152.1179093166
 21
200.0390298784
  0
LINE
  5
26D
100
AcDbEntity
  8
0
100
AcDbLine
 62
7
  6
CONTINUOUS
 10
77.818148349
 20
156.4049963525
 11
77.7474379653
 21
156.3641719371
  0
LINE
  5
26E
100
AcDbEntity
  8
0
100
AcDbLine
 62
7
  6
CONTINUOUS
 10
148.575626289
 20
196.5036002456
 11
148.5243875624
 21
196.4740177296
  0
LINE
  5
26F
100
AcDbEntity
  8
0
100
AcDbLine
 62
7
  6
CONTINUOUS
 10
156.4492647028
 20
180.657555314
 11
150.2266991215
 21
184.2500739538
  0
LINE
  5
270
100
AcDbEntity
  8
0
100
AcDbLine
 62
7
  6
CONTINUOUS
 10
153.7699588242
 20
182.3766480272
 11
150.3758321435
 21
184.3362036489
  0
LINE
  5
271
100
AcDbEntity
  8
0
100
AcDbLine
 62
7
  6
CONTINUOUS
 10
201.230069995
 20
120.9479830952
 11
202.2137314262
 21
119.8772951046
  0
LINE
  5
272
100
AcDbEntity
  8
0
100
AcDbLine
 62
7
  6
CONTINUOUS
 10
202.9208352634
 20
120.2855392585
 11
201.9371738322
 21
121.3562272491
  0
LINE
  5
273
100
AcDbEntity
  8
0
100
AcDbLine
 62
7
  6
CONTINUOUS
 10
150.1615374049
 20
194.3778884876
 11
149.817394455
 21
193.7564347053
  0
LINE
  5
274
100
AcDbEntity
  8
0
100
AcDbLine
 62
7
  6
CONTINUOUS
 10
148.393763063
 20
195.3984895574
 11
148.739335466
 21
196.0207678112
  0
LINE
  5
275
100
AcDbEntity
  8
0
100
AcDbLine
 62
7
  6
CONTINUOUS
 10
86.1927804371
 20
147.8640237558
 11
80.1789802822
 21
143.0602879101
  0
LINE
  5
276
100
AcDbEntity
  8
0
100
AcDbLine
 62
7
  6
CONTINUOUS
 10
109.6897569466
 20
155.2039328586
 11
91.0665398345
 21
140.32797867
  0
LINE
  5
277
100
AcDbEntity
  8
0
100
AcDbLine
 62
7
  6
CONTINUOUS
 10
73.3169771808
 20
126.1498869196
 11
54.692671175
 21
111.2730629387
  0
LINE
  5
278
100
AcDbEntity
  8
0
100
AcDbLine
 62
7
  6
CONTINUOUS
 10
80.1789802822
 20
143.0602879101
 11
67.5751959385
 21
135.0281098243
  0
LINE
  5
279
100
AcDbEntity
  8
0
100
AcDbLine
 62
7
  6
CONTINUOUS
 10
156.944315742
 20
198.9063964168
 11
155.5120359973
 21
198.0794742567
  0
LINE
  5
27A
100
AcDbEntity
  8
0
100
AcDbLine
 62
7
  6
CONTINUOUS
 10
79.9848582515
 20
153.0547235586
 11
79.9141478678
 21
153.0138991432
  0
LINE
  5
27B
100
AcDbEntity
  8
0
100
AcDbLine
 62
7
  6
CONTINUOUS
 10
150.2477340648
 20
193.4275405042
 11
150.1992423378
 21
193.3995439597
  0
LINE
  5
27C
100
AcDbEntity
  8
0
100
AcDbLine
 62
7
  6
CONTINUOUS
 10
166.5199913294
 20
196.1601485478
 11
166.3048948332
 21
196.035963269
  0
LINE
  5
27D
100
AcDbEntity
  8
0
100
AcDbLine
 62
7
  6
CONTINUOUS
 10
198.2587241196
 20
214.349358646
 11
167.3268005556
 21
196.4909108504
  0
LINE
  5
27E
100
AcDbEntity
  8
0
100
AcDbLine
 62
7
  6
CONTINUOUS
 10
148.739335466
 20
196.0207678112
 11
149.4006327706
 21
195.9798202114
  0
LINE
  5
27F
100
AcDbEntity
  8
0
100
AcDbLine
 62
7
  6
CONTINUOUS
 10
149.817394455
 20
193.7564347053
 11
149.1575070327
 21
193.7981962962
  0
LINE
  5
280
100
AcDbEntity
  8
0
100
AcDbLine
 62
7
  6
CONTINUOUS
 10
203.7789729989
 20
190.8258356124
 11
204.7626344301
 21
190.7607149143
  0
LINE
  5
281
100
AcDbEntity
  8
0
100
AcDbLine
 62
7
  6
CONTINUOUS
 10
204.7626344301
 20
191.2157710037
 11
204.4860768361
 21
191.2340797662
  0
LINE
  5
282
100
AcDbEntity
  8
0
100
AcDbLine
 62
7
  6
CONTINUOUS
 10
202.2137314262
 20
193.5368984928
 11
201.230069995
 21
193.6020191908
  0
LINE
  5
283
100
AcDbEntity
  8
0
100
AcDbLine
 62
7
  6
CONTINUOUS
 10
151.3058112398
 20
184.7098405733
 11
153.0028745802
 21
183.7300627625
  0
LINE
  5
284
100
AcDbEntity
  8
0
100
AcDbLine
 62
7
  6
CONTINUOUS
 10
84.4850019168
 20
230.8008918906
 11
79.4645228682
 21
233.6994012477
  0
LINE
  5
285
100
AcDbEntity
  8
0
100
AcDbLine
 62
7
  6
CONTINUOUS
 10
84.8385538354
 20
231.0050139675
 11
79.8180747869
 21
233.9035233246
  0
LINE
  5
286
100
AcDbEntity
  8
0
100
AcDbLine
 62
7
  6
CONTINUOUS
 10
79.4645228682
 20
234.5159036648
 11
84.4850019168
 21
231.6173943077
  0
LINE
  5
287
100
AcDbEntity
  8
0
100
AcDbLine
 62
7
  6
CONTINUOUS
 10
204.7626344301
 20
119.7103255951
 11
203.7789729989
 21
120.7810135857
  0
LINE
  5
288
100
AcDbEntity
  8
0
100
AcDbLine
 62
7
  6
CONTINUOUS
 10
150.235632305
 20
184.3493956531
 11
150.2266991215
 21
184.2500739538
  0
LINE
  5
289
100
AcDbEntity
  8
0
100
AcDbLine
 62
7
  6
CONTINUOUS
 10
150.2363579243
 20
184.3497226778
 11
150.2266991215
 21
184.2500739538
  0
LINE
  5
28A
100
AcDbEntity
  8
0
100
AcDbLine
 62
7
  6
CONTINUOUS
 10
96.847455259
 20
142.9101485839
 11
85.9207615239
 21
134.1820650064
  0
LINE
  5
28B
100
AcDbEntity
  8
0
100
AcDbLine
 62
7
  6
CONTINUOUS
 10
65.6527806518
 20
117.6008473237
 11
77.6888529267
 21
127.2150862971
  0
LINE
  5
28C
100
AcDbEntity
  8
0
100
AcDbLine
 62
7
  6
CONTINUOUS
 10
108.6137941486
 20
151.9174782701
 11
120.6498664235
 21
161.5317172436
  0
LINE
  5
28D
100
AcDbEntity
  8
0
100
AcDbLine
 62
7
  6
CONTINUOUS
 10
99.9521504728
 20
142.3368223261
 11
110.3911468401
 21
150.6753403598
  0
LINE
  5
28E
100
AcDbEntity
  8
0
100
AcDbLine
 62
7
  6
CONTINUOUS
 10
124.7464147975
 20
160.1065780104
 11
126.1732502439
 21
161.2463133529
  0
LINE
  5
28F
100
AcDbEntity
  8
0
100
AcDbLine
 62
7
  6
CONTINUOUS
 10
54.692671175
 20
111.2730629387
 11
53.9839329624
 21
110.7895854347
  0
LINE
  5
290
100
AcDbEntity
  8
0
100
AcDbLine
 62
7
  6
CONTINUOUS
 10
64.9440424392
 20
117.1173698197
 11
65.6527806518
 21
117.6008473237
  0
LINE
  5
291
100
AcDbEntity
  8
0
100
AcDbLine
 62
7
  6
CONTINUOUS
 10
73.3169771808
 20
126.1498869196
 11
85.9207615239
 21
134.1820650064
  0
LINE
  5
292
100
AcDbEntity
  8
0
100
AcDbLine
 62
7
  6
CONTINUOUS
 10
151.3058112398
 20
184.7098405733
 11
153.212024348
 21
185.8103866551
  0
LINE
  5
293
100
AcDbEntity
  8
0
100
AcDbLine
 62
7
  6
CONTINUOUS
 10
155.1933591012
 20
183.1984436548
 11
153.7699588242
 21
182.3766480272
  0
LINE
  5
294
100
AcDbEntity
  8
0
100
AcDbLine
 62
7
  6
CONTINUOUS
 10
120.6498664234
 20
161.5317172436
 11
109.6897569466
 21
155.2039328586
  0
LINE
  5
295
100
AcDbEntity
  8
0
100
AcDbLine
 62
7
  6
CONTINUOUS
 10
207.8047054091
 20
211.2876157114
 11
226.1894051766
 21
221.901963712
  0
LINE
  5
296
100
AcDbEntity
  8
0
100
AcDbLine
 62
7
  6
CONTINUOUS
 10
156.6626624408
 20
180.78075982
 11
156.4492647028
 21
180.657555314
  0
LINE
  5
297
100
AcDbEntity
  8
0
100
AcDbLine
 62
7
  6
CONTINUOUS
 10
125.2706157736
 20
160.4469484844
 11
124.9167765528
 21
160.2426605096
  0
LINE
  5
298
100
AcDbEntity
  8
0
100
AcDbLine
 62
7
  6
CONTINUOUS
 10
124.0180616825
 20
164.5797228363
 11
122.0605429799
 21
163.5398025413
  0
LINE
  5
299
100
AcDbEntity
  8
0
100
AcDbLine
 62
7
  6
CONTINUOUS
 10
154.5513030576
 20
197.6880816985
 11
152.8542397172
 21
198.6678595093
  0
LINE
  5
29A
100
AcDbEntity
  8
0
100
AcDbLine
 62
7
  6
CONTINUOUS
 10
152.1179093166
 20
200.0390298784
 11
155.5120359973
 21
198.0794742567
  0
LINE
  5
29B
100
AcDbEntity
  8
0
100
AcDbLine
 62
7
  6
CONTINUOUS
 10
156.944315742
 20
198.9063964168
 11
153.5501890613
 21
200.8659520385
  0
LINE
  5
29C
100
AcDbEntity
  8
0
100
AcDbLine
 62
7
  6
CONTINUOUS
 10
165.4608198907
 20
195.4135646232
 11
158.5311445843
 21
199.4143240175
  0
LINE
  5
29D
100
AcDbEntity
  8
0
100
AcDbLine
 62
7
  6
CONTINUOUS
 10
152.308579003
 20
203.0068426573
 11
88.4565708222
 21
239.8709827904
  0
LINE
  5
29E
100
AcDbEntity
  8
0
100
AcDbLine
 62
7
  6
CONTINUOUS
 10
70.6374057485
 20
250.1586498044
 11
60.1014708438
 21
256.2414370467
  0
LINE
  5
29F
100
AcDbEntity
  8
0
100
AcDbLine
 62
7
  6
CONTINUOUS
 10
59.531326336
 20
257.6803172016
 11
166.3048948332
 21
196.035963269
  0
LINE
  5
2A0
100
AcDbEntity
  8
0
100
AcDbLine
 62
7
  6
CONTINUOUS
 10
166.5199913294
 20
196.1601485478
 11
59.7464228322
 21
257.8045024803
  0
LINE
  5
2A1
100
AcDbEntity
  8
0
100
AcDbLine
 62
7
  6
CONTINUOUS
 10
59.1390126081
 20
258.951746292
 11
167.3268005556
 21
196.4909108504
  0
LINE
  5
2A2
100
AcDbEntity
  8
0
100
AcDbLine
 62
7
  6
CONTINUOUS
 10
102.0033932116
 20
142.0441026003
 11
77.6888529267
 21
127.2150862971
  0
LINE
  5
2A3
100
AcDbEntity
  8
0
100
AcDbLine
 62
7
  6
CONTINUOUS
 10
54.692671175
 20
111.2730629387
 11
65.6527806518
 21
117.6008473237
  0
LINE
  5
2A4
100
AcDbEntity
  8
0
100
AcDbLine
 62
7
  6
CONTINUOUS
 10
64.9442255127
 20
117.1170528631
 11
53.9841160359
 21
110.7892684781
  0
LINE
  5
2A5
100
AcDbEntity
  8
0
100
AcDbLine
 62
7
  6
CONTINUOUS
 10
203.5552090889
 20
196.5454671479
 11
201.2463600471
 21
195.2124604891
  0
LINE
  5
2A6
100
AcDbEntity
  8
0
100
AcDbLine
 62
7
  6
CONTINUOUS
 10
226.1894051766
 20
208.4585278876
 11
239.6471328559
 21
216.2283042066
  0
LINE
  5
2A7
100
AcDbEntity
  8
0
100
AcDbLine
 62
7
  6
CONTINUOUS
 10
202.7257909445
 20
193.8325344288
 11
202.2137314262
 21
193.5368984928
  0
LINE
  5
2A8
100
AcDbEntity
  8
0
100
AcDbLine
 62
7
  6
CONTINUOUS
 10
201.9371738322
 20
193.2084399565
 11
201.230069995
 21
192.8001958026
  0
LINE
  5
2A9
100
AcDbEntity
  8
0
100
AcDbLine
 62
7
  6
CONTINUOUS
 10
108.6137941486
 20
151.9174782701
 11
126.1732502439
 21
161.2463133529
  0
LINE
  5
2AA
100
AcDbEntity
  8
0
100
AcDbLine
 62
7
  6
CONTINUOUS
 10
96.847455259
 20
142.9101485839
 11
91.0665398345
 21
140.32797867
  0
LINE
  5
2AB
100
AcDbEntity
  8
0
100
AcDbLine
 62
7
  6
CONTINUOUS
 10
198.2587241196
 20
188.2702714429
 11
207.8047054091
 21
182.7590212569
  0
LINE
  5
2AC
100
AcDbEntity
  8
black
100
AcDbLine
 62
7
  6
CONTINUOUS
 10
203.7789797608
 20
192.6332145811
 11
202.9963522125
 21
192.1813670526
  0
LINE
  5
2AD
100
AcDbEntity
  8
0
100
AcDbLine
 62
7
  6
CONTINUOUS
 10
202.9208352634
 20
192.1377519659
 11
202.2137314262
 21
191.729507812
  0
LINE
  5
2AE
100
AcDbEntity
  8
0
100
AcDbLine
 62
7
  6
CONTINUOUS
 10
203.1474967715
 20
191.4156248949
 11
202.4403929343
 21
191.007380741
  0
LINE
  5
2AF
100
AcDbEntity
  8
0
100
AcDbLine
 62
7
  6
CONTINUOUS
 10
204.4860768361
 20
191.2340797663
 11
203.7789729989
 21
190.8258356124
  0
LINE
  5
2B0
100
AcDbEntity
  8
0
100
AcDbLine
 62
7
  6
CONTINUOUS
 10
122.2544666718
 20
143.5837004319
 11
119.4249574616
 21
141.950092279
  0
LINE
  5
2B1
100
AcDbEntity
  8
0
100
AcDbLine
 62
7
  6
CONTINUOUS
 10
226.1894051766
 20
202.6850771016
 11
242.1471029185
 21
211.8982031936
  0
LINE
  5
2B2
100
AcDbEntity
  8
0
100
AcDbLine
 62
7
  6
CONTINUOUS
 10
207.291918192
 20
190.61995257
 11
204.746344378
 21
189.1502736161
  0
LINE
  5
2B3
100
AcDbEntity
  8
0
100
AcDbLine
 62
7
  6
CONTINUOUS
 10
125.634255886
 20
143.3406540378
 11
122.4968345998
 21
141.5292738262
  0
LINE
  5
2B4
100
AcDbEntity
  8
0
100
AcDbLine
 62
7
  6
CONTINUOUS
 10
105.3442017178
 20
130.1670505312
 11
105.1299282735
 21
130.0433404389
  0
LINE
  5
2B5
100
AcDbEntity
  8
0
100
AcDbLine
 62
7
  6
CONTINUOUS
 10
106.9822500216
 20
127.4385440896
 11
107.4210764954
 21
127.6918991601
  0
LINE
  5
2B6
100
AcDbEntity
  8
0
100
AcDbLine
 62
7
  6
CONTINUOUS
 10
205.1528001455
 20
189.384939562
 11
211.1988038277
 21
185.8943566761
  0
LINE
  5
2B7
100
AcDbEntity
  8
0
100
AcDbLine
 62
7
  6
CONTINUOUS
 10
203.5523114908
 20
190.365428786
 11
202.4403929343
 21
191.007380741
  0
LINE
  5
2B8
100
AcDbEntity
  8
0
100
AcDbLine
 62
7
  6
CONTINUOUS
 10
203.9740173178
 20
190.9384438302
 11
203.1474967715
 21
191.4156248949
  0
LINE
  5
2B9
100
AcDbEntity
  8
0
100
AcDbLine
 62
7
  6
CONTINUOUS
 10
202.4403929343
 20
193.9973053191
 11
203.5523114908
 21
193.3553533641
  0
LINE
  5
2BA
100
AcDbEntity
  8
0
100
AcDbLine
 62
7
  6
CONTINUOUS
 10
198.2587241196
 20
199.6033249927
 11
207.8047054091
 21
194.0920748066
  0
LINE
  5
2BB
100
AcDbEntity
  8
0
100
AcDbLine
 62
7
  6
CONTINUOUS
 10
202.2137314262
 20
119.8772951046
 11
202.4403929343
 21
119.1551680336
  0
LINE
  5
2BC
100
AcDbEntity
  8
0
100
AcDbLine
 62
7
  6
CONTINUOUS
 10
201.3195624771
 20
191.0977542472
 11
198.2587241196
 21
188.2702714429
  0
LINE
  5
2BD
100
AcDbEntity
  8
0
100
AcDbLine
 62
7
  6
CONTINUOUS
 10
107.2539627398
 20
122.5478057313
 11
107.192351824
 21
122.5122348648
  0
LINE
  5
2BE
100
AcDbEntity
  8
0
100
AcDbLine
 62
7
  6
CONTINUOUS
 10
117.1646300638
 20
121.5598772245
 11
117.6034565376
 21
121.813232295
  0
LINE
  5
2BF
100
AcDbEntity
  8
0
100
AcDbLine
 62
7
  6
CONTINUOUS
 10
118.7792864956
 20
122.4104761953
 11
118.5650130513
 21
122.286766103
  0
LWPOLYLINE
  5
2C0
100
AcDbEntity
  8
0
100
AcDbPolyline
 62
7
  6
CONTINUOUS
 90
3
 70
0
 10
122.4960600024
 20
141.5306151275
 10
117.8031772539
 20
140.0852903644
 10
113.6251400133
 20
140.7489955428
  0
LINE
  5
2C1
100
AcDbEntity
  8
0
100
AcDbLine
 62
7
  6
CONTINUOUS
 10
198.2587241196
 20
214.349358646
 11
90.0709361721
 21
276.8101940876
  0
LINE
  5
2C2
100
AcDbEntity
  8
0
100
AcDbLine
 62
7
  6
CONTINUOUS
 10
201.230069995
 20
192.8001958026
 11
202.2137314261
 21
191.7295078121
  0
LINE
  5
2C3
100
AcDbEntity
  8
0
100
AcDbLine
 62
7
  6
CONTINUOUS
 10
202.9208352633
 20
192.137751966
 11
201.9371738322
 21
193.2084399565
  0
LINE
  5
2C4
100
AcDbEntity
  8
0
100
AcDbLine
 62
7
  6
CONTINUOUS
 10
204.7626344301
 20
191.5625383025
 11
203.778972999
 21
192.6332262931
  0
LINE
  5
2C5
100
AcDbEntity
  8
0
100
AcDbLine
 62
7
  6
CONTINUOUS
 10
203.1474967715
 20
119.5634121875
 11
202.9208352634
 21
120.2855392585
  0
LINE
  5
2C6
100
AcDbEntity
  8
0
100
AcDbLine
 62
7
  6
CONTINUOUS
 10
203.7789729989
 20
120.7810135857
 11
203.5523114908
 21
121.5031406567
  0
LINE
  5
2C7
100
AcDbEntity
  8
0
100
AcDbLine
 62
7
  6
CONTINUOUS
 10
202.4403929343
 20
193.9973053191
 11
202.2137314262
 21
193.5368984928
  0
LINE
  5
2C8
100
AcDbEntity
  8
0
100
AcDbLine
 62
7
  6
CONTINUOUS
 10
203.5523114908
 20
190.365428786
 11
203.7789729989
 21
190.8258356124
  0
LINE
  5
2C9
100
AcDbEntity
  8
0
100
AcDbLine
 62
7
  6
CONTINUOUS
 10
207.8047054091
 20
182.7590212569
 11
211.1988038277
 21
185.8943566761
  0
LINE
  5
2CA
100
AcDbEntity
  8
0
100
AcDbLine
 62
7
  6
CONTINUOUS
 10
117.84908175
 20
116.8927282448
 11
118.002030562
 21
116.9810327555
  0
LINE
  5
2CB
100
AcDbEntity
  8
0
100
AcDbLine
 62
7
  6
CONTINUOUS
 10
119.7136786081
 20
115.9280237255
 11
119.4986877561
 21
115.8038994402
  0
LINE
  5
2CC
100
AcDbEntity
  8
0
100
AcDbLine
 62
7
  6
CONTINUOUS
 10
80.5249548826
 20
284.770951525
 11
207.8047054091
 21
211.2876157114
  0
LINE
  5
2CD
100
AcDbEntity
  8
0
100
AcDbLine
 62
7
  6
CONTINUOUS
 10
198.2587241196
 20
104.9380347507
 11
198.2587241196
 21
116.4180587355
  0
LINE
  5
2CE
100
AcDbEntity
  8
0
100
AcDbLine
 62
7
  6
CONTINUOUS
 10
198.2587241196
 20
127.7511122853
 11
198.2587241196
 21
188.2702714429
  0
LINE
  5
2CF
100
AcDbEntity
  8
0
100
AcDbLine
 62
7
  6
CONTINUOUS
 10
198.2587241196
 20
199.6033249927
 11
198.2587241196
 21
214.349358646
  0
LINE
  5
2D0
100
AcDbEntity
  8
0
100
AcDbLine
 62
7
  6
CONTINUOUS
 10
201.230069995
 20
120.9479830952
 11
201.230069995
 21
121.7498064834
  0
LINE
  5
2D1
100
AcDbEntity
  8
0
100
AcDbLine
 62
7
  6
CONTINUOUS
 10
201.230069995
 20
192.8001958026
 11
201.230069995
 21
193.6020191908
  0
LINE
  5
2D2
100
AcDbEntity
  8
0
100
AcDbLine
 62
7
  6
CONTINUOUS
 10
201.6528225382
 20
123.5949176095
 11
201.6528225382
 21
125.7915729803
  0
LINE
  5
2D3
100
AcDbEntity
  8
0
100
AcDbLine
 62
7
  6
CONTINUOUS
 10
201.6528225382
 20
195.4471303169
 11
201.6528225382
 21
197.6437856877
  0
LINE
  5
2D4
100
AcDbEntity
  8
0
100
AcDbLine
 62
7
  6
CONTINUOUS
 10
201.9371738322
 20
121.3562272491
 11
201.9371738322
 21
121.7029945479
  0
LINE
  5
2D5
100
AcDbEntity
  8
0
100
AcDbLine
 62
7
  6
CONTINUOUS
 10
201.9371738322
 20
193.2084399565
 11
201.9371738322
 21
193.5552072553
  0
LINE
  5
2D6
100
AcDbEntity
  8
0
100
AcDbLine
 62
7
  6
CONTINUOUS
 10
204.7626344301
 20
191.5625383025
 11
204.7626344301
 21
190.7607149144
  0
LINE
  5
2D7
100
AcDbEntity
  8
0
100
AcDbLine
 62
7
  6
CONTINUOUS
 10
204.7626344301
 20
119.7103255951
 11
204.7626344301
 21
118.9085022069
  0
LINE
  5
2D8
100
AcDbEntity
  8
0
100
AcDbLine
 62
7
  6
CONTINUOUS
 10
202.2137314261
 20
191.7295078121
 11
202.4403929343
 21
191.007380741
  0
LINE
  5
2D9
100
AcDbEntity
  8
0
100
AcDbLine
 62
7
  6
CONTINUOUS
 10
203.1474967715
 20
191.4156248949
 11
202.9208352633
 21
192.137751966
  0
LINE
  5
2DA
100
AcDbEntity
  8
0
100
AcDbLine
 62
7
  6
CONTINUOUS
 10
203.778972999
 20
192.6332262931
 11
203.5523114908
 21
193.3553533641
  0
LINE
  5
2DB
100
AcDbEntity
  8
0
100
AcDbLine
 62
7
  6
CONTINUOUS
 10
207.8047054091
 20
96.9772773132
 11
207.8047054091
 21
110.9068085495
  0
LINE
  5
2DC
100
AcDbEntity
  8
0
100
AcDbLine
 62
7
  6
CONTINUOUS
 10
207.8047054091
 20
122.2398620992
 11
207.8047054091
 21
182.7590212569
  0
LINE
  5
2DD
100
AcDbEntity
  8
0
100
AcDbLine
 62
7
  6
CONTINUOUS
 10
207.8047054091
 20
194.0920748066
 11
207.8047054091
 21
211.2876157114
  0
LINE
  5
2DE
100
AcDbEntity
  8
0
100
AcDbLine
 62
7
  6
CONTINUOUS
 10
211.1988038277
 20
114.0421439687
 11
211.1988038277
 21
123.0236705572
  0
LINE
  5
2DF
100
AcDbEntity
  8
0
100
AcDbLine
 62
7
  6
CONTINUOUS
 10
211.1988038277
 20
185.8943566761
 11
211.1988038277
 21
194.8758832646
  0
LINE
  5
2E0
100
AcDbEntity
  8
0
100
AcDbLine
 62
7
  6
CONTINUOUS
 10
98.9096546502
 20
295.3852995257
 11
226.1894051766
 21
221.901963712
  0
LINE
  5
2E1
100
AcDbEntity
  8
0
100
AcDbLine
 62
7
  6
CONTINUOUS
 10
226.1894051766
 20
221.901963712
 11
226.1894051766
 21
107.5916253139
  0
LINE
  5
2E2
100
AcDbEntity
  8
0
100
AcDbLine
 62
7
  6
CONTINUOUS
 10
202.4403929343
 20
122.1450926117
 11
202.2137314262
 21
121.6846857853
  0
LINE
  5
2E3
100
AcDbEntity
  8
0
100
AcDbLine
 62
7
  6
CONTINUOUS
 10
203.5523114908
 20
118.5132160786
 11
203.7789729989
 21
118.973622905
  0
LINE
  5
2E4
100
AcDbEntity
  8
0
100
AcDbLine
 62
7
  6
CONTINUOUS
 10
201.3195624771
 20
119.2455415398
 11
198.2587241196
 21
116.4180587355
  0
LINE
  5
2E5
100
AcDbEntity
  8
0
100
AcDbLine
 62
7
  6
CONTINUOUS
 10
203.5552090888
 20
124.6932544405
 11
201.2463600471
 21
123.3602477817
  0
LINE
  5
2E6
100
AcDbEntity
  8
0
100
AcDbLine
 62
7
  6
CONTINUOUS
 10
226.1894051766
 20
136.6063151802
 11
239.6471328559
 21
144.3760914992
  0
LINE
  5
2E7
100
AcDbEntity
  8
0
100
AcDbLine
 62
7
  6
CONTINUOUS
 10
202.7257909445
 20
121.9803217214
 11
202.2137314262
 21
121.6846857853
  0
LINE
  5
2E8
100
AcDbEntity
  8
0
100
AcDbLine
 62
7
  6
CONTINUOUS
 10
201.9371738322
 20
121.3562272491
 11
201.230069995
 21
120.9479830952
  0
LINE
  5
2E9
100
AcDbEntity
  8
black
100
AcDbLine
 62
7
  6
CONTINUOUS
 10
203.7789797608
 20
120.7810018737
 11
202.9963522125
 21
120.3291543452
  0
LINE
  5
2EA
100
AcDbEntity
  8
0
100
AcDbLine
 62
7
  6
CONTINUOUS
 10
202.9208352634
 20
120.2855392585
 11
202.2137314262
 21
119.8772951046
  0
LINE
  5
2EB
100
AcDbEntity
  8
0
100
AcDbLine
 62
7
  6
CONTINUOUS
 10
203.1474967715
 20
119.5634121875
 11
202.4403929343
 21
119.1551680336
  0
LINE
  5
2EC
100
AcDbEntity
  8
0
100
AcDbLine
 62
7
  6
CONTINUOUS
 10
204.4860768361
 20
119.3818670589
 11
203.7789729989
 21
118.973622905
  0
LINE
  5
2ED
100
AcDbEntity
  8
0
100
AcDbLine
 62
7
  6
CONTINUOUS
 10
226.1894051766
 20
130.8328643942
 11
242.1471029185
 21
140.0459904862
  0
LINE
  5
2EE
100
AcDbEntity
  8
0
100
AcDbLine
 62
7
  6
CONTINUOUS
 10
207.291918192
 20
118.7677398626
 11
204.746344378
 21
117.2980609087
  0
LINE
  5
2EF
100
AcDbEntity
  8
0
100
AcDbLine
 62
7
  6
CONTINUOUS
 10
207.8047054091
 20
110.9068085495
 11
211.1988038277
 21
114.0421439687
  0
LINE
  5
2F0
100
AcDbEntity
  8
0
100
AcDbLine
 62
7
  6
CONTINUOUS
 10
166.5199913294
 20
88.1117083863
 11
166.3048948332
 21
87.9875231075
  0
LINE
  5
2F1
100
AcDbEntity
  8
0
100
AcDbLine
 62
7
  6
CONTINUOUS
 10
167.3268005556
 20
87.079586955
 11
198.2587241196
 21
104.9380347507
  0
LINE
  5
2F2
100
AcDbEntity
  8
0
100
AcDbLine
 62
7
  6
CONTINUOUS
 10
207.8047054091
 20
96.9772773132
 11
226.1894051766
 21
107.5916253139
  0
ARC
  5
2F3
100
AcDbEntity
  8
0
100
AcDbCircle
 62
7
  6
CONTINUOUS
 10
1164.0398260495
 20
-1440.7316756583
 40
1908.6157049235
100
AcDbArc
 50
122.9923688444
 51
123.3202776088
  0
ARC
  5
2F4
100
AcDbEntity
  8
0
100
AcDbCircle
 62
7
  6
CONTINUOUS
 10
580.4239833547
 20
-552.1137626561
 40
845.4841161843
100
AcDbArc
 50
123.3512705845
 51
123.7750272824
  0
ARC
  5
2F5
100
AcDbEntity
  8
0
100
AcDbCircle
 62
7
  6
CONTINUOUS
 10
617.2154796191
 20
141.7422479544
 40
468.9261954771
100
AcDbArc
 50
172.4929205814
 51
172.8563582141
  0
ARC
  5
2F6
100
AcDbEntity
  8
0
100
AcDbCircle
 62
7
  6
CONTINUOUS
 10
531.4385982566
 20
189.4240869586
 40
464.7864306765
100
AcDbArc
 50
172.4915748568
 51
173.6691309168
  0
ARC
  5
2F7
100
AcDbEntity
  8
0
100
AcDbCircle
 62
7
  6
CONTINUOUS
 10
548.9656027955
 20
179.281496475
 40
464.2808848718
100
AcDbArc
 50
172.5147649504
 51
173.6648740261
  0
ARC
  5
2F8
100
AcDbEntity
  8
0
100
AcDbCircle
 62
7
  6
CONTINUOUS
 10
617.7969232436
 20
138.9826429038
 40
463.0276685917
100
AcDbArc
 50
172.5141782767
 51
173.8901738089
  0
ARC
  5
2F9
100
AcDbEntity
  8
0
100
AcDbCircle
 62
7
  6
CONTINUOUS
 10
546.6419008395
 20
179.4538842592
 40
462.1515145902
100
AcDbArc
 50
172.4882178716
 51
173.672487902
  0
ARC
  5
2FA
100
AcDbEntity
  8
0
100
AcDbCircle
 62
7
  6
CONTINUOUS
 10
615.1127774104
 20
139.1929921278
 40
460.5359880061
100
AcDbArc
 50
172.4862814294
 51
173.8805955077
  0
ARC
  5
2FB
100
AcDbEntity
  8
0
100
AcDbCircle
 62
7
  6
CONTINUOUS
 10
608.4417511295
 20
141.4662527767
 40
460.0676241862
100
AcDbArc
 50
172.6856281288
 51
174.6533169171
  0
ARC
  5
2FC
100
AcDbEntity
  8
0
100
AcDbCircle
 62
7
  6
CONTINUOUS
 10
610.7474754389
 20
140.0152049119
 40
459.8272593183
100
AcDbArc
 50
172.7948205714
 51
174.5447663655
  0
ARC
  5
2FD
100
AcDbEntity
  8
0
100
AcDbCircle
 62
7
  6
CONTINUOUS
 10
611.3673398301
 20
140.3005525935
 40
458.1865665333
100
AcDbArc
 50
172.651265004
 51
174.6277927957
  0
ARC
  5
2FE
100
AcDbEntity
  8
0
100
AcDbCircle
 62
7
  6
CONTINUOUS
 10
605.1691078226
 20
141.4255540021
 40
455.9226046699
100
AcDbArc
 50
172.7873264573
 51
174.5522604796
  0
ARC
  5
2FF
100
AcDbEntity
  8
0
100
AcDbCircle
 62
7
  6
CONTINUOUS
 10
607.4693537236
 20
139.9911209031
 40
455.674965125
100
AcDbArc
 50
172.6761430258
 51
174.6628020201
  0
ARC
  5
300
100
AcDbEntity
  8
0
100
AcDbCircle
 62
7
  6
CONTINUOUS
 10
603.847583282
 20
143.3820043355
 40
455.4581530948
100
AcDbArc
 50
172.8519090336
 51
174.8394044604
  0
ARC
  5
301
100
AcDbEntity
  8
0
100
AcDbCircle
 62
7
  6
CONTINUOUS
 10
601.8679657779
 20
140.73325769
 40
447.002868611
100
AcDbArc
 50
173.8959775126
 51
174.8599131673
  0
ARC
  5
302
100
AcDbEntity
  8
0
100
AcDbCircle
 62
7
  6
CONTINUOUS
 10
599.9421069268
 20
140.8102599771
 40
445.2793595593
100
AcDbArc
 50
173.8794177026
 51
174.8658296294
  0
ARC
  5
303
100
AcDbEntity
  8
0
100
AcDbCircle
 62
7
  6
CONTINUOUS
 10
464.5244877762
 20
135.1508453758
 40
301.9263860999
100
AcDbArc
 50
185.6884478022
 51
188.7290184386
  0
ARC
  5
304
100
AcDbEntity
  8
0
100
AcDbCircle
 62
7
  6
CONTINUOUS
 10
398.9946937796
 20
169.0576310371
 40
296.4432749732
100
AcDbArc
 50
187.5625192657
 51
188.828464769
  0
ARC
  5
305
100
AcDbEntity
  8
0
100
AcDbCircle
 62
7
  6
CONTINUOUS
 10
412.363228272
 20
161.4196137727
 40
296.164217426
100
AcDbArc
 50
187.5686810348
 51
188.8357598886
  0
ARC
  5
306
100
AcDbEntity
  8
0
100
AcDbCircle
 62
7
  6
CONTINUOUS
 10
409.9982774994
 20
161.714440254
 40
295.0581116082
100
AcDbArc
 50
187.7778047049
 51
188.9168061129
  0
ARC
  5
307
100
AcDbEntity
  8
0
100
AcDbCircle
 62
7
  6
CONTINUOUS
 10
399.1298943124
 20
167.899127568
 40
294.9361030462
100
AcDbArc
 50
187.884942608
 51
188.8013143467
  0
ARC
  5
308
100
AcDbEntity
  8
0
100
AcDbCircle
 62
7
  6
CONTINUOUS
 10
410.6445072236
 20
161.0439385508
 40
294.6396940877
100
AcDbArc
 50
187.5586444843
 51
188.8323395504
  0
ARC
  5
309
100
AcDbEntity
  8
0
100
AcDbCircle
 62
7
  6
CONTINUOUS
 10
408.0290878724
 20
161.8322774768
 40
293.6392327983
100
AcDbArc
 50
187.882918967
 51
188.8033379876
  0
ARC
  5
30A
100
AcDbEntity
  8
0
100
AcDbCircle
 62
7
  6
CONTINUOUS
 10
397.0890218579
 20
168.0121885443
 40
293.445608387
100
AcDbArc
 50
187.7746751566
 51
188.9199356612
  0
ARC
  5
30B
100
AcDbEntity
  8
0
100
AcDbCircle
 62
7
  6
CONTINUOUS
 10
452.433581442
 20
133.3516109854
 40
289.7024780176
100
AcDbArc
 50
188.7402004605
 51
189.0089379577
  0
ARC
  5
30C
100
AcDbEntity
  8
0
100
AcDbCircle
 62
7
  6
CONTINUOUS
 10
77.0114418605
 20
152.3878366536
 40
52.3685570763
100
AcDbArc
 50
35.0534670167
 51
39.5261529805
  0
ARC
  5
30D
100
AcDbEntity
  8
0
100
AcDbCircle
 62
7
  6
CONTINUOUS
 10
97.9002554269
 20
156.1221517584
 40
31.2034525758
100
AcDbArc
 50
0.0192683588
 51
2.1654430221
  0
ARC
  5
30E
100
AcDbEntity
  8
0
100
AcDbCircle
 62
7
  6
CONTINUOUS
 10
103.4403359634
 20
183.4684632846
 40
19.3411005254
100
AcDbArc
 50
163.1925858112
 51
165.6001744848
  0
ARC
  5
30F
100
AcDbEntity
  8
0
100
AcDbCircle
 62
7
  6
CONTINUOUS
 10
100.294249094
 20
187.2550332564
 40
11.7034755115
100
AcDbArc
 50
130.8164757091
 51
132.8571863197
  0
ARC
  5
310
100
AcDbEntity
  8
0
100
AcDbCircle
 62
7
  6
CONTINUOUS
 10
96.7482009661
 20
186.3124087064
 40
10.7506159329
100
AcDbArc
 50
133.2612869398
 51
133.6835849593
  0
ARC
  5
311
100
AcDbEntity
  8
0
100
AcDbCircle
 62
7
  6
CONTINUOUS
 10
116.517147315
 20
152.0534225671
 40
10.7112357515
100
AcDbArc
 50
286.2748685827
 51
287.6564415819
  0
ARC
  5
312
100
AcDbEntity
  8
0
100
AcDbCircle
 62
7
  6
CONTINUOUS
 10
116.6346124529
 20
151.7032838244
 40
10.3419646115
100
AcDbArc
 50
287.6246883783
 51
299.9436671584
  0
ARC
  5
313
100
AcDbEntity
  8
0
100
AcDbCircle
 62
7
  6
CONTINUOUS
 10
96.3998381148
 20
186.7294643278
 40
10.2068859756
100
AcDbArc
 50
114.9940873362
 51
119.9959132592
  0
ARC
  5
314
100
AcDbEntity
  8
0
100
AcDbCircle
 62
7
  6
CONTINUOUS
 10
116.6939935348
 20
151.5789956124
 40
10.2046323378
100
AcDbArc
 50
300.0030904854
 51
304.7839575109
  0
ARC
  5
315
100
AcDbEntity
  8
0
100
AcDbCircle
 62
7
  6
CONTINUOUS
 10
120.1447039101
 20
152.9227689925
 40
9.6498010084
100
AcDbArc
 50
284.7740403223
 51
290.4064099093
  0
ARC
  5
316
100
AcDbEntity
  8
0
100
AcDbCircle
 62
7
  6
CONTINUOUS
 10
149.0509040021
 20
194.4829663506
 40
1.6885464506
100
AcDbArc
 50
347.8823145709
 51
353.6905065521
  0
SPLINE
  5
317
100
AcDbEntity
  8
0
100
AcDbSpline
 62
7
  6
CONTINUOUS
 70
0
 71
3
 72
9
 73
5
 74
0
 42
0.0000001
 43
0.0000001
 44
0.0000000001
 40
0.0
 40
0.0
 40
0.0
 40
0.0
 40
0.5104026683
 40
1.0
 40
1.0
 40
1.0
 40
1.0
 10
97.3397934436
 20
196.9435602421
 30
0.0
 10
96.4361171127
 20
196.9136018516
 30
0.0
 10
94.6637153724
 20
196.664229319
 30
0.0
 10
93.0057188205
 20
195.9789612658
 30
0.0
 10
92.2546278598
 20
195.5452562694
 30
0.0
  0
SPLINE
  5
318
100
AcDbEntity
  8
0
100
AcDbSpline
 62
7
  6
CONTINUOUS
 70
0
 71
3
 72
12
 73
8
 74
0
 42
0.0000001
 43
0.0000001
 44
0.0000000001
 40
0.0
 40
0.0
 40
0.0
 40
0.0
 40
0.1081996971
 40
0.2184026292
 40
0.451393932
 40
0.7104250799
 40
1.0
 40
1.0
 40
1.0
 40
1.0
 10
53.9840675873
 20
110.7893522507
 30
0.0
 10
53.7052502417
 20
110.6283895188
 30
0.0
 10
53.1133648593
 20
110.3511494237
 30
0.0
 10
51.8137292943
 20
109.9914991308
 30
0.0
 10
49.9936824889
 20
109.9433091402
 30
0.0
 10
47.7143362057
 20
110.494307216
 30
0.0
 10
46.2303428246
 20
111.2003787003
 30
0.0
 10
45.4841540894
 20
111.6311812214
 30
0.0
  0
SPLINE
  5
319
100
AcDbEntity
  8
0
100
AcDbSpline
 62
7
  6
CONTINUOUS
 70
0
 71
3
 72
11
 73
7
 74
0
 42
0.0000001
 43
0.0000001
 44
0.0000000001
 40
0.0
 40
0.0
 40
0.0
 40
0.0
 40
0.2379146706
 40
0.4809623489
 40
0.7337541613
 40
1.0
 40
1.0
 40
1.0
 40
1.0
 10
119.4250435449
 20
141.9501432786
 30
0.0
 10
118.8977245213
 20
141.6456830775
 30
0.0
 10
117.7723828424
 20
141.1273395117
 30
0.0
 10
115.9448105365
 20
140.6572154932
 30
0.0
 10
113.9929289509
 20
140.4939364869
 30
0.0
 10
112.6624132035
 20
140.5869736629
 30
0.0
 10
111.9872843988
 20
140.679285161
 30
0.0
  0
SPLINE
  5
31A
100
AcDbEntity
  8
0
100
AcDbSpline
 62
7
  6
CONTINUOUS
 70
0
 71
3
 72
9
 73
5
 74
0
 42
0.0000001
 43
0.0000001
 44
0.0000000001
 40
0.0
 40
0.0
 40
0.0
 40
0.0
 40
0.4952556379
 40
1.0
 40
1.0
 40
1.0
 40
1.0
 10
122.2544395879
 20
143.5837467136
 30
0.0
 10
122.7506943273
 20
143.8703007899
 30
0.0
 10
123.7044429188
 20
144.5367230644
 30
0.0
 10
124.531389318
 20
145.3543745172
 30
0.0
 10
124.9132214321
 20
145.7962906695
 30
0.0
  0
SPLINE
  5
31B
100
AcDbEntity
  8
0
100
AcDbSpline
 62
7
  6
CONTINUOUS
 70
0
 71
3
 72
9
 73
5
 74
0
 42
0.0000001
 43
0.0000001
 44
0.0000000001
 40
0.0
 40
0.0
 40
0.0
 40
0.0
 40
0.244321462
 40
1.0
 40
1.0
 40
1.0
 40
1.0
 10
124.9132214321
 20
145.7962906695
 30
0.0
 10
125.055481469
 20
145.9609363495
 30
0.0
 10
125.6180933139
 20
146.6516925859
 30
0.0
 10
126.100590685
 20
147.4066314393
 30
0.0
 10
126.419751699
 20
147.9991435969
 30
0.0
  0
SPLINE
  5
31C
100
AcDbEntity
  8
0
100
AcDbSpline
 62
7
  6
CONTINUOUS
 70
0
 71
3
 72
9
 73
5
 74
0
 42
0.0000001
 43
0.0000001
 44
0.0000000001
 40
0.0
 40
0.0
 40
0.0
 40
0.0
 40
0.2445256196
 40
1.0
 40
1.0
 40
1.0
 40
1.0
 10
126.419751699
 20
147.9991435969
 30
0.0
 10
126.5035549687
 20
148.1547216718
 30
0.0
 10
126.8338416122
 20
148.7976203504
 30
0.0
 10
127.1148466227
 20
149.4655436757
 30
0.0
 10
127.3009269934
 20
149.9788184489
 30
0.0
  0
SPLINE
  5
31D
100
AcDbEntity
  8
0
100
AcDbSpline
 62
7
  6
CONTINUOUS
 70
0
 71
3
 72
11
 73
7
 74
0
 42
0.0000001
 43
0.0000001
 44
0.0000000001
 40
0.0
 40
0.0
 40
0.0
 40
0.0
 40
0.2662463264
 40
0.5190388503
 40
0.762086361
 40
1.0
 40
1.0
 40
1.0
 40
1.0
 10
84.6074999615
 20
188.1066293794
 30
0.0
 10
84.8651312143
 20
188.7375067632
 30
0.0
 10
85.4498184653
 20
189.9363820506
 30
0.0
 10
86.5672217173
 20
191.5452303155
 30
0.0
 10
87.8881825331
 20
192.8930290386
 30
0.0
 10
88.8998439139
 20
193.6084288677
 30
0.0
 10
89.4271936865
 20
193.9129067428
 30
0.0
  0
SPLINE
  5
31E
100
AcDbEntity
  8
0
100
AcDbSpline
 62
7
  6
CONTINUOUS
 70
0
 71
3
 72
15
 73
11
 74
0
 42
0.0000001
 43
0.0000001
 44
0.0000000001
 40
0.0
 40
0.0
 40
0.0
 40
0.0
 40
0.0902516914
 40
0.1889584793
 40
0.2993273916
 40
0.4221521624
 40
0.5563758891
 40
0.699646034
 40
0.8487452767
 40
1.0
 40
1.0
 40
1.0
 40
1.0
 10
120.6498664235
 20
161.5317172436
 30
0.0
 10
121.167757287
 20
161.9454009114
 30
0.0
 10
122.1041419329
 20
163.0076337921
 30
0.0
 10
123.0191889053
 20
165.0331506947
 30
0.0
 10
123.4802380116
 20
167.4451221586
 30
0.0
 10
123.4827982174
 20
170.1562310639
 30
0.0
 10
123.0334069312
 20
173.0716620569
 30
0.0
 10
122.14970014
 20
176.0860153708
 30
0.0
 10
120.8653070135
 20
179.0877475975
 30
0.0
 10
119.7714662369
 20
181.0097020822
 30
0.0
 10
119.1682126282
 20
181.9424823084
 30
0.0
  0
SPLINE
  5
31F
100
AcDbEntity
  8
0
100
AcDbSpline
 62
7
  6
CONTINUOUS
 70
0
 71
3
 72
10
 73
6
 74
0
 42
0.0000001
 43
0.0000001
 44
0.0000000001
 40
0.0
 40
0.0
 40
0.0
 40
0.0
 40
0.5246958803
 40
0.7706554226
 40
1.0
 40
1.0
 40
1.0
 40
1.0
 10
117.0015027256
 20
185.2927551025
 30
0.0
 10
115.9569032475
 20
186.9079658918
 30
0.0
 10
114.1836186994
 20
189.144183559
 30
0.0
 10
111.4452801833
 20
191.5908306057
 30
0.0
 10
110.0027884838
 20
192.5808029638
 30
0.0
 10
109.2746394353
 20
193.0011905025
 30
0.0
  0
SPLINE
  5
320
100
AcDbEntity
  8
0
100
AcDbSpline
 62
7
  6
CONTINUOUS
 70
0
 71
3
 72
12
 73
8
 74
0
 42
0.0000001
 43
0.0000001
 44
0.0000000001
 40
0.0
 40
0.0
 40
0.0
 40
0.0
 40
0.2895749201
 40
0.548606068
 40
0.7815973708
 40
0.8918003029
 40
1.0
 40
1.0
 40
1.0
 40
1.0
 10
109.2746394353
 20
193.0011905025
 30
0.0
 10
108.5284507002
 20
193.4319930236
 30
0.0
 10
107.044457319
 20
194.1380645079
 30
0.0
 10
104.7651110359
 20
194.6890625837
 30
0.0
 10
102.9450642305
 20
194.6408725931
 30
0.0
 10
101.6454286654
 20
194.2812223002
 30
0.0
 10
101.053543283
 20
194.0039822051
 30
0.0
 10
100.7747259375
 20
193.8430194732
 30
0.0
  0
SPLINE
  5
321
100
AcDbEntity
  8
0
100
AcDbSpline
 62
7
  6
CONTINUOUS
 70
0
 71
3
 72
10
 73
6
 74
0
 42
0.0000001
 43
0.0000001
 44
0.0000000001
 40
0.0
 40
0.0
 40
0.0
 40
0.0
 40
0.5044277208
 40
0.7555658567
 40
1.0
 40
1.0
 40
1.0
 40
1.0
 10
87.7772324872
 20
151.1652019503
 30
0.0
 10
86.7148168799
 20
153.7904181627
 30
0.0
 10
84.7349672355
 20
157.5800797365
 30
0.0
 10
81.4672387034
 20
162.1515234695
 30
0.0
 10
79.6333570137
 20
164.2520665538
 30
0.0
 10
78.6770508978
 20
165.2363476828
 30
0.0
  0
SPLINE
  5
322
100
AcDbEntity
  8
0
100
AcDbSpline
 62
7
  6
CONTINUOUS
 70
0
 71
3
 72
10
 73
6
 74
0
 42
0.0000001
 43
0.0000001
 44
0.0000000001
 40
0.0
 40
0.0
 40
0.0
 40
0.0
 40
0.2293445774
 40
0.4753041197
 40
1.0
 40
1.0
 40
1.0
 40
1.0
 10
45.4841540894
 20
111.6311812214
 30
0.0
 10
44.7560050409
 20
112.0515687601
 30
0.0
 10
43.3135133415
 20
113.0415411182
 30
0.0
 10
40.5751748253
 20
115.4881881649
 30
0.0
 10
38.8018902772
 20
117.724405832
 30
0.0
 10
37.7572907992
 20
119.3396166214
 30
0.0
  0
SPLINE
  5
323
100
AcDbEntity
  8
0
100
AcDbSpline
 62
7
  6
CONTINUOUS
 70
0
 71
3
 72
15
 73
11
 74
0
 42
0.0000001
 43
0.0000001
 44
0.0000000001
 40
0.0
 40
0.0
 40
0.0
 40
0.0
 40
0.151254714
 40
0.3003539498
 40
0.4436240916
 40
0.5778478186
 40
0.7006725923
 40
0.8110415091
 40
0.9097483028
 40
1.0
 40
1.0
 40
1.0
 40
1.0
 10
35.5905808967
 20
122.6898894152
 30
0.0
 10
34.987327325
 20
123.6226695841
 30
0.0
 10
33.8934865995
 20
125.5446239589
 30
0.0
 10
32.6090935023
 20
128.5463560428
 30
0.0
 10
31.7253866845
 20
131.5607092733
 30
0.0
 10
31.2759953394
 20
134.4761402576
 30
0.0
 10
31.2785554797
 20
137.1872492195
 30
0.0
 10
31.7396045383
 20
139.5992207923
 30
0.0
 10
32.6546515146
 20
141.6247378253
 30
0.0
 10
33.5910362047
 20
142.6869707862
 30
0.0
 10
34.1089271013
 20
143.1006544803
 30
0.0
  0
SPLINE
  5
324
100
AcDbEntity
  8
0
100
AcDbSpline
 62
7
  6
CONTINUOUS
 70
0
 71
3
 72
11
 73
7
 74
0
 42
0.0000001
 43
0.0000001
 44
0.0000000001
 40
0.0
 40
0.0
 40
0.0
 40
0.0
 40
0.2276281548
 40
0.4653191726
 40
0.7211141643
 40
1.0
 40
1.0
 40
1.0
 40
1.0
 10
89.4271936865
 20
193.9129067428
 30
0.0
 10
90.1942023841
 20
194.3557573716
 30
0.0
 10
91.8923983553
 20
195.0517716667
 30
0.0
 10
94.6996714857
 20
195.4245730661
 30
0.0
 10
97.7130109678
 20
195.1450506072
 30
0.0
 10
99.7227601202
 20
194.5629979854
 30
0.0
 10
100.7392848937
 20
194.1833332865
 30
0.0
  0
SPLINE
  5
325
100
AcDbEntity
  8
0
100
AcDbSpline
 62
7
  6
CONTINUOUS
 70
0
 71
3
 72
9
 73
5
 74
0
 42
0.0000001
 43
0.0000001
 44
0.0000000001
 40
0.0
 40
0.0
 40
0.0
 40
0.0
 40
0.2578453994
 40
1.0
 40
1.0
 40
1.0
 40
1.0
 10
125.2704727354
 20
160.446865894
 30
0.0
 10
125.3312040232
 20
160.0406035518
 30
0.0
 10
125.5401449424
 20
158.461249784
 30
0.0
 10
125.6396111954
 20
156.8665514874
 30
0.0
 10
125.6395545426
 20
155.6842162116
 30
0.0
  0
SPLINE
  5
326
100
AcDbEntity
  8
0
100
AcDbSpline
 62
7
  6
CONTINUOUS
 70
0
 71
3
 72
14
 73
10
 74
0
 42
0.0000001
 43
0.0000001
 44
0.0000000001
 40
0.0
 40
0.0
 40
0.0
 40
0.0
 40
0.2892799006
 40
0.4225392465
 40
0.5484931315
 40
0.6678934282
 40
0.7818678771
 40
0.8919518518
 40
1.0
 40
1.0
 40
1.0
 40
1.0
 10
125.6384030689
 20
155.6835514119
 30
0.0
 10
125.6383302077
 20
154.16294855
 30
0.0
 10
125.4608671457
 20
151.930952284
 30
0.0
 10
124.7746827829
 20
149.1255578337
 30
0.0
 10
124.0764748915
 20
147.2562157135
 30
0.0
 10
123.1868198485
 20
145.5832752028
 30
0.0
 10
122.1120960152
 20
144.1237583505
 30
0.0
 10
120.8625519342
 20
142.894047608
 30
0.0
 10
119.9169030568
 20
142.2341300858
 30
0.0
 10
119.4250435449
 20
141.9501432786
 30
0.0
  0
SPLINE
  5
327
100
AcDbEntity
  8
0
100
AcDbSpline
 62
7
  6
CONTINUOUS
 70
0
 71
3
 72
12
 73
8
 74
0
 42
0.0000001
 43
0.0000001
 44
0.0000000001
 40
0.0
 40
0.0
 40
0.0
 40
0.0
 40
0.1081996971
 40
0.2184026292
 40
0.451393932
 40
0.7104250799
 40
1.0
 40
1.0
 40
1.0
 40
1.0
 10
89.8146164606
 20
187.5152350882
 30
0.0
 10
90.0934338062
 20
187.67619782
 30
0.0
 10
90.6853191886
 20
187.9534379152
 30
0.0
 10
91.9849547536
 20
188.3130882081
 30
0.0
 10
93.805001559
 20
188.3612781987
 30
0.0
 10
96.0843478422
 20
187.8102801229
 30
0.0
 10
97.5683412233
 20
187.1042086386
 30
0.0
 10
98.3145299585
 20
186.6734061175
 30
0.0
  0
SPLINE
  5
328
100
AcDbEntity
  8
0
100
AcDbSpline
 62
7
  6
CONTINUOUS
 70
0
 71
3
 72
15
 73
11
 74
0
 42
0.0000001
 43
0.0000001
 44
0.0000000001
 40
0.0
 40
0.0
 40
0.0
 40
0.0
 40
0.1441206053
 40
0.2777861504
 40
0.4024370728
 40
0.5206028098
 40
0.6356728014
 40
0.7515326129
 40
0.8719421411
 40
1.0
 40
1.0
 40
1.0
 40
1.0
 10
110.3911468401
 20
150.6753403598
 30
0.0
 10
110.2892686521
 20
149.9786487531
 30
0.0
 10
110.0060046797
 20
148.6458494824
 30
0.0
 10
109.3013867661
 20
146.8007947072
 30
0.0
 10
108.3406273672
 20
145.2187990857
 30
0.0
 10
107.1365415395
 20
143.9321033542
 30
0.0
 10
105.7095473802
 20
142.9708181888
 30
0.0
 10
104.0905208117
 20
142.3575404709
 30
0.0
 10
102.3163346275
 20
142.102335277
 30
0.0
 10
101.0963131529
 20
142.1682208096
 30
0.0
 10
100.4764474517
 20
142.2529268476
 30
0.0
  0
SPLINE
  5
329
100
AcDbEntity
  8
0
100
AcDbSpline
 62
7
  6
CONTINUOUS
 70
0
 71
3
 72
10
 73
6
 74
0
 42
0.0000001
 43
0.0000001
 44
0.0000000001
 40
0.0
 40
0.0
 40
0.0
 40
0.0
 40
0.5044277208
 40
0.7555658567
 40
1.0
 40
1.0
 40
1.0
 40
1.0
 10
56.0214515607
 20
147.1393853893
 30
0.0
 10
57.083867168
 20
144.514169177
 30
0.0
 10
59.0637168124
 20
140.7245076032
 30
0.0
 10
62.3314453445
 20
136.1530638702
 30
0.0
 10
64.1653270342
 20
134.0525207858
 30
0.0
 10
65.1216331501
 20
133.0682396569
 30
0.0
  0
SPLINE
  5
32A
100
AcDbEntity
  8
0
100
AcDbSpline
 62
7
  6
CONTINUOUS
 70
0
 71
3
 72
15
 73
11
 74
0
 42
0.0000001
 43
0.0000001
 44
0.0000000001
 40
0.0
 40
0.0
 40
0.0
 40
0.0
 40
0.151254714
 40
0.3003539498
 40
0.4436240916
 40
0.5778478186
 40
0.7006725923
 40
0.8110415091
 40
0.9097483028
 40
1.0
 40
1.0
 40
1.0
 40
1.0
 10
108.2081031514
 20
175.6146979234
 30
0.0
 10
108.811356723
 20
174.6819177545
 30
0.0
 10
109.9051974485
 20
172.7599633797
 30
0.0
 10
111.1895905457
 20
169.7582312959
 30
0.0
 10
112.0732973634
 20
166.7438780654
 30
0.0
 10
112.5226887085
 20
163.8284470812
 30
0.0
 10
112.5201285682
 20
161.1173381193
 30
0.0
 10
112.0590795096
 20
158.7053665466
 30
0.0
 10
111.1440325332
 20
156.6798495136
 30
0.0
 10
110.2076478432
 20
155.6176165528
 30
0.0
 10
109.6897569466
 20
155.2039328586
 30
0.0
  0
SPLINE
  5
32B
100
AcDbEntity
  8
0
100
AcDbSpline
 62
7
  6
CONTINUOUS
 70
0
 71
3
 72
10
 73
6
 74
0
 42
0.0000001
 43
0.0000001
 44
0.0000000001
 40
0.0
 40
0.0
 40
0.0
 40
0.0
 40
0.2444341433
 40
0.4955722792
 40
1.0
 40
1.0
 40
1.0
 40
1.0
 10
65.1923435339
 20
133.1090640722
 30
0.0
 10
64.2360374179
 20
134.0933452012
 30
0.0
 10
62.4021557282
 20
136.1938882855
 30
0.0
 10
59.1344271961
 20
140.7653320186
 30
0.0
 10
57.1545775517
 20
144.5549935924
 30
0.0
 10
56.0921619444
 20
147.1802098047
 30
0.0
  0
SPLINE
  5
32C
100
AcDbEntity
  8
0
100
AcDbSpline
 62
7
  6
CONTINUOUS
 70
0
 71
3
 72
10
 73
6
 74
0
 42
0.0000001
 43
0.0000001
 44
0.0000000001
 40
0.0
 40
0.0
 40
0.0
 40
0.0
 40
0.2293445774
 40
0.4753041197
 40
1.0
 40
1.0
 40
1.0
 40
1.0
 10
98.3145299585
 20
186.6734061175
 30
0.0
 10
99.042679007
 20
186.2530185788
 30
0.0
 10
100.4851707064
 20
185.2630462207
 30
0.0
 10
103.2235092226
 20
182.816399174
 30
0.0
 10
104.9967937707
 20
180.5801815068
 30
0.0
 10
106.0413932488
 20
178.9649707175
 30
0.0
  0
SPLINE
  5
32D
100
AcDbEntity
  8
0
100
AcDbSpline
 62
7
  6
CONTINUOUS
 70
0
 71
3
 72
9
 73
5
 74
0
 42
0.0000001
 43
0.0000001
 44
0.0000000001
 40
0.0
 40
0.0
 40
0.0
 40
0.0
 40
0.2328421898
 40
1.0
 40
1.0
 40
1.0
 40
1.0
 10
126.5958108044
 20
279.3668087915
 30
0.0
 10
126.613255004
 20
279.4131307707
 30
0.0
 10
126.6769099217
 20
279.6163059569
 30
0.0
 10
126.698884021
 20
279.8310603285
 30
0.0
 10
126.698884021
 20
279.9941432077
 30
0.0
  0
SPLINE
  5
32E
100
AcDbEntity
  8
0
100
AcDbSpline
 62
7
  6
CONTINUOUS
 70
0
 71
3
 72
11
 73
7
 74
0
 42
0.0000001
 43
0.0000001
 44
0.0000000001
 40
0.0
 40
0.0
 40
0.0
 40
0.0
 40
0.2177239861
 40
0.4508730345
 40
0.7104683317
 40
1.0
 40
1.0
 40
1.0
 40
1.0
 10
242.1470484587
 20
140.0460851755
 30
0.0
 10
242.229492361
 20
140.0936796687
 30
0.0
 10
242.3838781012
 20
140.2232366523
 30
0.0
 10
242.5481681759
 20
140.4919200814
 30
0.0
 10
242.6455465995
 20
140.8229615818
 30
0.0
 10
242.6648789452
 20
141.063854426
 30
0.0
 10
242.6648789452
 20
141.1904467589
 30
0.0
  0
SPLINE
  5
32F
100
AcDbEntity
  8
0
100
AcDbSpline
 62
7
  6
CONTINUOUS
 70
0
 71
3
 72
11
 73
7
 74
0
 42
0.0000001
 43
0.0000001
 44
0.0000000001
 40
0.0
 40
0.0
 40
0.0
 40
0.0
 40
0.2177239861
 40
0.4508730345
 40
0.7104683317
 40
1.0
 40
1.0
 40
1.0
 40
1.0
 10
242.1470484587
 20
211.8982978829
 30
0.0
 10
242.229492361
 20
211.9458923761
 30
0.0
 10
242.3838781012
 20
212.0754493597
 30
0.0
 10
242.5481681759
 20
212.3441327888
 30
0.0
 10
242.6455465995
 20
212.6751742892
 30
0.0
 10
242.6648789452
 20
212.9160671334
 30
0.0
 10
242.6648789452
 20
213.0426594663
 30
0.0
  0
SPLINE
  5
330
100
AcDbEntity
  8
0
100
AcDbSpline
 62
7
  6
CONTINUOUS
 70
0
 71
3
 72
9
 73
5
 74
0
 42
0.0000001
 43
0.0000001
 44
0.0000000001
 40
0.0
 40
0.0
 40
0.0
 40
0.0
 40
0.2283295224
 40
1.0
 40
1.0
 40
1.0
 40
1.0
 10
85.9299775549
 20
231.147700211
 30
0.0
 10
85.8138233461
 20
231.1532196281
 30
0.0
 10
85.3068627523
 20
231.2167394428
 30
0.0
 10
84.8253533732
 20
231.4208967481
 30
0.0
 10
84.4850019168
 20
231.6173943077
 30
0.0
  0
SPLINE
  5
331
100
AcDbEntity
  8
0
100
AcDbSpline
 62
7
  6
CONTINUOUS
 70
0
 71
3
 72
11
 73
7
 74
0
 42
0.0000001
 43
0.0000001
 44
0.0000000001
 40
0.0
 40
0.0
 40
0.0
 40
0.0
 40
0.2322797333
 40
0.4705906874
 40
0.7245385322
 40
1.0
 40
1.0
 40
1.0
 40
1.0
 10
73.8722352174
 20
245.1600582473
 30
0.0
 10
74.2692031913
 20
245.3892447206
 30
0.0
 10
75.1482745187
 20
245.7361397053
 30
0.0
 10
76.5929639529
 20
245.8465329704
 30
0.0
 10
78.0946525565
 20
245.5486451269
 30
0.0
 10
79.0529676583
 20
245.1098816986
 30
0.0
 10
79.5237346457
 20
244.8380904005
 30
0.0
  0
SPLINE
  5
332
100
AcDbEntity
  8
0
100
AcDbSpline
 62
7
  6
CONTINUOUS
 70
0
 71
3
 72
9
 73
5
 74
0
 42
0.0000001
 43
0.0000001
 44
0.0000000001
 40
0.0
 40
0.0
 40
0.0
 40
0.0
 40
0.4599563436
 40
1.0
 40
1.0
 40
1.0
 40
1.0
 10
148.5244108775
 20
196.4739405066
 30
0.0
 10
148.3883728112
 20
196.3953984407
 30
0.0
 10
148.1481127153
 20
196.1256302742
 30
0.0
 10
148.0606365255
 20
195.7859105245
 30
0.0
 10
148.0402092
 20
195.6026105158
 30
0.0
  0
SPLINE
  5
333
100
AcDbEntity
  8
0
100
AcDbSpline
 62
7
  6
CONTINUOUS
 70
0
 71
3
 72
12
 73
8
 74
0
 42
0.0000001
 43
0.0000001
 44
0.0000000001
 40
0.0
 40
0.0
 40
0.0
 40
0.0
 40
0.1078525071
 40
0.2183747146
 40
0.452703518
 40
0.7120978094
 40
1.0
 40
1.0
 40
1.0
 40
1.0
 10
122.5155692159
 20
143.1978395024
 30
0.0
 10
122.9635156478
 20
143.5089697563
 30
0.0
 10
123.8211532966
 20
144.2132839479
 30
0.0
 10
125.3513093671
 20
145.9262063198
 30
0.0
 10
126.8554354195
 20
148.6327501247
 30
0.0
 10
127.9051453916
 20
152.4721075525
 30
0.0
 10
128.113752623
 20
155.2482957133
 30
0.0
 10
128.113752623
 20
156.7041824203
 30
0.0
  0
SPLINE
  5
334
100
AcDbEntity
  8
0
100
AcDbSpline
 62
7
  6
CONTINUOUS
 70
0
 71
3
 72
15
 73
11
 74
0
 42
0.0000001
 43
0.0000001
 44
0.0000000001
 40
0.0
 40
0.0
 40
0.0
 40
0.0
 40
0.0869302718
 40
0.1864000368
 40
0.3037880336
 40
0.4376004358
 40
0.582099273
 40
0.7294176325
 40
0.8711704074
 40
1.0
 40
1.0
 40
1.0
 40
1.0
 10
204.7463129829
 20
189.1503277702
 30
0.0
 10
204.571530955
 20
189.0493242775
 30
0.0
 10
204.1322535761
 20
188.9365241325
 30
0.0
 10
203.4252974172
 20
189.078079939
 30
0.0
 10
202.7030096967
 20
189.4726000454
 30
0.0
 10
202.0104274262
 20
190.0858665513
 30
0.0
 10
201.3989806041
 20
190.8685906062
 30
0.0
 10
200.9175388182
 20
191.7583647831
 30
0.0
 10
200.6051721818
 20
192.6819865656
 30
0.0
 10
200.5214681745
 20
193.3110446346
 30
0.0
 10
200.5214681745
 20
193.6102096934
 30
0.0
  0
SPLINE
  5
335
100
AcDbEntity
  8
0
100
AcDbSpline
 62
7
  6
CONTINUOUS
 70
0
 71
3
 72
15
 73
11
 74
0
 42
0.0000001
 43
0.0000001
 44
0.0000000001
 40
0.0
 40
0.0
 40
0.0
 40
0.0
 40
0.0869302718
 40
0.1864000368
 40
0.3037880336
 40
0.4376004358
 40
0.582099273
 40
0.7294176325
 40
0.8711704074
 40
1.0
 40
1.0
 40
1.0
 40
1.0
 10
204.7463129829
 20
117.2981150628
 30
0.0
 10
204.571530955
 20
117.1971115701
 30
0.0
 10
204.1322535761
 20
117.0843114251
 30
0.0
 10
203.4252974172
 20
117.2258672316
 30
0.0
 10
202.7030096967
 20
117.620387338
 30
0.0
 10
202.0104274262
 20
118.2336538439
 30
0.0
 10
201.3989806041
 20
119.0163778988
 30
0.0
 10
200.9175388182
 20
119.9061520757
 30
0.0
 10
200.6051721818
 20
120.8297738582
 30
0.0
 10
200.5214681745
 20
121.4588319272
 30
0.0
 10
200.5214681745
 20
121.757996986
 30
0.0
  0
SPLINE
  5
336
100
AcDbEntity
  8
0
100
AcDbSpline
 62
7
  6
CONTINUOUS
 70
0
 71
3
 72
9
 73
5
 74
0
 42
0.0000001
 43
0.0000001
 44
0.0000000001
 40
0.0
 40
0.0
 40
0.0
 40
0.0
 40
0.5095695338
 40
1.0
 40
1.0
 40
1.0
 40
1.0
 10
59.1390126081
 20
258.951746292
 30
0.0
 10
57.8327340782
 20
249.3264073574
 30
0.0
 10
55.8479871962
 20
230.3530654981
 30
0.0
 10
55.1400066137
 20
211.2860097111
 30
0.0
 10
55.1400066137
 20
201.9372709387
 30
0.0
  0
SPLINE
  5
337
100
AcDbEntity
  8
0
100
AcDbSpline
 62
7
  6
CONTINUOUS
 70
0
 71
3
 72
9
 73
5
 74
0
 42
0.0000001
 43
0.0000001
 44
0.0000000001
 40
0.0
 40
0.0
 40
0.0
 40
0.0
 40
0.2564032783
 40
1.0
 40
1.0
 40
1.0
 40
1.0
 10
55.1404086918
 20
201.3871610989
 30
0.0
 10
55.1454643778
 20
197.930058788
 30
0.0
 10
55.351209781
 20
184.4483795915
 30
0.0
 10
56.3178931847
 20
170.9746272156
 30
0.0
 10
57.5231767661
 20
161.0213637637
 30
0.0
  0
SPLINE
  5
338
100
AcDbEntity
  8
0
100
AcDbSpline
 62
7
  6
CONTINUOUS
 70
0
 71
3
 72
11
 73
7
 74
0
 42
0.0000001
 43
0.0000001
 44
0.0000000001
 40
0.0
 40
0.0
 40
0.0
 40
0.0
 40
0.2896413964
 40
0.5491107671
 40
0.7822355978
 40
1.0
 40
1.0
 40
1.0
 40
1.0
 10
200.5214681745
 20
121.757996986
 30
0.0
 10
200.5214681745
 20
121.9352972416
 30
0.0
 10
200.548417879
 20
122.2725642945
 30
0.0
 10
200.6849226903
 20
122.7359583855
 30
0.0
 10
200.9148645366
 20
123.1120685888
 30
0.0
 10
201.1309754159
 20
123.2934967142
 30
0.0
 10
201.2463914422
 20
123.3601936275
 30
0.0
  0
SPLINE
  5
339
100
AcDbEntity
  8
0
100
AcDbSpline
 62
7
  6
CONTINUOUS
 70
0
 71
3
 72
11
 73
7
 74
0
 42
0.0000001
 43
0.0000001
 44
0.0000000001
 40
0.0
 40
0.0
 40
0.0
 40
0.0
 40
0.2896413964
 40
0.5491107671
 40
0.7822355978
 40
1.0
 40
1.0
 40
1.0
 40
1.0
 10
200.5214681745
 20
193.6102096934
 30
0.0
 10
200.5214681745
 20
193.787509949
 30
0.0
 10
200.548417879
 20
194.1247770019
 30
0.0
 10
200.6849226903
 20
194.5881710929
 30
0.0
 10
200.9148645366
 20
194.9642812962
 30
0.0
 10
201.1309754159
 20
195.1457094216
 30
0.0
 10
201.2463914422
 20
195.212406335
 30
0.0
  0
SPLINE
  5
33A
100
AcDbEntity
  8
0
100
AcDbSpline
 62
7
  6
CONTINUOUS
 70
0
 71
3
 72
9
 73
5
 74
0
 42
0.0000001
 43
0.0000001
 44
0.0000000001
 40
0.0
 40
0.0
 40
0.0
 40
0.0
 40
0.5094554007
 40
1.0
 40
1.0
 40
1.0
 40
1.0
 10
59.531326336
 20
257.6803172016
 30
0.0
 10
58.2582578417
 20
248.1807432374
 30
0.0
 10
56.3242617144
 20
229.4530832058
 30
0.0
 10
55.6349851877
 20
210.635282167
 30
0.0
 10
55.6349851877
 20
201.406556938
 30
0.0
  0
SPLINE
  5
33B
100
AcDbEntity
  8
0
100
AcDbSpline
 62
7
  6
CONTINUOUS
 70
0
 71
3
 72
9
 73
5
 74
0
 42
0.0000001
 43
0.0000001
 44
0.0000000001
 40
0.0
 40
0.0
 40
0.0
 40
0.0
 40
0.2563395421
 40
1.0
 40
1.0
 40
1.0
 40
1.0
 10
55.6349851877
 20
201.406556938
 30
0.0
 10
55.6349851877
 20
197.9709142903
 30
0.0
 10
55.8181734305
 20
184.5692939204
 30
0.0
 10
56.7504427801
 20
171.1743565834
 30
0.0
 10
57.9221823159
 20
161.27641182
 30
0.0
  0
SPLINE
  5
33C
100
AcDbEntity
  8
0
100
AcDbSpline
 62
7
  6
CONTINUOUS
 70
0
 71
3
 72
18
 73
14
 74
0
 42
0.0000001
 43
0.0000001
 44
0.0000000001
 40
0.0
 40
0.0
 40
0.0
 40
0.0
 40
0.1321166906
 40
0.2735459876
 40
0.4182139411
 40
0.5590447597
 40
0.6894318813
 40
0.7493401138
 40
0.8053276335
 40
0.8575753313
 40
0.9066890375
 40
0.9537043603
 40
1.0
 40
1.0
 40
1.0
 40
1.0
 10
69.4865793374
 20
240.6759977272
 30
0.0
 10
69.3622062458
 20
239.5540748157
 30
0.0
 10
69.4134115428
 20
237.1921132793
 30
0.0
 10
70.2431696368
 20
233.69451815
 30
0.0
 10
71.753484489
 20
230.3493201716
 30
0.0
 10
73.8128216806
 20
227.4276703188
 30
0.0
 10
75.9055379572
 20
225.4816499646
 30
0.0
 10
77.7015056486
 20
224.373464635
 30
0.0
 10
79.0268351949
 20
223.8036862621
 30
0.0
 10
80.3407772865
 20
223.4864715733
 30
0.0
 10
81.6164920107
 20
223.4321316437
 30
0.0
 10
82.8245447123
 20
223.6463211914
 30
0.0
 10
83.5638893314
 20
223.9666303063
 30
0.0
 10
83.9064516148
 20
224.1643883824
 30
0.0
  0
SPLINE
  5
33D
100
AcDbEntity
  8
0
100
AcDbSpline
 62
7
  6
CONTINUOUS
 70
0
 71
3
 72
9
 73
5
 74
0
 42
0.0000001
 43
0.0000001
 44
0.0000000001
 40
0.0
 40
0.0
 40
0.0
 40
0.0
 40
0.2569647465
 40
1.0
 40
1.0
 40
1.0
 40
1.0
 10
165.4608198907
 20
195.4135646232
 30
0.0
 10
164.840962476
 20
190.7095730024
 30
0.0
 10
162.7054639619
 20
172.369064929
 30
0.0
 10
161.7014439598
 20
153.8900170021
 30
0.0
 10
161.7014439598
 20
140.17044376
 30
0.0
  0
SPLINE
  5
33E
100
AcDbEntity
  8
0
100
AcDbSpline
 62
7
  6
CONTINUOUS
 70
0
 71
3
 72
9
 73
5
 74
0
 42
0.0000001
 43
0.0000001
 44
0.0000000001
 40
0.0
 40
0.0
 40
0.0
 40
0.0
 40
0.2582716
 40
1.0
 40
1.0
 40
1.0
 40
1.0
 10
161.7014439598
 20
140.17044376
 30
0.0
 10
161.7014439598
 20
135.7739235033
 30
0.0
 10
161.9990921802
 20
118.7536661439
 30
0.0
 10
163.5217021489
 20
101.7447954639
 30
0.0
 10
165.4608198907
 20
89.2682503963
 30
0.0
  0
SPLINE
  5
33F
100
AcDbEntity
  8
0
100
AcDbSpline
 62
7
  6
CONTINUOUS
 70
0
 71
3
 72
11
 73
7
 74
0
 42
0.0000001
 43
0.0000001
 44
0.0000000001
 40
0.0
 40
0.0
 40
0.0
 40
0.0
 40
0.2712120797
 40
0.5250980982
 40
0.7660265664
 40
1.0
 40
1.0
 40
1.0
 40
1.0
 10
84.925446864
 20
189.061052235
 30
0.0
 10
85.1819234933
 20
189.9091277421
 30
0.0
 10
85.7967877762
 20
191.5194393103
 30
0.0
 10
87.0787726373
 20
193.6843236933
 30
0.0
 10
88.6722214436
 20
195.4743015404
 30
0.0
 10
89.9350787447
 20
196.399507233
 30
0.0
 10
90.5970316552
 20
196.7816834372
 30
0.0
  0
SPLINE
  5
340
100
AcDbEntity
  8
0
100
AcDbSpline
 62
7
  6
CONTINUOUS
 70
0
 71
3
 72
11
 73
7
 74
0
 42
0.0000001
 43
0.0000001
 44
0.0000000001
 40
0.0
 40
0.0
 40
0.0
 40
0.0
 40
0.2839607963
 40
0.5421254401
 40
0.7782663326
 40
1.0
 40
1.0
 40
1.0
 40
1.0
 10
105.0356976949
 20
194.8700288154
 30
0.0
 10
103.8983338722
 20
195.4343900669
 30
0.0
 10
101.6420967372
 20
196.3557978164
 30
0.0
 10
98.2102596439
 20
197.0613886641
 30
0.0
 10
94.978653532
 20
196.9918203998
 30
0.0
 10
92.9857646344
 20
196.3994229801
 30
0.0
 10
92.0871763468
 20
195.9804896652
 30
0.0
  0
SPLINE
  5
341
100
AcDbEntity
  8
0
100
AcDbSpline
 62
7
  6
CONTINUOUS
 70
0
 71
3
 72
10
 73
6
 74
0
 42
0.0000001
 43
0.0000001
 44
0.0000000001
 40
0.0
 40
0.0
 40
0.0
 40
0.0
 40
0.5304816919
 40
0.7687323808
 40
1.0
 40
1.0
 40
1.0
 40
1.0
 10
149.1102449694
 20
193.3626581551
 30
0.0
 10
149.2579120856
 20
193.2774044793
 30
0.0
 10
149.5015083833
 20
193.1885169544
 30
0.0
 10
149.8261374604
 20
193.2108383146
 30
0.0
 10
149.9692942942
 20
193.2668749032
 30
0.0
 10
150.0336705071
 20
193.3040426245
 30
0.0
  0
SPLINE
  5
342
100
AcDbEntity
  8
0
100
AcDbSpline
 62
7
  6
CONTINUOUS
 70
0
 71
3
 72
11
 73
7
 74
0
 42
0.0000001
 43
0.0000001
 44
0.0000000001
 40
0.0
 40
0.0
 40
0.0
 40
0.0
 40
0.2450502761
 40
0.5078956469
 40
0.7666123739
 40
1.0
 40
1.0
 40
1.0
 40
1.0
 10
148.0402092
 20
195.6026105158
 30
0.0
 10
148.0167107361
 20
195.391752339
 30
0.0
 10
148.0437943842
 20
194.9452652483
 30
0.0
 10
148.2552793384
 20
194.3094023995
 30
0.0
 10
148.6091893022
 20
193.752211656
 30
0.0
 10
148.9352496465
 20
193.4636894106
 30
0.0
 10
149.1102449671
 20
193.3626581538
 30
0.0
  0
SPLINE
  5
343
100
AcDbEntity
  8
0
100
AcDbSpline
 62
7
  6
CONTINUOUS
 70
0
 71
3
 72
11
 73
7
 74
0
 42
0.0000001
 43
0.0000001
 44
0.0000000001
 40
0.0
 40
0.0
 40
0.0
 40
0.0
 40
0.233267178
 40
0.4919142071
 40
0.7548681173
 40
1.0
 40
1.0
 40
1.0
 40
1.0
 10
149.4006327706
 20
195.9798202114
 30
0.0
 10
149.5255843832
 20
195.9076809963
 30
0.0
 10
149.7581621013
 20
195.7012003
 30
0.0
 10
150.0097808224
 20
195.3024026614
 30
0.0
 10
150.1593382543
 20
194.8475935094
 30
0.0
 10
150.1783301266
 20
194.5285751322
 30
0.0
 10
150.1615374049
 20
194.3778884876
 30
0.0
  0
SPLINE
  5
344
100
AcDbEntity
  8
0
100
AcDbSpline
 62
7
  6
CONTINUOUS
 70
0
 71
3
 72
12
 73
8
 74
0
 42
0.0000001
 43
0.0000001
 44
0.0000000001
 40
0.0
 40
0.0
 40
0.0
 40
0.0
 40
0.2328469822
 40
0.3602437856
 40
0.4916638299
 40
0.7546856546
 40
1.0
 40
1.0
 40
1.0
 40
1.0
 10
79.5237346456
 20
244.8380904005
 30
0.0
 10
80.5824852323
 20
244.226834293
 30
0.0
 10
82.0270973873
 20
242.9327908967
 30
0.0
 10
83.5463092961
 20
240.8428061152
 30
0.0
 10
84.8517378688
 20
238.4243943512
 30
0.0
 10
85.8805891344
 20
235.1920772744
 30
0.0
 10
86.033438551
 20
232.4849614123
 30
0.0
 10
85.8915249568
 20
231.2048122201
 30
0.0
  0
SPLINE
  5
345
100
AcDbEntity
  8
0
100
AcDbSpline
 62
7
  6
CONTINUOUS
 70
0
 71
3
 72
11
 73
7
 74
0
 42
0.0000001
 43
0.0000001
 44
0.0000000001
 40
0.0
 40
0.0
 40
0.0
 40
0.0
 40
0.2827008414
 40
0.5416205249
 40
0.7785371174
 40
1.0
 40
1.0
 40
1.0
 40
1.0
 10
85.8915249568
 20
231.2048122201
 30
0.0
 10
85.8273226101
 20
230.6256669813
 30
0.0
 10
85.6178377743
 20
229.5224616612
 30
0.0
 10
85.0203295231
 20
228.0206237478
 30
0.0
 10
84.164272503
 20
226.7965753277
 30
0.0
 10
83.4175198309
 20
226.1914640661
 30
0.0
 10
83.022202409
 20
225.9632309437
 30
0.0
  0
SPLINE
  5
346
100
AcDbEntity
  8
0
100
AcDbSpline
 62
7
  6
CONTINUOUS
 70
0
 71
3
 72
11
 73
7
 74
0
 42
0.0000001
 43
0.0000001
 44
0.0000000001
 40
0.0
 40
0.0
 40
0.0
 40
0.0
 40
0.2372523758
 40
0.4999990758
 40
0.7627462798
 40
1.0
 40
1.0
 40
1.0
 40
1.0
 10
79.4645228682
 20
234.5159036648
 30
0.0
 10
79.2637335585
 20
234.6318268043
 30
0.0
 10
78.8837575163
 20
234.9515784035
 30
0.0
 10
78.4404430496
 20
235.5576403062
 30
0.0
 10
78.137231807
 20
236.2445927594
 30
0.0
 10
78.050303418
 20
236.7335384815
 30
0.0
 10
78.050303418
 20
236.9653900081
 30
0.0
  0
SPLINE
  5
347
100
AcDbEntity
  8
0
100
AcDbSpline
 62
7
  6
CONTINUOUS
 70
0
 71
3
 72
9
 73
5
 74
0
 42
0.0000001
 43
0.0000001
 44
0.0000000001
 40
0.0
 40
0.0
 40
0.0
 40
0.0
 40
0.2613576179
 40
1.0
 40
1.0
 40
1.0
 40
1.0
 10
78.050303418
 20
245.1304141794
 30
0.0
 10
78.050303418
 20
245.1611940292
 30
0.0
 10
78.0532369734
 20
245.2789182708
 30
0.0
 10
78.0682112991
 20
245.3965456946
 30
0.0
 10
78.0876526854
 20
245.4813346152
 30
0.0
  0
SPLINE
  5
348
100
AcDbEntity
  8
0
100
AcDbSpline
 62
7
  6
CONTINUOUS
 70
0
 71
3
 72
15
 73
11
 74
0
 42
0.0000001
 43
0.0000001
 44
0.0000000001
 40
0.0
 40
0.0
 40
0.0
 40
0.0
 40
0.1288248732
 40
0.2705977602
 40
0.4178979
 40
0.5623932695
 40
0.696206034
 40
0.8135977194
 40
0.9130663632
 40
1.0
 40
1.0
 40
1.0
 40
1.0
 10
126.698884021
 20
279.9941432077
 30
0.0
 10
126.698884021
 20
280.2078203479
 30
0.0
 10
126.6390580801
 20
280.6571566955
 30
0.0
 10
126.4160020897
 20
281.3168886711
 30
0.0
 10
126.0720665793
 20
281.9523974891
 30
0.0
 10
125.6353817185
 20
282.5114660613
 30
0.0
 10
125.1406752274
 20
282.9495016537
 30
0.0
 10
124.6247748938
 20
283.231284427
 30
0.0
 10
124.1197843674
 20
283.3324636538
 30
0.0
 10
123.8060707324
 20
283.2517849619
 30
0.0
 10
123.6811923916
 20
283.1796932586
 30
0.0
  0
SPLINE
  5
349
100
AcDbEntity
  8
0
100
AcDbSpline
 62
7
  6
CONTINUOUS
 70
0
 71
3
 72
15
 73
11
 74
0
 42
0.0000001
 43
0.0000001
 44
0.0000000001
 40
0.0
 40
0.0
 40
0.0
 40
0.0
 40
0.1288248732
 40
0.2705977602
 40
0.4178979
 40
0.5623932695
 40
0.696206034
 40
0.8135977194
 40
0.9130663632
 40
1.0
 40
1.0
 40
1.0
 40
1.0
 10
242.6648789452
 20
213.0426594663
 30
0.0
 10
242.6648789452
 20
213.2563366066
 30
0.0
 10
242.6050530042
 20
213.7056729541
 30
0.0
 10
242.3819970138
 20
214.3654049298
 30
0.0
 10
242.0380615034
 20
215.0009137478
 30
0.0
 10
241.6013766426
 20
215.55998232
 30
0.0
 10
241.1066701515
 20
215.9980179124
 30
0.0
 10
240.590769818
 20
216.2798006857
 30
0.0
 10
240.0857792915
 20
216.3809799125
 30
0.0
 10
239.7720656565
 20
216.3003012206
 30
0.0
 10
239.6471873157
 20
216.2282095173
 30
0.0
  0
SPLINE
  5
34A
100
AcDbEntity
  8
0
100
AcDbSpline
 62
7
  6
CONTINUOUS
 70
0
 71
3
 72
15
 73
11
 74
0
 42
0.0000001
 43
0.0000001
 44
0.0000000001
 40
0.0
 40
0.0
 40
0.0
 40
0.0
 40
0.1288248732
 40
0.2705977602
 40
0.4178979
 40
0.5623932695
 40
0.696206034
 40
0.8135977194
 40
0.9130663632
 40
1.0
 40
1.0
 40
1.0
 40
1.0
 10
242.6648789452
 20
141.1904467589
 30
0.0
 10
242.6648789452
 20
141.4041238992
 30
0.0
 10
242.6050530042
 20
141.8534602467
 30
0.0
 10
242.3819970138
 20
142.5131922224
 30
0.0
 10
242.0380615034
 20
143.1487010404
 30
0.0
 10
241.6013766426
 20
143.7077696126
 30
0.0
 10
241.1066701515
 20
144.145805205
 30
0.0
 10
240.590769818
 20
144.4275879783
 30
0.0
 10
240.0857792915
 20
144.5287672051
 30
0.0
 10
239.7720656565
 20
144.4480885132
 30
0.0
 10
239.6471873157
 20
144.3759968099
 30
0.0
  0
SPLINE
  5
34B
100
AcDbEntity
  8
0
100
AcDbSpline
 62
7
  6
CONTINUOUS
 70
0
 71
3
 72
9
 73
5
 74
0
 42
0.0000001
 43
0.0000001
 44
0.0000000001
 40
0.0
 40
0.0
 40
0.0
 40
0.0
 40
0.238496376
 40
1.0
 40
1.0
 40
1.0
 40
1.0
 10
85.8038360618
 20
230.5784864184
 30
0.0
 10
85.7234451835
 20
230.6028520296
 30
0.0
 10
85.3897927245
 20
230.716221555
 30
0.0
 10
85.0708350804
 20
230.870909362
 30
0.0
 10
84.8385538354
 20
231.0050139675
 30
0.0
  0
SPLINE
  5
34C
100
AcDbEntity
  8
0
100
AcDbSpline
 62
7
  6
CONTINUOUS
 70
0
 71
3
 72
11
 73
7
 74
0
 42
0.0000001
 43
0.0000001
 44
0.0000000001
 40
0.0
 40
0.0
 40
0.0
 40
0.0
 40
0.2290381986
 40
0.4657633696
 40
0.7208099175
 40
1.0
 40
1.0
 40
1.0
 40
1.0
 10
83.022202409
 20
225.9632309437
 30
0.0
 10
82.6376281372
 20
225.7412002867
 30
0.0
 10
81.779744713
 20
225.4085873844
 30
0.0
 10
80.3658156733
 20
225.3208822463
 30
0.0
 10
78.8887989528
 20
225.634044629
 30
0.0
 10
77.9416373658
 20
226.0735225375
 30
0.0
 10
77.4728530353
 20
226.344169174
 30
0.0
  0
SPLINE
  5
34D
100
AcDbEntity
  8
0
100
AcDbSpline
 62
7
  6
CONTINUOUS
 70
0
 71
3
 72
9
 73
5
 74
0
 42
0.0000001
 43
0.0000001
 44
0.0000000001
 40
0.0
 40
0.0
 40
0.0
 40
0.0
 40
0.2348547855
 40
1.0
 40
1.0
 40
1.0
 40
1.0
 10
85.2035380529
 20
228.6455879853
 30
0.0
 10
85.0215266214
 20
228.6860193834
 30
0.0
 10
84.2544858774
 20
228.8938583742
 30
0.0
 10
83.5261314989
 20
229.231577176
 30
0.0
 10
83.000071494
 20
229.5352911905
 30
0.0
  0
SPLINE
  5
34E
100
AcDbEntity
  8
0
100
AcDbSpline
 62
7
  6
CONTINUOUS
 70
0
 71
3
 72
9
 73
5
 74
0
 42
0.0000001
 43
0.0000001
 44
0.0000000001
 40
0.0
 40
0.0
 40
0.0
 40
0.0
 40
0.2448508352
 40
1.0
 40
1.0
 40
1.0
 40
1.0
 10
150.5150933246
 20
194.1737692901
 30
0.0
 10
150.517164845
 20
194.1923577522
 30
0.0
 10
150.5244294866
 20
194.2684057715
 30
0.0
 10
150.5270507793
 20
194.3448806971
 30
0.0
 10
150.5266831415
 20
194.4025634489
 30
0.0
  0
SPLINE
  5
34F
100
AcDbEntity
  8
0
100
AcDbSpline
 62
7
  6
CONTINUOUS
 70
0
 71
3
 72
9
 73
5
 74
0
 42
0.0000001
 43
0.0000001
 44
0.0000000001
 40
0.0
 40
0.0
 40
0.0
 40
0.0
 40
0.5056223704
 40
1.0
 40
1.0
 40
1.0
 40
1.0
 10
150.5266831415
 20
194.4025634489
 30
0.0
 10
150.524421216
 20
194.7574619211
 30
0.0
 10
150.3509332848
 20
195.4594592565
 30
0.0
 10
149.9293907638
 20
196.052975468
 30
0.0
 10
149.6600582103
 20
196.2717855486
 30
0.0
  0
SPLINE
  5
350
100
AcDbEntity
  8
0
100
AcDbSpline
 62
7
  6
CONTINUOUS
 70
0
 71
3
 72
9
 73
5
 74
0
 42
0.0000001
 43
0.0000001
 44
0.0000000001
 40
0.0
 40
0.0
 40
0.0
 40
0.0
 40
0.2570054296
 40
1.0
 40
1.0
 40
1.0
 40
1.0
 10
149.6600582103
 20
196.2717855486
 30
0.0
 10
149.6431054413
 20
196.2855582497
 30
0.0
 10
149.5761754791
 20
196.3379356182
 30
0.0
 10
149.5053080631
 20
196.385360673
 30
0.0
 10
149.4506223717
 20
196.4169327573
 30
0.0
  0
SPLINE
  5
351
100
AcDbEntity
  8
0
100
AcDbSpline
 62
7
  6
CONTINUOUS
 70
0
 71
3
 72
11
 73
7
 74
0
 42
0.0000001
 43
0.0000001
 44
0.0000000001
 40
0.0
 40
0.0
 40
0.0
 40
0.0
 40
0.2332403488
 40
0.4918427738
 40
0.7547913193
 40
1.0
 40
1.0
 40
1.0
 40
1.0
 10
149.6648842639
 20
196.5406361801
 30
0.0
 10
149.8398024712
 20
196.4396493906
 30
0.0
 10
150.1653933289
 20
196.1505715271
 30
0.0
 10
150.517102349
 20
195.5919483632
 30
0.0
 10
150.7263177555
 20
194.9551402573
 30
0.0
 10
150.7527570178
 20
194.5084296604
 30
0.0
 10
150.7292225211
 20
194.2973967828
 30
0.0
  0
SPLINE
  5
352
100
AcDbEntity
  8
0
100
AcDbSpline
 62
7
  6
CONTINUOUS
 70
0
 71
3
 72
9
 73
5
 74
0
 42
0.0000001
 43
0.0000001
 44
0.0000000001
 40
0.0
 40
0.0
 40
0.0
 40
0.0
 40
0.5339229459
 40
1.0
 40
1.0
 40
1.0
 40
1.0
 10
150.7018270837
 20
194.1285060647
 30
0.0
 10
150.669782077
 20
193.9799819827
 30
0.0
 10
150.5706589328
 20
193.7061649254
 30
0.0
 10
150.3625915552
 20
193.4939463263
 30
0.0
 10
150.2477266595
 20
193.4276293681
 30
0.0
  0
SPLINE
  5
353
100
AcDbEntity
  8
0
100
AcDbSpline
 62
7
  6
CONTINUOUS
 70
0
 71
3
 72
10
 73
6
 74
0
 42
0.0000001
 43
0.0000001
 44
0.0000000001
 40
0.0
 40
0.0
 40
0.0
 40
0.0
 40
0.5296501349
 40
0.7681976362
 40
1.0
 40
1.0
 40
1.0
 40
1.0
 10
149.4506223717
 20
196.4169327573
 30
0.0
 10
149.3027607123
 20
196.502298795
 30
0.0
 10
149.0583523183
 20
196.5909053275
 30
0.0
 10
148.7328667909
 20
196.567717473
 30
0.0
 10
148.589122348
 20
196.5113019063
 30
0.0
 10
148.5244108775
 20
196.4739405066
 30
0.0
  0
SPLINE
  5
354
100
AcDbEntity
  8
0
100
AcDbSpline
 62
7
  6
CONTINUOUS
 70
0
 71
3
 72
10
 73
6
 74
0
 42
0.0000001
 43
0.0000001
 44
0.0000000001
 40
0.0
 40
0.0
 40
0.0
 40
0.0
 40
0.2318093667
 40
0.4704009913
 40
1.0
 40
1.0
 40
1.0
 40
1.0
 10
148.7386171677
 20
196.5976099434
 30
0.0
 10
148.8033349335
 20
196.6349745982
 30
0.0
 10
148.9471034275
 20
196.6913934587
 30
0.0
 10
149.2726077182
 20
196.7146399397
 30
0.0
 10
149.5170273366
 20
196.6259994857
 30
0.0
 10
149.6648842639
 20
196.5406361801
 30
0.0
  0
SPLINE
  5
355
100
AcDbEntity
  8
0
100
AcDbSpline
 62
7
  6
CONTINUOUS
 70
0
 71
3
 72
11
 73
7
 74
0
 42
0.0000001
 43
0.0000001
 44
0.0000000001
 40
0.0
 40
0.0
 40
0.0
 40
0.0
 40
0.2333293386
 40
0.4920727133
 40
0.7549601479
 40
1.0
 40
1.0
 40
1.0
 40
1.0
 10
149.1575070327
 20
193.7981962962
 30
0.0
 10
149.0325379141
 20
193.8703456182
 30
0.0
 10
148.799727959
 20
194.0765251734
 30
0.0
 10
148.5469802464
 20
194.4745832553
 30
0.0
 10
148.396295294
 20
194.928953568
 30
0.0
 10
148.3769786638
 20
195.2478785279
 30
0.0
 10
148.393763063
 20
195.3984895574
 30
0.0
  0
SPLINE
  5
356
100
AcDbEntity
  8
0
100
AcDbSpline
 62
7
  6
CONTINUOUS
 70
0
 71
3
 72
9
 73
5
 74
0
 42
0.0000001
 43
0.0000001
 44
0.0000000001
 40
0.0
 40
0.0
 40
0.0
 40
0.0
 40
0.2441665427
 40
1.0
 40
1.0
 40
1.0
 40
1.0
 10
150.0336705071
 20
193.3040426245
 30
0.0
 10
150.0569203338
 20
193.3174659534
 30
0.0
 10
150.149220123
 20
193.3774645846
 30
0.0
 10
150.2281320153
 20
193.4571858331
 30
0.0
 10
150.2782146905
 20
193.5235050301
 30
0.0
  0
SPLINE
  5
357
100
AcDbEntity
  8
0
100
AcDbSpline
 62
7
  6
CONTINUOUS
 70
0
 71
3
 72
9
 73
5
 74
0
 42
0.0000001
 43
0.0000001
 44
0.0000000001
 40
0.0
 40
0.0
 40
0.0
 40
0.0
 40
0.2307312937
 40
1.0
 40
1.0
 40
1.0
 40
1.0
 10
150.2782146905
 20
193.5235050301
 30
0.0
 10
150.3105178289
 20
193.5662806644
 30
0.0
 10
150.4348043459
 20
193.7636201846
 30
0.0
 10
150.4952997755
 20
193.9961549933
 30
0.0
 10
150.5150933246
 20
194.1737692901
 30
0.0
  0
SPLINE
  5
358
100
AcDbEntity
  8
0
100
AcDbSpline
 62
7
  6
CONTINUOUS
 70
0
 71
3
 72
11
 73
7
 74
0
 42
0.0000001
 43
0.0000001
 44
0.0000000001
 40
0.0
 40
0.0
 40
0.0
 40
0.0
 40
0.2336825509
 40
0.4926690992
 40
0.7553451922
 40
1.0
 40
1.0
 40
1.0
 40
1.0
 10
77.4728530353
 20
226.344169174
 30
0.0
 10
76.4120761083
 20
226.9565951635
 30
0.0
 10
74.4300172643
 20
228.6948033732
 30
0.0
 10
72.2516169428
 20
232.0468014191
 30
0.0
 10
70.9351230344
 20
235.8836003661
 30
0.0
 10
70.75950289
 20
238.5849390737
 30
0.0
 10
70.9007987829
 20
239.8595162154
 30
0.0
  0
SPLINE
  5
359
100
AcDbEntity
  8
0
100
AcDbSpline
 62
7
  6
CONTINUOUS
 70
0
 71
3
 72
11
 73
7
 74
0
 42
0.0000001
 43
0.0000001
 44
0.0000000001
 40
0.0
 40
0.0
 40
0.0
 40
0.0
 40
0.2792384646
 40
0.5370197465
 40
0.7753253192
 40
1.0
 40
1.0
 40
1.0
 40
1.0
 10
70.9007987829
 20
239.8595162154
 30
0.0
 10
70.9652998244
 20
240.441355867
 30
0.0
 10
71.1815703102
 20
241.5535929846
 30
0.0
 10
71.8038035223
 20
243.0684993559
 30
0.0
 10
72.6942339803
 20
244.308197913
 30
0.0
 10
73.4643230828
 20
244.9245532453
 30
0.0
 10
73.8722352174
 20
245.1600582473
 30
0.0
  0
SPLINE
  5
35A
100
AcDbEntity
  8
0
100
AcDbSpline
 62
7
  6
CONTINUOUS
 70
0
 71
3
 72
13
 73
9
 74
0
 42
0.0000001
 43
0.0000001
 44
0.0000000001
 40
0.0
 40
0.0
 40
0.0
 40
0.0
 40
0.1142484259
 40
0.2375469717
 40
0.4999989156
 40
0.762451453
 40
0.885750692
 40
1.0
 40
1.0
 40
1.0
 40
1.0
 10
83.000071494
 20
229.5352911905
 30
0.0
 10
82.4869911407
 20
229.8315115692
 30
0.0
 10
81.4733643094
 20
230.5420157355
 30
0.0
 10
79.5758156469
 20
232.3180416568
 30
0.0
 10
77.5714321955
 20
235.0559062431
 30
0.0
 10
76.2025482898
 20
238.1606822462
 30
0.0
 10
75.6132204841
 20
240.6920276552
 30
0.0
 10
75.5047084074
 20
241.9251134264
 30
0.0
 10
75.5047084074
 20
242.51756881
 30
0.0
  0
SPLINE
  5
35B
100
AcDbEntity
  8
0
100
AcDbSpline
 62
7
  6
CONTINUOUS
 70
0
 71
3
 72
9
 73
5
 74
0
 42
0.0000001
 43
0.0000001
 44
0.0000000001
 40
0.0
 40
0.0
 40
0.0
 40
0.0
 40
0.2736554194
 40
1.0
 40
1.0
 40
1.0
 40
1.0
 10
75.5047084074
 20
242.51756881
 30
0.0
 10
75.5047084074
 20
242.8175297475
 30
0.0
 10
75.5536439019
 20
243.9108984715
 30
0.0
 10
75.8180534539
 20
245.0107468058
 30
0.0
 10
76.1808142163
 20
245.7194668621
 30
0.0
  0
SPLINE
  5
35C
100
AcDbEntity
  8
0
100
AcDbSpline
 62
7
  6
CONTINUOUS
 70
0
 71
3
 72
11
 73
7
 74
0
 42
0.0000001
 43
0.0000001
 44
0.0000000001
 40
0.0
 40
0.0
 40
0.0
 40
0.0
 40
0.232111494
 40
0.4887131785
 40
0.7513056025
 40
1.0
 40
1.0
 40
1.0
 40
1.0
 10
77.3431936928
 20
237.3736307626
 30
0.0
 10
77.3431936928
 20
237.073224873
 30
0.0
 10
77.4411982942
 20
236.4400854528
 30
0.0
 10
77.7953230626
 20
235.5282644628
 30
0.0
 10
78.3280646968
 20
234.6824508858
 30
0.0
 10
78.7888203051
 20
234.1985893094
 30
0.0
 10
79.0384714588
 20
233.9954309744
 30
0.0
  0
SPLINE
  5
35D
100
AcDbEntity
  8
0
100
AcDbSpline
 62
7
  6
CONTINUOUS
 70
0
 71
3
 72
9
 73
5
 74
0
 42
0.0000001
 43
0.0000001
 44
0.0000000001
 40
0.0
 40
0.0
 40
0.0
 40
0.0
 40
0.2588266786
 40
1.0
 40
1.0
 40
1.0
 40
1.0
 10
79.0384714588
 20
233.9954309744
 30
0.0
 10
79.0732085931
 20
233.9671629762
 30
0.0
 10
79.2093654297
 20
233.8603878413
 30
0.0
 10
79.3534566372
 20
233.7635239154
 30
0.0
 10
79.4645228682
 20
233.6994012477
 30
0.0
  0
SPLINE
  5
35E
100
AcDbEntity
  8
0
100
AcDbSpline
 62
7
  6
CONTINUOUS
 70
0
 71
3
 72
9
 73
5
 74
0
 42
0.0000001
 43
0.0000001
 44
0.0000000001
 40
0.0
 40
0.0
 40
0.0
 40
0.0
 40
0.2664961604
 40
1.0
 40
1.0
 40
1.0
 40
1.0
 10
84.4850019168
 20
230.8008918906
 30
0.0
 10
84.5921280174
 20
230.7390440067
 30
0.0
 10
85.0015251354
 20
230.5207368357
 30
0.0
 10
85.4437737471
 20
230.358781237
 30
0.0
 10
85.7775625197
 20
230.2916835707
 30
0.0
  0
SPLINE
  5
35F
100
AcDbEntity
  8
0
100
AcDbSpline
 62
7
  6
CONTINUOUS
 70
0
 71
3
 72
9
 73
5
 74
0
 42
0.0000001
 43
0.0000001
 44
0.0000000001
 40
0.0
 40
0.0
 40
0.0
 40
0.0
 40
0.2394451113
 40
1.0
 40
1.0
 40
1.0
 40
1.0
 10
79.8180747869
 20
233.9035233246
 30
0.0
 10
79.7741617619
 20
233.9288759478
 30
0.0
 10
79.5936767154
 20
234.0397710443
 30
0.0
 10
79.4246860745
 20
234.1689441963
 30
0.0
 10
79.3029223909
 20
234.2743652078
 30
0.0
  0
SPLINE
  5
360
100
AcDbEntity
  8
0
100
AcDbSpline
 62
7
  6
CONTINUOUS
 70
0
 71
3
 72
9
 73
5
 74
0
 42
0.0000001
 43
0.0000001
 44
0.0000000001
 40
0.0
 40
0.0
 40
0.0
 40
0.0
 40
0.4999995511
 40
1.0
 40
1.0
 40
1.0
 40
1.0
 10
79.3029223909
 20
234.2743652078
 30
0.0
 10
78.9092485049
 20
234.6152016381
 30
0.0
 10
78.2523380995
 20
235.4490363589
 30
0.0
 10
77.858669552
 20
236.4348537715
 30
0.0
 10
77.7603312573
 20
236.9462040959
 30
0.0
  0
SPLINE
  5
361
100
AcDbEntity
  8
0
100
AcDbSpline
 62
7
  6
CONTINUOUS
 70
0
 71
3
 72
9
 73
5
 74
0
 42
0.0000001
 43
0.0000001
 44
0.0000000001
 40
0.0
 40
0.0
 40
0.0
 40
0.0
 40
0.2602702764
 40
1.0
 40
1.0
 40
1.0
 40
1.0
 10
77.7603312573
 20
236.9462040959
 30
0.0
 10
77.749923153
 20
237.0003253063
 30
0.0
 10
77.7143678958
 20
237.2090620794
 30
0.0
 10
77.6967456114
 20
237.42111311
 30
0.0
 10
77.6967456114
 20
237.5777528395
 30
0.0
  0
SPLINE
  5
362
100
AcDbEntity
  8
0
100
AcDbSpline
 62
7
  6
CONTINUOUS
 70
0
 71
3
 72
9
 73
5
 74
0
 42
0.0000001
 43
0.0000001
 44
0.0000000001
 40
0.0
 40
0.0
 40
0.0
 40
0.0
 40
0.4886846773
 40
1.0
 40
1.0
 40
1.0
 40
1.0
 10
167.3268005556
 20
87.079586955
 30
0.0
 10
165.9656481903
 20
95.5375508337
 30
0.0
 10
163.951857409
 20
112.9753659629
 30
0.0
 10
163.3277945612
 20
130.5129235814
 30
0.0
 10
163.3277945612
 20
139.4764354971
 30
0.0
  0
SPLINE
  5
363
100
AcDbEntity
  8
0
100
AcDbSpline
 62
7
  6
CONTINUOUS
 70
0
 71
3
 72
9
 73
5
 74
0
 42
0.0000001
 43
0.0000001
 44
0.0000000001
 40
0.0
 40
0.0
 40
0.0
 40
0.0
 40
0.4904304662
 40
1.0
 40
1.0
 40
1.0
 40
1.0
 10
163.3277945612
 20
139.4764354971
 30
0.0
 10
163.3277945612
 20
148.8251742695
 30
0.0
 10
164.0357751437
 20
167.8922300565
 30
0.0
 10
166.0205220257
 20
186.8655719158
 30
0.0
 10
167.3268005556
 20
196.4909108504
 30
0.0
  0
SPLINE
  5
364
100
AcDbEntity
  8
0
100
AcDbSpline
 62
7
  6
CONTINUOUS
 70
0
 71
3
 72
9
 73
5
 74
0
 42
0.0000001
 43
0.0000001
 44
0.0000000001
 40
0.0
 40
0.0
 40
0.0
 40
0.0
 40
0.2314186213
 40
1.0
 40
1.0
 40
1.0
 40
1.0
 10
208.0168100645
 20
192.2222033657
 30
0.0
 10
208.0168100645
 20
192.3627666135
 30
0.0
 10
207.9777171052
 20
192.9700378371
 30
0.0
 10
207.8050286983
 20
193.564279682
 30
0.0
 10
207.6237433111
 20
193.9944778411
 30
0.0
  0
SPLINE
  5
365
100
AcDbEntity
  8
0
100
AcDbSpline
 62
7
  6
CONTINUOUS
 70
0
 71
3
 72
9
 73
5
 74
0
 42
0.0000001
 43
0.0000001
 44
0.0000000001
 40
0.0
 40
0.0
 40
0.0
 40
0.0
 40
0.2314186213
 40
1.0
 40
1.0
 40
1.0
 40
1.0
 10
208.0168100645
 20
120.3699906583
 30
0.0
 10
208.0168100645
 20
120.5105539061
 30
0.0
 10
207.9777171052
 20
121.1178251297
 30
0.0
 10
207.8050286983
 20
121.7120669746
 30
0.0
 10
207.6237433111
 20
122.1422651336
 30
0.0
  0
SPLINE
  5
366
100
AcDbEntity
  8
0
100
AcDbSpline
 62
7
  6
CONTINUOUS
 70
0
 71
3
 72
11
 73
7
 74
0
 42
0.0000001
 43
0.0000001
 44
0.0000000001
 40
0.0
 40
0.0
 40
0.0
 40
0.0
 40
0.2896413964
 40
0.5491107671
 40
0.7822355978
 40
1.0
 40
1.0
 40
1.0
 40
1.0
 10
205.4712362506
 20
118.9003117043
 30
0.0
 10
205.4712362506
 20
118.7230114487
 30
0.0
 10
205.4442865461
 20
118.3857443958
 30
0.0
 10
205.3077817348
 20
117.9223503048
 30
0.0
 10
205.0778398885
 20
117.5462401016
 30
0.0
 10
204.8617290091
 20
117.3648119761
 30
0.0
 10
204.7463129829
 20
117.2981150628
 30
0.0
  0
SPLINE
  5
367
100
AcDbEntity
  8
0
100
AcDbSpline
 62
7
  6
CONTINUOUS
 70
0
 71
3
 72
9
 73
5
 74
0
 42
0.0000001
 43
0.0000001
 44
0.0000000001
 40
0.0
 40
0.0
 40
0.0
 40
0.0
 40
0.2488043974
 40
1.0
 40
1.0
 40
1.0
 40
1.0
 10
91.2970256302
 20
195.5692508674
 30
0.0
 10
91.1251539917
 20
195.4700217554
 30
0.0
 10
90.4460898926
 20
195.0511512707
 30
0.0
 10
89.8168749245
 20
194.5520365448
 30
0.0
 10
89.3805193852
 20
194.1413940212
 30
0.0
  0
SPLINE
  5
368
100
AcDbEntity
  8
0
100
AcDbSpline
 62
7
  6
CONTINUOUS
 70
0
 71
3
 72
14
 73
10
 74
0
 42
0.0000001
 43
0.0000001
 44
0.0000000001
 40
0.0
 40
0.0
 40
0.0
 40
0.0
 40
0.1044283373
 40
0.2114911814
 40
0.3235081718
 40
0.442271887
 40
0.5689770293
 40
0.704230348
 40
1.0
 40
1.0
 40
1.0
 40
1.0
 10
90.5970316552
 20
196.7816834372
 30
0.0
 10
91.2047625557
 20
197.1325547531
 30
0.0
 10
92.51007931
 20
197.7216750845
 30
0.0
 10
94.6389328858
 20
198.2187799431
 30
0.0
 10
96.9176405381
 20
198.3314345481
 30
0.0
 10
99.3138849712
 20
198.0621568025
 30
0.0
 10
101.7977798025
 20
197.4176008635
 30
0.0
 10
105.2873792142
 20
196.031112267
 30
0.0
 10
107.7849342724
 20
194.5151969387
 30
0.0
 10
109.3946420604
 20
193.3493735112
 30
0.0
  0
SPLINE
  5
369
100
AcDbEntity
  8
0
100
AcDbSpline
 62
7
  6
CONTINUOUS
 70
0
 71
3
 72
9
 73
5
 74
0
 42
0.0000001
 43
0.0000001
 44
0.0000000001
 40
0.0
 40
0.0
 40
0.0
 40
0.0
 40
0.244511575
 40
1.0
 40
1.0
 40
1.0
 40
1.0
 10
109.3946420604
 20
193.3493735112
 30
0.0
 10
109.6790859423
 20
193.1433663441
 30
0.0
 10
110.8300084061
 20
192.2838032589
 30
0.0
 10
111.9315015503
 20
191.3585314911
 30
0.0
 10
112.7353903894
 20
190.6296064781
 30
0.0
  0
SPLINE
  5
36A
100
AcDbEntity
  8
0
100
AcDbSpline
 62
7
  6
CONTINUOUS
 70
0
 71
3
 72
11
 73
7
 74
0
 42
0.0000001
 43
0.0000001
 44
0.0000000001
 40
0.0
 40
0.0
 40
0.0
 40
0.0
 40
0.2621692059
 40
0.5215944471
 40
0.7699078263
 40
1.0
 40
1.0
 40
1.0
 40
1.0
 10
119.8812036345
 20
182.465225099
 30
0.0
 10
121.2434934614
 20
180.5258833368
 30
0.0
 10
123.7040989584
 20
176.4857436455
 30
0.0
 10
126.5452668445
 20
170.1110686495
 30
0.0
 10
128.4254276057
 20
163.6902504208
 30
0.0
 10
129.0030561311
 20
159.379721988
 30
0.0
 10
129.0814252308
 20
157.3011777605
 30
0.0
  0
SPLINE
  5
36B
100
AcDbEntity
  8
0
100
AcDbSpline
 62
7
  6
CONTINUOUS
 70
0
 71
3
 72
11
 73
7
 74
0
 42
0.0000001
 43
0.0000001
 44
0.0000000001
 40
0.0
 40
0.0
 40
0.0
 40
0.0
 40
0.2896413964
 40
0.5491107671
 40
0.7822355978
 40
1.0
 40
1.0
 40
1.0
 40
1.0
 10
205.4712362506
 20
190.7525244117
 30
0.0
 10
205.4712362506
 20
190.5752241561
 30
0.0
 10
205.4442865461
 20
190.2379571032
 30
0.0
 10
205.3077817348
 20
189.7745630122
 30
0.0
 10
205.0778398885
 20
189.398452809
 30
0.0
 10
204.8617290091
 20
189.2170246835
 30
0.0
 10
204.7463129829
 20
189.1503277702
 30
0.0
  0
SPLINE
  5
36C
100
AcDbEntity
  8
0
100
AcDbSpline
 62
7
  6
CONTINUOUS
 70
0
 71
3
 72
21
 73
17
 74
0
 42
0.0000001
 43
0.0000001
 44
0.0000000001
 40
0.0
 40
0.0
 40
0.0
 40
0.0
 40
0.0448367778
 40
0.0911093232
 40
0.1400324951
 40
0.192468534
 40
0.2488909258
 40
0.3093905233
 40
0.3737509777
 40
0.4415030634
 40
0.5841247339
 40
0.73024433
 40
0.8020648058
 40
0.87159649
 40
0.937866589
 40
1.0
 40
1.0
 40
1.0
 40
1.0
 10
93.7344106372
 20
198.5930753887
 30
0.0
 10
94.5638245536
 20
199.0719505057
 30
0.0
 10
96.3757544114
 20
199.8411223598
 30
0.0
 10
99.3507780453
 20
200.3348006519
 30
0.0
 10
102.522114698
 20
200.171174824
 30
0.0
 10
105.811113239
 20
199.358679703
 30
0.0
 10
109.1455823186
 20
197.9194447632
 30
0.0
 10
112.4549397424
 20
195.886797405
 30
0.0
 10
115.6716516368
 20
193.3061581082
 30
0.0
 10
119.8202825176
 20
189.1415622566
 30
0.0
 10
124.3478274262
 20
182.9601752274
 30
0.0
 10
127.7983365163
 20
176.033532457
 30
0.0
 10
129.836174419
 20
170.2345744942
 30
0.0
 10
130.94506326
 20
165.9342918159
 30
0.0
 10
131.6249364253
 20
161.7554188694
 30
0.0
 10
131.7907008197
 20
159.011167068
 30
0.0
 10
131.7907008197
 20
157.6839731487
 30
0.0
  0
SPLINE
  5
36D
100
AcDbEntity
  8
0
100
AcDbSpline
 62
7
  6
CONTINUOUS
 70
0
 71
3
 72
11
 73
7
 74
0
 42
0.0000001
 43
0.0000001
 44
0.0000000001
 40
0.0
 40
0.0
 40
0.0
 40
0.0
 40
0.2211373529
 40
0.4579099834
 40
0.7169726077
 40
1.0
 40
1.0
 40
1.0
 40
1.0
 10
83.9064516148
 20
224.1643883824
 30
0.0
 10
84.374921874
 20
224.4348319824
 30
0.0
 10
85.2599353454
 20
225.1527951845
 30
0.0
 10
86.2735810383
 20
226.6060919979
 30
0.0
 10
86.9812585501
 20
228.3897879825
 30
0.0
 10
87.2294631829
 20
229.7002264255
 30
0.0
 10
87.3057444111
 20
230.3883307133
 30
0.0
  0
SPLINE
  5
36E
100
AcDbEntity
  8
0
100
AcDbSpline
 62
7
  6
CONTINUOUS
 70
0
 71
3
 72
11
 73
7
 74
0
 42
0.0000001
 43
0.0000001
 44
0.0000000001
 40
0.0
 40
0.0
 40
0.0
 40
0.0
 40
0.2177660095
 40
0.4508968553
 40
0.7103699668
 40
1.0
 40
1.0
 40
1.0
 40
1.0
 10
207.2918813095
 20
190.6200159803
 30
0.0
 10
207.4072983234
 20
190.6867127715
 30
0.0
 10
207.6234227559
 20
190.8681321718
 30
0.0
 10
207.8533578177
 20
191.2442569051
 30
0.0
 10
207.9898603163
 20
191.7076481762
 30
0.0
 10
208.0168100645
 20
192.0449103185
 30
0.0
 10
208.0168100645
 20
192.2222033657
 30
0.0
  0
SPLINE
  5
36F
100
AcDbEntity
  8
0
100
AcDbSpline
 62
7
  6
CONTINUOUS
 70
0
 71
3
 72
15
 73
11
 74
0
 42
0.0000001
 43
0.0000001
 44
0.0000000001
 40
0.0
 40
0.0
 40
0.0
 40
0.0
 40
0.0869302718
 40
0.1864000368
 40
0.3037880336
 40
0.4376004358
 40
0.582099273
 40
0.7294176325
 40
0.8711704074
 40
1.0
 40
1.0
 40
1.0
 40
1.0
 10
201.2463914422
 20
195.212406335
 30
0.0
 10
201.4211734701
 20
195.3134098276
 30
0.0
 10
201.860450849
 20
195.4262099727
 30
0.0
 10
202.5674070078
 20
195.2846541661
 30
0.0
 10
203.2896947284
 20
194.8901340597
 30
0.0
 10
203.9822769989
 20
194.2768675539
 30
0.0
 10
204.593723821
 20
193.4941434989
 30
0.0
 10
205.0751656069
 20
192.604369322
 30
0.0
 10
205.3875322432
 20
191.6807475396
 30
0.0
 10
205.4712362506
 20
191.0516894705
 30
0.0
 10
205.4712362506
 20
190.7525244117
 30
0.0
  0
SPLINE
  5
370
100
AcDbEntity
  8
0
100
AcDbSpline
 62
7
  6
CONTINUOUS
 70
0
 71
3
 72
11
 73
7
 74
0
 42
0.0000001
 43
0.0000001
 44
0.0000000001
 40
0.0
 40
0.0
 40
0.0
 40
0.0
 40
0.2177660095
 40
0.4508968553
 40
0.7103699668
 40
1.0
 40
1.0
 40
1.0
 40
1.0
 10
207.2918813095
 20
118.7678032729
 30
0.0
 10
207.4072983234
 20
118.8345000641
 30
0.0
 10
207.6234227559
 20
119.0159194644
 30
0.0
 10
207.8533578177
 20
119.3920441977
 30
0.0
 10
207.9898603163
 20
119.8554354688
 30
0.0
 10
208.0168100645
 20
120.1926976111
 30
0.0
 10
208.0168100645
 20
120.3699906583
 30
0.0
  0
SPLINE
  5
371
100
AcDbEntity
  8
0
100
AcDbSpline
 62
7
  6
CONTINUOUS
 70
0
 71
3
 72
15
 73
11
 74
0
 42
0.0000001
 43
0.0000001
 44
0.0000000001
 40
0.0
 40
0.0
 40
0.0
 40
0.0
 40
0.0869302718
 40
0.1864000368
 40
0.3037880336
 40
0.4376004358
 40
0.582099273
 40
0.7294176325
 40
0.8711704074
 40
1.0
 40
1.0
 40
1.0
 40
1.0
 10
201.2463914422
 20
123.3601936275
 30
0.0
 10
201.4211734701
 20
123.4611971202
 30
0.0
 10
201.860450849
 20
123.5739972653
 30
0.0
 10
202.5674070078
 20
123.4324414587
 30
0.0
 10
203.2896947284
 20
123.0379213523
 30
0.0
 10
203.9822769989
 20
122.4246548465
 30
0.0
 10
204.593723821
 20
121.6419307915
 30
0.0
 10
205.0751656069
 20
120.7521566146
 30
0.0
 10
205.3875322432
 20
119.8285348322
 30
0.0
 10
205.4712362506
 20
119.1994767631
 30
0.0
 10
205.4712362506
 20
118.9003117043
 30
0.0
  0
SPLINE
  5
372
100
AcDbEntity
  8
0
100
AcDbSpline
 62
7
  6
CONTINUOUS
 70
0
 71
3
 72
9
 73
5
 74
0
 42
0.0000001
 43
0.0000001
 44
0.0000000001
 40
0.0
 40
0.0
 40
0.0
 40
0.0
 40
0.2446592086
 40
1.0
 40
1.0
 40
1.0
 40
1.0
 10
164.0849155294
 20
105.2241674531
 30
0.0
 10
163.8037229806
 20
108.0307826685
 30
0.0
 10
162.807247948
 20
119.5173363065
 30
0.0
 10
162.4085536849
 20
131.053909103
 30
0.0
 10
162.4085536849
 20
139.7622030054
 30
0.0
  0
SPLINE
  5
373
100
AcDbEntity
  8
0
100
AcDbSpline
 62
7
  6
CONTINUOUS
 70
0
 71
3
 72
9
 73
5
 74
0
 42
0.0000001
 43
0.0000001
 44
0.0000000001
 40
0.0
 40
0.0
 40
0.0
 40
0.0
 40
0.4905445993
 40
1.0
 40
1.0
 40
1.0
 40
1.0
 10
162.4085536849
 20
139.7622030054
 30
0.0
 10
162.4085536849
 20
148.9909282345
 30
0.0
 10
163.0978302116
 20
167.8087292732
 30
0.0
 10
165.0318263389
 20
186.5363893049
 30
0.0
 10
166.3048948331
 20
196.035963269
 30
0.0
  0
SPLINE
  5
374
100
AcDbEntity
  8
0
100
AcDbSpline
 62
7
  6
CONTINUOUS
 70
0
 71
3
 72
9
 73
5
 74
0
 42
0.0000001
 43
0.0000001
 44
0.0000000001
 40
0.0
 40
0.0
 40
0.0
 40
0.0
 40
0.509461815
 40
1.0
 40
1.0
 40
1.0
 40
1.0
 10
166.5199913294
 20
196.1601485478
 30
0.0
 10
165.2459722519
 20
186.6602448448
 30
0.0
 10
163.3105156216
 20
167.9320604671
 30
0.0
 10
162.6206848361
 20
149.1136009065
 30
0.0
 10
162.6206848361
 20
139.8846762516
 30
0.0
  0
SPLINE
  5
375
100
AcDbEntity
  8
0
100
AcDbSpline
 62
7
  6
CONTINUOUS
 70
0
 71
3
 72
9
 73
5
 74
0
 42
0.0000001
 43
0.0000001
 44
0.0000000001
 40
0.0
 40
0.0
 40
0.0
 40
0.0
 40
0.2554001171
 40
1.0
 40
1.0
 40
1.0
 40
1.0
 10
162.6206848361
 20
139.8846762516
 30
0.0
 10
162.6206848361
 20
136.9312947307
 30
0.0
 10
162.7566739073
 20
125.3681933324
 30
0.0
 10
163.4469410439
 20
113.8097125943
 30
0.0
 10
164.3088357122
 20
105.2425966188
 30
0.0
  0
SPLINE
  5
376
100
AcDbEntity
  8
0
100
AcDbSpline
 62
7
  6
CONTINUOUS
 70
0
 71
3
 72
9
 73
5
 74
0
 42
0.0000001
 43
0.0000001
 44
0.0000000001
 40
0.0
 40
0.0
 40
0.0
 40
0.0
 40
0.2529941858
 40
1.0
 40
1.0
 40
1.0
 40
1.0
 10
164.3088357122
 20
105.2425966188
 30
0.0
 10
164.4546576094
 20
103.7931467599
 30
0.0
 10
165.0705117562
 20
98.0680253337
 30
0.0
 10
165.8458846898
 20
92.3598933719
 30
0.0
 10
166.5199913294
 20
88.1117083863
 30
0.0
  0
SPLINE
  5
377
100
AcDbEntity
  8
0
100
AcDbSpline
 62
7
  6
CONTINUOUS
 70
0
 71
3
 72
11
 73
7
 74
0
 42
0.0000001
 43
0.0000001
 44
0.0000000001
 40
0.0
 40
0.0
 40
0.0
 40
0.0
 40
0.2830212628
 40
0.5420835925
 40
0.7788601563
 40
1.0
 40
1.0
 40
1.0
 40
1.0
 10
87.5198516885
 20
230.5119448697
 30
0.0
 10
87.443512365
 20
229.823808986
 30
0.0
 10
87.195212519
 20
228.5133002611
 30
0.0
 10
86.4873479784
 20
226.7295316348
 30
0.0
 10
85.4735839684
 20
225.2761382146
 30
0.0
 10
84.5884746951
 20
224.5581335279
 30
0.0
 10
84.119964302
 20
224.2876647443
 30
0.0
  0
SPLINE
  5
378
100
AcDbEntity
  8
0
100
AcDbSpline
 62
7
  6
CONTINUOUS
 70
0
 71
3
 72
9
 73
5
 74
0
 42
0.0000001
 43
0.0000001
 44
0.0000000001
 40
0.0
 40
0.0
 40
0.0
 40
0.0
 40
0.2438627139
 40
1.0
 40
1.0
 40
1.0
 40
1.0
 10
58.5356629277
 20
161.6680160518
 30
0.0
 10
58.1674035501
 20
164.8498203235
 30
0.0
 10
56.8598601119
 20
177.920383162
 30
0.0
 10
56.3420949129
 20
191.0667392829
 30
0.0
 10
56.3420949129
 20
200.9983161835
 30
0.0
  0
SPLINE
  5
379
100
AcDbEntity
  8
0
100
AcDbSpline
 62
7
  6
CONTINUOUS
 70
0
 71
3
 72
9
 73
5
 74
0
 42
0.0000001
 43
0.0000001
 44
0.0000000001
 40
0.0
 40
0.0
 40
0.0
 40
0.0
 40
0.2430140142
 40
1.0
 40
1.0
 40
1.0
 40
1.0
 10
56.3420949129
 20
200.9983161835
 30
0.0
 10
56.3420949129
 20
205.4854496834
 30
0.0
 10
56.6717462357
 20
223.9492691061
 30
0.0
 10
58.2754211898
 20
242.3838593726
 30
0.0
 10
60.1014708438
 20
256.2414370467
 30
0.0
  0
SPLINE
  5
37A
100
AcDbEntity
  8
0
100
AcDbSpline
 62
7
  6
CONTINUOUS
 70
0
 71
3
 72
9
 73
5
 74
0
 42
0.0000001
 43
0.0000001
 44
0.0000000001
 40
0.0
 40
0.0
 40
0.0
 40
0.0
 40
0.2569442541
 40
1.0
 40
1.0
 40
1.0
 40
1.0
 10
60.2854994311
 20
256.1303037736
 30
0.0
 10
59.6702525189
 20
251.4464053348
 30
0.0
 10
57.5505336124
 20
233.1829899856
 30
0.0
 10
56.554226064
 20
214.7824851962
 30
0.0
 10
56.554226064
 20
201.1207894297
 30
0.0
  0
SPLINE
  5
37B
100
AcDbEntity
  8
0
100
AcDbSpline
 62
7
  6
CONTINUOUS
 70
0
 71
3
 72
9
 73
5
 74
0
 42
0.0000001
 43
0.0000001
 44
0.0000000001
 40
0.0
 40
0.0
 40
0.0
 40
0.0
 40
0.2562037416
 40
1.0
 40
1.0
 40
1.0
 40
1.0
 10
56.554226064
 20
201.1207894297
 30
0.0
 10
56.554226064
 20
197.7567821923
 30
0.0
 10
56.7300797066
 20
184.6275861184
 30
0.0
 10
57.6247110063
 20
171.5047537076
 30
0.0
 10
58.748071408
 20
161.8033801575
 30
0.0
  0
SPLINE
  5
37C
100
AcDbEntity
  8
0
100
AcDbSpline
 62
7
  6
CONTINUOUS
 70
0
 71
3
 72
13
 73
9
 74
0
 42
0.0000001
 43
0.0000001
 44
0.0000000001
 40
0.0
 40
0.0
 40
0.0
 40
0.0
 40
0.2961436285
 40
0.4311640801
 40
0.5576263443
 40
0.7877912896
 40
0.8951521443
 40
1.0
 40
1.0
 40
1.0
 40
1.0
 10
131.7907008197
 20
157.6839731487
 30
0.0
 10
131.7907008197
 20
156.0740613867
 30
0.0
 10
131.6206588375
 20
153.720159293
 30
0.0
 10
130.9459831557
 20
150.7588168817
 30
0.0
 10
130.062104427
 20
148.233385884
 30
0.0
 10
128.7733294795
 20
146.0139310232
 30
0.0
 10
127.0764804189
 20
144.295156362
 30
0.0
 10
126.1278022175
 20
143.6257006443
 30
0.0
 10
125.6341892852
 20
143.3407043308
 30
0.0
  0
SPLINE
  5
37D
100
AcDbEntity
  8
0
100
AcDbSpline
 62
7
  6
CONTINUOUS
 70
0
 71
3
 72
12
 73
8
 74
0
 42
0.0000001
 43
0.0000001
 44
0.0000000001
 40
0.0
 40
0.0
 40
0.0
 40
0.0
 40
0.2895881949
 40
0.5486296998
 40
0.7816357326
 40
0.8918367762
 40
1.0
 40
1.0
 40
1.0
 40
1.0
 10
129.1037062382
 20
156.132645364
 30
0.0
 10
129.1037062382
 20
154.5157242794
 30
0.0
 10
128.8587767359
 20
151.4414587077
 30
0.0
 10
127.6155907185
 20
147.220039594
 30
0.0
 10
125.8293101978
 20
144.3074650801
 30
0.0
 10
124.0254491674
 20
142.5330602428
 30
0.0
 10
123.0198011218
 20
141.8313316436
 30
0.0
 10
122.4967803569
 20
141.5293674291
 30
0.0
  0
ENDSEC
  0
SECTION
  2
OBJECTS
  0
DICTIONARY
  5
C
100
AcDbDictionary
280
0
281
1
  3
ACAD_GROUP
350
D
  3
ACAD_MLINESTYLE
350
17
  3
ACAD_LAYOUT
350
1A
  3
ACAD_PLOTSETTINGS
350
19
  3
ACAD_PLOTSTYLENAME
350
E
  0
DICTIONARY
  5
D
102
{ACAD_REACTORS
330
C
102
}
100
AcDbDictionary
280
0
281
1
  0
ACDBDICTIONARYWDFLT
  5
E
102
{ACAD_REACTORS
330
C
102
}
100
AcDbDictionary
281
1
  3
Normal
350
F
100
AcDbDictionaryWithDefault
340
F
  0
DICTIONARY
  5
17
102
{ACAD_REACTORS
330
C
102
}
100
AcDbDictionary
280
0
281
1
  3
Standard
350
18
  0
DICTIONARY
  5
19
102
{ACAD_REACTORS
330
C
102
}
100
AcDbDictionary
281
1
  0
DICTIONARY
  5
1A
102
{ACAD_REACTORS
330
C
102
}
100
AcDbDictionary
281
1
  3
Model
350
37E
  3
Layout1
350
37F
  0
ACDBPLACEHOLDER
  5
F
102
{ACAD_REACTORS
330
E
102
}
  0
MLINESTYLE
  5
18
102
{ACAD_REACTORS
330
17
102
}
100
AcDbMlineStyle
  2
STANDARD
 70
0
  3

 62
256
 51
90.0
 52
90.0
 71
2
 49
0.5
 62
256
  6
BYLAYER
 49
-0.5
 62
256
  6
BYLAYER
  0
LAYOUT
  5
37E
102
{ACAD_REACTORS
330
1A
102
}
100
AcDbPlotSettings
  1

  2
none_device
  4

  6

 40
0.0
 41
0.0
 42
0.0
 43
0.0
 44
210.0
 45
297.0
 46
0.0
 47
0.0
 48
0.0
 49
0.0
140
0.0
141
0.0
142
1.0
143
1.0
 70
1024
 72
1
 73
0
 74
0
  7

 75
0
147
1.0
148
0.0
149
0.0
100
AcDbLayout
  1
Model
 70
0
 71
0
 10
0.0
 20
0.0
 11
210.0
 21
297.0
 12
0.0
 22
0.0
 32
0.0
 14
0.0
 24
0.0
 34
0.0
 15
0.0
 25
0.0
 35
0.0
146
0.0
 13
0.0
 23
0.0
 33
0.0
 16
1.0
 26
0.0
 36
0.0
 17
0.0
 27
1.0
 37
0.0
 76
0
330
212
345
0
346
0
  0
LAYOUT
  5
37F
102
{ACAD_REACTORS
330
1A
102
}
100
AcDbPlotSettings
  1

  2
none_device
  4

  6

 40
0.0
 41
0.0
 42
0.0
 43
0.0
 44
210.0
 45
297.0
 46
0.0
 47
0.0
 48
0.0
 49
0.0
140
0.0
141
0.0
142
1.0
143
1.0
 70
0
 72
1
 73
0
 74
0
  7

 75
0
147
1.0
148
0.0
149
0.0
100
AcDbLayout
  1
Layout1
 70
0
 71
1
 10
0.0
 20
0.0
 11
210.0
 21
297.0
 12
0.0
 22
0.0
 32
0.0
 14
0.0
 24
0.0
 34
0.0
 15
0.0
 25
0.0
 35
0.0
146
0.0
 13
0.0
 23
0.0
 33
0.0
 16
1.0
 26
0.0
 36
0.0
 17
0.0
 27
1.0
 37
0.0
 76
0
330
213
345
0
346
0
  0
ENDSEC
  0
EOF
