999
DXF file: C:\Users\sesa63760\Documents\7-Dev\_Creo\CAD\MCADFD0000952_3D-CAD\drw0001_1.dxf
999
Pro/ENGINEER 2019471 by Parametric Technology Corporation
  0
SECTION
  2
HEADER
  9
$ACADVER
  1
AC1024
  9
$DWGCODEPAGE
  3
ANSI_1252
  9
$EXTMAX
 10
98.7313464717
 20
139.6343328671
 30
0.0
  9
$EXTMIN
 10
0.0
 20
0.0
 30
0.0
  9
$LIMMIN
 10
0.0
 20
0.0
  9
$LIMMAX
 10
98.7313464717
 20
139.6343328671
  9
$VIEWCTR
 10
49.3656732359
 20
69.8171664336
  9
$VIEWSIZE
 40
139.6343328671
  9
$CLAYER
  8
0
  9
$LTSCALE
 40
9.1020898462
  9
$CELTYPE
  6
BYLAYER
  9
$DIMSCALE
 40
1.0
  9
$DIMASZ
 40
1.1753731723
  9
$DIMEXO
 40
1.0
  9
$DIMDLI
 40
6.288716621
  9
$DIMEXE
 40
1.0
  9
$DIMCEN
 40
1.4894328839
  9
$DIMLFAC
 40
1.0
  9
$DIMBLK
  1
_FILLED
  9
$DIMALT
 70
0
  9
$DIMALTF
 40
0.0393700787
  9
$DIMTXT
 40
1.6455224412
  9
$DIMTOL
 70
1
  9
$DIMLIM
 70
0
  9
$DIMTFAC
 40
1.0
  9
$DIMTP
 40
0.01
  9
$DIMTM
 40
0.01
  9
$DIMGAP
 40
0.625
  9
$DIMDSEP
 70
46
  9
$AUNITS
 70
0
  9
$PDMODE
 70
3
  9
$PDSIZE
 40
0.3125
  9
$HANDSEED
  5
34C
  9
$TILEMODE
 70
1
  9
$MEASUREMENT
 70
1
  9
$INSUNITS
 70
4
  0
ENDSEC
  0
SECTION
  2
CLASSES
  0
CLASS
  1
ACDBDICTIONARYWDFLT
  2
AcDbDictionaryWithDefault
  3
AutoCAD 2000
 90
0
 91
1
280
0
281
0
  0
CLASS
  1
ACDBPLACEHOLDER
  2
AcDbPlaceHolder
  3
AutoCAD 2000
 90
0
 91
1
280
0
281
0
  0
CLASS
  1
LAYOUT
  2
AcDbLayout
  3
AutoCAD 2000
 90
0
 91
0
280
0
281
0
  0
ENDSEC
  0
SECTION
  2
TABLES
  0
TABLE
  2
VPORT
  5
8
100
AcDbSymbolTable
 70
2
  0
VPORT
  5
1F4
100
AcDbSymbolTableRecord
100
AcDbViewportTableRecord
  2
*ACTIVE
 70
0
 10
0.0
 20
0.0
 11
1.0
 21
1.0
 12
49.3656732359
 22
69.8171664336
 13
0.0
 23
0.0
 14
1.0
 24
1.0
 15
0.0
 25
0.0
 16
0.0
 26
0.0
 36
1.0
 17
0.0
 27
0.0
 37
0.0
 40
139.6343328671
 41
0.7070707071
 42
50.0
 43
0.0
 44
0.0
 50
0.0
 51
0.0
 71
0
 72
100
 73
1
 74
1
 75
0
 76
0
 77
0
 78
0
  0
ENDTAB
  0
TABLE
  2
LTYPE
  5
5
100
AcDbSymbolTable
 70
6
  0
LTYPE
  5
14
100
AcDbSymbolTableRecord
100
AcDbLinetypeTableRecord
  2
BYBLOCK
 70
0
  3

 72
65
 73
0
 40
0.0
  0
LTYPE
  5
15
100
AcDbSymbolTableRecord
100
AcDbLinetypeTableRecord
  2
BYLAYER
 70
0
  3

 72
65
 73
0
 40
0.0
  0
LTYPE
  5
16
100
AcDbSymbolTableRecord
100
AcDbLinetypeTableRecord
  2
CONTINUOUS
 70
64
  3
Solid line
 72
65
 73
0
 40
0.0
  0
LTYPE
  5
1F5
100
AcDbSymbolTableRecord
100
AcDbLinetypeTableRecord
  2
CENTER
 70
64
  3
____ _ ____ _ ____ _ ____ _ ____ _ ____ _ ____
 72
65
 73
4
 40
0.6
 49
0.375
 74
0
 49
-0.075
 74
0
 49
0.075
 74
0
 49
-0.075
 74
0
  0
LTYPE
  5
1F6
100
AcDbSymbolTableRecord
100
AcDbLinetypeTableRecord
  2
HIDDEN
 70
64
  3
- - - - - - - - - - - - - - - - - - - -
 72
65
 73
2
 40
0.2
 49
0.1
 74
0
 49
-0.1
 74
0
  0
LTYPE
  5
1F7
100
AcDbSymbolTableRecord
100
AcDbLinetypeTableRecord
  2
PHANTOM
 70
64
  3
_____ _ _ _____ _ _ _____ _ _ _____
 72
65
 73
6
 40
0.8
 49
0.45
 74
0
 49
-0.05
 74
0
 49
0.1
 74
0
 49
-0.05
 74
0
 49
0.1
 74
0
 49
-0.05
 74
0
  0
LTYPE
  5
1F8
100
AcDbSymbolTableRecord
100
AcDbLinetypeTableRecord
  2
DOT
 70
64
  3
. . . . . . . . . . . . . . . . . . . .
 72
65
 73
2
 40
0.2
 49
0.1
 74
0
 49
-0.1
 74
0
  0
LTYPE
  5
1F9
100
AcDbSymbolTableRecord
100
AcDbLinetypeTableRecord
  2
DASHED
 70
64
  3
- - - - - - - - - - - - - - - - - - - -
 72
65
 73
2
 40
0.2
 49
0.1
 74
0
 49
-0.1
 74
0
  0
ENDTAB
  0
TABLE
  2
LAYER
  5
2
100
AcDbSymbolTable
 70
36
  0
LAYER
  5
10
100
AcDbSymbolTableRecord
100
AcDbLayerTableRecord
  2
0
 70
0
 62
7
  6
CONTINUOUS
370
-3
390
F
  0
LAYER
  5
1FA
100
AcDbSymbolTableRecord
100
AcDbLayerTableRecord
  2
DEFAULT_1
 70
0
 62
7
  6
CENTER
370
-3
390
F
  0
LAYER
  5
1FB
100
AcDbSymbolTableRecord
100
AcDbLayerTableRecord
  2
DEFAULT_2
 70
0
 62
8
  6
HIDDEN
370
-3
390
F
  0
LAYER
  5
1FC
100
AcDbSymbolTableRecord
100
AcDbLayerTableRecord
  2
DEFAULT_3
 70
0
 62
7
  6
PHANTOM
370
-3
390
F
  0
LAYER
  5
1FD
100
AcDbSymbolTableRecord
100
AcDbLayerTableRecord
  2
00_COMPONENTS
 70
0
 62
7
  6
CONTINUOUS
370
-3
390
F
  0
LAYER
  5
1FE
100
AcDbSymbolTableRecord
100
AcDbLayerTableRecord
  2
01_1_DEFAULT_DATUMS
 70
0
 62
7
  6
CONTINUOUS
370
-3
390
F
  0
LAYER
  5
1FF
100
AcDbSymbolTableRecord
100
AcDbLayerTableRecord
  2
01_PLANES
 70
0
 62
7
  6
CONTINUOUS
370
-3
390
F
  0
LAYER
  5
200
100
AcDbSymbolTableRecord
100
AcDbLayerTableRecord
  2
02_COORD_SYS
 70
0
 62
7
  6
CONTINUOUS
370
-3
390
F
  0
LAYER
  5
201
100
AcDbSymbolTableRecord
100
AcDbLayerTableRecord
  2
03_AXES
 70
0
 62
7
  6
CONTINUOUS
370
-3
390
F
  0
LAYER
  5
202
100
AcDbSymbolTableRecord
100
AcDbLayerTableRecord
  2
04_POINTS
 70
0
 62
7
  6
CONTINUOUS
370
-3
390
F
  0
LAYER
  5
203
100
AcDbSymbolTableRecord
100
AcDbLayerTableRecord
  2
05_CURVES
 70
0
 62
7
  6
CONTINUOUS
370
-3
390
F
  0
LAYER
  5
204
100
AcDbSymbolTableRecord
100
AcDbLayerTableRecord
  2
06_SURFS
 70
0
 62
7
  6
CONTINUOUS
370
-3
390
F
  0
LAYER
  5
205
100
AcDbSymbolTableRecord
100
AcDbLayerTableRecord
  2
07_COSMETICS
 70
0
 62
7
  6
CONTINUOUS
370
-3
390
F
  0
LAYER
  5
206
100
AcDbSymbolTableRecord
100
AcDbLayerTableRecord
  2
10_NOTES
 70
0
 62
7
  6
CONTINUOUS
370
-3
390
F
  0
LAYER
  5
207
100
AcDbSymbolTableRecord
100
AcDbLayerTableRecord
  2
11_NOTES_PUB
 70
0
 62
7
  6
CONTINUOUS
370
-3
390
F
  0
LAYER
  5
208
100
AcDbSymbolTableRecord
100
AcDbLayerTableRecord
  2
13_REF_GTOL
 70
0
 62
7
  6
CONTINUOUS
370
-3
390
F
  0
LAYER
  5
209
100
AcDbSymbolTableRecord
100
AcDbLayerTableRecord
  2
16_MISC
 70
0
 62
7
  6
CONTINUOUS
370
-3
390
F
  0
LAYER
  5
20A
100
AcDbSymbolTableRecord
100
AcDbLayerTableRecord
  2
17_NO_PRINT
 70
0
 62
7
  6
CONTINUOUS
370
-3
390
F
  0
LAYER
  5
20B
100
AcDbSymbolTableRecord
100
AcDbLayerTableRecord
  2
18_DATUM_CAMS_JOINTS
 70
0
 62
7
  6
CONTINUOUS
370
-3
390
F
  0
LAYER
  5
20C
100
AcDbSymbolTableRecord
100
AcDbLayerTableRecord
  2
19_DATUM_FUNCTIONAL
 70
0
 62
7
  6
CONTINUOUS
370
-3
390
F
  0
LAYER
  5
20D
100
AcDbSymbolTableRecord
100
AcDbLayerTableRecord
  2
20_DATUM_KINEMATIC_SCHEME
 70
0
 62
7
  6
CONTINUOUS
370
-3
390
F
  0
ENDTAB
  0
TABLE
  2
STYLE
  5
3
100
AcDbSymbolTable
 70
1
  0
STYLE
  5
11
100
AcDbSymbolTableRecord
100
AcDbTextStyleTableRecord
  2
STANDARD
 70
0
 40
0.0
 41
0.8
 50
0.0
 71
0
 42
0.2
  3
txt
  4

  0
STYLE
  5
20E
100
AcDbSymbolTableRecord
100
AcDbTextStyleTableRecord
  2
TEXTSTYLE_1
 70
0
 40
0.0
 41
0.8
 50
0.0
 71
0
 42
0.2
  3
gdt
  4

  0
ENDTAB
  0
TABLE
  2
VIEW
  5
6
100
AcDbSymbolTable
 70
0
  0
ENDTAB
  0
TABLE
  2
UCS
  5
7
100
AcDbSymbolTable
 70
0
  0
ENDTAB
  0
TABLE
  2
APPID
  5
9
100
AcDbSymbolTable
 70
1
  0
APPID
  5
20F
100
AcDbSymbolTableRecord
100
AcDbRegAppTableRecord
  2
ACAD
 70
0
  0
ENDTAB
  0
TABLE
  2
BLOCK_RECORD
  5
1
100
AcDbSymbolTable
 70
0
  0
BLOCK_RECORD
  5
210
100
AcDbSymbolTableRecord
100
AcDbBlockTableRecord
  2
*Model_Space
  0
BLOCK_RECORD
  5
211
100
AcDbSymbolTableRecord
100
AcDbBlockTableRecord
  2
*Paper_Space
  0
BLOCK_RECORD
  5
212
100
AcDbSymbolTableRecord
100
AcDbBlockTableRecord
  2
_FILLED
  0
ENDTAB
  0
TABLE
  2
DIMSTYLE
  5
A
100
AcDbSymbolTable
 70
1
100
AcDbDimStyleTable
 71
0
  0
DIMSTYLE
105
213
100
AcDbSymbolTableRecord
100
AcDbDimStyleTableRecord
  2
STANDARD
 70
0
  3

  4

 40
1.0
 41
1.1753731723
 42
1.0
 43
0.38
 44
1.0
 45
0.0
 46
0.0
 47
0.01
 48
0.01
140
1.6455224412
141
0.09
142
0.0
143
25.4
144
1.0
145
0.0
146
1.0
147
0.625
 71
1
 72
0
 73
0
 74
0
 75
0
 76
0
 77
1
 78
8
 79
2
170
0
171
1
172
0
173
0
174
0
175
0
176
0
177
0
178
0
270
2
179
2
271
2
272
2
273
2
274
2
275
0
280
0
281
0
282
0
283
1
284
8
285
0
286
0
287
3
288
0
340
11
278
46
341
212
342
212
343
212
344
212
  0
ENDTAB
  0
ENDSEC
  0
SECTION
  2
BLOCKS
  0
BLOCK
  5
20
100
AcDbEntity
  8
0
100
AcDbBlockBegin
  2
*Model_Space
 70
0
 10
0.0
 20
0.0
 30
0.0
  3
*Model_Space
  1

  0
ENDBLK
  5
21
100
AcDbEntity
  8
0
100
AcDbBlockEnd
  0
BLOCK
  5
1C
100
AcDbEntity
  8
0
100
AcDbBlockBegin
  2
*Paper_Space
 70
0
 10
0.0
 20
0.0
 30
0.0
  3
*Paper_Space
  1

  0
ENDBLK
  5
1D
100
AcDbEntity
  8
0
100
AcDbBlockEnd
  0
BLOCK
  5
214
100
AcDbEntity
  8
0
100
AcDbBlockBegin
  2
_FILLED
 70
64
 10
0.0
 20
0.0
  3
_FILLED
  1

  0
SOLID
  5
215
100
AcDbEntity
  8
0
  6
BYBLOCK
 62
0
100
AcDbTrace
 10
0.0
 20
0.0
 11
-1.0
 21
0.25
 12
-1.0
 22
-0.25
 13
-1.0
 23
-0.25
  0
ENDBLK
  5
216
100
AcDbEntity
  8
0
  6
BYBLOCK
 62
0
100
AcDbBlockEnd
  0
ENDSEC
  0
SECTION
  2
ENTITIES
  0
LINE
  5
217
100
AcDbEntity
  8
0
100
AcDbLine
 62
7
  6
CONTINUOUS
 10
23.4040419233
 20
33.9754013106
 11
11.6660204858
 21
40.7521978356
  0
LINE
  5
218
100
AcDbEntity
  8
0
100
AcDbLine
 62
7
  6
CONTINUOUS
 10
23.9515944342
 20
33.7745859803
 11
31.6590904383
 21
29.324761756
  0
LINE
  5
219
100
AcDbEntity
  8
0
100
AcDbLine
 62
7
  6
CONTINUOUS
 10
11.5095850637
 20
41.0060993618
 11
23.2476065011
 21
34.2293028368
  0
LINE
  5
21A
100
AcDbEntity
  8
0
100
AcDbLine
 62
7
  6
CONTINUOUS
 10
31.5026550192
 20
29.578663275
 11
23.7951590151
 21
34.0284874993
  0
LINE
  5
21B
100
AcDbEntity
  8
0
100
AcDbLine
 62
7
  6
CONTINUOUS
 10
24.8364784661
 20
34.7412020204
 11
23.7758138784
 21
35.3535631522
  0
LINE
  5
21C
100
AcDbEntity
  8
0
100
AcDbLine
 62
7
  6
CONTINUOUS
 10
54.8900579367
 20
17.7778069358
 11
33.4976527694
 21
30.1284384091
  0
LINE
  5
21D
100
AcDbEntity
  8
0
100
AcDbLine
 62
7
  6
CONTINUOUS
 10
64.2388313658
 20
122.1972654584
 11
60.9154433309
 21
120.4958788479
  0
LINE
  5
21E
100
AcDbEntity
  8
0
100
AcDbLine
 62
7
  6
CONTINUOUS
 10
35.2135571432
 20
33.6194991993
 11
35.2169904176
 21
33.6181696295
  0
LINE
  5
21F
100
AcDbEntity
  8
0
100
AcDbLine
 62
7
  6
CONTINUOUS
 10
35.1937133211
 20
33.5817625083
 11
35.197098101
 21
33.5803107863
  0
LINE
  5
220
100
AcDbEntity
  8
0
100
AcDbLine
 62
7
  6
CONTINUOUS
 10
21.6789032324
 20
38.8017147173
 11
23.8002324079
 21
37.5769924537
  0
LINE
  5
221
100
AcDbEntity
  8
0
100
AcDbLine
 62
7
  6
CONTINUOUS
 10
22.422269611
 20
38.9851697804
 11
24.4902325923
 21
37.7912578064
  0
LINE
  5
222
100
AcDbEntity
  8
0
100
AcDbLine
 62
7
  6
CONTINUOUS
 10
21.691245529
 20
39.5017196198
 11
25.5803490173
 21
37.25639547
  0
LINE
  5
223
100
AcDbEntity
  8
0
100
AcDbLine
 62
7
  6
CONTINUOUS
 10
25.6792914327
 20
37.3239499507
 11
32.3261228491
 21
33.4864868582
  0
LINE
  5
224
100
AcDbEntity
  8
0
100
AcDbLine
 62
7
  6
CONTINUOUS
 10
42.4965767377
 20
27.687370459
 11
35.133726282
 21
31.9382179845
  0
LINE
  5
225
100
AcDbEntity
  8
0
100
AcDbLine
 62
7
  6
CONTINUOUS
 10
12.6230864966
 20
45.419920692
 11
21.9416892825
 21
40.0399445765
  0
LINE
  5
226
100
AcDbEntity
  8
0
100
AcDbLine
 62
7
  6
CONTINUOUS
 10
22.145056417
 20
40.4769978695
 11
26.0341599053
 21
38.2316737197
  0
LINE
  5
227
100
AcDbEntity
  8
0
100
AcDbLine
 62
7
  6
CONTINUOUS
 10
13.0711861981
 20
46.1439717743
 11
22.3566879241
 21
40.7831061322
  0
LINE
  5
228
100
AcDbEntity
  8
0
100
AcDbLine
 62
7
  6
CONTINUOUS
 10
33.063680295
 20
34.7151803432
 11
26.4168488786
 21
38.5526434357
  0
LINE
  5
229
100
AcDbEntity
  8
0
100
AcDbLine
 62
7
  6
CONTINUOUS
 10
35.8909295282
 20
33.3571799741
 11
35.2753994215
 21
33.7125484073
  0
LINE
  5
22A
100
AcDbEntity
  8
0
100
AcDbLine
 62
7
  6
CONTINUOUS
 10
33.4348873943
 20
35.092646893
 11
26.7880559779
 21
38.9301099855
  0
LINE
  5
22B
100
AcDbEntity
  8
0
100
AcDbLine
 62
7
  6
CONTINUOUS
 10
26.6603260366
 20
39.1373735811
 11
25.5996614489
 21
39.7497347129
  0
LINE
  5
22C
100
AcDbEntity
  8
0
100
AcDbLine
 62
7
  6
CONTINUOUS
 10
23.8002324079
 20
37.5769924537
 11
24.2799778425
 21
37.2379989497
  0
LINE
  5
22D
100
AcDbEntity
  8
0
100
AcDbLine
 62
7
  6
CONTINUOUS
 10
21.691245529
 20
39.5017196198
 11
22.422269611
 21
38.9851697804
  0
LINE
  5
22E
100
AcDbEntity
  8
0
100
AcDbLine
 62
7
  6
CONTINUOUS
 10
33.063680295
 20
34.7151803432
 11
33.1107812667
 21
34.6818982676
  0
LINE
  5
22F
100
AcDbEntity
  8
0
100
AcDbLine
 62
7
  6
CONTINUOUS
 10
35.6640922774
 20
32.8777000329
 11
35.7115591462
 21
32.8441594103
  0
LINE
  5
230
100
AcDbEntity
  8
0
100
AcDbLine
 62
7
  6
CONTINUOUS
 10
16.0012302122
 20
55.063224165
 11
16.0190490146
 21
54.734533202
  0
LINE
  5
231
100
AcDbEntity
  8
0
100
AcDbLine
 62
7
  6
CONTINUOUS
 10
16.0031311708
 20
55.0644520518
 11
16.0190490146
 21
54.734533202
  0
LINE
  5
232
100
AcDbEntity
  8
0
100
AcDbLine
 62
7
  6
CONTINUOUS
 10
29.7169517214
 20
101.5505827693
 11
60.9154433309
 21
119.5629327791
  0
LINE
  5
233
100
AcDbEntity
  8
0
100
AcDbLine
 62
7
  6
CONTINUOUS
 10
61.3439723589
 20
118.9938543683
 11
60.4558137456
 21
118.4810788146
  0
LINE
  5
234
100
AcDbEntity
  8
0
100
AcDbLine
 62
7
  6
CONTINUOUS
 10
61.8874810009
 20
118.6800666063
 11
60.9993223876
 21
118.1672910527
  0
LINE
  5
235
100
AcDbEntity
  8
0
100
AcDbLine
 62
7
  6
CONTINUOUS
 10
50.2028225179
 20
111.9083341758
 11
50.3938035821
 21
112.0185964865
  0
LINE
  5
236
100
AcDbEntity
  8
0
100
AcDbLine
 62
7
  6
CONTINUOUS
 10
61.2336350751
 20
118.0320136199
 11
61.943612847
 21
118.4419170308
  0
LINE
  5
237
100
AcDbEntity
  8
0
100
AcDbLine
 62
7
  6
CONTINUOUS
 10
38.3712256181
 20
33.6782295532
 11
36.7931291477
 21
33.8711712376
  0
LINE
  5
238
100
AcDbEntity
  8
0
100
AcDbLine
 62
7
  6
CONTINUOUS
 10
25.7050838463
 20
39.9022198857
 11
22.8766449457
 21
41.5351829038
  0
LINE
  5
239
100
AcDbEntity
  8
0
100
AcDbLine
 62
7
  6
CONTINUOUS
 10
27.7097287502
 20
38.7828848479
 11
26.4885702627
 21
39.4879050797
  0
LINE
  5
23A
100
AcDbEntity
  8
0
100
AcDbLine
 62
7
  6
CONTINUOUS
 10
14.0803652824
 20
46.8961248614
 11
23.3428200523
 21
41.5485650846
  0
LINE
  5
23B
100
AcDbEntity
  8
0
100
AcDbLine
 62
7
  6
CONTINUOUS
 10
23.5402846123
 20
41.5542335693
 11
26.3687235129
 21
39.9212705512
  0
LINE
  5
23C
100
AcDbEntity
  8
0
100
AcDbLine
 62
7
  6
CONTINUOUS
 10
23.181190166
 20
46.1478613111
 11
18.8557657799
 21
48.6450897499
  0
LINE
  5
23D
100
AcDbEntity
  8
0
100
AcDbLine
 62
7
  6
CONTINUOUS
 10
26.3687235129
 20
39.9212705512
 11
26.6148976716
 21
39.7473211215
  0
LINE
  5
23E
100
AcDbEntity
  8
0
100
AcDbLine
 62
7
  6
CONTINUOUS
 10
14.4598866926
 20
62.8579762813
 11
14.501311326
 21
62.766422809
  0
LINE
  5
23F
100
AcDbEntity
  8
0
100
AcDbLine
 62
7
  6
CONTINUOUS
 10
64.9425139023
 20
116.9482111428
 11
64.887086813
 21
116.9162104889
  0
LINE
  5
240
100
AcDbEntity
  8
0
100
AcDbLine
 62
7
  6
CONTINUOUS
 10
65.4805746582
 20
116.6056399458
 11
64.5924160449
 21
116.0928643922
  0
LINE
  5
241
100
AcDbEntity
  8
0
100
AcDbLine
 62
7
  6
CONTINUOUS
 10
54.2254513134
 20
109.821702767
 11
53.9505632504
 21
109.6629970172
  0
LINE
  5
242
100
AcDbEntity
  8
0
100
AcDbLine
 62
7
  6
CONTINUOUS
 10
52.6070281941
 20
106.3562569594
 11
52.8757596251
 21
106.5114081973
  0
LINE
  5
243
100
AcDbEntity
  8
0
100
AcDbLine
 62
7
  6
CONTINUOUS
 10
68.9764941976
 20
115.8419342464
 11
72.2998822325
 21
117.5433208569
  0
LINE
  5
244
100
AcDbEntity
  8
0
100
AcDbLine
 62
7
  6
CONTINUOUS
 10
70.1026810086
 20
115.1465814462
 11
68.9764941976
 21
114.5873155193
  0
LINE
  5
245
100
AcDbEntity
  8
0
100
AcDbLine
 62
7
  6
CONTINUOUS
 10
34.8291331363
 20
39.7205872123
 11
31.4369436907
 21
41.6790243961
  0
LINE
  5
246
100
AcDbEntity
  8
0
100
AcDbLine
 62
7
  6
CONTINUOUS
 10
49.397704944
 20
31.6717149032
 11
51.5291187023
 21
30.4411704347
  0
LINE
  5
247
100
AcDbEntity
  8
0
100
AcDbLine
 62
7
  6
CONTINUOUS
 10
51.5008133931
 20
31.5875333439
 11
50.3763460014
 21
32.2367302085
  0
LINE
  5
248
100
AcDbEntity
  8
0
100
AcDbLine
 62
7
  6
CONTINUOUS
 10
50.6212702213
 20
32.3781364287
 11
51.4956956126
 21
31.8732981146
  0
LINE
  5
249
100
AcDbEntity
  8
0
100
AcDbLine
 62
7
  6
CONTINUOUS
 10
52.5364182978
 20
33.483841086
 11
53.9506621866
 21
32.6673454678
  0
LINE
  5
24A
100
AcDbEntity
  8
0
100
AcDbLine
 62
7
  6
CONTINUOUS
 10
68.4815195332
 20
113.8475402423
 11
68.5993691274
 21
113.9155803311
  0
LINE
  5
24B
100
AcDbEntity
  8
0
100
AcDbLine
 62
7
  6
CONTINUOUS
 10
70.0046576041
 20
113.7879830113
 11
72.2998822325
 21
115.1131236583
  0
LINE
  5
24C
100
AcDbEntity
  8
0
100
AcDbLine
 62
7
  6
CONTINUOUS
 10
70.708905392
 20
112.5615875093
 11
73.0069919576
 21
113.8883804867
  0
LINE
  5
24D
100
AcDbEntity
  8
0
100
AcDbLine
 62
7
  6
CONTINUOUS
 10
56.6941362627
 20
104.30691729
 11
56.4254048317
 21
104.151766052
  0
LINE
  5
24E
100
AcDbEntity
  8
0
100
AcDbLine
 62
7
  6
CONTINUOUS
 10
73.8908779025
 20
113.5822016657
 11
71.4160144722
 21
112.1533471271
  0
LINE
  5
24F
100
AcDbEntity
  8
0
100
AcDbLine
 62
7
  6
CONTINUOUS
 10
88.5280398263
 20
48.384672023
 11
88.8108813612
 21
48.4290966541
  0
LINE
  5
250
100
AcDbEntity
  8
0
100
AcDbLine
 62
7
  6
CONTINUOUS
 10
25.7050838463
 20
39.9022198857
 11
26.3687235129
 21
39.9212705512
  0
LINE
  5
251
100
AcDbEntity
  8
0
100
AcDbLine
 62
7
  6
CONTINUOUS
 10
23.5402846123
 20
41.5542335693
 11
22.8766449457
 21
41.5351829038
  0
LINE
  5
252
100
AcDbEntity
  8
0
100
AcDbLine
 62
7
  6
CONTINUOUS
 10
39.8515122546
 20
46.164560103
 11
14.6784060394
 21
60.6979309639
  0
LINE
  5
253
100
AcDbEntity
  8
0
100
AcDbLine
 62
7
  6
CONTINUOUS
 10
15.2225130526
 20
77.7387694445
 11
18.1002880294
 21
79.4118432103
  0
LINE
  5
254
100
AcDbEntity
  8
0
100
AcDbLine
 62
7
  6
CONTINUOUS
 10
67.1733973709
 20
108.8873972759
 11
55.8597359755
 21
102.3554908139
  0
LINE
  5
255
100
AcDbEntity
  8
0
100
AcDbLine
 62
7
  6
CONTINUOUS
 10
18.1002880294
 20
79.4118432103
 11
28.7775559713
 21
85.5763299338
  0
LINE
  5
256
100
AcDbEntity
  8
0
100
AcDbLine
 62
7
  6
CONTINUOUS
 10
40.9885064302
 20
46.1726933138
 11
39.8515122547
 21
46.164560103
  0
LINE
  5
257
100
AcDbEntity
  8
0
100
AcDbLine
 62
7
  6
CONTINUOUS
 10
14.5013091567
 20
62.7664190517
 11
39.674415372
 21
48.2330481908
  0
LINE
  5
258
100
AcDbEntity
  8
0
100
AcDbLine
 62
7
  6
CONTINUOUS
 10
14.60130746
 20
63.1029255955
 11
39.7744136753
 21
48.5695547345
  0
LINE
  5
259
100
AcDbEntity
  8
0
100
AcDbLine
 62
7
  6
CONTINUOUS
 10
39.845124059
 20
48.6103791499
 11
14.6720178438
 21
63.1437500108
  0
LINE
  5
25A
100
AcDbEntity
  8
0
100
AcDbLine
 62
7
  6
CONTINUOUS
 10
30.5935197284
 20
62.1687195922
 11
30.5935197284
 21
64.6747338417
  0
LINE
  5
25B
100
AcDbEntity
  8
0
100
AcDbLine
 62
7
  6
CONTINUOUS
 10
32.2859137752
 20
62.8417871581
 11
32.2859137752
 21
62.3518857078
  0
LINE
  5
25C
100
AcDbEntity
  8
0
100
AcDbLine
 62
7
  6
CONTINUOUS
 10
32.5076763526
 20
62.4799196273
 11
32.5076763526
 21
62.6905452987
  0
LINE
  5
25D
100
AcDbEntity
  8
0
100
AcDbLine
 62
7
  6
CONTINUOUS
 10
33.083740727
 20
61.8327225944
 11
33.083740727
 21
60.526318727
  0
LINE
  5
25E
100
AcDbEntity
  8
0
100
AcDbLine
 62
7
  6
CONTINUOUS
 10
33.3562080227
 20
60.6836268545
 11
33.3562080227
 21
61.9900307219
  0
LINE
  5
25F
100
AcDbEntity
  8
0
100
AcDbLine
 62
7
  6
CONTINUOUS
 10
13.0711861981
 20
46.1439717743
 11
12.6230864966
 21
45.419920692
  0
LINE
  5
260
100
AcDbEntity
  8
0
100
AcDbLine
 62
7
  6
CONTINUOUS
 10
73.2545410071
 20
105.376526787
 11
61.9408796117
 21
98.8446203251
  0
LINE
  5
261
100
AcDbEntity
  8
0
100
AcDbLine
 62
7
  6
CONTINUOUS
 10
62.6479893369
 20
98.4363795705
 11
73.9616507323
 21
104.9682860325
  0
LINE
  5
262
100
AcDbEntity
  8
0
100
AcDbLine
 62
7
  6
CONTINUOUS
 10
39.7744136753
 20
48.2429537677
 11
39.6744175412
 21
48.2330519481
  0
LINE
  5
263
100
AcDbEntity
  8
0
100
AcDbLine
 62
7
  6
CONTINUOUS
 10
30.2403331291
 20
62.0281571979
 11
31.6309008455
 21
61.2253307149
  0
LINE
  5
264
100
AcDbEntity
  8
0
100
AcDbLine
 62
7
  6
CONTINUOUS
 10
35.3056867922
 20
59.1037400561
 11
37.0285864905
 21
58.1090459545
  0
LINE
  5
265
100
AcDbEntity
  8
0
100
AcDbLine
 62
7
  6
CONTINUOUS
 10
39.6744175412
 20
48.2330519481
 11
39.6329929078
 21
48.3246054203
  0
LINE
  5
266
100
AcDbEntity
  8
0
100
AcDbLine
 62
7
  6
CONTINUOUS
 10
33.5080065613
 20
60.2813742738
 11
33.5080065613
 21
61.5877781412
  0
LINE
  5
267
100
AcDbEntity
  8
0
100
AcDbLine
 62
7
  6
CONTINUOUS
 10
34.4072429467
 20
61.127163442
 11
34.4072429467
 21
61.6170648923
  0
LINE
  5
268
100
AcDbEntity
  8
0
100
AcDbLine
 62
7
  6
CONTINUOUS
 10
36.9674244941
 20
60.9948414597
 11
36.9674244941
 21
58.4888272102
  0
LINE
  5
269
100
AcDbEntity
  8
0
100
AcDbLine
 62
7
  6
CONTINUOUS
 10
22.145056417
 20
40.4769978696
 11
21.691245529
 21
39.5017196198
  0
LINE
  5
26A
100
AcDbEntity
  8
0
100
AcDbLine
 62
7
  6
CONTINUOUS
 10
18.8557657799
 20
48.6450897499
 11
16.8012075215
 21
45.3252813994
  0
LINE
  5
26B
100
AcDbEntity
  8
0
100
AcDbLine
 62
7
  6
CONTINUOUS
 10
67.7745348442
 20
95.4766341003
 11
79.0881962396
 21
102.0085405622
  0
LINE
  5
26C
100
AcDbEntity
  8
0
100
AcDbLine
 62
7
  6
CONTINUOUS
 10
33.5080065613
 20
60.59598791
 11
33.3562080227
 21
60.6836268545
  0
LINE
  5
26D
100
AcDbEntity
  8
0
100
AcDbLine
 62
7
  6
CONTINUOUS
 10
34.4072429467
 20
61.3832291533
 11
33.7804738578
 21
61.7450862692
  0
LINE
  5
26E
100
AcDbEntity
  8
0
100
AcDbLine
 62
7
  6
CONTINUOUS
 10
33.3562080227
 20
61.9900307219
 11
32.5076763526
 21
62.4799196273
  0
LINE
  5
26F
100
AcDbEntity
  8
0
100
AcDbLine
 62
7
  6
CONTINUOUS
 10
37.1663921242
 20
61.0463660593
 11
30.3781387628
 21
64.9654773027
  0
LINE
  5
270
100
AcDbEntity
  8
0
100
AcDbLine
 62
7
  6
CONTINUOUS
 10
25.5803490172
 20
37.2563954699
 11
26.0341599053
 21
38.2316737197
  0
LINE
  5
271
100
AcDbEntity
  8
0
100
AcDbLine
 62
7
  6
CONTINUOUS
 10
54.8900579367
 20
87.0172119084
 11
88.8108813612
 21
106.6012915425
  0
LINE
  5
272
100
AcDbEntity
  8
0
100
AcDbLine
 62
7
  6
CONTINUOUS
 10
14.60130746
 20
63.1029255955
 11
14.6720178438
 21
63.1437500108
  0
LINE
  5
273
100
AcDbEntity
  8
0
100
AcDbLine
 62
7
  6
CONTINUOUS
 10
15.2225130526
 20
77.7387694445
 11
40.3956192678
 21
63.2053985836
  0
LINE
  5
274
100
AcDbEntity
  8
0
100
AcDbLine
 62
7
  6
CONTINUOUS
 10
26.6148976716
 20
39.7473211215
 11
26.3930233201
 21
39.2916973851
  0
LINE
  5
275
100
AcDbEntity
  8
0
100
AcDbLine
 62
7
  6
CONTINUOUS
 10
26.4168488786
 20
38.5526434357
 11
25.6792914327
 21
37.3239499507
  0
LINE
  5
276
100
AcDbEntity
  8
0
100
AcDbLine
 62
7
  6
CONTINUOUS
 10
23.4882168993
 20
41.5527388958
 11
24.062948273
 21
42.4814047079
  0
LINE
  5
277
100
AcDbEntity
  8
0
100
AcDbLine
 62
7
  6
CONTINUOUS
 10
22.7615871326
 20
38.7892691498
 11
22.482251709
 21
38.3379117507
  0
LINE
  5
278
100
AcDbEntity
  8
0
100
AcDbLine
 62
7
  6
CONTINUOUS
 10
25.5537078028
 20
41.2663811554
 11
25.1549359444
 21
40.6220352772
  0
LINE
  5
279
100
AcDbEntity
  8
0
100
AcDbLine
 62
7
  6
CONTINUOUS
 10
22.8766449457
 20
41.5351829038
 11
22.145056417
 21
40.4769978696
  0
LINE
  5
27A
100
AcDbEntity
  8
0
100
AcDbLine
 62
7
  6
CONTINUOUS
 10
30.5935197284
 20
64.6747338417
 11
30.7219220303
 21
64.7669984308
  0
LINE
  5
27B
100
AcDbEntity
  8
0
100
AcDbLine
 62
7
  6
CONTINUOUS
 10
43.2733942446
 20
64.8784723494
 11
18.1002880294
 21
79.4118432103
  0
LINE
  5
27C
100
AcDbEntity
  8
0
100
AcDbLine
 62
7
  6
CONTINUOUS
 10
50.2028225179
 20
111.9083341758
 11
50.2028284058
 21
111.0918604455
  0
LINE
  5
27D
100
AcDbEntity
  8
0
100
AcDbLine
 62
7
  6
CONTINUOUS
 10
50.3938035821
 20
110.9816033704
 11
50.3938035821
 21
112.0185964865
  0
LINE
  5
27E
100
AcDbEntity
  8
0
100
AcDbLine
 62
7
  6
CONTINUOUS
 10
27.5342329769
 20
38.4993142402
 11
27.7097287502
 21
38.7828848479
  0
LINE
  5
27F
100
AcDbEntity
  8
0
100
AcDbLine
 62
7
  6
CONTINUOUS
 10
31.4369436907
 20
41.6790243961
 11
28.9597497272
 21
37.6763103795
  0
LINE
  5
280
100
AcDbEntity
  8
0
100
AcDbLine
 62
7
  6
CONTINUOUS
 10
25.5996614489
 20
39.7497347129
 11
25.7050838463
 21
39.9022198857
  0
LINE
  5
281
100
AcDbEntity
  8
0
100
AcDbLine
 62
7
  6
CONTINUOUS
 10
26.0341599053
 20
38.2316737197
 11
26.6603260366
 21
39.1373735811
  0
LINE
  5
282
100
AcDbEntity
  8
0
100
AcDbLine
 62
7
  6
CONTINUOUS
 10
30.2403331291
 20
62.0281571979
 11
30.5935197284
 21
62.2320683589
  0
LINE
  5
283
100
AcDbEntity
  8
0
100
AcDbLine
 62
7
  6
CONTINUOUS
 10
32.2859137752
 20
62.3518857078
 11
32.5076763526
 21
62.4799196273
  0
LINE
  5
284
100
AcDbEntity
  8
0
100
AcDbLine
 62
7
  6
CONTINUOUS
 10
33.083740727
 20
61.8327225944
 11
33.3562080227
 21
61.9900307219
  0
LINE
  5
285
100
AcDbEntity
  8
0
100
AcDbLine
 62
7
  6
CONTINUOUS
 10
33.5080065613
 20
61.5877781412
 11
33.7804738578
 21
61.7450862692
  0
LINE
  5
286
100
AcDbEntity
  8
0
100
AcDbLine
 62
7
  6
CONTINUOUS
 10
33.083740727
 20
60.526318727
 11
33.3562080227
 21
60.6836268545
  0
LINE
  5
287
100
AcDbEntity
  8
0
100
AcDbLine
 62
7
  6
CONTINUOUS
 10
50.3873585428
 20
112.1566866106
 11
50.3938035821
 21
112.0185964865
  0
LINE
  5
288
100
AcDbEntity
  8
0
100
AcDbLine
 62
7
  6
CONTINUOUS
 10
52.8701005956
 20
106.6414627746
 11
52.8757596251
 21
106.5114081973
  0
LINE
  5
289
100
AcDbEntity
  8
0
100
AcDbLine
 62
7
  6
CONTINUOUS
 10
52.6070281941
 20
106.3562569594
 11
52.6070334933
 21
105.6214105564
  0
LINE
  5
28A
100
AcDbEntity
  8
0
100
AcDbLine
 62
7
  6
CONTINUOUS
 10
52.8757596251
 20
105.4662649617
 11
52.8757596251
 21
106.5114081973
  0
LINE
  5
28B
100
AcDbEntity
  8
0
100
AcDbLine
 62
7
  6
CONTINUOUS
 10
53.9506621866
 20
32.6673454681
 11
53.9506621866
 21
34.300350302
  0
LINE
  5
28C
100
AcDbEntity
  8
0
100
AcDbLine
 62
7
  6
CONTINUOUS
 10
32.3261228491
 20
33.4864868582
 11
33.063680295
 21
34.7151803432
  0
LINE
  5
28D
100
AcDbEntity
  8
0
100
AcDbLine
 62
7
  6
CONTINUOUS
 10
33.6462468266
 20
34.7033864349
 11
35.3856249867
 21
37.5139186114
  0
LINE
  5
28E
100
AcDbEntity
  8
0
100
AcDbLine
 62
7
  6
CONTINUOUS
 10
40.3956192678
 20
63.2053985836
 11
43.2733942446
 21
64.8784723494
  0
LINE
  5
28F
100
AcDbEntity
  8
0
100
AcDbLine
 62
7
  6
CONTINUOUS
 10
43.2733942446
 20
64.8784723494
 11
53.9506621866
 21
71.0429590729
  0
LINE
  5
290
100
AcDbEntity
  8
0
100
AcDbLine
 62
7
  6
CONTINUOUS
 10
88.8108813612
 20
87.0868837731
 11
84.9218102565
 21
84.8415409268
  0
LINE
  5
291
100
AcDbEntity
  8
0
100
AcDbLine
 62
7
  6
CONTINUOUS
 10
36.9674244941
 20
60.9948414597
 11
37.1149857223
 21
61.0760448878
  0
LINE
  5
292
100
AcDbEntity
  8
0
100
AcDbLine
 62
7
  6
CONTINUOUS
 10
88.8108813612
 20
48.4290966541
 11
88.5280398263
 21
48.5923915962
  0
LINE
  5
293
100
AcDbEntity
  8
0
100
AcDbLine
 62
7
  6
CONTINUOUS
 10
53.9506621866
 20
71.0429590729
 11
28.7775559713
 21
85.5763299338
  0
LINE
  5
294
100
AcDbEntity
  8
0
100
AcDbLine
 62
7
  6
CONTINUOUS
 10
36.4013390103
 20
35.531870689
 11
35.2064410316
 21
33.601123659
  0
LINE
  5
295
100
AcDbEntity
  8
0
100
AcDbLine
 62
7
  6
CONTINUOUS
 10
35.7115591462
 20
32.8441594103
 11
34.946670183
 21
31.6449465569
  0
LINE
  5
296
100
AcDbEntity
  8
0
100
AcDbLine
 62
7
  6
CONTINUOUS
 10
88.8108813612
 20
96.6771848422
 11
88.5280398263
 21
96.3950141502
  0
LINE
  5
297
100
AcDbEntity
  8
0
100
AcDbLine
 62
7
  6
CONTINUOUS
 10
36.9674244941
 20
58.4888272102
 11
37.0462300393
 21
58.5246419263
  0
LINE
  5
298
100
AcDbEntity
  8
0
100
AcDbLine
 62
7
  6
CONTINUOUS
 10
84.9218102565
 20
59.1216311549
 11
88.8108813612
 21
56.8762943393
  0
LINE
  5
299
100
AcDbEntity
  8
0
100
AcDbLine
 62
7
  6
CONTINUOUS
 10
60.9154433309
 20
119.2412601208
 11
60.9154433309
 21
120.4958788479
  0
LINE
  5
29A
100
AcDbEntity
  8
0
100
AcDbLine
 62
7
  6
CONTINUOUS
 10
39.7744136753
 20
48.5695547345
 11
39.845124059
 21
48.6103791499
  0
LINE
  5
29B
100
AcDbEntity
  8
0
100
AcDbLine
 62
7
  6
CONTINUOUS
 10
65.3911274482
 20
115.6317385806
 11
65.3911274482
 21
113.9490511594
  0
LINE
  5
29C
100
AcDbEntity
  8
0
100
AcDbLine
 62
7
  6
CONTINUOUS
 10
67.1733973709
 20
108.8873972759
 11
67.1733973709
 21
103.8452277636
  0
LINE
  5
29D
100
AcDbEntity
  8
0
100
AcDbLine
 62
7
  6
CONTINUOUS
 10
39.8442723198
 20
48.2832864341
 11
39.7744136753
 21
48.2429537677
  0
LINE
  5
29E
100
AcDbEntity
  8
0
100
AcDbLine
 62
7
  6
CONTINUOUS
 10
88.5280398263
 20
93.9455068988
 11
88.8108813612
 21
93.98993153
  0
LINE
  5
29F
100
AcDbEntity
  8
0
100
AcDbLine
 62
7
  6
CONTINUOUS
 10
29.7169517214
 20
101.5505827693
 11
54.8900579367
 21
87.0172119084
  0
LINE
  5
2A0
100
AcDbEntity
  8
0
100
AcDbLine
 62
7
  6
CONTINUOUS
 10
68.9764941976
 20
115.8419342464
 11
68.9764941976
 21
114.5873155193
  0
LINE
  5
2A1
100
AcDbEntity
  8
0
100
AcDbLine
 62
7
  6
CONTINUOUS
 10
72.2998822325
 20
117.5433208569
 11
72.2998822325
 21
115.1131236583
  0
LINE
  5
2A2
100
AcDbEntity
  8
0
100
AcDbLine
 62
7
  6
CONTINUOUS
 10
73.9616507323
 20
104.9682860325
 11
73.9616507323
 21
99.0487458012
  0
LINE
  5
2A3
100
AcDbEntity
  8
0
100
AcDbLine
 62
7
  6
CONTINUOUS
 10
84.9218102565
 20
55.8557051187
 11
87.7502256054
 21
57.4886817342
  0
LINE
  5
2A4
100
AcDbEntity
  8
0
100
AcDbLine
 62
7
  6
CONTINUOUS
 10
67.7745348442
 20
95.4766341003
 11
62.6479893369
 21
98.4363795705
  0
LINE
  5
2A5
100
AcDbEntity
  8
0
100
AcDbLine
 62
7
  6
CONTINUOUS
 10
61.9408796117
 20
98.8446203251
 11
55.8597359755
 21
102.3554908139
  0
LINE
  5
2A6
100
AcDbEntity
  8
0
100
AcDbLine
 62
7
  6
CONTINUOUS
 10
84.9218102565
 20
84.8415409268
 11
84.9218102565
 21
55.8557051187
  0
LINE
  5
2A7
100
AcDbEntity
  8
0
100
AcDbLine
 62
7
  6
CONTINUOUS
 10
53.9506621866
 20
34.300350302
 11
42.4965767377
 21
27.687370459
  0
LINE
  5
2A8
100
AcDbEntity
  8
0
100
AcDbLine
 62
7
  6
CONTINUOUS
 10
55.1525953301
 20
104.1517629926
 11
56.4254048317
 21
104.151766052
  0
LINE
  5
2A9
100
AcDbEntity
  8
0
100
AcDbLine
 62
7
  6
CONTINUOUS
 10
55.1525953301
 20
104.1517629926
 11
52.6070334933
 21
105.6214105564
  0
LINE
  5
2AA
100
AcDbEntity
  8
0
100
AcDbLine
 62
7
  6
CONTINUOUS
 10
88.5280398263
 20
96.3950141502
 11
88.5280398263
 21
93.9455068988
  0
LINE
  5
2AB
100
AcDbEntity
  8
0
100
AcDbLine
 62
7
  6
CONTINUOUS
 10
88.5280398263
 20
50.8341792744
 11
88.5280398263
 21
48.384672023
  0
LINE
  5
2AC
100
AcDbEntity
  8
0
100
AcDbLine
 62
7
  6
CONTINUOUS
 10
88.8108813612
 20
106.6012915425
 11
88.8108813612
 21
96.6771848422
  0
LINE
  5
2AD
100
AcDbEntity
  8
0
100
AcDbLine
 62
7
  6
CONTINUOUS
 10
88.8108813612
 20
93.98993153
 11
88.8108813612
 21
87.0868837731
  0
LINE
  5
2AE
100
AcDbEntity
  8
0
100
AcDbLine
 62
7
  6
CONTINUOUS
 10
88.8108813612
 20
56.8762943393
 11
88.8108813612
 21
51.1163499664
  0
LINE
  5
2AF
100
AcDbEntity
  8
0
100
AcDbLine
 62
7
  6
CONTINUOUS
 10
88.8108813612
 20
48.4290966541
 11
88.8108813612
 21
37.3618865699
  0
LINE
  5
2B0
100
AcDbEntity
  8
0
100
AcDbLine
 62
7
  6
CONTINUOUS
 10
52.6777537488
 20
109.6629939577
 11
50.2028284058
 21
111.0918604455
  0
LINE
  5
2B1
100
AcDbEntity
  8
0
100
AcDbLine
 62
7
  6
CONTINUOUS
 10
67.1733973709
 20
103.8452277636
 11
68.8878316936
 21
102.8554210383
  0
LINE
  5
2B2
100
AcDbEntity
  8
0
100
AcDbLine
 62
7
  6
CONTINUOUS
 10
88.8108813612
 20
51.1163499664
 11
88.5280398263
 21
50.8341792744
  0
LINE
  5
2B3
100
AcDbEntity
  8
0
100
AcDbLine
 62
7
  6
CONTINUOUS
 10
52.6777537488
 20
109.6629939577
 11
53.9505632504
 21
109.6629970172
  0
LINE
  5
2B4
100
AcDbEntity
  8
0
100
AcDbLine
 62
7
  6
CONTINUOUS
 10
88.8108813612
 20
93.98993153
 11
88.5280398263
 21
94.153226472
  0
LINE
  5
2B5
100
AcDbEntity
  8
0
100
AcDbLine
 62
7
  6
CONTINUOUS
 10
79.0881962396
 20
102.0085405622
 11
73.9616507323
 21
104.9682860325
  0
LINE
  5
2B6
100
AcDbEntity
  8
0
100
AcDbLine
 62
7
  6
CONTINUOUS
 10
73.2545410071
 20
105.376526787
 11
67.1733973709
 21
108.8873972759
  0
LINE
  5
2B7
100
AcDbEntity
  8
0
100
AcDbLine
 62
7
  6
CONTINUOUS
 10
88.8108813612
 20
37.3618865699
 11
54.8900579367
 21
17.7778069358
  0
LINE
  5
2B8
100
AcDbEntity
  8
0
100
AcDbLine
 62
7
  6
CONTINUOUS
 10
65.3911274482
 20
114.937711526
 11
67.1798662031
 21
113.9050060872
  0
LINE
  5
2B9
100
AcDbEntity
  8
0
100
AcDbLine
 62
7
  6
CONTINUOUS
 10
71.4160144722
 20
112.1533471271
 11
67.8242093023
 21
114.2270298959
  0
LINE
  5
2BA
100
AcDbEntity
  8
0
100
AcDbLine
 62
7
  6
CONTINUOUS
 10
65.3911274482
 20
115.6317385806
 11
60.4558137456
 21
118.4810788146
  0
LINE
  5
2BB
100
AcDbEntity
  8
0
100
AcDbLine
 62
7
  6
CONTINUOUS
 10
67.9276586311
 20
115.1607752444
 11
67.0791269609
 21
115.6506641499
  0
LINE
  5
2BC
100
AcDbEntity
  8
0
100
AcDbLine
 62
7
  6
CONTINUOUS
 10
64.887086813
 20
116.9162104889
 11
64.0385551428
 21
117.4060993943
  0
LINE
  5
2BD
100
AcDbEntity
  8
0
100
AcDbLine
 62
7
  6
CONTINUOUS
 10
68.9764941976
 20
114.5873155193
 11
65.2053100483
 21
116.7645604472
  0
LINE
  5
2BE
100
AcDbEntity
  8
0
100
AcDbLine
 62
7
  6
CONTINUOUS
 10
64.6866274801
 20
117.064015193
 11
60.9154433309
 21
119.2412601208
  0
LINE
  5
2BF
100
AcDbEntity
  8
0
100
AcDbLine
 62
7
  6
CONTINUOUS
 10
73.8908779025
 20
113.5822016657
 11
72.5435648345
 21
114.3600556307
  0
LINE
  5
2C0
100
AcDbEntity
  8
0
100
AcDbLine
 62
7
  6
CONTINUOUS
 10
88.8108813612
 20
106.6012915425
 11
72.2998822325
 21
116.133705682
  0
ARC
  5
2C1
100
AcDbEntity
  8
0
100
AcDbCircle
 62
7
  6
CONTINUOUS
 10
257.9563967464
 20
49.21601555
 40
221.1067238558
100
AcDbArc
 50
176.9329155849
 51
177.6949114059
  0
ARC
  5
2C2
100
AcDbEntity
  8
0
100
AcDbCircle
 62
7
  6
CONTINUOUS
 10
250.3254542669
 20
53.1746619151
 40
220.2631265667
100
AcDbArc
 50
176.9314563594
 51
177.6963706314
  0
ARC
  5
2C3
100
AcDbEntity
  8
0
100
AcDbCircle
 62
7
  6
CONTINUOUS
 10
241.5813015192
 20
47.9123904402
 40
201.7373609117
100
AcDbArc
 50
179.9990688935
 51
180.4964105511
  0
ARC
  5
2C4
100
AcDbEntity
  8
0
100
AcDbCircle
 62
7
  6
CONTINUOUS
 10
176.2046644307
 20
34.0804941202
 40
124.7288253549
100
AcDbArc
 50
180.553823039
 51
180.8945075569
  0
ARC
  5
2C5
100
AcDbEntity
  8
0
100
AcDbCircle
 62
7
  6
CONTINUOUS
 10
174.232475907
 20
34.0489643451
 40
122.7563849508
100
AcDbArc
 50
180.8941634851
 51
181.6841578904
  0
ARC
  5
2C6
100
AcDbEntity
  8
0
100
AcDbCircle
 62
7
  6
CONTINUOUS
 10
138.5943130918
 20
61.0704145372
 40
122.7283315562
100
AcDbArc
 50
186.6091201633
 51
187.3197641823
  0
ARC
  5
2C7
100
AcDbEntity
  8
0
100
AcDbCircle
 62
7
  6
CONTINUOUS
 10
101.7901426589
 20
112.1774833572
 40
31.8262591157
100
AcDbArc
 50
174.647045392
 51
177.0994310459
  0
ARC
  5
2C8
100
AcDbEntity
  8
0
100
AcDbCircle
 62
7
  6
CONTINUOUS
 10
92.9667665959
 20
116.8738662292
 40
31.0627633044
100
AcDbArc
 50
176.7394558984
 51
177.1064550896
  0
ARC
  5
2C9
100
AcDbEntity
  8
0
100
AcDbCircle
 62
7
  6
CONTINUOUS
 10
40.5351360646
 20
72.9471590262
 40
14.4845660083
100
AcDbArc
 50
240.0041707215
 51
240.9779605295
  0
ARC
  5
2CA
100
AcDbEntity
  8
0
100
AcDbCircle
 62
7
  6
CONTINUOUS
 10
40.3233618012
 20
72.5791302378
 40
14.0599565651
100
AcDbArc
 50
239.0085185296
 51
240.0018006669
  0
ARC
  5
2CB
100
AcDbEntity
  8
0
100
AcDbCircle
 62
7
  6
CONTINUOUS
 10
26.3734547386
 20
51.6916576857
 40
10.8
100
AcDbArc
 50
264.6462981766
 51
267.2504914044
  0
ARC
  5
2CC
100
AcDbEntity
  8
0
100
AcDbCircle
 62
7
  6
CONTINUOUS
 10
26.3734547386
 20
51.6916576857
 40
10.8
100
AcDbArc
 50
161.772108746
 51
205.4594586097
  0
ARC
  5
2CD
100
AcDbEntity
  8
0
100
AcDbCircle
 62
7
  6
CONTINUOUS
 10
38.8892968737
 20
44.4657963307
 40
10.8
100
AcDbArc
 50
161.772108746
 51
205.4594586097
  0
ARC
  5
2CE
100
AcDbEntity
  8
0
100
AcDbCircle
 62
7
  6
CONTINUOUS
 10
29.5258530325
 20
35.3541547586
 40
8.5708979013
100
AcDbArc
 50
148.2219632744
 51
156.2816989124
  0
ARC
  5
2CF
100
AcDbEntity
  8
0
100
AcDbCircle
 62
7
  6
CONTINUOUS
 10
25.461251313
 20
47.631819276
 40
6.6489616796
100
AcDbArc
 50
269.3710997394
 51
274.8553968523
  0
ARC
  5
2D0
100
AcDbEntity
  8
0
100
AcDbCircle
 62
7
  6
CONTINUOUS
 10
30.8349668613
 20
41.5670817905
 40
4.8302285659
100
AcDbArc
 50
210.2000946185
 51
213.0883120568
  0
ARC
  5
2D1
100
AcDbEntity
  8
0
100
AcDbCircle
 62
7
  6
CONTINUOUS
 10
36.5592509568
 20
37.1705284714
 40
3.8171645771
100
AcDbArc
 50
242.488254982
 51
249.2432146073
  0
ARC
  5
2D2
100
AcDbEntity
  8
0
100
AcDbCircle
 62
7
  6
CONTINUOUS
 10
36.6838103825
 20
37.053298274
 40
3.7778234243
100
AcDbArc
 50
240.0024082793
 51
246.7694028152
  0
ARC
  5
2D3
100
AcDbEntity
  8
0
100
AcDbCircle
 62
7
  6
CONTINUOUS
 10
26.030564856
 20
44.5404137624
 40
3.6405041608
100
AcDbArc
 50
267.2415503165
 51
269.9957914262
  0
ARC
  5
2D4
100
AcDbEntity
  8
0
100
AcDbCircle
 62
7
  6
CONTINUOUS
 10
38.5459378016
 20
37.2946029948
 40
3.620564175
100
AcDbArc
 50
267.2338482229
 51
270.3304781395
  0
ARC
  5
2D5
100
AcDbEntity
  8
0
100
AcDbCircle
 62
7
  6
CONTINUOUS
 10
22.934668195
 20
36.9405845012
 40
3.0742248421
100
AcDbArc
 50
283.3382071463
 51
286.4337630088
  0
ARC
  5
2D6
100
AcDbEntity
  8
0
100
AcDbCircle
 62
7
  6
CONTINUOUS
 10
20.9877127435
 20
50.2125660357
 40
2.7536788523
100
AcDbArc
 50
211.6516857699
 51
216.6976216949
  0
ARC
  5
2D7
100
AcDbEntity
  8
0
100
AcDbCircle
 62
7
  6
CONTINUOUS
 10
33.6256738735
 20
43.1520835677
 40
2.7139700749
100
AcDbArc
 50
210.8428244447
 51
214.2644188826
  0
ARC
  5
2D8
100
AcDbEntity
  8
0
100
AcDbCircle
 62
7
  6
CONTINUOUS
 10
20.8854941269
 20
50.1391159513
 40
2.6278276613
100
AcDbArc
 50
216.7454302492
 51
217.1966549889
  0
ARC
  5
2D9
100
AcDbEntity
  8
0
100
AcDbCircle
 62
7
  6
CONTINUOUS
 10
33.5510799163
 20
43.1025398905
 40
2.6244285217
100
AcDbArc
 50
214.2873877007
 51
214.608158499
  0
ARC
  5
2DA
100
AcDbEntity
  8
0
100
AcDbCircle
 62
7
  6
CONTINUOUS
 10
65.4649345
 20
115.7409526898
 40
1.6167155969
100
AcDbArc
 50
356.7985432083
 51
357.9030727033
  0
ARC
  5
2DB
100
AcDbEntity
  8
0
100
AcDbCircle
 62
7
  6
CONTINUOUS
 10
66.2909236528
 20
116.8377325462
 40
1.406028684
100
AcDbArc
 50
174.2946639143
 51
176.8003548575
  0
SPLINE
  5
2DC
100
AcDbEntity
  8
0
100
AcDbSpline
 62
7
  6
CONTINUOUS
 70
0
 71
3
 72
9
 73
5
 74
0
 42
0.0000001
 43
0.0000001
 44
0.0000000001
 40
0.0
 40
0.0
 40
0.0
 40
0.0
 40
0.2451366123
 40
1.0
 40
1.0
 40
1.0
 40
1.0
 10
32.2859137752
 20
62.8417871581
 30
0.0
 10
32.3657493683
 20
62.7854715979
 30
0.0
 10
32.6941849717
 20
62.5596645483
 30
0.0
 10
33.0332198554
 20
62.34935816
 30
0.0
 10
33.2937661929
 20
62.1989350649
 30
0.0
  0
SPLINE
  5
2DD
100
AcDbEntity
  8
0
100
AcDbSpline
 62
7
  6
CONTINUOUS
 70
0
 71
3
 72
9
 73
5
 74
0
 42
0.0000001
 43
0.0000001
 44
0.0000000001
 40
0.0
 40
0.0
 40
0.0
 40
0.0
 40
0.2455806796
 40
1.0
 40
1.0
 40
1.0
 40
1.0
 10
33.2937661929
 20
62.1989350649
 30
0.0
 10
33.382847067
 20
62.1475053617
 30
0.0
 10
33.7478459479
 20
61.9420201561
 30
0.0
 10
34.1215453086
 20
61.7520648867
 30
0.0
 10
34.4072429467
 20
61.6170648923
 30
0.0
  0
SPLINE
  5
2DE
100
AcDbEntity
  8
0
100
AcDbSpline
 62
7
  6
CONTINUOUS
 70
0
 71
3
 72
9
 73
5
 74
0
 42
0.0000001
 43
0.0000001
 44
0.0000000001
 40
0.0
 40
0.0
 40
0.0
 40
0.0
 40
0.2534965605
 40
1.0
 40
1.0
 40
1.0
 40
1.0
 10
34.4072429467
 20
61.127163442
 30
0.0
 10
34.3300462289
 20
61.1636410151
 30
0.0
 10
34.0266488358
 20
61.309914197
 30
0.0
 10
33.7278651938
 20
61.4657919546
 30
0.0
 10
33.5080065613
 20
61.5877781412
 30
0.0
  0
SPLINE
  5
2DF
100
AcDbEntity
  8
0
100
AcDbSpline
 62
7
  6
CONTINUOUS
 70
0
 71
3
 72
9
 73
5
 74
0
 42
0.0000001
 43
0.0000001
 44
0.0000000001
 40
0.0
 40
0.0
 40
0.0
 40
0.0
 40
0.2539524394
 40
1.0
 40
1.0
 40
1.0
 40
1.0
 10
33.083740727
 20
61.8327225944
 30
0.0
 10
33.0146609959
 20
61.874222069
 30
0.0
 10
32.7440799805
 20
62.0400122486
 30
0.0
 10
32.4793698323
 20
62.2154229373
 30
0.0
 10
32.2859137752
 20
62.3518857078
 30
0.0
  0
SPLINE
  5
2E0
100
AcDbEntity
  8
0
100
AcDbSpline
 62
7
  6
CONTINUOUS
 70
0
 71
3
 72
11
 73
7
 74
0
 42
0.0000001
 43
0.0000001
 44
0.0000000001
 40
0.0
 40
0.0
 40
0.0
 40
0.0
 40
0.2234493825
 40
0.4587787302
 40
0.7160117925
 40
1.0
 40
1.0
 40
1.0
 40
1.0
 10
63.5257392652
 20
117.4482180963
 30
0.0
 10
63.5604200054
 20
117.4682407464
 30
0.0
 10
63.6389639831
 20
117.4977350091
 30
0.0
 10
63.7688861689
 20
117.5037052791
 30
0.0
 10
63.9059941059
 20
117.4730175818
 30
0.0
 10
63.994478306
 20
117.4315465922
 30
0.0
 10
64.0385551428
 20
117.4060993943
 30
0.0
  0
SPLINE
  5
2E1
100
AcDbEntity
  8
0
100
AcDbSpline
 62
7
  6
CONTINUOUS
 70
0
 71
3
 72
14
 73
10
 74
0
 42
0.0000001
 43
0.0000001
 44
0.0000000001
 40
0.0
 40
0.0
 40
0.0
 40
0.0
 40
0.1399600735
 40
0.2761863308
 40
0.4082800579
 40
0.5359929485
 40
0.6591190578
 40
0.7775279262
 40
1.0
 40
1.0
 40
1.0
 40
1.0
 10
72.2998822325
 20
117.5433208569
 30
0.0
 10
71.9777872328
 20
117.8414215664
 30
0.0
 10
71.3276289561
 20
118.4142003335
 30
0.0
 10
70.3237514936
 20
119.2096568818
 30
0.0
 10
69.3087121061
 20
119.9263031504
 30
0.0
 10
68.2880841514
 20
120.5602051436
 30
0.0
 10
67.2670060786
 20
121.1081864638
 30
0.0
 10
65.9405482032
 20
121.7074132479
 30
0.0
 10
64.9188126119
 20
122.0414485726
 30
0.0
 10
64.2388313658
 20
122.1972654584
 30
0.0
  0
SPLINE
  5
2E2
100
AcDbEntity
  8
0
100
AcDbSpline
 62
7
  6
CONTINUOUS
 70
0
 71
3
 72
12
 73
8
 74
0
 42
0.0000001
 43
0.0000001
 44
0.0000000001
 40
0.0
 40
0.0
 40
0.0
 40
0.0
 40
0.287862366
 40
0.5473059188
 40
0.7814168639
 40
0.891943365
 40
1.0
 40
1.0
 40
1.0
 40
1.0
 10
61.9436067375
 20
118.4419276128
 30
0.0
 10
61.9409597538
 20
118.3895493619
 30
0.0
 10
61.9281868872
 20
118.2900337901
 30
0.0
 10
61.8824712245
 20
118.154087107
 30
0.0
 10
61.8218956975
 20
118.0603141869
 30
0.0
 10
61.7623045185
 20
118.0028672891
 30
0.0
 10
61.7294046272
 20
117.980053676
 30
0.0
 10
61.7123554765
 20
117.9702104092
 30
0.0
  0
SPLINE
  5
2E3
100
AcDbEntity
  8
0
100
AcDbSpline
 62
7
  6
CONTINUOUS
 70
0
 71
3
 72
11
 73
7
 74
0
 42
0.0000001
 43
0.0000001
 44
0.0000000001
 40
0.0
 40
0.0
 40
0.0
 40
0.0
 40
0.2632628218
 40
0.5239433333
 40
0.7722955875
 40
1.0
 40
1.0
 40
1.0
 40
1.0
 10
73.4724485576
 20
113.337653782
 30
0.0
 10
73.4463656656
 20
113.396307641
 30
0.0
 10
73.3860840782
 20
113.5094931625
 30
0.0
 10
73.2752245891
 20
113.6624650116
 30
0.0
 10
73.1493887329
 20
113.7915699101
 30
0.0
 10
73.0550753204
 20
113.8606201723
 30
0.0
 10
73.0069919576
 20
113.8883804867
 30
0.0
  0
SPLINE
  5
2E4
100
AcDbEntity
  8
0
100
AcDbSpline
 62
7
  6
CONTINUOUS
 70
0
 71
3
 72
15
 73
11
 74
0
 42
0.0000001
 43
0.0000001
 44
0.0000000001
 40
0.0
 40
0.0
 40
0.0
 40
0.0
 40
0.1141465952
 40
0.2373352439
 40
0.366975646
 40
0.4999989181
 40
0.6330223406
 40
0.7626631822
 40
0.8858525235
 40
1.0
 40
1.0
 40
1.0
 40
1.0
 10
73.0069919576
 20
113.8883804867
 30
0.0
 10
72.9585881507
 20
113.9163258054
 30
0.0
 10
72.8629754282
 20
113.9833563233
 30
0.0
 10
72.731409554
 20
114.1064306492
 30
0.0
 10
72.6101796397
 20
114.2519347264
 30
0.0
 10
72.5038231913
 20
114.4143701029
 30
0.0
 10
72.4163273346
 20
114.5876949534
 30
0.0
 10
72.3509309156
 20
114.7654354189
 30
0.0
 10
72.3101270244
 20
114.9409126656
 30
0.0
 10
72.2998822325
 20
115.057231641
 30
0.0
 10
72.2998822325
 20
115.1131236583
 30
0.0
  0
SPLINE
  5
2E5
100
AcDbEntity
  8
0
100
AcDbSpline
 62
7
  6
CONTINUOUS
 70
0
 71
3
 72
9
 73
5
 74
0
 42
0.0000001
 43
0.0000001
 44
0.0000000001
 40
0.0
 40
0.0
 40
0.0
 40
0.0
 40
0.5296827362
 40
1.0
 40
1.0
 40
1.0
 40
1.0
 10
65.2053100483
 20
116.7645604472
 30
0.0
 10
65.1246438877
 20
116.8338163961
 30
0.0
 10
64.9617112458
 20
116.9529311852
 30
0.0
 10
64.7771439231
 20
117.0372110829
 30
0.0
 10
64.6866274801
 20
117.064015193
 30
0.0
  0
SPLINE
  5
2E6
100
AcDbEntity
  8
0
100
AcDbSpline
 62
7
  6
CONTINUOUS
 70
0
 71
3
 72
9
 73
5
 74
0
 42
0.0000001
 43
0.0000001
 44
0.0000000001
 40
0.0
 40
0.0
 40
0.0
 40
0.0
 40
0.2577414058
 40
1.0
 40
1.0
 40
1.0
 40
1.0
 10
68.5993630179
 20
113.9155909132
 30
0.0
 10
68.5990455059
 20
113.9044146492
 30
0.0
 10
68.5970747017
 20
113.8610794272
 30
0.0
 10
68.5920881493
 20
113.8178584808
 30
0.0
 10
68.586412462
 20
113.7861636145
 30
0.0
  0
SPLINE
  5
2E7
100
AcDbEntity
  8
0
100
AcDbSpline
 62
7
  6
CONTINUOUS
 70
0
 71
3
 72
15
 73
11
 74
0
 42
0.0000001
 43
0.0000001
 44
0.0000000001
 40
0.0
 40
0.0
 40
0.0
 40
0.0
 40
0.1135892086
 40
0.2358940801
 40
0.3646819518
 40
0.4971519494
 40
0.6301023303
 40
0.7602271095
 40
0.8844307183
 40
1.0
 40
1.0
 40
1.0
 40
1.0
 10
67.9276586311
 20
115.1607752444
 30
0.0
 10
67.9759612266
 20
115.1328883588
 30
0.0
 10
68.0709341498
 20
115.0654707502
 30
0.0
 10
68.2000357588
 20
114.940604017
 30
0.0
 10
68.3172322137
 20
114.7925173564
 30
0.0
 10
68.4183752197
 20
114.626957625
 30
0.0
 10
68.4999697824
 20
114.4502350445
 30
0.0
 10
68.559295467
 20
114.2690804222
 30
0.0
 10
68.5943148269
 20
114.0903922905
 30
0.0
 10
68.6009745203
 20
113.9723150024
 30
0.0
 10
68.5993630179
 20
113.9155909132
 30
0.0
  0
SPLINE
  5
2E8
100
AcDbEntity
  8
0
100
AcDbSpline
 62
7
  6
CONTINUOUS
 70
0
 71
3
 72
10
 73
6
 74
0
 42
0.0000001
 43
0.0000001
 44
0.0000000001
 40
0.0
 40
0.0
 40
0.0
 40
0.0
 40
0.2355726961
 40
0.4769843313
 40
1.0
 40
1.0
 40
1.0
 40
1.0
 10
61.7123554765
 20
117.9702104092
 30
0.0
 10
61.6894270828
 20
117.9569727821
 30
0.0
 10
61.6398001049
 20
117.9353118968
 30
0.0
 10
61.5287626544
 20
117.9138447915
 30
0.0
 10
61.4409822844
 20
117.9245034742
 30
0.0
 10
61.3842517958
 20
117.9398911005
 30
0.0
  0
SPLINE
  5
2E9
100
AcDbEntity
  8
0
100
AcDbSpline
 62
7
  6
CONTINUOUS
 70
0
 71
3
 72
13
 73
9
 74
0
 42
0.0000001
 43
0.0000001
 44
0.0000000001
 40
0.0
 40
0.0
 40
0.0
 40
0.0
 40
0.2228452912
 40
0.3413481742
 40
0.4645053938
 40
0.5921892769
 40
0.7241997846
 40
1.0
 40
1.0
 40
1.0
 40
1.0
 10
60.9154433309
 20
120.4958788479
 30
0.0
 10
61.5955853838
 20
120.336723023
 30
0.0
 10
62.6171601491
 20
119.999400258
 30
0.0
 10
63.9437239285
 20
119.3979505192
 30
0.0
 10
64.9644352287
 20
118.8496425772
 30
0.0
 10
65.9847610035
 20
118.216538117
 30
0.0
 10
67.3576246131
 20
117.2495740182
 30
0.0
 10
68.34049127
 20
116.4274834627
 30
0.0
 10
68.9764941976
 20
115.8419342464
 30
0.0
  0
SPLINE
  5
2EA
100
AcDbEntity
  8
0
100
AcDbSpline
 62
7
  6
CONTINUOUS
 70
0
 71
3
 72
11
 73
7
 74
0
 42
0.0000001
 43
0.0000001
 44
0.0000000001
 40
0.0
 40
0.0
 40
0.0
 40
0.0
 40
0.2848754168
 40
0.543101782
 40
0.7784947676
 40
1.0
 40
1.0
 40
1.0
 40
1.0
 10
63.2960400795
 20
116.9773965721
 30
0.0
 10
63.2975120205
 20
117.0292081689
 30
0.0
 10
63.3085354137
 20
117.1280976026
 30
0.0
 10
63.3535625692
 20
117.2637116293
 30
0.0
 10
63.4253810025
 20
117.3741724756
 30
0.0
 10
63.490836217
 20
117.4280670985
 30
0.0
 10
63.5257392652
 20
117.4482180963
 30
0.0
  0
SPLINE
  5
2EB
100
AcDbEntity
  8
0
100
AcDbSpline
 62
7
  6
CONTINUOUS
 70
0
 71
3
 72
9
 73
5
 74
0
 42
0.0000001
 43
0.0000001
 44
0.0000000001
 40
0.0
 40
0.0
 40
0.0
 40
0.0
 40
0.2565762288
 40
1.0
 40
1.0
 40
1.0
 40
1.0
 10
63.3019478738
 20
116.8370807692
 30
0.0
 10
63.3006567813
 20
116.8490275
 30
0.0
 10
63.2963597431
 20
116.8956637569
 30
0.0
 10
63.2950513471
 20
116.9425936792
 30
0.0
 10
63.2960400795
 20
116.9773965721
 30
0.0
  0
SPLINE
  5
2EC
100
AcDbEntity
  8
0
100
AcDbSpline
 62
7
  6
CONTINUOUS
 70
0
 71
3
 72
11
 73
7
 74
0
 42
0.0000001
 43
0.0000001
 44
0.0000000001
 40
0.0
 40
0.0
 40
0.0
 40
0.0
 40
0.2493067722
 40
0.5103729118
 40
0.7657304104
 40
1.0
 40
1.0
 40
1.0
 40
1.0
 10
70.5038774686
 20
112.6747989315
 30
0.0
 10
70.4259109345
 20
112.7440267076
 30
0.0
 10
70.2832772063
 20
112.9054610303
 30
0.0
 10
70.1219195808
 20
113.1843459495
 30
0.0
 10
70.020636096
 20
113.4837052907
 30
0.0
 10
69.9997125813
 20
113.6901313893
 30
0.0
 10
70.0046576041
 20
113.7879830113
 30
0.0
  0
SPLINE
  5
2ED
100
AcDbEntity
  8
0
100
AcDbSpline
 62
7
  6
CONTINUOUS
 70
0
 71
3
 72
11
 73
7
 74
0
 42
0.0000001
 43
0.0000001
 44
0.0000000001
 40
0.0
 40
0.0
 40
0.0
 40
0.0
 40
0.2581281401
 40
0.5094514793
 40
0.7559545459
 40
1.0
 40
1.0
 40
1.0
 40
1.0
 10
33.4348873943
 20
35.092646893
 30
0.0
 10
33.5244507934
 20
34.9552900681
 30
0.0
 10
33.7156447685
 20
34.6932283364
 30
0.0
 10
34.0414676498
 20
34.3390115942
 30
0.0
 10
34.4002786881
 20
34.0317630219
 30
0.0
 10
34.660774912
 20
33.8590425486
 30
0.0
 10
34.795036189
 20
33.7815278249
 30
0.0
  0
SPLINE
  5
2EE
100
AcDbEntity
  8
0
100
AcDbSpline
 62
7
  6
CONTINUOUS
 70
0
 71
3
 72
9
 73
5
 74
0
 42
0.0000001
 43
0.0000001
 44
0.0000000001
 40
0.0
 40
0.0
 40
0.0
 40
0.0
 40
0.4954242671
 40
1.0
 40
1.0
 40
1.0
 40
1.0
 10
35.8909295282
 20
33.3571799741
 30
0.0
 10
35.8629336184
 20
33.2740271782
 30
0.0
 10
35.7960903483
 20
33.1095346005
 30
0.0
 10
35.7111639791
 20
32.9536568657
 30
0.0
 10
35.6640922774
 20
32.8777000329
 30
0.0
  0
SPLINE
  5
2EF
100
AcDbEntity
  8
0
100
AcDbSpline
 62
7
  6
CONTINUOUS
 70
0
 71
3
 72
11
 73
7
 74
0
 42
0.0000001
 43
0.0000001
 44
0.0000000001
 40
0.0
 40
0.0
 40
0.0
 40
0.0
 40
0.2699541206
 40
0.5293973237
 40
0.7738652841
 40
1.0
 40
1.0
 40
1.0
 40
1.0
 10
34.946670183
 20
31.6449465569
 30
0.0
 10
34.781572791
 20
31.4142712884
 30
0.0
 10
34.4347638185
 20
30.9778094859
 30
0.0
 10
33.8621476189
 20
30.3980353079
 30
0.0
 10
33.2608251256
 20
29.9186686418
 30
0.0
 10
32.8339541213
 20
29.6646640479
 30
0.0
 10
32.6202107765
 20
29.5608433421
 30
0.0
  0
SPLINE
  5
2F0
100
AcDbEntity
  8
0
100
AcDbSpline
 62
7
  6
CONTINUOUS
 70
0
 71
3
 72
9
 73
5
 74
0
 42
0.0000001
 43
0.0000001
 44
0.0000000001
 40
0.0
 40
0.0
 40
0.0
 40
0.0
 40
0.2612686313
 40
1.0
 40
1.0
 40
1.0
 40
1.0
 10
32.6202107765
 20
29.5608433421
 30
0.0
 10
32.5600246054
 20
29.5316093523
 30
0.0
 10
32.3270535939
 20
29.4252968696
 30
0.0
 10
32.0830452208
 20
29.3421879087
 30
0.0
 10
31.8989361943
 20
29.2986465505
 30
0.0
  0
SPLINE
  5
2F1
100
AcDbEntity
  8
0
100
AcDbSpline
 62
7
  6
CONTINUOUS
 70
0
 71
3
 72
10
 73
6
 74
0
 42
0.0000001
 43
0.0000001
 44
0.0000000001
 40
0.0
 40
0.0
 40
0.0
 40
0.0
 40
0.5243873964
 40
0.7657170609
 40
1.0
 40
1.0
 40
1.0
 40
1.0
 10
31.8989361943
 20
29.2986465505
 30
0.0
 10
31.8570255145
 20
29.2887347718
 30
0.0
 10
31.7927492194
 20
29.2826227934
 30
0.0
 10
31.711848454
 20
29.2992713515
 30
0.0
 10
31.6757556078
 20
29.3151443702
 30
0.0
 10
31.6590944227
 20
29.3247686413
 30
0.0
  0
SPLINE
  5
2F2
100
AcDbEntity
  8
0
100
AcDbSpline
 62
7
  6
CONTINUOUS
 70
0
 71
3
 72
11
 73
7
 74
0
 42
0.0000001
 43
0.0000001
 44
0.0000000001
 40
0.0
 40
0.0
 40
0.0
 40
0.0
 40
0.2607913299
 40
0.5158783878
 40
0.7629600206
 40
1.0
 40
1.0
 40
1.0
 40
1.0
 10
24.5196844295
 20
37.8687566018
 30
0.0
 10
24.4231236193
 20
37.6612391964
 30
0.0
 10
24.2465137881
 20
37.2438463488
 30
0.0
 10
24.0313097908
 20
36.6091088057
 30
0.0
 10
23.8709713824
 20
35.9797935491
 30
0.0
 10
23.8005860813
 20
35.5601207735
 30
0.0
 10
23.7758138811
 20
35.3535631751
 30
0.0
  0
SPLINE
  5
2F3
100
AcDbEntity
  8
0
100
AcDbSpline
 62
7
  6
CONTINUOUS
 70
0
 71
3
 72
9
 73
5
 74
0
 42
0.0000001
 43
0.0000001
 44
0.0000000001
 40
0.0
 40
0.0
 40
0.0
 40
0.0
 40
0.5208271667
 40
1.0
 40
1.0
 40
1.0
 40
1.0
 10
23.7758138811
 20
35.3535631751
 30
0.0
 10
23.7483460535
 20
35.1245286725
 30
0.0
 10
23.7216364063
 20
34.6810666081
 30
0.0
 10
23.7586586323
 20
34.2375520334
 30
0.0
 10
23.7951590151
 20
34.0284874993
 30
0.0
  0
SPLINE
  5
2F4
100
AcDbEntity
  8
0
100
AcDbSpline
 62
7
  6
CONTINUOUS
 70
0
 71
3
 72
11
 73
7
 74
0
 42
0.0000001
 43
0.0000001
 44
0.0000000001
 40
0.0
 40
0.0
 40
0.0
 40
0.0
 40
0.2783793361
 40
0.5341777375
 40
0.7720110311
 40
1.0
 40
1.0
 40
1.0
 40
1.0
 10
23.7951590151
 20
34.0284874993
 30
0.0
 10
23.800066437
 20
34.0003790854
 30
0.0
 10
23.8136061614
 20
33.9470055446
 30
0.0
 10
23.8472881687
 20
33.8747970542
 30
0.0
 10
23.8930345818
 20
33.8158115092
 30
0.0
 10
23.9313631859
 20
33.7862816728
 30
0.0
 10
23.9515984195
 20
33.7745928671
 30
0.0
  0
SPLINE
  5
2F5
100
AcDbEntity
  8
0
100
AcDbSpline
 62
7
  6
CONTINUOUS
 70
0
 71
3
 72
16
 73
12
 74
0
 42
0.0000001
 43
0.0000001
 44
0.0000000001
 40
0.0
 40
0.0
 40
0.0
 40
0.0
 40
0.1448331154
 40
0.2882211459
 40
0.4275646881
 40
0.5605031779
 40
0.6850853035
 40
0.7999739512
 40
0.8536388754
 40
0.904794647
 40
1.0
 40
1.0
 40
1.0
 40
1.0
 10
32.3863569721
 20
48.7931013806
 30
0.0
 10
32.1933681516
 20
48.4907408871
 30
0.0
 10
31.838109701
 20
47.8701008988
 30
0.0
 10
31.402142945
 20
46.9033195796
 30
0.0
 10
31.0740776024
 20
45.9255793192
 30
0.0
 10
30.8629378946
 20
44.9634448235
 30
0.0
 10
30.7745393751
 20
44.0429375508
 30
0.0
 10
30.8061974781
 20
43.3144958474
 30
0.0
 10
30.899034745
 20
42.777557759
 30
0.0
 10
31.0279638083
 20
42.2988816379
 30
0.0
 10
31.1746083144
 20
41.9631005794
 30
0.0
 10
31.2955217456
 20
41.760672547
 30
0.0
  0
SPLINE
  5
2F6
100
AcDbEntity
  8
0
100
AcDbSpline
 62
7
  6
CONTINUOUS
 70
0
 71
3
 72
14
 73
10
 74
0
 42
0.0000001
 43
0.0000001
 44
0.0000000001
 40
0.0
 40
0.0
 40
0.0
 40
0.0
 40
0.106176076
 40
0.2189336659
 40
0.3378936157
 40
0.4625163646
 40
0.5920271722
 40
0.7254946328
 40
1.0
 40
1.0
 40
1.0
 40
1.0
 10
31.5026550192
 20
29.578663275
 30
0.0
 10
31.4779428209
 20
29.7202082076
 30
0.0
 10
31.4448003991
 20
30.0153671639
 30
0.0
 10
31.4413474116
 20
30.4732996495
 30
0.0
 10
31.4826175291
 20
30.9544054212
 30
0.0
 10
31.5679932897
 20
31.4525755115
 30
0.0
 10
31.6964360833
 20
31.9616756304
 30
0.0
 10
31.9249513608
 20
32.6526671328
 30
0.0
 10
32.1523601124
 20
33.1581487886
 30
0.0
 10
32.3261228491
 20
33.4864868582
 30
0.0
  0
SPLINE
  5
2F7
100
AcDbEntity
  8
0
100
AcDbSpline
 62
7
  6
CONTINUOUS
 70
0
 71
3
 72
9
 73
5
 74
0
 42
0.0000001
 43
0.0000001
 44
0.0000000001
 40
0.0
 40
0.0
 40
0.0
 40
0.0
 40
0.5080120319
 40
1.0
 40
1.0
 40
1.0
 40
1.0
 10
33.1107812667
 20
34.6818982676
 30
0.0
 10
33.1574422301
 20
34.7573963928
 30
0.0
 10
33.2576340721
 20
34.9010240859
 30
0.0
 10
33.373823552
 20
35.0321545789
 30
0.0
 10
33.4348873943
 20
35.092646893
 30
0.0
  0
SPLINE
  5
2F8
100
AcDbEntity
  8
0
100
AcDbSpline
 62
7
  6
CONTINUOUS
 70
0
 71
3
 72
11
 73
7
 74
0
 42
0.0000001
 43
0.0000001
 44
0.0000000001
 40
0.0
 40
0.0
 40
0.0
 40
0.0
 40
0.2608890469
 40
0.5166586132
 40
0.7640037341
 40
1.0
 40
1.0
 40
1.0
 40
1.0
 10
25.6792914327
 20
37.3239499507
 30
0.0
 10
25.5682111627
 20
37.114055228
 30
0.0
 10
25.3652422469
 20
36.6891057522
 30
0.0
 10
25.1194137896
 20
36.0376550305
 30
0.0
 10
24.9387196639
 20
35.388656004
 30
0.0
 10
24.862057865
 20
34.9544902707
 30
0.0
 10
24.8364784524
 20
34.7412019061
 30
0.0
  0
SPLINE
  5
2F9
100
AcDbEntity
  8
0
100
AcDbSpline
 62
7
  6
CONTINUOUS
 70
0
 71
3
 72
11
 73
7
 74
0
 42
0.0000001
 43
0.0000001
 44
0.0000000001
 40
0.0
 40
0.0
 40
0.0
 40
0.0
 40
0.2370399783
 40
0.4841216107
 40
0.7392086691
 40
1.0
 40
1.0
 40
1.0
 40
1.0
 10
24.8364784524
 20
34.7412019061
 30
0.0
 10
24.8612506537
 20
34.9477595144
 30
0.0
 10
24.9316359449
 20
35.3674323128
 30
0.0
 10
25.091974357
 20
35.9967476031
 30
0.0
 10
25.3071783612
 20
36.6314851819
 30
0.0
 10
25.4837882016
 20
37.0488780529
 30
0.0
 10
25.5803490172
 20
37.2563954699
 30
0.0
  0
SPLINE
  5
2FA
100
AcDbEntity
  8
0
100
AcDbSpline
 62
7
  6
CONTINUOUS
 70
0
 71
3
 72
11
 73
7
 74
0
 42
0.0000001
 43
0.0000001
 44
0.0000000001
 40
0.0
 40
0.0
 40
0.0
 40
0.0
 40
0.2279890024
 40
0.4658223085
 40
0.7216206642
 40
1.0
 40
1.0
 40
1.0
 40
1.0
 10
31.6590944227
 20
29.3247686413
 30
0.0
 10
31.6388591866
 20
29.3364574495
 30
0.0
 10
31.6005305813
 20
29.3659872925
 30
0.0
 10
31.5547841695
 20
29.4249728377
 30
0.0
 10
31.5211021585
 20
29.4971813231
 30
0.0
 10
31.5075624411
 20
29.5505548611
 30
0.0
 10
31.5026550192
 20
29.578663275
 30
0.0
  0
SPLINE
  5
2FB
100
AcDbEntity
  8
0
100
AcDbSpline
 62
7
  6
CONTINUOUS
 70
0
 71
3
 72
9
 73
5
 74
0
 42
0.0000001
 43
0.0000001
 44
0.0000000001
 40
0.0
 40
0.0
 40
0.0
 40
0.0
 40
0.4920022887
 40
1.0
 40
1.0
 40
1.0
 40
1.0
 10
26.7880559779
 20
38.9301099855
 30
0.0
 10
26.7276061954
 20
38.8702259839
 30
0.0
 10
26.6125107509
 20
38.7404989729
 30
0.0
 10
26.5130939773
 20
38.5984933637
 30
0.0
 10
26.4667383277
 20
38.5238619279
 30
0.0
  0
SPLINE
  5
2FC
100
AcDbEntity
  8
0
100
AcDbSpline
 62
7
  6
CONTINUOUS
 70
0
 71
3
 72
9
 73
5
 74
0
 42
0.0000001
 43
0.0000001
 44
0.0000000001
 40
0.0
 40
0.0
 40
0.0
 40
0.0
 40
0.2479086423
 40
1.0
 40
1.0
 40
1.0
 40
1.0
 10
35.197098101
 20
33.5803107863
 30
0.0
 10
35.2525055295
 20
33.5565783527
 30
0.0
 10
35.4782448103
 20
33.466141773
 30
0.0
 10
35.712473776
 20
33.3970821047
 30
0.0
 10
35.8909295282
 20
33.3571799741
 30
0.0
  0
SPLINE
  5
2FD
100
AcDbEntity
  8
0
100
AcDbSpline
 62
7
  6
CONTINUOUS
 70
0
 71
3
 72
9
 73
5
 74
0
 42
0.0000001
 43
0.0000001
 44
0.0000000001
 40
0.0
 40
0.0
 40
0.0
 40
0.0
 40
0.477360664
 40
1.0
 40
1.0
 40
1.0
 40
1.0
 10
27.7097287502
 20
38.7828848479
 30
0.0
 10
27.7225424887
 20
38.7234263979
 30
0.0
 10
27.7370082031
 20
38.596083529
 30
0.0
 10
27.7315583336
 20
38.4683302082
 30
0.0
 10
27.7245135155
 20
38.4021111435
 30
0.0
  0
SPLINE
  5
2FE
100
AcDbEntity
  8
0
100
AcDbSpline
 62
7
  6
CONTINUOUS
 70
0
 71
3
 72
10
 73
6
 74
0
 42
0.0000001
 43
0.0000001
 44
0.0000000001
 40
0.0
 40
0.0
 40
0.0
 40
0.0
 40
0.5243873972
 40
0.7657170614
 40
1.0
 40
1.0
 40
1.0
 40
1.0
 10
23.6438876884
 20
33.9492861059
 30
0.0
 10
23.601977007
 20
33.9393743263
 30
0.0
 10
23.5377007096
 20
33.933262347
 30
0.0
 10
23.456799941
 20
33.9499109052
 30
0.0
 10
23.4207070934
 20
33.9657839245
 30
0.0
 10
23.4040459077
 20
33.9754081959
 30
0.0
  0
SPLINE
  5
2FF
100
AcDbEntity
  8
0
100
AcDbSpline
 62
7
  6
CONTINUOUS
 70
0
 71
3
 72
9
 73
5
 74
0
 42
0.0000001
 43
0.0000001
 44
0.0000000001
 40
0.0
 40
0.0
 40
0.0
 40
0.0
 40
0.2378440188
 40
1.0
 40
1.0
 40
1.0
 40
1.0
 10
14.0803652824
 20
46.8961248614
 30
0.0
 10
14.0621037564
 20
46.8926562549
 30
0.0
 10
13.9858647256
 20
46.8752505214
 30
0.0
 10
13.9122325177
 20
46.8472669234
 30
0.0
 10
13.8583793943
 20
46.8218164475
 30
0.0
  0
SPLINE
  5
300
100
AcDbEntity
  8
0
100
AcDbSpline
 62
7
  6
CONTINUOUS
 70
0
 71
3
 72
11
 73
7
 74
0
 42
0.0000001
 43
0.0000001
 44
0.0000000001
 40
0.0
 40
0.0
 40
0.0
 40
0.0
 40
0.2239259029
 40
0.468787404
 40
0.7296483364
 40
1.0
 40
1.0
 40
1.0
 40
1.0
 10
13.8583793943
 20
46.8218164475
 30
0.0
 10
13.7886311562
 20
46.788854091
 30
0.0
 10
13.6494695451
 20
46.704955822
 30
0.0
 10
13.4564960009
 20
46.5426383339
 30
0.0
 10
13.2763255498
 20
46.3441253791
 30
0.0
 10
13.1704891034
 20
46.1942023029
 30
0.0
 10
13.1212952631
 20
46.1151146867
 30
0.0
  0
SPLINE
  5
301
100
AcDbEntity
  8
0
100
AcDbSpline
 62
7
  6
CONTINUOUS
 70
0
 71
3
 72
14
 73
10
 74
0
 42
0.0000001
 43
0.0000001
 44
0.0000000001
 40
0.0
 40
0.0
 40
0.0
 40
0.0
 40
0.2732523933
 40
0.4072161368
 40
0.5374934543
 40
0.662833884
 40
0.7821772294
 40
0.8947313371
 40
1.0
 40
1.0
 40
1.0
 40
1.0
 10
12.6230864966
 20
45.419920692
 30
0.0
 10
12.4005580594
 20
45.0603534902
 30
0.0
 10
12.1072664007
 20
44.4991483205
 30
0.0
 10
11.8073166338
 20
43.7227373351
 30
0.0
 10
11.6347302936
 20
43.1443520431
 30
0.0
 10
11.515953192
 20
42.5756507694
 30
0.0
 10
11.4528546293
 20
42.0255511267
 30
0.0
 10
11.4465398637
 20
41.5028859307
 30
0.0
 10
11.4815678498
 20
41.166574554
 30
0.0
 10
11.5095850637
 20
41.0060993618
 30
0.0
  0
SPLINE
  5
302
100
AcDbEntity
  8
0
100
AcDbSpline
 62
7
  6
CONTINUOUS
 70
0
 71
3
 72
11
 73
7
 74
0
 42
0.0000001
 43
0.0000001
 44
0.0000000001
 40
0.0
 40
0.0
 40
0.0
 40
0.0
 40
0.2783793364
 40
0.5341777379
 40
0.7720110314
 40
1.0
 40
1.0
 40
1.0
 40
1.0
 10
11.5095850637
 20
41.0060993618
 30
0.0
 10
11.5144924855
 20
40.9779909471
 30
0.0
 10
11.52803221
 20
40.9246174048
 30
0.0
 10
11.5617142179
 20
40.8524089124
 30
0.0
 10
11.607460632
 20
40.7934233656
 30
0.0
 10
11.6457892371
 20
40.7638935284
 30
0.0
 10
11.6660244711
 20
40.7522047225
 30
0.0
  0
SPLINE
  5
303
100
AcDbEntity
  8
0
100
AcDbSpline
 62
7
  6
CONTINUOUS
 70
0
 71
3
 72
16
 73
12
 74
0
 42
0.0000001
 43
0.0000001
 44
0.0000000001
 40
0.0
 40
0.0
 40
0.0
 40
0.0
 40
0.1452319734
 40
0.2888959189
 40
0.4283811667
 40
0.5613257745
 40
0.6857892518
 40
0.8004626535
 40
0.8539995184
 40
0.9050246751
 40
1.0
 40
1.0
 40
1.0
 40
1.0
 10
19.7308733896
 20
56.0688178355
 30
0.0
 10
19.5312377491
 20
55.7532826674
 30
0.0
 10
19.1641902779
 20
55.1060118421
 30
0.0
 10
18.7150996275
 20
54.0985388938
 30
0.0
 10
18.3790585997
 20
53.0808912659
 30
0.0
 10
18.165352952
 20
52.0808224343
 30
0.0
 10
18.0799012064
 20
51.1254793359
 30
0.0
 10
18.1187603672
 20
50.3707011961
 30
0.0
 10
18.2202674612
 20
49.8154491476
 30
0.0
 10
18.3591151822
 20
49.3212163829
 30
0.0
 10
18.5154411864
 20
48.9753832594
 30
0.0
 10
18.6436328623
 20
48.7675619762
 30
0.0
  0
SPLINE
  5
304
100
AcDbEntity
  8
0
100
AcDbSpline
 62
7
  6
CONTINUOUS
 70
0
 71
3
 72
11
 73
7
 74
0
 42
0.0000001
 43
0.0000001
 44
0.0000000001
 40
0.0
 40
0.0
 40
0.0
 40
0.0
 40
0.2279890021
 40
0.4658223081
 40
0.7216206639
 40
1.0
 40
1.0
 40
1.0
 40
1.0
 10
23.4040459077
 20
33.9754081959
 30
0.0
 10
23.3838106711
 20
33.9870970043
 30
0.0
 10
23.3454820648
 20
34.0166268482
 30
0.0
 10
23.299735652
 20
34.0756123951
 30
0.0
 10
23.2660536405
 20
34.1478208826
 30
0.0
 10
23.252513923
 20
34.2011944221
 30
0.0
 10
23.2476065011
 20
34.2293028368
 30
0.0
  0
SPLINE
  5
305
100
AcDbEntity
  8
0
100
AcDbSpline
 62
7
  6
CONTINUOUS
 70
0
 71
3
 72
13
 73
9
 74
0
 42
0.0000001
 43
0.0000001
 44
0.0000000001
 40
0.0
 40
0.0
 40
0.0
 40
0.0
 40
0.1075443182
 40
0.2209030248
 40
0.3397912365
 40
0.4638728414
 40
0.7252869477
 40
1.0
 40
1.0
 40
1.0
 40
1.0
 10
23.2476065011
 20
34.2293028368
 30
0.0
 10
23.2264120768
 20
34.3506988948
 30
0.0
 10
23.1959536836
 20
34.6024641471
 30
0.0
 10
23.1846383607
 20
34.9921103554
 30
0.0
 10
23.2066110755
 20
35.4002703723
 30
0.0
 10
23.2812783072
 20
35.973851044
 30
0.0
 10
23.4581464002
 20
36.7117885305
 30
0.0
 10
23.6737063445
 20
37.2887532002
 30
0.0
 10
23.8002324079
 20
37.5769924537
 30
0.0
  0
SPLINE
  5
306
100
AcDbEntity
  8
0
100
AcDbSpline
 62
7
  6
CONTINUOUS
 70
0
 71
3
 72
9
 73
5
 74
0
 42
0.0000001
 43
0.0000001
 44
0.0000000001
 40
0.0
 40
0.0
 40
0.0
 40
0.0
 40
0.2518929829
 40
1.0
 40
1.0
 40
1.0
 40
1.0
 10
15.8259355309
 20
60.0318301063
 30
0.0
 10
15.8334175119
 20
59.6144399979
 30
0.0
 10
15.8702152207
 20
57.9575625895
 30
0.0
 10
15.9355984905
 20
56.3013084718
 30
0.0
 10
16.0012302122
 20
55.063224165
 30
0.0
  0
SPLINE
  5
307
100
AcDbEntity
  8
0
100
AcDbSpline
 62
7
  6
CONTINUOUS
 70
0
 71
3
 72
9
 73
5
 74
0
 42
0.0000001
 43
0.0000001
 44
0.0000000001
 40
0.0
 40
0.0
 40
0.0
 40
0.0
 40
0.5112954857
 40
1.0
 40
1.0
 40
1.0
 40
1.0
 10
16.6222914141
 20
47.0490841532
 30
0.0
 10
16.707852755
 20
46.8694056509
 30
0.0
 10
16.898313638
 20
46.5283569912
 30
0.0
 10
17.1372317383
 20
46.2188217958
 30
0.0
 10
17.265390425
 20
46.0782587556
 30
0.0
  0
SPLINE
  5
308
100
AcDbEntity
  8
0
100
AcDbSpline
 62
7
  6
CONTINUOUS
 70
0
 71
3
 72
9
 73
5
 74
0
 42
0.0000001
 43
0.0000001
 44
0.0000000001
 40
0.0
 40
0.0
 40
0.0
 40
0.0
 40
0.5081145993
 40
1.0
 40
1.0
 40
1.0
 40
1.0
 10
29.7169517214
 20
101.5505827693
 30
0.0
 10
29.4091042661
 20
98.8567640509
 30
0.0
 10
28.9422665307
 20
93.5381572999
 30
0.0
 10
28.7775559713
 20
88.2010811949
 30
0.0
 10
28.7775559713
 20
85.5763299338
 30
0.0
  0
SPLINE
  5
309
100
AcDbEntity
  8
0
100
AcDbSpline
 62
7
  6
CONTINUOUS
 70
0
 71
3
 72
9
 73
5
 74
0
 42
0.0000001
 43
0.0000001
 44
0.0000000001
 40
0.0
 40
0.0
 40
0.0
 40
0.0
 40
0.2536258057
 40
1.0
 40
1.0
 40
1.0
 40
1.0
 10
15.2225130526
 20
77.7387694445
 30
0.0
 10
15.1352838099
 20
76.5069558352
 30
0.0
 10
14.8305003339
 20
71.647478842
 30
0.0
 10
14.6843868138
 20
66.7778078756
 30
0.0
 10
14.6720178438
 20
63.1437500109
 30
0.0
  0
SPLINE
  5
30A
100
AcDbEntity
  8
0
100
AcDbSpline
 62
7
  6
CONTINUOUS
 70
0
 71
3
 72
11
 73
7
 74
0
 42
0.0000001
 43
0.0000001
 44
0.0000000001
 40
0.0
 40
0.0
 40
0.0
 40
0.0
 40
0.2372423294
 40
0.4999983821
 40
0.7627553152
 40
1.0
 40
1.0
 40
1.0
 40
1.0
 10
14.60130746
 20
63.1029255955
 30
0.0
 10
14.5812294852
 20
63.0913336405
 30
0.0
 10
14.5432363969
 20
63.0593545522
 30
0.0
 10
14.4988923012
 20
62.9987560742
 30
0.0
 10
14.4685847932
 20
62.9300533519
 30
0.0
 10
14.4598866926
 20
62.8811605252
 30
0.0
 10
14.4598866926
 20
62.8579762813
 30
0.0
  0
SPLINE
  5
30B
100
AcDbEntity
  8
0
100
AcDbSpline
 62
7
  6
CONTINUOUS
 70
0
 71
3
 72
11
 73
7
 74
0
 42
0.0000001
 43
0.0000001
 44
0.0000000001
 40
0.0
 40
0.0
 40
0.0
 40
0.0
 40
0.2196970091
 40
0.4551037504
 40
0.7143563144
 40
1.0
 40
1.0
 40
1.0
 40
1.0
 10
39.8168185741
 20
86.9724656452
 30
0.0
 10
39.9322119854
 20
87.0389801052
 30
0.0
 10
40.1493890909
 20
87.2176325164
 30
0.0
 10
40.3920297486
 20
87.5823050056
 30
0.0
 10
40.5532720432
 20
88.0309502389
 30
0.0
 10
40.6025449281
 20
88.3596318919
 30
0.0
 10
40.6148010533
 20
88.5323685694
 30
0.0
  0
SPLINE
  5
30C
100
AcDbEntity
  8
0
100
AcDbSpline
 62
7
  6
CONTINUOUS
 70
0
 71
3
 72
20
 73
16
 74
0
 42
0.0000001
 43
0.0000001
 44
0.0000000001
 40
0.0
 40
0.0
 40
0.0
 40
0.0
 40
0.0467616693
 40
0.0928999557
 40
0.139480668
 40
0.1875796413
 40
0.2913493419
 40
0.3483993517
 40
0.4091377604
 40
0.5413545299
 40
0.612517102
 40
0.6864987318
 40
0.7628272304
 40
0.8409296643
 40
1.0
 40
1.0
 40
1.0
 40
1.0
 10
38.5398700131
 20
33.7808561139
 30
0.0
 10
38.3395370448
 20
33.8273224456
 30
0.0
 10
37.9486887085
 20
33.9555102
 30
0.0
 10
37.4094814306
 20
34.255538813
 30
0.0
 10
36.9330158099
 20
34.6570552095
 30
0.0
 10
36.3765676671
 20
35.334791477
 30
0.0
 10
35.9869540681
 20
36.185204798
 30
0.0
 10
35.7581229217
 20
37.1334862909
 30
0.0
 10
35.6256022237
 20
38.2273372808
 30
0.0
 10
35.6686123053
 20
39.3959497199
 30
0.0
 10
35.8597571586
 20
40.601302271
 30
0.0
 10
36.0853952398
 20
41.5498600989
 30
0.0
 10
36.3877682843
 20
42.50866184
 30
0.0
 10
36.8899500156
 20
43.7934513024
 30
0.0
 10
37.3648418477
 20
44.7263930942
 30
0.0
 10
37.7205601093
 20
45.3287725958
 30
0.0
  0
SPLINE
  5
30D
100
AcDbEntity
  8
0
100
AcDbSpline
 62
7
  6
CONTINUOUS
 70
0
 71
3
 72
9
 73
5
 74
0
 42
0.0000001
 43
0.0000001
 44
0.0000000001
 40
0.0
 40
0.0
 40
0.0
 40
0.0
 40
0.254228714
 40
1.0
 40
1.0
 40
1.0
 40
1.0
 10
34.3652040978
 20
47.8420122418
 30
0.0
 10
34.3248038401
 20
47.8753773296
 30
0.0
 10
34.1633202607
 20
48.0034599177
 30
0.0
 10
33.9914316246
 20
48.1185344902
 30
0.0
 10
33.8583194606
 20
48.1953850953
 30
0.0
  0
SPLINE
  5
30E
100
AcDbEntity
  8
0
100
AcDbSpline
 62
7
  6
CONTINUOUS
 70
0
 71
3
 72
9
 73
5
 74
0
 42
0.0000001
 43
0.0000001
 44
0.0000000001
 40
0.0
 40
0.0
 40
0.0
 40
0.0
 40
0.2538337696
 40
1.0
 40
1.0
 40
1.0
 40
1.0
 10
33.8583194606
 20
48.1953850953
 30
0.0
 10
33.8148606576
 20
48.2204754793
 30
0.0
 10
33.6415417593
 20
48.3156056758
 30
0.0
 10
33.459759263
 20
48.3954470548
 30
0.0
 10
33.3208107457
 20
48.4449793836
 30
0.0
  0
SPLINE
  5
30F
100
AcDbEntity
  8
0
100
AcDbSpline
 62
7
  6
CONTINUOUS
 70
0
 71
3
 72
9
 73
5
 74
0
 42
0.0000001
 43
0.0000001
 44
0.0000000001
 40
0.0
 40
0.0
 40
0.0
 40
0.0
 40
0.563957871
 40
1.0
 40
1.0
 40
1.0
 40
1.0
 10
33.3208107457
 20
48.4449793836
 30
0.0
 10
32.8177997769
 20
48.624292594
 30
0.0
 10
31.9264025043
 20
48.9437409015
 30
0.0
 10
31.0366253249
 20
49.2677060669
 30
0.0
 10
30.6494628578
 20
49.411180141
 30
0.0
  0
SPLINE
  5
310
100
AcDbEntity
  8
0
100
AcDbSpline
 62
7
  6
CONTINUOUS
 70
0
 71
3
 72
11
 73
7
 74
0
 42
0.0000001
 43
0.0000001
 44
0.0000000001
 40
0.0
 40
0.0
 40
0.0
 40
0.0
 40
0.2196970091
 40
0.4551037504
 40
0.7143563144
 40
1.0
 40
1.0
 40
1.0
 40
1.0
 10
33.8063859104
 20
90.4425120587
 30
0.0
 10
33.9217793216
 20
90.5090265186
 30
0.0
 10
34.1389564272
 20
90.6876789299
 30
0.0
 10
34.3815970849
 20
91.052351419
 30
0.0
 10
34.5428393794
 20
91.5009966523
 30
0.0
 10
34.5921122644
 20
91.8296783054
 30
0.0
 10
34.6043683896
 20
92.0024149828
 30
0.0
  0
SPLINE
  5
311
100
AcDbEntity
  8
0
100
AcDbSpline
 62
7
  6
CONTINUOUS
 70
0
 71
3
 72
16
 73
12
 74
0
 42
0.0000001
 43
0.0000001
 44
0.0000000001
 40
0.0
 40
0.0
 40
0.0
 40
0.0
 40
0.1510156077
 40
0.2992025403
 40
0.4414198415
 40
0.574887186
 40
0.6975816904
 40
0.8085669862
 40
0.9084380958
 40
0.9550379298
 40
1.0
 40
1.0
 40
1.0
 40
1.0
 10
36.6029555867
 20
46.1170810638
 30
0.0
 10
36.3362742785
 20
45.6754505242
 30
0.0
 10
35.8537477905
 20
44.7717833158
 30
0.0
 10
35.2890113206
 20
43.3704122618
 30
0.0
 10
34.9025635025
 20
41.9713003686
 30
0.0
 10
34.7074085847
 20
40.6202904083
 30
0.0
 10
34.7106514713
 20
39.3606325764
 30
0.0
 10
34.9136734012
 20
38.2325279991
 30
0.0
 10
35.2573697904
 20
37.4121318646
 30
0.0
 10
35.6295458956
 20
36.8720591986
 30
0.0
 10
35.8436498516
 20
36.6420572902
 30
0.0
 10
35.9568441209
 20
36.538229512
 30
0.0
  0
SPLINE
  5
312
100
AcDbEntity
  8
0
100
AcDbSpline
 62
7
  6
CONTINUOUS
 70
0
 71
3
 72
11
 73
7
 74
0
 42
0.0000001
 43
0.0000001
 44
0.0000000001
 40
0.0
 40
0.0
 40
0.0
 40
0.0
 40
0.2177524358
 40
0.4508822693
 40
0.7104037129
 40
1.0
 40
1.0
 40
1.0
 40
1.0
 10
64.5585532158
 20
114.7660867084
 30
0.0
 10
64.5585730747
 20
114.6988197343
 30
0.0
 10
64.5833091292
 20
114.55858884
 30
0.0
 10
64.6896806578
 20
114.3631799111
 30
0.0
 10
64.8577864039
 20
114.1866205094
 30
0.0
 10
64.9983730489
 20
114.0897225364
 30
0.0
 10
65.0758486522
 20
114.0449929879
 30
0.0
  0
SPLINE
  5
313
100
AcDbEntity
  8
0
100
AcDbSpline
 62
7
  6
CONTINUOUS
 70
0
 71
3
 72
9
 73
5
 74
0
 42
0.0000001
 43
0.0000001
 44
0.0000000001
 40
0.0
 40
0.0
 40
0.0
 40
0.0
 40
0.48145532
 40
1.0
 40
1.0
 40
1.0
 40
1.0
 10
34.3652040972
 20
47.842012242
 30
0.0
 10
34.8840791197
 20
47.4134924329
 30
0.0
 10
35.9860789041
 20
46.5527032884
 30
0.0
 10
37.1232065554
 20
45.7392477222
 30
0.0
 10
37.7205601093
 20
45.3287725958
 30
0.0
  0
SPLINE
  5
314
100
AcDbEntity
  8
0
100
AcDbSpline
 62
7
  6
CONTINUOUS
 70
0
 71
3
 72
12
 73
8
 74
0
 42
0.0000001
 43
0.0000001
 44
0.0000000001
 40
0.0
 40
0.0
 40
0.0
 40
0.0
 40
0.1051311189
 40
0.21207134
 40
0.4405357823
 40
0.7012522012
 40
1.0
 40
1.0
 40
1.0
 40
1.0
 10
46.8827613504
 20
26.0585063839
 30
0.0
 10
46.9304567381
 20
26.0859908478
 30
0.0
 10
47.0215685726
 20
26.150878493
 30
0.0
 10
47.1815724646
 20
26.3187060098
 30
0.0
 10
47.330602315
 20
26.5998551487
 30
0.0
 10
47.4154851606
 20
27.0072974406
 30
0.0
 10
47.4151078648
 20
27.3021259759
 30
0.0
 10
47.4030544147
 20
27.4580881269
 30
0.0
  0
SPLINE
  5
315
100
AcDbEntity
  8
0
100
AcDbSpline
 62
7
  6
CONTINUOUS
 70
0
 71
3
 72
12
 73
8
 74
0
 42
0.0000001
 43
0.0000001
 44
0.0000000001
 40
0.0
 40
0.0
 40
0.0
 40
0.0
 40
0.1051311189
 40
0.21207134
 40
0.4405357823
 40
0.7012522012
 40
1.0
 40
1.0
 40
1.0
 40
1.0
 10
52.8931940142
 20
22.5884599704
 30
0.0
 10
52.9408894019
 20
22.6159444344
 30
0.0
 10
53.0320012363
 20
22.6808320796
 30
0.0
 10
53.1920051283
 20
22.8486595964
 30
0.0
 10
53.3410349787
 20
23.1298087353
 30
0.0
 10
53.4259178244
 20
23.5372510272
 30
0.0
 10
53.4255405285
 20
23.8320795624
 30
0.0
 10
53.4134870785
 20
23.9880417135
 30
0.0
  0
SPLINE
  5
316
100
AcDbEntity
  8
0
100
AcDbSpline
 62
7
  6
CONTINUOUS
 70
0
 71
3
 72
9
 73
5
 74
0
 42
0.0000001
 43
0.0000001
 44
0.0000000001
 40
0.0
 40
0.0
 40
0.0
 40
0.0
 40
0.258563157
 40
1.0
 40
1.0
 40
1.0
 40
1.0
 10
29.1381335492
 20
39.8232227981
 30
0.0
 10
29.1782956874
 20
39.7388824552
 30
0.0
 10
29.3434577661
 20
39.4175546042
 30
0.0
 10
29.5500452914
 20
39.1168488323
 30
0.0
 10
29.725781896
 20
38.9146845038
 30
0.0
  0
SPLINE
  5
317
100
AcDbEntity
  8
0
100
AcDbSpline
 62
7
  6
CONTINUOUS
 70
0
 71
3
 72
11
 73
7
 74
0
 42
0.0000001
 43
0.0000001
 44
0.0000000001
 40
0.0
 40
0.0
 40
0.0
 40
0.0
 40
0.2491446383
 40
0.4366787482
 40
0.6247733353
 40
1.0
 40
1.0
 40
1.0
 40
1.0
 10
14.6784060394
 20
60.6979309639
 30
0.0
 10
14.6771452677
 20
60.8433543918
 30
0.0
 10
14.6735808719
 20
61.0982270911
 30
0.0
 10
14.6721920636
 20
61.4629176965
 30
0.0
 10
14.6739015765
 20
61.901201233
 30
0.0
 10
14.6708344189
 20
62.2300151348
 30
0.0
 10
14.6708344189
 20
62.4490397097
 30
0.0
  0
LINE
  5
318
100
AcDbEntity
  8
0
100
AcDbLine
 62
7
  6
CONTINUOUS
 10
14.6708344189
 20
62.4490397097
 11
14.6709130231
 21
62.6684848086
  0
SPLINE
  5
319
100
AcDbEntity
  8
0
100
AcDbSpline
 62
7
  6
CONTINUOUS
 70
0
 71
3
 72
9
 73
5
 74
0
 42
0.0000001
 43
0.0000001
 44
0.0000000001
 40
0.0
 40
0.0
 40
0.0
 40
0.0
 40
0.2519557948
 40
1.0
 40
1.0
 40
1.0
 40
1.0
 10
36.79312684
 20
33.8711643865
 30
0.0
 10
36.6905891184
 20
33.8914517746
 30
0.0
 10
36.2858591706
 20
33.9828585175
 30
0.0
 10
35.8911091413
 20
34.1187084656
 30
0.0
 10
35.6072116079
 20
34.2440374975
 30
0.0
  0
SPLINE
  5
31A
100
AcDbEntity
  8
0
100
AcDbSpline
 62
7
  6
CONTINUOUS
 70
0
 71
3
 72
20
 73
16
 74
0
 42
0.0000001
 43
0.0000001
 44
0.0000000001
 40
0.0
 40
0.0
 40
0.0
 40
0.0
 40
0.0467616693
 40
0.0928999557
 40
0.139480668
 40
0.1875796413
 40
0.2913493419
 40
0.3483993517
 40
0.4091377604
 40
0.5413545299
 40
0.612517102
 40
0.6864987318
 40
0.7628272304
 40
0.8409296643
 40
1.0
 40
1.0
 40
1.0
 40
1.0
 10
26.024027878
 20
41.0067174689
 30
0.0
 10
25.8236949097
 20
41.0531838006
 30
0.0
 10
25.4328465734
 20
41.181371555
 30
0.0
 10
24.8936392955
 20
41.481400168
 30
0.0
 10
24.4171736748
 20
41.8829165645
 30
0.0
 10
23.860725532
 20
42.560652832
 30
0.0
 10
23.471111933
 20
43.411066153
 30
0.0
 10
23.2422807866
 20
44.3593476459
 30
0.0
 10
23.1097600886
 20
45.4531986358
 30
0.0
 10
23.1527701702
 20
46.6218110749
 30
0.0
 10
23.3439150235
 20
47.827163626
 30
0.0
 10
23.5695531047
 20
48.7757214539
 30
0.0
 10
23.8719261492
 20
49.734523195
 30
0.0
 10
24.3741078805
 20
51.0193126574
 30
0.0
 10
24.8489997126
 20
51.9522544492
 30
0.0
 10
25.2047179741
 20
52.5546339508
 30
0.0
  0
SPLINE
  5
31B
100
AcDbEntity
  8
0
100
AcDbSpline
 62
7
  6
CONTINUOUS
 70
0
 71
3
 72
18
 73
14
 74
0
 42
0.0000001
 43
0.0000001
 44
0.0000000001
 40
0.0
 40
0.0
 40
0.0
 40
0.0
 40
0.1307038938
 40
0.272045053
 40
0.4171005596
 40
0.5583318194
 40
0.6889971247
 40
0.7490456351
 40
0.8051963456
 40
0.8576159877
 40
0.9068531587
 40
0.9538907039
 40
1.0
 40
1.0
 40
1.0
 40
1.0
 10
34.6043683896
 20
92.0024149828
 30
0.0
 10
34.624679031
 20
92.2886712562
 30
0.0
 10
34.5904127355
 20
92.890800067
 30
0.0
 10
34.3600153492
 20
93.7820035989
 30
0.0
 10
33.9639957272
 20
94.6391188807
 30
0.0
 10
33.4328382386
 20
95.3911108473
 30
0.0
 10
32.8937247578
 20
95.8924905978
 30
0.0
 10
32.4309058936
 20
96.1776488104
 30
0.0
 10
32.0892193899
 20
96.3241409152
 30
0.0
 10
31.7505106936
 20
96.4056714419
 30
0.0
 10
31.4219646983
 20
96.4191851843
 30
0.0
 10
31.1116376036
 20
96.3643416841
 30
0.0
 10
30.921792003
 20
96.2825790954
 30
0.0
 10
30.834082929
 20
96.2320188466
 30
0.0
  0
SPLINE
  5
31C
100
AcDbEntity
  8
0
100
AcDbSpline
 62
7
  6
CONTINUOUS
 70
0
 71
3
 72
18
 73
14
 74
0
 42
0.0000001
 43
0.0000001
 44
0.0000000001
 40
0.0
 40
0.0
 40
0.0
 40
0.0
 40
0.1307038938
 40
0.272045053
 40
0.4171005596
 40
0.5583318194
 40
0.6889971247
 40
0.7490456351
 40
0.8051963456
 40
0.8576159877
 40
0.9068531587
 40
0.9538907039
 40
1.0
 40
1.0
 40
1.0
 40
1.0
 10
40.6148010533
 20
88.5323685694
 30
0.0
 10
40.6351116948
 20
88.8186248428
 30
0.0
 10
40.6008453993
 20
89.4207536535
 30
0.0
 10
40.3704480129
 20
90.3119571854
 30
0.0
 10
39.974428391
 20
91.1690724672
 30
0.0
 10
39.4432709024
 20
91.9210644339
 30
0.0
 10
38.9041574216
 20
92.4224441843
 30
0.0
 10
38.4413385574
 20
92.707602397
 30
0.0
 10
38.0996520537
 20
92.8540945018
 30
0.0
 10
37.7609433574
 20
92.9356250285
 30
0.0
 10
37.432397362
 20
92.9491387709
 30
0.0
 10
37.1220702673
 20
92.8942952707
 30
0.0
 10
36.9322246667
 20
92.812532682
 30
0.0
 10
36.8445155927
 20
92.7619724332
 30
0.0
  0
SPLINE
  5
31D
100
AcDbEntity
  8
0
100
AcDbSpline
 62
7
  6
CONTINUOUS
 70
0
 71
3
 72
16
 73
12
 74
0
 42
0.0000001
 43
0.0000001
 44
0.0000000001
 40
0.0
 40
0.0
 40
0.0
 40
0.0
 40
0.1542079996
 40
0.305415763
 40
0.449556339
 40
0.5833962058
 40
0.7046819494
 40
0.8128488867
 40
0.9096511526
 40
0.9552758654
 40
1.0
 40
1.0
 40
1.0
 40
1.0
 10
56.6941362627
 20
104.30691729
 30
0.0
 10
56.9677511556
 20
104.2981183077
 30
0.0
 10
57.5112097161
 20
104.3123970278
 30
0.0
 10
58.3028758967
 20
104.4270670859
 30
0.0
 10
59.0394067955
 20
104.6307248964
 30
0.0
 10
59.6916132723
 20
104.9151984617
 30
0.0
 10
60.2342659671
 20
105.2706552416
 30
0.0
 10
60.6461309048
 20
105.6850590999
 30
0.0
 10
60.8683645547
 20
106.0790737289
 30
0.0
 10
60.95488471
 20
106.4013254854
 30
0.0
 10
60.9692026909
 20
106.5620671111
 30
0.0
 10
60.9692169656
 20
106.6414632195
 30
0.0
  0
SPLINE
  5
31E
100
AcDbEntity
  8
0
100
AcDbSpline
 62
7
  6
CONTINUOUS
 70
0
 71
3
 72
16
 73
12
 74
0
 42
0.0000001
 43
0.0000001
 44
0.0000000001
 40
0.0
 40
0.0
 40
0.0
 40
0.0
 40
0.1542699737
 40
0.3054828738
 40
0.4495924744
 40
0.5833877177
 40
0.7046362619
 40
0.8127900828
 40
0.9096106785
 40
0.9552539838
 40
1.0
 40
1.0
 40
1.0
 40
1.0
 10
54.2254513134
 20
109.821702767
 30
0.0
 10
54.4984715693
 20
109.8134729414
 30
0.0
 10
55.0405830676
 20
109.8287264341
 30
0.0
 10
55.8300273927
 20
109.9444335119
 30
0.0
 10
56.5641720657
 20
110.1486760261
 30
0.0
 10
57.2140461461
 20
110.4332952981
 30
0.0
 10
57.7546138188
 20
110.7884975572
 30
0.0
 10
58.1648002061
 20
111.2023072974
 30
0.0
 10
58.3860519752
 20
111.5955285021
 30
0.0
 10
58.4721930658
 20
111.917073042
 30
0.0
 10
58.4864470874
 20
112.0774614941
 30
0.0
 10
58.4864612195
 20
112.1566870055
 30
0.0
  0
SPLINE
  5
31F
100
AcDbEntity
  8
0
100
AcDbSpline
 62
7
  6
CONTINUOUS
 70
0
 71
3
 72
15
 73
11
 74
0
 42
0.0000001
 43
0.0000001
 44
0.0000000001
 40
0.0
 40
0.0
 40
0.0
 40
0.0
 40
0.1174825194
 40
0.2452509919
 40
0.3794949141
 40
0.5160226074
 40
0.6502305544
 40
0.7777646336
 40
0.8951655545
 40
1.0
 40
1.0
 40
1.0
 40
1.0
 10
65.0758486522
 20
114.0449929879
 30
0.0
 10
65.174323568
 20
113.988139755
 30
0.0
 10
65.3921472635
 20
113.8901993407
 30
0.0
 10
65.7476680173
 20
113.793346516
 30
0.0
 10
66.131408593
 20
113.7439959883
 30
0.0
 10
66.5244475982
 20
113.744340876
 30
0.0
 10
66.907763332
 20
113.7945538978
 30
0.0
 10
67.2629449866
 20
113.8920720673
 30
0.0
 10
67.5726250033
 20
114.0324298028
 30
0.0
 10
67.7498020432
 20
114.158044108
 30
0.0
 10
67.8242093023
 20
114.2270298959
 30
0.0
  0
SPLINE
  5
320
100
AcDbEntity
  8
0
100
AcDbSpline
 62
7
  6
CONTINUOUS
 70
0
 71
3
 72
9
 73
5
 74
0
 42
0.0000001
 43
0.0000001
 44
0.0000000001
 40
0.0
 40
0.0
 40
0.0
 40
0.0
 40
0.48145532
 40
1.0
 40
1.0
 40
1.0
 40
1.0
 10
21.8493619621
 20
55.067873597
 30
0.0
 10
22.3682369846
 20
54.6393537879
 30
0.0
 10
23.470236769
 20
53.7785646434
 30
0.0
 10
24.6073644203
 20
52.9651090772
 30
0.0
 10
25.2047179741
 20
52.5546339508
 30
0.0
  0
SPLINE
  5
321
100
AcDbEntity
  8
0
100
AcDbSpline
 62
7
  6
CONTINUOUS
 70
0
 71
3
 72
9
 73
5
 74
0
 42
0.0000001
 43
0.0000001
 44
0.0000000001
 40
0.0
 40
0.0
 40
0.0
 40
0.0
 40
0.563957871
 40
1.0
 40
1.0
 40
1.0
 40
1.0
 10
20.8049686106
 20
55.6708407386
 30
0.0
 10
20.3019576418
 20
55.850153949
 30
0.0
 10
19.4105603692
 20
56.1696022566
 30
0.0
 10
18.5207831898
 20
56.4935674219
 30
0.0
 10
18.1336207227
 20
56.637041496
 30
0.0
  0
SPLINE
  5
322
100
AcDbEntity
  8
0
100
AcDbSpline
 62
7
  6
CONTINUOUS
 70
0
 71
3
 72
9
 73
5
 74
0
 42
0.0000001
 43
0.0000001
 44
0.0000000001
 40
0.0
 40
0.0
 40
0.0
 40
0.0
 40
0.2538337696
 40
1.0
 40
1.0
 40
1.0
 40
1.0
 10
21.3424773255
 20
55.4212464503
 30
0.0
 10
21.2990185225
 20
55.4463368343
 30
0.0
 10
21.1256996242
 20
55.5414670308
 30
0.0
 10
20.9439171279
 20
55.6213084098
 30
0.0
 10
20.8049686106
 20
55.6708407386
 30
0.0
  0
SPLINE
  5
323
100
AcDbEntity
  8
0
100
AcDbSpline
 62
7
  6
CONTINUOUS
 70
0
 71
3
 72
9
 73
5
 74
0
 42
0.0000001
 43
0.0000001
 44
0.0000000001
 40
0.0
 40
0.0
 40
0.0
 40
0.0
 40
0.254228714
 40
1.0
 40
1.0
 40
1.0
 40
1.0
 10
21.8493619627
 20
55.0678735968
 30
0.0
 10
21.808961705
 20
55.1012386846
 30
0.0
 10
21.6474781256
 20
55.2293212727
 30
0.0
 10
21.4755894895
 20
55.3443958452
 30
0.0
 10
21.3424773255
 20
55.4212464503
 30
0.0
  0
SPLINE
  5
324
100
AcDbEntity
  8
0
100
AcDbSpline
 62
7
  6
CONTINUOUS
 70
0
 71
3
 72
19
 73
15
 74
0
 42
0.0000001
 43
0.0000001
 44
0.0000000001
 40
0.0
 40
0.0
 40
0.0
 40
0.0
 40
0.0608253302
 40
0.1263375722
 40
0.2677191843
 40
0.4162742155
 40
0.562830928
 40
0.6986344509
 40
0.760407096
 40
0.8173018457
 40
0.8691471914
 40
0.9162042077
 40
0.9593415949
 40
1.0
 40
1.0
 40
1.0
 40
1.0
 10
53.4134870785
 20
23.9880417135
 30
0.0
 10
53.4034718712
 20
24.117630608
 30
0.0
 10
53.3655048987
 20
24.3856212897
 30
0.0
 10
53.2270583018
 20
24.9414563475
 30
0.0
 10
52.9417934274
 20
25.6497394365
 30
0.0
 10
52.4623155742
 20
26.4537868342
 30
0.0
 10
51.8740818485
 20
27.1668947258
 30
0.0
 10
51.3135069228
 20
27.6506233656
 30
0.0
 10
50.8484961155
 20
27.9346583126
 30
0.0
 10
50.5152669156
 20
28.084788854
 30
0.0
 10
50.1934130538
 20
28.1755136845
 30
0.0
 10
49.8891605742
 20
28.2037954038
 30
0.0
 10
49.6092734221
 20
28.1684820997
 30
0.0
 10
49.4407902452
 20
28.1007016556
 30
0.0
 10
49.365513831
 20
28.0573214954
 30
0.0
  0
SPLINE
  5
325
100
AcDbEntity
  8
0
100
AcDbSpline
 62
7
  6
CONTINUOUS
 70
0
 71
3
 72
11
 73
7
 74
0
 42
0.0000001
 43
0.0000001
 44
0.0000000001
 40
0.0
 40
0.0
 40
0.0
 40
0.0
 40
0.2233028331
 40
0.4697810245
 40
0.7317278834
 40
1.0
 40
1.0
 40
1.0
 40
1.0
 10
47.4030544147
 20
27.4580881269
 30
0.0
 10
47.3874959725
 20
27.6594021157
 30
0.0
 10
47.3133696817
 20
28.0800304343
 30
0.0
 10
47.1049719119
 20
28.7098410318
 30
0.0
 10
46.8021021508
 20
29.3453462952
 30
0.0
 10
46.5456701099
 20
29.7519740698
 30
0.0
 10
46.4044008869
 20
29.9491701025
 30
0.0
  0
SPLINE
  5
326
100
AcDbEntity
  8
0
100
AcDbSpline
 62
7
  6
CONTINUOUS
 70
0
 71
3
 72
15
 73
11
 74
0
 42
0.0000001
 43
0.0000001
 44
0.0000000001
 40
0.0
 40
0.0
 40
0.0
 40
0.0
 40
0.1130049594
 40
0.2334994841
 40
0.3597533804
 40
0.4896875657
 40
0.6210112736
 40
0.7513523857
 40
0.8784230283
 40
1.0
 40
1.0
 40
1.0
 40
1.0
 10
22.2245431819
 20
56.3572220501
 30
0.0
 10
22.5844068654
 20
56.1381638804
 30
0.0
 10
23.2972064674
 20
55.6337958281
 30
0.0
 10
24.2980060285
 20
54.7373889894
 30
0.0
 10
25.2457273549
 20
53.6980959836
 30
0.0
 10
26.1183280399
 20
52.5443639325
 30
0.0
 10
26.8966650386
 20
51.3071955047
 30
0.0
 10
27.5647777058
 20
50.0192386168
 30
0.0
 10
28.1092944189
 20
48.7137610806
 30
0.0
 10
28.3910107091
 20
47.8290204675
 30
0.0
 10
28.5072612275
 20
47.3909311353
 30
0.0
  0
SPLINE
  5
327
100
AcDbEntity
  8
0
100
AcDbSpline
 62
7
  6
CONTINUOUS
 70
0
 71
3
 72
9
 73
5
 74
0
 42
0.0000001
 43
0.0000001
 44
0.0000000001
 40
0.0
 40
0.0
 40
0.0
 40
0.0
 40
0.2460229919
 40
1.0
 40
1.0
 40
1.0
 40
1.0
 10
42.4965767377
 20
27.687370459
 30
0.0
 10
42.3770657267
 20
28.4513830765
 30
0.0
 10
41.9223880514
 20
31.5616465707
 30
0.0
 10
41.5901929922
 20
34.6895943891
 30
0.0
 10
41.4035282913
 20
37.0521442941
 30
0.0
  0
SPLINE
  5
328
100
AcDbEntity
  8
0
100
AcDbSpline
 62
7
  6
CONTINUOUS
 70
0
 71
3
 72
14
 73
10
 74
0
 42
0.0000001
 43
0.0000001
 44
0.0000000001
 40
0.0
 40
0.0
 40
0.0
 40
0.0
 40
0.1438813634
 40
0.2858665408
 40
0.4237962132
 40
0.5558209667
 40
0.6803400824
 40
0.7962238449
 40
1.0
 40
1.0
 40
1.0
 40
1.0
 10
18.1336207227
 20
56.637041496
 30
0.0
 10
17.8888144731
 20
56.2224823278
 30
0.0
 10
17.4379870269
 20
55.3772098595
 30
0.0
 10
16.8821159346
 20
54.0706884168
 30
0.0
 10
16.4601475441
 20
52.7562098423
 30
0.0
 10
16.1813754316
 20
51.4639033771
 30
0.0
 10
16.052490881
 20
50.2206955585
 30
0.0
 10
16.0822185674
 20
48.7342929439
 30
0.0
 10
16.3291362196
 20
47.6647089867
 30
0.0
 10
16.6222914141
 20
47.0490841532
 30
0.0
  0
SPLINE
  5
329
100
AcDbEntity
  8
0
100
AcDbSpline
 62
7
  6
CONTINUOUS
 70
0
 71
3
 72
9
 73
5
 74
0
 42
0.0000001
 43
0.0000001
 44
0.0000000001
 40
0.0
 40
0.0
 40
0.0
 40
0.0
 40
0.2473067197
 40
1.0
 40
1.0
 40
1.0
 40
1.0
 10
41.2570328715
 20
39.1095660406
 30
0.0
 10
41.2201203671
 20
39.6911037618
 30
0.0
 10
41.0860643279
 20
42.0435336172
 30
0.0
 10
41.0121483629
 20
44.3993429959
 30
0.0
 10
40.9885064302
 20
46.1726933138
 30
0.0
  0
LINE
  5
32A
100
AcDbEntity
  8
0
100
AcDbLine
 62
7
  6
CONTINUOUS
 10
39.8439406342
 20
47.9156688488
 11
39.8442723198
 21
48.2832864341
  0
SPLINE
  5
32B
100
AcDbEntity
  8
0
100
AcDbSpline
 62
7
  6
CONTINUOUS
 70
0
 71
3
 72
11
 73
7
 74
0
 42
0.0000001
 43
0.0000001
 44
0.0000000001
 40
0.0
 40
0.0
 40
0.0
 40
0.0
 40
0.2228062379
 40
0.4595891069
 40
0.7177459295
 40
1.0
 40
1.0
 40
1.0
 40
1.0
 10
30.834082929
 20
96.2320188466
 30
0.0
 10
30.7152163024
 20
96.1634977013
 30
0.0
 10
30.4916101223
 20
95.9817590037
 30
0.0
 10
30.2394485564
 20
95.6127264979
 30
0.0
 10
30.0714708108
 20
95.1604353077
 30
0.0
 10
30.0204565009
 20
94.8293536039
 30
0.0
 10
30.0081551761
 20
94.6559798872
 30
0.0
  0
SPLINE
  5
32C
100
AcDbEntity
  8
0
100
AcDbSpline
 62
7
  6
CONTINUOUS
 70
0
 71
3
 72
12
 73
8
 74
0
 42
0.0000001
 43
0.0000001
 44
0.0000000001
 40
0.0
 40
0.0
 40
0.0
 40
0.0
 40
0.1081619406
 40
0.2183697105
 40
0.45133221
 40
0.7104687315
 40
1.0
 40
1.0
 40
1.0
 40
1.0
 10
58.4864612195
 20
112.1566870055
 30
0.0
 10
58.4864748955
 20
112.2333558246
 30
0.0
 10
58.4731349085
 20
112.3884681686
 30
0.0
 10
58.3925067716
 20
112.6993741408
 30
0.0
 10
58.1857677394
 20
113.0807364176
 30
0.0
 10
57.8004512689
 20
113.485278502
 30
0.0
 10
57.4780312023
 20
113.7074128295
 30
0.0
 10
57.3002962377
 20
113.8100258377
 30
0.0
  0
SPLINE
  5
32D
100
AcDbEntity
  8
0
100
AcDbSpline
 62
7
  6
CONTINUOUS
 70
0
 71
3
 72
9
 73
5
 74
0
 42
0.0000001
 43
0.0000001
 44
0.0000000001
 40
0.0
 40
0.0
 40
0.0
 40
0.0
 40
0.2287872083
 40
1.0
 40
1.0
 40
1.0
 40
1.0
 10
39.6329929078
 20
48.3246054203
 30
0.0
 10
39.6329929078
 20
48.3357654026
 30
0.0
 10
39.6373674761
 20
48.3845126429
 30
0.0
 10
39.6556068936
 20
48.4314104753
 30
0.0
 10
39.6744162609
 20
48.4639894359
 30
0.0
  0
SPLINE
  5
32E
100
AcDbEntity
  8
0
100
AcDbSpline
 62
7
  6
CONTINUOUS
 70
0
 71
3
 72
9
 73
5
 74
0
 42
0.0000001
 43
0.0000001
 44
0.0000000001
 40
0.0
 40
0.0
 40
0.0
 40
0.0
 40
0.2670409942
 40
1.0
 40
1.0
 40
1.0
 40
1.0
 10
39.6744162609
 20
48.4639894359
 30
0.0
 10
39.6809252431
 20
48.4752633864
 30
0.0
 10
39.707613586
 20
48.5159678408
 30
0.0
 10
39.7434695709
 20
48.5516892542
 30
0.0
 10
39.7744136753
 20
48.5695547345
 30
0.0
  0
SPLINE
  5
32F
100
AcDbEntity
  8
0
100
AcDbSpline
 62
7
  6
CONTINUOUS
 70
0
 71
3
 72
9
 73
5
 74
0
 42
0.0000001
 43
0.0000001
 44
0.0000000001
 40
0.0
 40
0.0
 40
0.0
 40
0.0
 40
0.2463759314
 40
1.0
 40
1.0
 40
1.0
 40
1.0
 10
39.845124059
 20
48.6103791499
 30
0.0
 10
39.8492070281
 20
49.8099734477
 30
0.0
 10
39.9085801044
 20
54.6787218751
 30
0.0
 10
40.1364256442
 20
59.545178421
 30
0.0
 10
40.3956192678
 20
63.2053985836
 30
0.0
  0
SPLINE
  5
330
100
AcDbEntity
  8
0
100
AcDbSpline
 62
7
  6
CONTINUOUS
 70
0
 71
3
 72
9
 73
5
 74
0
 42
0.0000001
 43
0.0000001
 44
0.0000000001
 40
0.0
 40
0.0
 40
0.0
 40
0.0
 40
0.4918854007
 40
1.0
 40
1.0
 40
1.0
 40
1.0
 10
53.9506621866
 20
71.0429590729
 30
0.0
 10
53.9506621866
 20
73.667710334
 30
0.0
 10
54.1153727459
 20
79.004786439
 30
0.0
 10
54.5822104813
 20
84.32339319
 30
0.0
 10
54.8900579367
 20
87.0172119084
 30
0.0
  0
SPLINE
  5
331
100
AcDbEntity
  8
0
100
AcDbSpline
 62
7
  6
CONTINUOUS
 70
0
 71
3
 72
15
 73
11
 74
0
 42
0.0000001
 43
0.0000001
 44
0.0000000001
 40
0.0
 40
0.0
 40
0.0
 40
0.0
 40
0.1221504999
 40
0.2364021016
 40
0.3470270666
 40
0.4590482533
 40
0.5773076964
 40
0.7055601931
 40
0.8461623688
 40
1.0
 40
1.0
 40
1.0
 40
1.0
 10
16.1154304549
 20
55.0698452226
 30
0.0
 10
16.203665776
 20
55.3377084933
 30
0.0
 10
16.4249690584
 20
55.8421010667
 30
0.0
 10
16.9144363738
 20
56.486754916
 30
0.0
 10
17.5378356316
 20
56.9678771234
 30
0.0
 10
18.2762090531
 20
57.2664018956
 30
0.0
 10
19.1049651948
 20
57.3738021735
 30
0.0
 10
20.0010506859
 20
57.2901363305
 30
0.0
 10
20.9433213352
 20
57.0189594351
 30
0.0
 10
21.5617568792
 20
56.7302305365
 30
0.0
 10
21.8734673208
 20
56.5599655488
 30
0.0
  0
SPLINE
  5
332
100
AcDbEntity
  8
0
100
AcDbSpline
 62
7
  6
CONTINUOUS
 70
0
 71
3
 72
12
 73
8
 74
0
 42
0.0000001
 43
0.0000001
 44
0.0000000001
 40
0.0
 40
0.0
 40
0.0
 40
0.0
 40
0.108161999
 40
0.2183697316
 40
0.4513319337
 40
0.7104693569
 40
1.0
 40
1.0
 40
1.0
 40
1.0
 10
60.9692169656
 20
106.6414632195
 30
0.0
 10
60.9692307499
 20
106.7181320711
 30
0.0
 10
60.9558889388
 20
106.8732442462
 30
0.0
 10
60.8752627169
 20
107.1841502978
 30
0.0
 10
60.6685229167
 20
107.5655129756
 30
0.0
 10
60.2832060363
 20
107.970054315
 30
0.0
 10
59.9607862343
 20
108.1921892781
 30
0.0
 10
59.7830516742
 20
108.2948020528
 30
0.0
  0
SPLINE
  5
333
100
AcDbEntity
  8
0
100
AcDbSpline
 62
7
  6
CONTINUOUS
 70
0
 71
3
 72
9
 73
5
 74
0
 42
0.0000001
 43
0.0000001
 44
0.0000000001
 40
0.0
 40
0.0
 40
0.0
 40
0.0
 40
0.506706324
 40
1.0
 40
1.0
 40
1.0
 40
1.0
 10
38.5398700131
 20
33.7808561139
 30
0.0
 10
38.244778445
 20
33.7558602362
 30
0.0
 10
37.6584307677
 20
33.7444054422
 30
0.0
 10
37.0759534432
 20
33.8152063157
 30
0.0
 10
36.79312684
 20
33.8711643865
 30
0.0
  0
SPLINE
  5
334
100
AcDbEntity
  8
0
100
AcDbSpline
 62
7
  6
CONTINUOUS
 70
0
 71
3
 72
9
 73
5
 74
0
 42
0.0000001
 43
0.0000001
 44
0.0000000001
 40
0.0
 40
0.0
 40
0.0
 40
0.0
 40
0.2582124144
 40
1.0
 40
1.0
 40
1.0
 40
1.0
 10
66.6790887909
 20
101.988340209
 30
0.0
 10
66.6790887909
 20
101.9543965279
 30
0.0
 10
66.6814804923
 20
101.8229615903
 30
0.0
 10
66.6936397572
 20
101.6916222902
 30
0.0
 10
66.7091092188
 20
101.5953444052
 30
0.0
  0
SPLINE
  5
335
100
AcDbEntity
  8
0
100
AcDbSpline
 62
7
  6
CONTINUOUS
 70
0
 71
3
 72
10
 73
6
 74
0
 42
0.0000001
 43
0.0000001
 44
0.0000000001
 40
0.0
 40
0.0
 40
0.0
 40
0.0
 40
0.5246898773
 40
0.7706838636
 40
1.0
 40
1.0
 40
1.0
 40
1.0
 10
67.1733973709
 20
103.8452277636
 30
0.0
 10
67.0193217594
 20
103.5436649505
 30
0.0
 10
66.8346975633
 20
103.0763526235
 30
0.0
 10
66.7030570406
 20
102.4434152023
 30
0.0
 10
66.6790887909
 20
102.136344628
 30
0.0
 10
66.6790887909
 20
101.988340209
 30
0.0
  0
SPLINE
  5
336
100
AcDbEntity
  8
0
100
AcDbSpline
 62
7
  6
CONTINUOUS
 70
0
 71
3
 72
9
 73
5
 74
0
 42
0.0000001
 43
0.0000001
 44
0.0000000001
 40
0.0
 40
0.0
 40
0.0
 40
0.0
 40
0.490667252
 40
1.0
 40
1.0
 40
1.0
 40
1.0
 10
54.8900579367
 20
17.7778069358
 30
0.0
 10
54.5713914084
 20
20.1983357205
 30
0.0
 10
54.0989298543
 20
25.1559671042
 30
0.0
 10
53.9506621866
 20
30.1330563255
 30
0.0
 10
53.9506621866
 20
32.6673454681
 30
0.0
  0
SPLINE
  5
337
100
AcDbEntity
  8
0
100
AcDbSpline
 62
7
  6
CONTINUOUS
 70
0
 71
3
 72
11
 73
7
 74
0
 42
0.0000001
 43
0.0000001
 44
0.0000000001
 40
0.0
 40
0.0
 40
0.0
 40
0.0
 40
0.2228062379
 40
0.4595891069
 40
0.7177459295
 40
1.0
 40
1.0
 40
1.0
 40
1.0
 10
36.8445155927
 20
92.7619724332
 30
0.0
 10
36.7256489661
 20
92.6934512878
 30
0.0
 10
36.5020427861
 20
92.5117125903
 30
0.0
 10
36.2498812202
 20
92.1426800845
 30
0.0
 10
36.0819034746
 20
91.6903888943
 30
0.0
 10
36.0308891647
 20
91.3593071904
 30
0.0
 10
36.0185878399
 20
91.1859334737
 30
0.0
  0
SPLINE
  5
338
100
AcDbEntity
  8
0
100
AcDbSpline
 62
7
  6
CONTINUOUS
 70
0
 71
3
 72
19
 73
15
 74
0
 42
0.0000001
 43
0.0000001
 44
0.0000000001
 40
0.0
 40
0.0
 40
0.0
 40
0.0
 40
0.0610093756
 40
0.1265993427
 40
0.2681244489
 40
0.417212854
 40
0.564783327
 40
0.7016754395
 40
0.7637765593
 40
0.8207233668
 40
0.8722603663
 40
0.9186041329
 40
0.9606590301
 40
1.0
 40
1.0
 40
1.0
 40
1.0
 10
48.817273865
 20
26.6416066179
 30
0.0
 10
48.8272807277
 20
26.5121256957
 30
0.0
 10
48.8661330321
 20
26.2446675335
 30
0.0
 10
49.009551775
 20
25.6913808516
 30
0.0
 10
49.3063750686
 20
24.9889165982
 30
0.0
 10
49.8022570344
 20
24.1948743509
 30
0.0
 10
50.4045887653
 20
23.491188097
 30
0.0
 10
50.9714316223
 20
23.0119924195
 30
0.0
 10
51.4375038908
 20
22.7279383906
 30
0.0
 10
51.7687088076
 20
22.5766181526
 30
0.0
 10
52.0862397379
 20
22.4833426756
 30
0.0
 10
52.3843640946
 20
22.4512657353
 30
0.0
 10
52.6570610975
 20
22.4819535004
 30
0.0
 10
52.820636088
 20
22.5466484704
 30
0.0
 10
52.8931940142
 20
22.5884599704
 30
0.0
  0
SPLINE
  5
339
100
AcDbEntity
  8
0
100
AcDbSpline
 62
7
  6
CONTINUOUS
 70
0
 71
3
 72
15
 73
11
 74
0
 42
0.0000001
 43
0.0000001
 44
0.0000000001
 40
0.0
 40
0.0
 40
0.0
 40
0.0
 40
0.1137843646
 40
0.2359401351
 40
0.3642542809
 40
0.4960392932
 40
0.6283819081
 40
0.758323594
 40
0.8830411944
 40
1.0
 40
1.0
 40
1.0
 40
1.0
 10
34.6547921441
 20
49.1828132593
 30
0.0
 10
35.0580541192
 20
48.9434720193
 30
0.0
 10
35.8559559553
 20
48.3811375228
 30
0.0
 10
36.9660275345
 20
47.365810916
 30
0.0
 10
38.0059967502
 20
46.1785122382
 30
0.0
 10
38.9460663788
 20
44.8593234059
 30
0.0
 10
39.7613342752
 20
43.4520194629
 30
0.0
 10
40.4313511451
 20
42.0020360517
 30
0.0
 10
40.9402183199
 20
40.555111238
 30
0.0
 10
41.1733783672
 20
39.5842740035
 30
0.0
 10
41.2570328715
 20
39.1095660405
 30
0.0
  0
SPLINE
  5
33A
100
AcDbEntity
  8
0
100
AcDbSpline
 62
7
  6
CONTINUOUS
 70
0
 71
3
 72
16
 73
12
 74
0
 42
0.0000001
 43
0.0000001
 44
0.0000000001
 40
0.0
 40
0.0
 40
0.0
 40
0.0
 40
0.155074322
 40
0.3090088745
 40
0.4568695458
 40
0.5941745008
 40
0.717449139
 40
0.8248806559
 40
0.9173328023
 40
0.9594632756
 40
1.0
 40
1.0
 40
1.0
 40
1.0
 10
43.441377325
 20
28.2447584878
 30
0.0
 10
43.5550043309
 20
28.0477002944
 30
0.0
 10
43.8040153572
 20
27.6676508351
 30
0.0
 10
44.2303701787
 20
27.1489734651
 30
0.0
 10
44.6938666559
 20
26.699531018
 30
0.0
 10
45.1743422383
 20
26.3386159507
 30
0.0
 10
45.6515600261
 20
26.0809110118
 30
0.0
 10
46.1069352885
 20
25.9371808979
 30
0.0
 10
46.4679331861
 20
25.9212841877
 30
0.0
 10
46.7196239133
 20
25.9790201524
 30
0.0
 10
46.8312417912
 20
26.0288182414
 30
0.0
 10
46.8827613504
 20
26.0585063839
 30
0.0
  0
SPLINE
  5
33B
100
AcDbEntity
  8
0
100
AcDbSpline
 62
7
  6
CONTINUOUS
 70
0
 71
3
 72
9
 73
5
 74
0
 42
0.0000001
 43
0.0000001
 44
0.0000000001
 40
0.0
 40
0.0
 40
0.0
 40
0.0
 40
0.5303504473
 40
1.0
 40
1.0
 40
1.0
 40
1.0
 10
41.2570328715
 20
39.1095660406
 30
0.0
 10
41.2128980359
 20
38.7454759258
 30
0.0
 10
41.1844130569
 20
38.0504367235
 30
0.0
 10
41.3027895157
 20
37.3609044883
 30
0.0
 10
41.4035282913
 20
37.0521442941
 30
0.0
  0
SPLINE
  5
33C
100
AcDbEntity
  8
0
100
AcDbSpline
 62
7
  6
CONTINUOUS
 70
0
 71
3
 72
12
 73
8
 74
0
 42
0.0000001
 43
0.0000001
 44
0.0000000001
 40
0.0
 40
0.0
 40
0.0
 40
0.0
 40
0.1073105621
 40
0.2161299138
 40
0.4464496019
 40
0.7057444691
 40
1.0
 40
1.0
 40
1.0
 40
1.0
 10
49.365513831
 20
28.0573214954
 30
0.0
 10
49.3159891728
 20
28.0287815122
 30
0.0
 10
49.2213353769
 20
27.9618828852
 30
0.0
 10
49.0546824121
 20
27.7906272716
 30
0.0
 10
48.8976615925
 20
27.50624507
 30
0.0
 10
48.8061477739
 20
27.0948236216
 30
0.0
 10
48.8051965461
 20
26.7978776125
 30
0.0
 10
48.817273865
 20
26.6416066179
 30
0.0
  0
SPLINE
  5
33D
100
AcDbEntity
  8
0
100
AcDbSpline
 62
7
  6
CONTINUOUS
 70
0
 71
3
 72
18
 73
14
 74
0
 42
0.0000001
 43
0.0000001
 44
0.0000000001
 40
0.0
 40
0.0
 40
0.0
 40
0.0
 40
0.1309199756
 40
0.2724409271
 40
0.4180620071
 40
0.5602464258
 40
0.6918700227
 40
0.7521879276
 40
0.8083539812
 40
0.8604592118
 40
0.90901942
 40
0.9550644336
 40
1.0
 40
1.0
 40
1.0
 40
1.0
 10
30.0081551761
 20
94.6559798872
 30
0.0
 10
29.9879075051
 20
94.3706111144
 30
0.0
 10
30.0256509695
 20
93.7700828815
 30
0.0
 10
30.269827162
 20
92.8844710495
 30
0.0
 10
30.6832358008
 20
92.036330549
 30
0.0
 10
31.2291959953
 20
91.294004906
 30
0.0
 10
31.7741883429
 20
90.7980707904
 30
0.0
 10
32.2373358296
 20
90.5134611979
 30
0.0
 10
32.5764777557
 20
90.365982892
 30
0.0
 10
32.9105486546
 20
90.2818666624
 30
0.0
 10
33.2329676585
 20
90.2644426711
 30
0.0
 10
33.5363086562
 20
90.3146986235
 30
0.0
 10
33.7213137061
 20
90.3934751885
 30
0.0
 10
33.8063859104
 20
90.4425120587
 30
0.0
  0
SPLINE
  5
33E
100
AcDbEntity
  8
0
100
AcDbSpline
 62
7
  6
CONTINUOUS
 70
0
 71
3
 72
15
 73
11
 74
0
 42
0.0000001
 43
0.0000001
 44
0.0000000001
 40
0.0
 40
0.0
 40
0.0
 40
0.0
 40
0.1516494993
 40
0.2908995154
 40
0.418759657
 40
0.5375338192
 40
0.6506255956
 40
0.762370911
 40
0.8774368127
 40
1.0
 40
1.0
 40
1.0
 40
1.0
 10
41.4035282913
 20
37.0521442942
 30
0.0
 10
41.390697251
 20
36.8031518204
 30
0.0
 10
41.3406803537
 20
36.3261730866
 30
0.0
 10
41.1793814036
 20
35.6545061955
 30
0.0
 10
40.9347463822
 20
35.065715459
 30
0.0
 10
40.6071421463
 20
34.5684241729
 30
0.0
 10
40.1982371433
 20
34.1715394025
 30
0.0
 10
39.7129305484
 20
33.8840171472
 30
0.0
 10
39.1602075746
 20
33.7115490365
 30
0.0
 10
38.7683201243
 20
33.6752974989
 30
0.0
 10
38.5668208524
 20
33.674099046
 30
0.0
  0
SPLINE
  5
33F
100
AcDbEntity
  8
0
100
AcDbSpline
 62
7
  6
CONTINUOUS
 70
0
 71
3
 72
18
 73
14
 74
0
 42
0.0000001
 43
0.0000001
 44
0.0000000001
 40
0.0
 40
0.0
 40
0.0
 40
0.0
 40
0.1309199756
 40
0.2724409271
 40
0.4180620071
 40
0.5602464258
 40
0.6918700227
 40
0.7521879276
 40
0.8083539812
 40
0.8604592118
 40
0.90901942
 40
0.9550644336
 40
1.0
 40
1.0
 40
1.0
 40
1.0
 10
36.0185878399
 20
91.1859334737
 30
0.0
 10
35.9983401689
 20
90.9005647009
 30
0.0
 10
36.0360836332
 20
90.3000364681
 30
0.0
 10
36.2802598257
 20
89.4144246361
 30
0.0
 10
36.6936684645
 20
88.5662841356
 30
0.0
 10
37.239628659
 20
87.8239584926
 30
0.0
 10
37.7846210066
 20
87.328024377
 30
0.0
 10
38.2477684934
 20
87.0434147845
 30
0.0
 10
38.5869104194
 20
86.8959364786
 30
0.0
 10
38.9209813183
 20
86.8118202489
 30
0.0
 10
39.2434003222
 20
86.7943962577
 30
0.0
 10
39.54674132
 20
86.8446522101
 30
0.0
 10
39.7317463699
 20
86.9234287751
 30
0.0
 10
39.8168185741
 20
86.9724656452
 30
0.0
  0
SPLINE
  5
340
100
AcDbEntity
  8
0
100
AcDbSpline
 62
7
  6
CONTINUOUS
 70
0
 71
3
 72
14
 73
10
 74
0
 42
0.0000001
 43
0.0000001
 44
0.0000000001
 40
0.0
 40
0.0
 40
0.0
 40
0.0
 40
0.1438813634
 40
0.2858665408
 40
0.4237962132
 40
0.5558209667
 40
0.6803400824
 40
0.7962238449
 40
1.0
 40
1.0
 40
1.0
 40
1.0
 10
30.6494628578
 20
49.411180141
 30
0.0
 10
30.4046566082
 20
48.9966209728
 30
0.0
 10
29.953829162
 20
48.1513485045
 30
0.0
 10
29.3979580697
 20
46.8448270618
 30
0.0
 10
28.9759896792
 20
45.5303484873
 30
0.0
 10
28.6972175667
 20
44.2380420221
 30
0.0
 10
28.5683330161
 20
42.9948342035
 30
0.0
 10
28.5980607025
 20
41.5084315889
 30
0.0
 10
28.8449783547
 20
40.4388476317
 30
0.0
 10
29.1381335492
 20
39.8232227981
 30
0.0
  0
SPLINE
  5
341
100
AcDbEntity
  8
0
100
AcDbSpline
 62
7
  6
CONTINUOUS
 70
0
 71
3
 72
11
 73
7
 74
0
 42
0.0000001
 43
0.0000001
 44
0.0000000001
 40
0.0
 40
0.0
 40
0.0
 40
0.0
 40
0.2287695179
 40
0.474769051
 40
0.733653344
 40
1.0
 40
1.0
 40
1.0
 40
1.0
 10
59.7830516742
 20
108.2948020528
 30
0.0
 10
59.6014656544
 20
108.3996384185
 30
0.0
 10
59.2064774622
 20
108.5865093653
 30
0.0
 10
58.5645865024
 20
108.7920864823
 30
0.0
 10
57.8693219532
 20
108.9274853867
 30
0.0
 10
57.388590001
 20
108.9681626651
 30
0.0
 10
57.144598912
 20
108.976008997
 30
0.0
  0
SPLINE
  5
342
100
AcDbEntity
  8
0
100
AcDbSpline
 62
7
  6
CONTINUOUS
 70
0
 71
3
 72
16
 73
12
 74
0
 42
0.0000001
 43
0.0000001
 44
0.0000000001
 40
0.0
 40
0.0
 40
0.0
 40
0.0
 40
0.1541992182
 40
0.3053957121
 40
0.4495285901
 40
0.5833619075
 40
0.7046453376
 40
0.8128097287
 40
0.909610625
 40
0.9552685363
 40
1.0
 40
1.0
 40
1.0
 40
1.0
 10
57.144598912
 20
108.976008997
 30
0.0
 10
56.8709995641
 20
108.9848074794
 30
0.0
 10
56.3275767419
 20
108.9705321069
 30
0.0
 10
55.5359582096
 20
108.8558770378
 30
0.0
 10
54.799468499
 20
108.6522432267
 30
0.0
 10
54.1472755053
 20
108.3678152017
 30
0.0
 10
53.6046268845
 20
108.0123820341
 30
0.0
 10
53.1927463506
 20
107.5980336079
 30
0.0
 10
52.9703561727
 20
107.2040261447
 30
0.0
 10
52.8839210934
 20
106.8816767513
 30
0.0
 10
52.869562026
 20
106.7208719798
 30
0.0
 10
52.8695281016
 20
106.6414628561
 30
0.0
  0
SPLINE
  5
343
100
AcDbEntity
  8
0
100
AcDbSpline
 62
7
  6
CONTINUOUS
 70
0
 71
3
 72
11
 73
7
 74
0
 42
0.0000001
 43
0.0000001
 44
0.0000000001
 40
0.0
 40
0.0
 40
0.0
 40
0.0
 40
0.2287327103
 40
0.4747539022
 40
0.7336699596
 40
1.0
 40
1.0
 40
1.0
 40
1.0
 10
57.3002962377
 20
113.8100258377
 30
0.0
 10
57.1178114462
 20
113.9153810977
 30
0.0
 10
56.7207278082
 20
114.1030500648
 30
0.0
 10
56.0753410693
 20
114.3090947064
 30
0.0
 10
55.376294698
 20
114.4442464698
 30
0.0
 10
54.8930112607
 20
114.4842787143
 30
0.0
 10
54.6477729885
 20
114.4916710897
 30
0.0
  0
SPLINE
  5
344
100
AcDbEntity
  8
0
100
AcDbSpline
 62
7
  6
CONTINUOUS
 70
0
 71
3
 72
16
 73
12
 74
0
 42
0.0000001
 43
0.0000001
 44
0.0000000001
 40
0.0
 40
0.0
 40
0.0
 40
0.0
 40
0.1542606877
 40
0.3054625343
 40
0.4495640432
 40
0.5833526562
 40
0.7045987721
 40
0.8127501663
 40
0.9095685066
 40
0.9552445148
 40
1.0
 40
1.0
 40
1.0
 40
1.0
 10
54.6477729885
 20
114.4916710897
 30
0.0
 10
54.3747691273
 20
114.4999004212
 30
0.0
 10
53.8326938143
 20
114.4846498745
 30
0.0
 10
53.0432980329
 20
114.3689589817
 30
0.0
 10
52.3091948802
 20
114.1647402893
 30
0.0
 10
51.65933498
 20
113.8801675772
 30
0.0
 10
51.1187701036
 20
113.5249908213
 30
0.0
 10
50.7085699958
 20
113.1112363293
 30
0.0
 10
50.4871615439
 20
112.7180262231
 30
0.0
 10
50.4010995752
 20
112.3963839186
 30
0.0
 10
50.3868097951
 20
112.2359289755
 30
0.0
 10
50.3867760968
 20
112.1566866932
 30
0.0
  0
SPLINE
  5
345
100
AcDbEntity
  8
0
100
AcDbSpline
 62
7
  6
CONTINUOUS
 70
0
 71
3
 72
16
 73
12
 74
0
 42
0.0000001
 43
0.0000001
 44
0.0000000001
 40
0.0
 40
0.0
 40
0.0
 40
0.0
 40
0.1221335646
 40
0.2363644278
 40
0.3469731324
 40
0.4026035852
 40
0.459213371
 40
0.5774430441
 40
0.7056726017
 40
0.846236502
 40
1.0
 40
1.0
 40
1.0
 40
1.0
 10
28.6312929291
 20
47.8439662094
 30
0.0
 10
28.7194972982
 20
48.1117420925
 30
0.0
 10
28.9407620615
 20
48.615954086
 30
0.0
 10
29.4296313118
 20
49.260524736
 30
0.0
 10
29.9491436451
 20
49.6610845069
 30
0.0
 10
30.4126183372
 20
49.8872489381
 30
0.0
 10
30.9184412821
 20
50.0565776268
 30
0.0
 10
31.6194747205
 20
50.1480703092
 30
0.0
 10
32.514972674
 20
50.0644997652
 30
0.0
 10
33.4569231989
 20
49.7938571909
 30
0.0
 10
34.0751221818
 20
49.5055664367
 30
0.0
 10
34.3866875126
 20
49.3355336163
 30
0.0
  0
SPLINE
  5
346
100
AcDbEntity
  8
0
100
AcDbSpline
 62
7
  6
CONTINUOUS
 70
0
 71
3
 72
12
 73
8
 74
0
 42
0.0000001
 43
0.0000001
 44
0.0000000001
 40
0.0
 40
0.0
 40
0.0
 40
0.0
 40
0.30038137
 40
0.5645504236
 40
0.7931484879
 40
0.8981562178
 40
1.0
 40
1.0
 40
1.0
 40
1.0
 10
65.3911274482
 20
115.6317385806
 30
0.0
 10
65.2711649368
 20
115.5886089623
 30
0.0
 10
65.0516656197
 20
115.4881843325
 30
0.0
 10
64.780440325
 20
115.2835093795
 30
0.0
 10
64.628056805
 20
115.0735678581
 30
0.0
 10
64.5683220005
 20
114.8973938839
 30
0.0
 10
64.5585404557
 20
114.8093086028
 30
0.0
 10
64.5585532158
 20
114.7660867084
 30
0.0
  0
SPLINE
  5
347
100
AcDbEntity
  8
0
100
AcDbSpline
 62
7
  6
CONTINUOUS
 70
0
 71
3
 72
13
 73
9
 74
0
 42
0.0000001
 43
0.0000001
 44
0.0000000001
 40
0.0
 40
0.0
 40
0.0
 40
0.0
 40
0.2551640531
 40
0.376661759
 40
0.4964862024
 40
0.6167583698
 40
0.739602901
 40
1.0
 40
1.0
 40
1.0
 40
1.0
 10
28.4468622948
 20
42.3886500807
 30
0.0
 10
28.3342426917
 20
42.1595603457
 30
0.0
 10
28.1272646477
 20
41.8376671675
 30
0.0
 10
27.7731681953
 20
41.4872367909
 30
0.0
 10
27.479731227
 20
41.2732169129
 30
0.0
 10
27.1558987857
 20
41.105820612
 30
0.0
 10
26.6775690499
 20
40.9432089218
 30
0.0
 10
26.2908076812
 20
40.8999274423
 30
0.0
 10
26.0302974483
 20
40.8999096115
 30
0.0
  0
ELLIPSE
  5
348
100
AcDbEntity
  8
0
100
AcDbEllipse
 62
7
  6
CONTINUOUS
 10
43.9710341349
 20
65.6900612502
 30
0.0
 11
15.0968914355
 21
-0.5558423684
 31
0.0
 40
0.5512002602
 41
-2.6389960352
 42
-2.0328016404
  0
ELLIPSE
  5
349
100
AcDbEntity
  8
0
100
AcDbEllipse
 62
7
  6
CONTINUOUS
 10
43.9710341349
 20
69.2404766971
 30
0.0
 11
15.0955676332
 21
0.6073593022
 31
0.0
 40
0.6023428497
 41
-2.6835176124
 42
-2.0773232177
  0
ENDSEC
  0
SECTION
  2
OBJECTS
  0
DICTIONARY
  5
C
100
AcDbDictionary
280
0
281
1
  3
ACAD_GROUP
350
D
  3
ACAD_MLINESTYLE
350
17
  3
ACAD_LAYOUT
350
1A
  3
ACAD_PLOTSETTINGS
350
19
  3
ACAD_PLOTSTYLENAME
350
E
  0
DICTIONARY
  5
D
102
{ACAD_REACTORS
330
C
102
}
100
AcDbDictionary
280
0
281
1
  0
ACDBDICTIONARYWDFLT
  5
E
102
{ACAD_REACTORS
330
C
102
}
100
AcDbDictionary
281
1
  3
Normal
350
F
100
AcDbDictionaryWithDefault
340
F
  0
DICTIONARY
  5
17
102
{ACAD_REACTORS
330
C
102
}
100
AcDbDictionary
280
0
281
1
  3
Standard
350
18
  0
DICTIONARY
  5
19
102
{ACAD_REACTORS
330
C
102
}
100
AcDbDictionary
281
1
  0
DICTIONARY
  5
1A
102
{ACAD_REACTORS
330
C
102
}
100
AcDbDictionary
281
1
  3
Model
350
34A
  3
Layout1
350
34B
  0
ACDBPLACEHOLDER
  5
F
102
{ACAD_REACTORS
330
E
102
}
  0
MLINESTYLE
  5
18
102
{ACAD_REACTORS
330
17
102
}
100
AcDbMlineStyle
  2
STANDARD
 70
0
  3

 62
256
 51
90.0
 52
90.0
 71
2
 49
0.5
 62
256
  6
BYLAYER
 49
-0.5
 62
256
  6
BYLAYER
  0
LAYOUT
  5
34A
102
{ACAD_REACTORS
330
1A
102
}
100
AcDbPlotSettings
  1

  2
none_device
  4

  6

 40
0.0
 41
0.0
 42
0.0
 43
0.0
 44
210.0
 45
297.0
 46
0.0
 47
0.0
 48
0.0
 49
0.0
140
0.0
141
0.0
142
1.0
143
1.0
 70
1024
 72
1
 73
0
 74
0
  7

 75
0
147
1.0
148
0.0
149
0.0
100
AcDbLayout
  1
Model
 70
0
 71
0
 10
0.0
 20
0.0
 11
210.0
 21
297.0
 12
0.0
 22
0.0
 32
0.0
 14
0.0
 24
0.0
 34
0.0
 15
0.0
 25
0.0
 35
0.0
146
0.0
 13
0.0
 23
0.0
 33
0.0
 16
1.0
 26
0.0
 36
0.0
 17
0.0
 27
1.0
 37
0.0
 76
0
330
210
345
0
346
0
  0
LAYOUT
  5
34B
102
{ACAD_REACTORS
330
1A
102
}
100
AcDbPlotSettings
  1

  2
none_device
  4

  6

 40
0.0
 41
0.0
 42
0.0
 43
0.0
 44
210.0
 45
297.0
 46
0.0
 47
0.0
 48
0.0
 49
0.0
140
0.0
141
0.0
142
1.0
143
1.0
 70
0
 72
1
 73
0
 74
0
  7

 75
0
147
1.0
148
0.0
149
0.0
100
AcDbLayout
  1
Layout1
 70
0
 71
1
 10
0.0
 20
0.0
 11
210.0
 21
297.0
 12
0.0
 22
0.0
 32
0.0
 14
0.0
 24
0.0
 34
0.0
 15
0.0
 25
0.0
 35
0.0
146
0.0
 13
0.0
 23
0.0
 33
0.0
 16
1.0
 26
0.0
 36
0.0
 17
0.0
 27
1.0
 37
0.0
 76
0
330
211
345
0
346
0
  0
ENDSEC
  0
EOF
