999
DXF file: C:\Users\sesa63760\Documents\7-Dev\_Creo\CAD\MCADFD0001001_3D-CAD\drw0001_1.dxf
999
Pro/ENGINEER 2019471 by Parametric Technology Corporation
  0
SECTION
  2
HEADER
  9
$ACADVER
  1
AC1024
  9
$DWGCODEPAGE
  3
ANSI_1252
  9
$EXTMAX
 10
98.5065424862
 20
139.3163958019
 30
0.0
  9
$EXTMIN
 10
0.0
 20
0.0
 30
0.0
  9
$LIMMIN
 10
0.0
 20
0.0
  9
$LIMMAX
 10
98.5065424862
 20
139.3163958019
  9
$VIEWCTR
 10
49.2532712431
 20
69.6581979009
  9
$VIEWSIZE
 40
139.3163958019
  9
$CLAYER
  8
0
  9
$LTSCALE
 40
9.0813650597
  9
$CELTYPE
  6
BYLAYER
  9
$DIMSCALE
 40
1.0
  9
$DIMASZ
 40
1.1726969344
  9
$DIMEXO
 40
1.0
  9
$DIMDLI
 40
6.2743976776
  9
$DIMEXE
 40
1.0
  9
$DIMCEN
 40
1.4860415552
  9
$DIMLFAC
 40
1.0
  9
$DIMBLK
  1
_FILLED
  9
$DIMALT
 70
0
  9
$DIMALTF
 40
0.0393700787
  9
$DIMTXT
 40
1.6417757081
  9
$DIMTOL
 70
1
  9
$DIMLIM
 70
0
  9
$DIMTFAC
 40
1.0
  9
$DIMTP
 40
0.01
  9
$DIMTM
 40
0.01
  9
$DIMGAP
 40
0.625
  9
$DIMDSEP
 70
46
  9
$AUNITS
 70
0
  9
$PDMODE
 70
3
  9
$PDSIZE
 40
0.3125
  9
$HANDSEED
  5
382
  9
$TILEMODE
 70
1
  9
$MEASUREMENT
 70
1
  9
$INSUNITS
 70
4
  0
ENDSEC
  0
SECTION
  2
CLASSES
  0
CLASS
  1
ACDBDICTIONARYWDFLT
  2
AcDbDictionaryWithDefault
  3
AutoCAD 2000
 90
0
 91
1
280
0
281
0
  0
CLASS
  1
ACDBPLACEHOLDER
  2
AcDbPlaceHolder
  3
AutoCAD 2000
 90
0
 91
1
280
0
281
0
  0
CLASS
  1
LAYOUT
  2
AcDbLayout
  3
AutoCAD 2000
 90
0
 91
0
280
0
281
0
  0
ENDSEC
  0
SECTION
  2
TABLES
  0
TABLE
  2
VPORT
  5
8
100
AcDbSymbolTable
 70
2
  0
VPORT
  5
1F4
100
AcDbSymbolTableRecord
100
AcDbViewportTableRecord
  2
*ACTIVE
 70
0
 10
0.0
 20
0.0
 11
1.0
 21
1.0
 12
49.2532712431
 22
69.6581979009
 13
0.0
 23
0.0
 14
1.0
 24
1.0
 15
0.0
 25
0.0
 16
0.0
 26
0.0
 36
1.0
 17
0.0
 27
0.0
 37
0.0
 40
139.3163958019
 41
0.7070707071
 42
50.0
 43
0.0
 44
0.0
 50
0.0
 51
0.0
 71
0
 72
100
 73
1
 74
1
 75
0
 76
0
 77
0
 78
0
  0
ENDTAB
  0
TABLE
  2
LTYPE
  5
5
100
AcDbSymbolTable
 70
6
  0
LTYPE
  5
14
100
AcDbSymbolTableRecord
100
AcDbLinetypeTableRecord
  2
BYBLOCK
 70
0
  3

 72
65
 73
0
 40
0.0
  0
LTYPE
  5
15
100
AcDbSymbolTableRecord
100
AcDbLinetypeTableRecord
  2
BYLAYER
 70
0
  3

 72
65
 73
0
 40
0.0
  0
LTYPE
  5
16
100
AcDbSymbolTableRecord
100
AcDbLinetypeTableRecord
  2
CONTINUOUS
 70
64
  3
Solid line
 72
65
 73
0
 40
0.0
  0
LTYPE
  5
1F5
100
AcDbSymbolTableRecord
100
AcDbLinetypeTableRecord
  2
CENTER
 70
64
  3
____ _ ____ _ ____ _ ____ _ ____ _ ____ _ ____
 72
65
 73
4
 40
0.6
 49
0.375
 74
0
 49
-0.075
 74
0
 49
0.075
 74
0
 49
-0.075
 74
0
  0
LTYPE
  5
1F6
100
AcDbSymbolTableRecord
100
AcDbLinetypeTableRecord
  2
HIDDEN
 70
64
  3
- - - - - - - - - - - - - - - - - - - -
 72
65
 73
2
 40
0.2
 49
0.1
 74
0
 49
-0.1
 74
0
  0
LTYPE
  5
1F7
100
AcDbSymbolTableRecord
100
AcDbLinetypeTableRecord
  2
PHANTOM
 70
64
  3
_____ _ _ _____ _ _ _____ _ _ _____
 72
65
 73
6
 40
0.8
 49
0.45
 74
0
 49
-0.05
 74
0
 49
0.1
 74
0
 49
-0.05
 74
0
 49
0.1
 74
0
 49
-0.05
 74
0
  0
LTYPE
  5
1F8
100
AcDbSymbolTableRecord
100
AcDbLinetypeTableRecord
  2
DOT
 70
64
  3
. . . . . . . . . . . . . . . . . . . .
 72
65
 73
2
 40
0.2
 49
0.1
 74
0
 49
-0.1
 74
0
  0
LTYPE
  5
1F9
100
AcDbSymbolTableRecord
100
AcDbLinetypeTableRecord
  2
DASHED
 70
64
  3
- - - - - - - - - - - - - - - - - - - -
 72
65
 73
2
 40
0.2
 49
0.1
 74
0
 49
-0.1
 74
0
  0
ENDTAB
  0
TABLE
  2
LAYER
  5
2
100
AcDbSymbolTable
 70
36
  0
LAYER
  5
10
100
AcDbSymbolTableRecord
100
AcDbLayerTableRecord
  2
0
 70
0
 62
7
  6
CONTINUOUS
370
-3
390
F
  0
LAYER
  5
1FA
100
AcDbSymbolTableRecord
100
AcDbLayerTableRecord
  2
DEFAULT_1
 70
0
 62
7
  6
CENTER
370
-3
390
F
  0
LAYER
  5
1FB
100
AcDbSymbolTableRecord
100
AcDbLayerTableRecord
  2
DEFAULT_2
 70
0
 62
8
  6
HIDDEN
370
-3
390
F
  0
LAYER
  5
1FC
100
AcDbSymbolTableRecord
100
AcDbLayerTableRecord
  2
DEFAULT_3
 70
0
 62
7
  6
PHANTOM
370
-3
390
F
  0
LAYER
  5
1FD
100
AcDbSymbolTableRecord
100
AcDbLayerTableRecord
  2
00_COMPONENTS
 70
0
 62
7
  6
CONTINUOUS
370
-3
390
F
  0
LAYER
  5
1FE
100
AcDbSymbolTableRecord
100
AcDbLayerTableRecord
  2
01_1_DEFAULT_DATUMS
 70
0
 62
7
  6
CONTINUOUS
370
-3
390
F
  0
LAYER
  5
1FF
100
AcDbSymbolTableRecord
100
AcDbLayerTableRecord
  2
01_PLANES
 70
0
 62
7
  6
CONTINUOUS
370
-3
390
F
  0
LAYER
  5
200
100
AcDbSymbolTableRecord
100
AcDbLayerTableRecord
  2
02_COORD_SYS
 70
0
 62
7
  6
CONTINUOUS
370
-3
390
F
  0
LAYER
  5
201
100
AcDbSymbolTableRecord
100
AcDbLayerTableRecord
  2
03_AXES
 70
0
 62
7
  6
CONTINUOUS
370
-3
390
F
  0
LAYER
  5
202
100
AcDbSymbolTableRecord
100
AcDbLayerTableRecord
  2
04_POINTS
 70
0
 62
7
  6
CONTINUOUS
370
-3
390
F
  0
LAYER
  5
203
100
AcDbSymbolTableRecord
100
AcDbLayerTableRecord
  2
05_CURVES
 70
0
 62
7
  6
CONTINUOUS
370
-3
390
F
  0
LAYER
  5
204
100
AcDbSymbolTableRecord
100
AcDbLayerTableRecord
  2
06_SURFS
 70
0
 62
7
  6
CONTINUOUS
370
-3
390
F
  0
LAYER
  5
205
100
AcDbSymbolTableRecord
100
AcDbLayerTableRecord
  2
07_COSMETICS
 70
0
 62
7
  6
CONTINUOUS
370
-3
390
F
  0
LAYER
  5
206
100
AcDbSymbolTableRecord
100
AcDbLayerTableRecord
  2
10_NOTES
 70
0
 62
7
  6
CONTINUOUS
370
-3
390
F
  0
LAYER
  5
207
100
AcDbSymbolTableRecord
100
AcDbLayerTableRecord
  2
11_NOTES_PUB
 70
0
 62
7
  6
CONTINUOUS
370
-3
390
F
  0
LAYER
  5
208
100
AcDbSymbolTableRecord
100
AcDbLayerTableRecord
  2
13_REF_GTOL
 70
0
 62
7
  6
CONTINUOUS
370
-3
390
F
  0
LAYER
  5
209
100
AcDbSymbolTableRecord
100
AcDbLayerTableRecord
  2
16_MISC
 70
0
 62
7
  6
CONTINUOUS
370
-3
390
F
  0
LAYER
  5
20A
100
AcDbSymbolTableRecord
100
AcDbLayerTableRecord
  2
17_NO_PRINT
 70
0
 62
7
  6
CONTINUOUS
370
-3
390
F
  0
LAYER
  5
20B
100
AcDbSymbolTableRecord
100
AcDbLayerTableRecord
  2
18_DATUM_CAMS_JOINTS
 70
0
 62
7
  6
CONTINUOUS
370
-3
390
F
  0
LAYER
  5
20C
100
AcDbSymbolTableRecord
100
AcDbLayerTableRecord
  2
19_DATUM_FUNCTIONAL
 70
0
 62
7
  6
CONTINUOUS
370
-3
390
F
  0
LAYER
  5
20D
100
AcDbSymbolTableRecord
100
AcDbLayerTableRecord
  2
20_DATUM_KINEMATIC_SCHEME
 70
0
 62
7
  6
CONTINUOUS
370
-3
390
F
  0
ENDTAB
  0
TABLE
  2
STYLE
  5
3
100
AcDbSymbolTable
 70
1
  0
STYLE
  5
11
100
AcDbSymbolTableRecord
100
AcDbTextStyleTableRecord
  2
STANDARD
 70
0
 40
0.0
 41
0.8
 50
0.0
 71
0
 42
0.2
  3
txt
  4

  0
STYLE
  5
20E
100
AcDbSymbolTableRecord
100
AcDbTextStyleTableRecord
  2
TEXTSTYLE_1
 70
0
 40
0.0
 41
0.8
 50
0.0
 71
0
 42
0.2
  3
gdt
  4

  0
ENDTAB
  0
TABLE
  2
VIEW
  5
6
100
AcDbSymbolTable
 70
0
  0
ENDTAB
  0
TABLE
  2
UCS
  5
7
100
AcDbSymbolTable
 70
0
  0
ENDTAB
  0
TABLE
  2
APPID
  5
9
100
AcDbSymbolTable
 70
1
  0
APPID
  5
20F
100
AcDbSymbolTableRecord
100
AcDbRegAppTableRecord
  2
ACAD
 70
0
  0
ENDTAB
  0
TABLE
  2
BLOCK_RECORD
  5
1
100
AcDbSymbolTable
 70
0
  0
BLOCK_RECORD
  5
210
100
AcDbSymbolTableRecord
100
AcDbBlockTableRecord
  2
*Model_Space
  0
BLOCK_RECORD
  5
211
100
AcDbSymbolTableRecord
100
AcDbBlockTableRecord
  2
*Paper_Space
  0
BLOCK_RECORD
  5
212
100
AcDbSymbolTableRecord
100
AcDbBlockTableRecord
  2
_FILLED
  0
ENDTAB
  0
TABLE
  2
DIMSTYLE
  5
A
100
AcDbSymbolTable
 70
1
100
AcDbDimStyleTable
 71
0
  0
DIMSTYLE
105
213
100
AcDbSymbolTableRecord
100
AcDbDimStyleTableRecord
  2
STANDARD
 70
0
  3

  4

 40
1.0
 41
1.1726969344
 42
1.0
 43
0.38
 44
1.0
 45
0.0
 46
0.0
 47
0.01
 48
0.01
140
1.6417757081
141
0.09
142
0.0
143
25.4
144
1.0
145
0.0
146
1.0
147
0.625
 71
1
 72
0
 73
0
 74
0
 75
0
 76
0
 77
1
 78
8
 79
2
170
0
171
1
172
0
173
0
174
0
175
0
176
0
177
0
178
0
270
2
179
2
271
2
272
2
273
2
274
2
275
0
280
0
281
0
282
0
283
1
284
8
285
0
286
0
287
3
288
0
340
11
278
46
341
212
342
212
343
212
344
212
  0
ENDTAB
  0
ENDSEC
  0
SECTION
  2
BLOCKS
  0
BLOCK
  5
20
100
AcDbEntity
  8
0
100
AcDbBlockBegin
  2
*Model_Space
 70
0
 10
0.0
 20
0.0
 30
0.0
  3
*Model_Space
  1

  0
ENDBLK
  5
21
100
AcDbEntity
  8
0
100
AcDbBlockEnd
  0
BLOCK
  5
1C
100
AcDbEntity
  8
0
100
AcDbBlockBegin
  2
*Paper_Space
 70
0
 10
0.0
 20
0.0
 30
0.0
  3
*Paper_Space
  1

  0
ENDBLK
  5
1D
100
AcDbEntity
  8
0
100
AcDbBlockEnd
  0
BLOCK
  5
214
100
AcDbEntity
  8
0
100
AcDbBlockBegin
  2
_FILLED
 70
64
 10
0.0
 20
0.0
  3
_FILLED
  1

  0
SOLID
  5
215
100
AcDbEntity
  8
0
  6
BYBLOCK
 62
0
100
AcDbTrace
 10
0.0
 20
0.0
 11
-1.0
 21
0.25
 12
-1.0
 22
-0.25
 13
-1.0
 23
-0.25
  0
ENDBLK
  5
216
100
AcDbEntity
  8
0
  6
BYBLOCK
 62
0
100
AcDbBlockEnd
  0
ENDSEC
  0
SECTION
  2
ENTITIES
  0
LINE
  5
217
100
AcDbEntity
  8
0
100
AcDbLine
 62
7
  6
CONTINUOUS
 10
35.8926106715
 20
27.0744598629
 11
36.1289317068
 21
27.047497309
  0
LINE
  5
218
100
AcDbEntity
  8
0
100
AcDbLine
 62
7
  6
CONTINUOUS
 10
35.8925919726
 20
27.0744274337
 11
11.6387284001
 21
41.0770853138
  0
LINE
  5
219
100
AcDbEntity
  8
0
100
AcDbLine
 62
7
  6
CONTINUOUS
 10
35.7355090303
 20
27.3321136417
 11
11.4816454578
 21
41.3347715217
  0
LINE
  5
21A
100
AcDbEntity
  8
0
100
AcDbLine
 62
7
  6
CONTINUOUS
 10
59.839724297
 20
119.7062161386
 11
62.8925161399
 21
121.4648116161
  0
LINE
  5
21B
100
AcDbEntity
  8
0
100
AcDbLine
 62
7
  6
CONTINUOUS
 10
37.822694924
 20
27.9284652458
 11
54.6878432591
 21
18.1915875923
  0
LINE
  5
21C
100
AcDbEntity
  8
0
100
AcDbLine
 62
7
  6
CONTINUOUS
 10
39.4395550475
 20
29.7451936733
 11
42.2898966441
 21
28.0995854139
  0
LINE
  5
21D
100
AcDbEntity
  8
0
100
AcDbLine
 62
7
  6
CONTINUOUS
 10
36.8701110798
 20
31.7497215171
 11
12.6162475073
 21
45.7523793971
  0
LINE
  5
21E
100
AcDbEntity
  8
0
100
AcDbLine
 62
7
  6
CONTINUOUS
 10
37.3208081398
 20
32.4719155051
 11
13.0669445673
 21
46.4745733852
  0
LINE
  5
21F
100
AcDbEntity
  8
0
100
AcDbLine
 62
7
  6
CONTINUOUS
 10
60.5568405919
 20
117.9558452232
 11
60.0698713961
 21
117.6354240515
  0
LINE
  5
220
100
AcDbEntity
  8
0
100
AcDbLine
 62
7
  6
CONTINUOUS
 10
60.3150327921
 20
117.4938832556
 11
60.7565968041
 21
117.7844282415
  0
LINE
  5
221
100
AcDbEntity
  8
0
100
AcDbLine
 62
7
  6
CONTINUOUS
 10
29.6561589914
 20
101.8827152763
 11
38.7574821622
 21
107.1373352931
  0
LINE
  5
222
100
AcDbEntity
  8
0
100
AcDbLine
 62
7
  6
CONTINUOUS
 10
56.1522365577
 20
117.1801414784
 11
59.8393414534
 21
119.3088797756
  0
LINE
  5
223
100
AcDbEntity
  8
0
100
AcDbLine
 62
7
  6
CONTINUOUS
 10
56.8239907966
 20
116.7923127616
 11
52.5813677733
 21
114.3428478383
  0
LINE
  5
224
100
AcDbEntity
  8
0
100
AcDbLine
 62
7
  6
CONTINUOUS
 10
43.6718594244
 20
109.1989714996
 11
39.4292364011
 21
106.7495065763
  0
LINE
  5
225
100
AcDbEntity
  8
0
100
AcDbLine
 62
7
  6
CONTINUOUS
 10
59.8385543085
 20
118.4919370122
 11
59.2124393023
 21
118.1304515026
  0
LINE
  5
226
100
AcDbEntity
  8
0
100
AcDbLine
 62
7
  6
CONTINUOUS
 10
53.2177665259
 20
113.9754311593
 11
44.308258177
 21
108.8315548205
  0
LINE
  5
227
100
AcDbEntity
  8
0
100
AcDbLine
 62
7
  6
CONTINUOUS
 10
63.906245089
 20
119.0917106585
 11
62.9870106702
 21
118.562175212
  0
LINE
  5
228
100
AcDbEntity
  8
0
100
AcDbLine
 62
7
  6
CONTINUOUS
 10
62.98507568
 20
116.5539347569
 11
63.9043100988
 21
117.0834702034
  0
LINE
  5
229
100
AcDbEntity
  8
0
100
AcDbLine
 62
7
  6
CONTINUOUS
 10
64.7547871451
 20
117.5438172688
 11
65.6740215639
 21
118.0733527153
  0
LINE
  5
22A
100
AcDbEntity
  8
0
100
AcDbLine
 62
7
  6
CONTINUOUS
 10
38.2050603894
 20
33.015393699
 11
40.2086147849
 21
31.8586671981
  0
LINE
  5
22B
100
AcDbEntity
  8
0
100
AcDbLine
 62
7
  6
CONTINUOUS
 10
38.330915647
 20
33.2170633313
 11
14.0770520744
 21
47.2197212114
  0
LINE
  5
22C
100
AcDbEntity
  8
0
100
AcDbLine
 62
7
  6
CONTINUOUS
 10
18.7435293204
 20
48.798526176
 11
23.1232469273
 21
46.2699522406
  0
LINE
  5
22D
100
AcDbEntity
  8
0
100
AcDbLine
 62
7
  6
CONTINUOUS
 10
31.2593714555
 20
41.572664821
 11
35.6390890624
 21
39.0440908856
  0
LINE
  5
22E
100
AcDbEntity
  8
0
100
AcDbLine
 62
7
  6
CONTINUOUS
 10
39.9495869329
 20
30.5701609186
 11
39.9026444544
 21
30.6041208219
  0
LINE
  5
22F
100
AcDbEntity
  8
0
100
AcDbLine
 62
7
  6
CONTINUOUS
 10
37.3677506183
 20
32.4379556018
 11
37.3208081398
 21
32.4719155051
  0
LINE
  5
230
100
AcDbEntity
  8
0
100
AcDbLine
 62
7
  6
CONTINUOUS
 10
39.8754667531
 20
31.3248329953
 11
37.9977676152
 21
32.6832291286
  0
LINE
  5
231
100
AcDbEntity
  8
0
100
AcDbLine
 62
7
  6
CONTINUOUS
 10
14.4375833421
 20
63.0950679034
 11
14.3961587092
 21
63.1866213764
  0
LINE
  5
232
100
AcDbEntity
  8
0
100
AcDbLine
 62
7
  6
CONTINUOUS
 10
63.691206943
 20
116.1989751886
 11
64.6924864016
 21
116.8578076981
  0
LINE
  5
233
100
AcDbEntity
  8
0
100
AcDbLine
 62
7
  6
CONTINUOUS
 10
63.6381722404
 20
115.5753112045
 11
64.7535976092
 21
116.3092506542
  0
LINE
  5
234
100
AcDbEntity
  8
0
100
AcDbLine
 62
7
  6
CONTINUOUS
 10
70.9529210628
 20
116.8211741048
 11
67.900785459
 21
115.0629566613
  0
LINE
  5
235
100
AcDbEntity
  8
0
100
AcDbLine
 62
7
  6
CONTINUOUS
 10
53.7484464931
 20
33.0715559801
 11
52.3250382359
 21
33.8933425293
  0
LINE
  5
236
100
AcDbEntity
  8
0
100
AcDbLine
 62
7
  6
CONTINUOUS
 10
71.0938042521
 20
114.5731522501
 11
68.8175946229
 21
113.0754276247
  0
LINE
  5
237
100
AcDbEntity
  8
0
100
AcDbLine
 62
7
  6
CONTINUOUS
 10
63.117302678
 20
108.260060596
 11
54.2077943291
 21
103.1161842572
  0
LINE
  5
238
100
AcDbEntity
  8
0
100
AcDbLine
 62
7
  6
CONTINUOUS
 10
72.7889102701
 20
113.14991745
 11
70.3140619871
 21
111.7210716567
  0
LINE
  5
239
100
AcDbEntity
  8
0
100
AcDbLine
 62
7
  6
CONTINUOUS
 10
67.9963244539
 20
110.3421088402
 11
63.7537014306
 21
107.8926439169
  0
LINE
  5
23A
100
AcDbEntity
  8
0
100
AcDbLine
 62
7
  6
CONTINUOUS
 10
54.8441930817
 20
102.7487675781
 11
50.6015700584
 21
100.2993026549
  0
LINE
  5
23B
100
AcDbEntity
  8
0
100
AcDbLine
 62
7
  6
CONTINUOUS
 10
67.8994882698
 20
113.716661513
 11
68.8187226886
 21
114.2461969595
  0
LINE
  5
23C
100
AcDbEntity
  8
0
100
AcDbLine
 62
7
  6
CONTINUOUS
 10
69.790303109
 20
112.023457145
 11
71.8501772687
 21
113.3788350569
  0
LINE
  5
23D
100
AcDbEntity
  8
0
100
AcDbLine
 62
7
  6
CONTINUOUS
 10
69.3398329317
 20
109.5664514066
 11
65.0972099084
 21
107.1169864833
  0
LINE
  5
23E
100
AcDbEntity
  8
0
100
AcDbLine
 62
7
  6
CONTINUOUS
 10
56.1877015595
 20
101.9731101446
 11
51.9450785362
 21
99.5236452213
  0
LINE
  5
23F
100
AcDbEntity
  8
0
100
AcDbLine
 62
7
  6
CONTINUOUS
 10
74.2031297204
 20
112.3334359409
 11
71.7282814374
 21
110.9045901476
  0
LINE
  5
240
100
AcDbEntity
  8
0
100
AcDbLine
 62
7
  6
CONTINUOUS
 10
15.161635108
 20
78.0827444769
 11
28.7167618804
 21
85.9087538528
  0
LINE
  5
241
100
AcDbEntity
  8
0
100
AcDbLine
 62
7
  6
CONTINUOUS
 10
65.733608661
 20
106.7495698043
 11
56.8241003121
 21
101.6056934655
  0
LINE
  5
242
100
AcDbEntity
  8
0
100
AcDbLine
 62
7
  6
CONTINUOUS
 10
74.3512795757
 20
109.9694625378
 11
73.8496472706
 21
109.6798467202
  0
LINE
  5
243
100
AcDbEntity
  8
0
100
AcDbLine
 62
7
  6
CONTINUOUS
 10
39.6467546736
 20
46.9819952248
 11
40.7778624637
 21
46.9876739342
  0
LINE
  5
244
100
AcDbEntity
  8
0
100
AcDbLine
 62
7
  6
CONTINUOUS
 10
14.6150704034
 20
61.4337179348
 11
39.6467546736
 21
46.9819952248
  0
LINE
  5
245
100
AcDbEntity
  8
0
100
AcDbLine
 62
7
  6
CONTINUOUS
 10
14.4375811733
 20
63.0950641469
 11
39.4692654435
 21
48.6433414369
  0
LINE
  5
246
100
AcDbEntity
  8
0
100
AcDbLine
 62
7
  6
CONTINUOUS
 10
39.5692761327
 20
48.979855131
 11
14.5375918625
 21
63.431577841
  0
LINE
  5
247
100
AcDbEntity
  8
0
100
AcDbLine
 62
7
  6
CONTINUOUS
 10
14.611579093
 20
63.474286651
 11
39.6432633632
 21
49.022563941
  0
LINE
  5
248
100
AcDbEntity
  8
0
100
AcDbLine
 62
7
  6
CONTINUOUS
 10
12.6162475073
 20
45.7523793971
 11
13.0669445673
 21
46.4745733852
  0
LINE
  5
249
100
AcDbEntity
  8
0
100
AcDbLine
 62
7
  6
CONTINUOUS
 10
39.4692676123
 20
48.6433451934
 11
39.5692513609
 21
48.6532398634
  0
LINE
  5
24A
100
AcDbEntity
  8
0
100
AcDbLine
 62
7
  6
CONTINUOUS
 10
75.6331448131
 20
31.7947942684
 11
76.2695435657
 21
31.4273775893
  0
LINE
  5
24B
100
AcDbEntity
  8
0
100
AcDbLine
 62
7
  6
CONTINUOUS
 10
39.4278429794
 20
48.7348986664
 11
39.4692676123
 21
48.6433451934
  0
LINE
  5
24C
100
AcDbEntity
  8
0
100
AcDbLine
 62
7
  6
CONTINUOUS
 10
16.783224721
 20
45.6573470511
 11
18.7435293204
 21
48.798526176
  0
LINE
  5
24D
100
AcDbEntity
  8
0
100
AcDbLine
 62
7
  6
CONTINUOUS
 10
75.6331448131
 20
101.034199241
 11
66.7236364642
 21
95.8903229022
  0
LINE
  5
24E
100
AcDbEntity
  8
0
100
AcDbLine
 62
7
  6
CONTINUOUS
 10
85.3047524052
 20
105.924056095
 11
82.8299041222
 21
104.4952103016
  0
LINE
  5
24F
100
AcDbEntity
  8
0
100
AcDbLine
 62
7
  6
CONTINUOUS
 10
80.512166589
 20
103.1162474851
 11
76.2695435657
 21
100.6667825619
  0
LINE
  5
250
100
AcDbEntity
  8
0
100
AcDbLine
 62
7
  6
CONTINUOUS
 10
67.3600352168
 20
95.5229062231
 11
63.1174121935
 21
93.0734412999
  0
LINE
  5
251
100
AcDbEntity
  8
0
100
AcDbLine
 62
7
  6
CONTINUOUS
 10
54.6878432617
 20
87.4309925664
 11
63.7891664324
 21
92.6856125831
  0
LINE
  5
252
100
AcDbEntity
  8
0
100
AcDbLine
 62
7
  6
CONTINUOUS
 10
81.1839208279
 20
102.7284187684
 11
87.3992551411
 21
106.3168222873
  0
LINE
  5
253
100
AcDbEntity
  8
0
100
AcDbLine
 62
7
  6
CONTINUOUS
 10
80.512166589
 20
33.8768425126
 11
81.1839208279
 21
33.4890137958
  0
LINE
  5
254
100
AcDbEntity
  8
0
100
AcDbLine
 62
7
  6
CONTINUOUS
 10
86.1600119856
 20
103.1518419373
 11
83.6851637027
 21
101.722996144
  0
LINE
  5
255
100
AcDbEntity
  8
0
100
AcDbLine
 62
7
  6
CONTINUOUS
 10
14.5375918625
 20
63.431577841
 11
14.611579093
 21
63.474286651
  0
LINE
  5
256
100
AcDbEntity
  8
0
100
AcDbLine
 62
7
  6
CONTINUOUS
 10
40.1933193782
 20
63.6310217668
 11
15.161635108
 21
78.0827444769
  0
LINE
  5
257
100
AcDbEntity
  8
0
100
AcDbLine
 62
7
  6
CONTINUOUS
 10
24.0170884446
 20
42.9146715153
 11
23.3593451648
 21
41.860708034
  0
LINE
  5
258
100
AcDbEntity
  8
0
100
AcDbLine
 62
7
  6
CONTINUOUS
 10
25.0122775411
 20
40.9064086708
 11
25.4732440076
 21
41.645058288
  0
LINE
  5
259
100
AcDbEntity
  8
0
100
AcDbLine
 62
7
  6
CONTINUOUS
 10
84.7386891629
 20
94.2943024305
 11
84.1712500308
 21
93.9666932504
  0
LINE
  5
25A
100
AcDbEntity
  8
0
100
AcDbLine
 62
7
  6
CONTINUOUS
 10
29.2990668561
 20
38.4314856961
 11
31.2593714555
 21
41.572664821
  0
LINE
  5
25B
100
AcDbEntity
  8
0
100
AcDbLine
 62
7
  6
CONTINUOUS
 10
84.7859447885
 20
93.5402615845
 11
84.2185056564
 21
93.2126524044
  0
LINE
  5
25C
100
AcDbEntity
  8
0
100
AcDbLine
 62
7
  6
CONTINUOUS
 10
84.3288008417
 20
93.1527174676
 11
84.2259819862
 21
93.093355328
  0
LINE
  5
25D
100
AcDbEntity
  8
0
100
AcDbLine
 62
7
  6
CONTINUOUS
 10
84.8594107601
 20
91.8242491663
 11
84.3248579926
 21
91.5156268243
  0
LINE
  5
25E
100
AcDbEntity
  8
0
100
AcDbLine
 62
7
  6
CONTINUOUS
 10
84.3790134165
 20
91.2113239713
 11
84.3451537258
 21
91.1917751864
  0
LINE
  5
25F
100
AcDbEntity
  8
0
100
AcDbLine
 62
7
  6
CONTINUOUS
 10
84.749611445
 20
90.3103246661
 11
84.4125883464
 21
90.1157454509
  0
LINE
  5
260
100
AcDbEntity
  8
0
100
AcDbLine
 62
7
  6
CONTINUOUS
 10
40.1933193782
 20
63.6310217668
 11
53.7484461506
 21
71.4570311428
  0
LINE
  5
261
100
AcDbEntity
  8
0
100
AcDbLine
 62
7
  6
CONTINUOUS
 10
48.0804596423
 20
108.5316300291
 11
48.0589962444
 21
108.831578721
  0
LINE
  5
262
100
AcDbEntity
  8
0
100
AcDbLine
 62
7
  6
CONTINUOUS
 10
53.698741253
 20
34.6864456018
 11
53.748446493
 21
33.071555984
  0
LINE
  5
263
100
AcDbEntity
  8
0
100
AcDbLine
 62
7
  6
CONTINUOUS
 10
52.5813677733
 20
113.6080083614
 11
52.5813677733
 21
114.3428478383
  0
LINE
  5
264
100
AcDbEntity
  8
0
100
AcDbLine
 62
7
  6
CONTINUOUS
 10
54.8441930817
 20
101.1974397934
 11
54.8441930817
 21
102.7487675781
  0
LINE
  5
265
100
AcDbEntity
  8
0
100
AcDbLine
 62
7
  6
CONTINUOUS
 10
88.6086655422
 20
87.5006637708
 11
87.1921226442
 21
86.682827229
  0
LINE
  5
266
100
AcDbEntity
  8
0
100
AcDbLine
 62
7
  6
CONTINUOUS
 10
85.3183089442
 20
85.6009868426
 11
84.7195944371
 21
85.255320924
  0
LINE
  5
267
100
AcDbEntity
  8
0
100
AcDbLine
 62
7
  6
CONTINUOUS
 10
85.1948148023
 20
87.5715379873
 11
84.593776543
 21
87.2245912421
  0
LINE
  5
268
100
AcDbEntity
  8
0
100
AcDbLine
 62
7
  6
CONTINUOUS
 10
28.7167618804
 20
85.9087538528
 11
53.7484461506
 21
71.4570311428
  0
LINE
  5
269
100
AcDbEntity
  8
0
100
AcDbLine
 62
7
  6
CONTINUOUS
 10
56.1522365577
 20
116.404477586
 11
56.1522365577
 21
117.1801414784
  0
LINE
  5
26A
100
AcDbEntity
  8
0
100
AcDbLine
 62
7
  6
CONTINUOUS
 10
36.5329305797
 20
35.6888101603
 11
35.8751872999
 21
34.634846679
  0
LINE
  5
26B
100
AcDbEntity
  8
0
100
AcDbLine
 62
7
  6
CONTINUOUS
 10
37.5281196762
 20
33.6805473158
 11
37.9890861427
 21
34.419196933
  0
LINE
  5
26C
100
AcDbEntity
  8
0
100
AcDbLine
 62
7
  6
CONTINUOUS
 10
37.3208081398
 20
32.4719155051
 11
36.8701110798
 21
31.7497215171
  0
LINE
  5
26D
100
AcDbEntity
  8
0
100
AcDbLine
 62
7
  6
CONTINUOUS
 10
85.8863048758
 20
58.2902845669
 11
84.7195944371
 21
58.9638699142
  0
LINE
  5
26E
100
AcDbEntity
  8
0
100
AcDbLine
 62
7
  6
CONTINUOUS
 10
60.5963017774
 20
101.3057686741
 11
60.5748383795
 21
101.605717366
  0
LINE
  5
26F
100
AcDbEntity
  8
0
100
AcDbLine
 62
7
  6
CONTINUOUS
 10
63.117302678
 20
108.260060596
 11
63.117302678
 21
105.2493146569
  0
LINE
  5
270
100
AcDbEntity
  8
0
100
AcDbLine
 62
7
  6
CONTINUOUS
 10
59.8384374031
 20
118.3706061145
 11
59.839724297
 21
119.7062161386
  0
LINE
  5
271
100
AcDbEntity
  8
0
100
AcDbLine
 62
7
  6
CONTINUOUS
 10
60.7565437562
 20
117.7293722262
 11
60.7566508185
 21
117.8404873449
  0
LINE
  5
272
100
AcDbEntity
  8
0
100
AcDbLine
 62
7
  6
CONTINUOUS
 10
62.9870106702
 20
118.562175212
 11
62.98507568
 21
116.5539347569
  0
LINE
  5
273
100
AcDbEntity
  8
0
100
AcDbLine
 62
7
  6
CONTINUOUS
 10
37.9977676152
 20
32.6832291286
 11
38.330915647
 21
33.2170633313
  0
LINE
  5
274
100
AcDbEntity
  8
0
100
AcDbLine
 62
7
  6
CONTINUOUS
 10
40.2086147849
 20
31.8586671981
 11
39.8754667531
 21
31.3248329953
  0
LINE
  5
275
100
AcDbEntity
  8
0
100
AcDbLine
 62
7
  6
CONTINUOUS
 10
39.4988898729
 20
29.8479669305
 11
39.9495869329
 21
30.5701609186
  0
LINE
  5
276
100
AcDbEntity
  8
0
100
AcDbLine
 62
7
  6
CONTINUOUS
 10
39.5692761327
 20
48.979855131
 11
39.6432633632
 21
49.022563941
  0
LINE
  5
277
100
AcDbEntity
  8
0
100
AcDbLine
 62
7
  6
CONTINUOUS
 10
39.64244465
 20
48.6954903742
 11
39.5692513609
 21
48.6532398634
  0
LINE
  5
278
100
AcDbEntity
  8
0
100
AcDbLine
 62
7
  6
CONTINUOUS
 10
88.6086655422
 20
58.351527479
 11
85.8862931004
 21
59.9232543839
  0
LINE
  5
279
100
AcDbEntity
  8
0
100
AcDbLine
 62
7
  6
CONTINUOUS
 10
63.7537014306
 20
105.6064766552
 11
63.7537014306
 21
107.8926439169
  0
LINE
  5
27A
100
AcDbEntity
  8
0
100
AcDbLine
 62
7
  6
CONTINUOUS
 10
63.7891664324
 20
24.958038426
 11
63.7891664324
 21
23.4462076105
  0
LINE
  5
27B
100
AcDbEntity
  8
0
100
AcDbLine
 62
7
  6
CONTINUOUS
 10
63.7891664324
 20
91.173781802
 11
63.7891664324
 21
92.6856125831
  0
LINE
  5
27C
100
AcDbEntity
  8
0
100
AcDbLine
 62
7
  6
CONTINUOUS
 10
65.0972099084
 20
106.3821470063
 11
65.0972099084
 21
107.1169864833
  0
LINE
  5
27D
100
AcDbEntity
  8
0
100
AcDbLine
 62
7
  6
CONTINUOUS
 10
67.3600352168
 20
28.1801014536
 11
67.3600352168
 21
26.2835012505
  0
LINE
  5
27E
100
AcDbEntity
  8
0
100
AcDbLine
 62
7
  6
CONTINUOUS
 10
67.3600352168
 20
92.4420081168
 11
67.3600352168
 21
95.5229062231
  0
LINE
  5
27F
100
AcDbEntity
  8
0
100
AcDbLine
 62
7
  6
CONTINUOUS
 10
63.9043100988
 20
117.0834702034
 11
63.906245089
 21
119.0917106585
  0
LINE
  5
280
100
AcDbEntity
  8
0
100
AcDbLine
 62
7
  6
CONTINUOUS
 10
64.7528499929
 20
115.5333328706
 11
64.7547871451
 21
117.5438172688
  0
LINE
  5
281
100
AcDbEntity
  8
0
100
AcDbLine
 62
7
  6
CONTINUOUS
 10
84.3790134165
 20
91.2113239713
 11
84.8594107601
 21
91.8242491663
  0
LINE
  5
282
100
AcDbEntity
  8
0
100
AcDbLine
 62
7
  6
CONTINUOUS
 10
54.6878432617
 20
87.4309925664
 11
29.6561589915
 21
101.8827152764
  0
LINE
  5
283
100
AcDbEntity
  8
0
100
AcDbLine
 62
7
  6
CONTINUOUS
 10
67.9963244539
 20
110.3421088402
 11
67.9963244539
 21
108.9770961952
  0
LINE
  5
284
100
AcDbEntity
  8
0
100
AcDbLine
 62
7
  6
CONTINUOUS
 10
67.900785459
 20
115.0629566613
 11
67.8994882698
 21
113.716661513
  0
LINE
  5
285
100
AcDbEntity
  8
0
100
AcDbLine
 62
7
  6
CONTINUOUS
 10
68.8187226886
 20
114.2461969595
 11
68.8175946229
 21
113.0754276247
  0
LINE
  5
286
100
AcDbEntity
  8
0
100
AcDbLine
 62
7
  6
CONTINUOUS
 10
71.0938042521
 20
114.5731522501
 11
70.9529210628
 21
116.8211741048
  0
LINE
  5
287
100
AcDbEntity
  8
0
100
AcDbLine
 62
7
  6
CONTINUOUS
 10
75.6331448131
 20
101.034199241
 11
75.6331448131
 21
98.0234533019
  0
LINE
  5
288
100
AcDbEntity
  8
0
100
AcDbLine
 62
7
  6
CONTINUOUS
 10
75.6331448131
 20
33.5546976293
 11
75.6331448131
 21
31.7947942684
  0
LINE
  5
289
100
AcDbEntity
  8
0
100
AcDbLine
 62
7
  6
CONTINUOUS
 10
76.2695435657
 20
33.7036662158
 11
76.2695435657
 21
31.4273775893
  0
LINE
  5
28A
100
AcDbEntity
  8
0
100
AcDbLine
 62
7
  6
CONTINUOUS
 10
76.2695435657
 20
97.6560366228
 11
76.2695435657
 21
100.6667825619
  0
LINE
  5
28B
100
AcDbEntity
  8
0
100
AcDbLine
 62
7
  6
CONTINUOUS
 10
74.3512795757
 20
109.9694625378
 11
74.2031297204
 21
112.3334359409
  0
LINE
  5
28C
100
AcDbEntity
  8
0
100
AcDbLine
 62
7
  6
CONTINUOUS
 10
80.512166589
 20
103.1162474851
 11
80.512166589
 21
101.7512348402
  0
LINE
  5
28D
100
AcDbEntity
  8
0
100
AcDbLine
 62
7
  6
CONTINUOUS
 10
80.512166589
 20
34.696781856
 11
80.512166589
 21
33.8768425126
  0
LINE
  5
28E
100
AcDbEntity
  8
0
100
AcDbLine
 62
7
  6
CONTINUOUS
 10
84.4918256118
 20
88.9897900634
 11
84.749611445
 21
90.3103246661
  0
LINE
  5
28F
100
AcDbEntity
  8
0
100
AcDbLine
 62
7
  6
CONTINUOUS
 10
84.7195944371
 20
59.2496646174
 11
85.8862931004
 21
59.9232543839
  0
LINE
  5
290
100
AcDbEntity
  8
0
100
AcDbLine
 62
7
  6
CONTINUOUS
 10
85.8863048758
 20
58.2902845669
 11
84.7195944371
 21
57.6166880019
  0
LINE
  5
291
100
AcDbEntity
  8
0
100
AcDbLine
 62
7
  6
CONTINUOUS
 10
84.7195944371
 20
56.1061846325
 11
88.6086655422
 21
58.351527479
  0
LINE
  5
292
100
AcDbEntity
  8
0
100
AcDbLine
 62
7
  6
CONTINUOUS
 10
39.4292364011
 20
106.7495065763
 11
38.7574821622
 21
107.1373352931
  0
LINE
  5
293
100
AcDbEntity
  8
0
100
AcDbLine
 62
7
  6
CONTINUOUS
 10
50.6015700584
 20
100.2993026549
 11
51.9450785362
 21
99.5236452213
  0
LINE
  5
294
100
AcDbEntity
  8
0
100
AcDbLine
 62
7
  6
CONTINUOUS
 10
63.1174121935
 20
93.0734412999
 11
63.7891664324
 21
92.6856125831
  0
LINE
  5
295
100
AcDbEntity
  8
0
100
AcDbLine
 62
7
  6
CONTINUOUS
 10
81.1839208279
 20
34.8540264751
 11
81.1839208279
 21
33.4890137958
  0
LINE
  5
296
100
AcDbEntity
  8
0
100
AcDbLine
 62
7
  6
CONTINUOUS
 10
81.1839208279
 20
101.3634061234
 11
81.1839208279
 21
102.7284187684
  0
LINE
  5
297
100
AcDbEntity
  8
0
100
AcDbLine
 62
7
  6
CONTINUOUS
 10
84.7195944371
 20
85.255320924
 11
84.7195944371
 21
56.1061846325
  0
LINE
  5
298
100
AcDbEntity
  8
0
100
AcDbLine
 62
7
  6
CONTINUOUS
 10
53.698741253
 20
34.6864456018
 11
42.2898966441
 21
28.0995854139
  0
LINE
  5
299
100
AcDbEntity
  8
0
100
AcDbLine
 62
7
  6
CONTINUOUS
 10
44.308258177
 20
108.8315548205
 11
43.6718594244
 21
109.1989714996
  0
LINE
  5
29A
100
AcDbEntity
  8
0
100
AcDbLine
 62
7
  6
CONTINUOUS
 10
54.2077943291
 20
103.1161842572
 11
54.8441930817
 21
102.7487675781
  0
LINE
  5
29B
100
AcDbEntity
  8
0
100
AcDbLine
 62
7
  6
CONTINUOUS
 10
56.1877015595
 20
101.9731101446
 11
56.8241003121
 21
101.6056934655
  0
LINE
  5
29C
100
AcDbEntity
  8
0
100
AcDbLine
 62
7
  6
CONTINUOUS
 10
66.7236364642
 20
95.8903229022
 11
67.3600352168
 21
95.5229062231
  0
LINE
  5
29D
100
AcDbEntity
  8
0
100
AcDbLine
 62
7
  6
CONTINUOUS
 10
66.2041126501
 20
98.0681708014
 11
60.5963017774
 21
101.3057686741
  0
LINE
  5
29E
100
AcDbEntity
  8
0
100
AcDbLine
 62
7
  6
CONTINUOUS
 10
53.688270515
 20
105.2940321564
 11
48.0804596423
 21
108.5316300291
  0
LINE
  5
29F
100
AcDbEntity
  8
0
100
AcDbLine
 62
7
  6
CONTINUOUS
 10
84.5486542992
 20
87.9445904881
 11
85.1948148023
 21
87.5715379873
  0
LINE
  5
2A0
100
AcDbEntity
  8
0
100
AcDbLine
 62
7
  6
CONTINUOUS
 10
84.5404611749
 20
88.2137300584
 11
87.1921226442
 21
86.682827229
  0
LINE
  5
2A1
100
AcDbEntity
  8
0
100
AcDbLine
 62
7
  6
CONTINUOUS
 10
84.593776543
 20
87.2245912421
 11
83.6851637027
 21
101.722996144
  0
LINE
  5
2A2
100
AcDbEntity
  8
0
100
AcDbLine
 62
7
  6
CONTINUOUS
 10
84.5404611749
 20
88.2137300584
 11
84.4918256118
 21
88.9897900634
  0
LINE
  5
2A3
100
AcDbEntity
  8
0
100
AcDbLine
 62
7
  6
CONTINUOUS
 10
84.3288008417
 20
93.1527174676
 11
84.321324512
 21
93.272014544
  0
LINE
  5
2A4
100
AcDbEntity
  8
0
100
AcDbLine
 62
7
  6
CONTINUOUS
 10
84.7859447885
 20
93.5402615845
 11
84.7386891629
 21
94.2943024305
  0
LINE
  5
2A5
100
AcDbEntity
  8
0
100
AcDbLine
 62
7
  6
CONTINUOUS
 10
85.3183089442
 20
85.6009868426
 11
85.1948148023
 21
87.5715379873
  0
LINE
  5
2A6
100
AcDbEntity
  8
0
100
AcDbLine
 62
7
  6
CONTINUOUS
 10
86.1600119856
 20
103.1518419373
 11
87.1921226442
 21
86.682827229
  0
LINE
  5
2A7
100
AcDbEntity
  8
0
100
AcDbLine
 62
7
  6
CONTINUOUS
 10
88.6086655422
 20
99.0949980942
 11
88.6086655422
 21
87.5006637708
  0
LINE
  5
2A8
100
AcDbEntity
  8
0
100
AcDbLine
 62
7
  6
CONTINUOUS
 10
88.6086655422
 20
58.351527479
 11
88.6086655422
 21
37.7756665674
  0
LINE
  5
2A9
100
AcDbEntity
  8
0
100
AcDbLine
 62
7
  6
CONTINUOUS
 10
76.2695435657
 20
97.6560366228
 11
75.6331448131
 21
98.0234533019
  0
LINE
  5
2AA
100
AcDbEntity
  8
0
100
AcDbLine
 62
7
  6
CONTINUOUS
 10
53.2177665259
 20
113.9754311593
 11
52.5813677733
 21
114.3428478383
  0
LINE
  5
2AB
100
AcDbEntity
  8
0
100
AcDbLine
 62
7
  6
CONTINUOUS
 10
63.117302678
 20
108.260060596
 11
63.7537014306
 21
107.8926439169
  0
LINE
  5
2AC
100
AcDbEntity
  8
0
100
AcDbLine
 62
7
  6
CONTINUOUS
 10
65.0972099084
 20
107.1169864833
 11
65.733608661
 21
106.7495698043
  0
LINE
  5
2AD
100
AcDbEntity
  8
0
100
AcDbLine
 62
7
  6
CONTINUOUS
 10
75.6331448131
 20
101.034199241
 11
76.2695435657
 21
100.6667825619
  0
LINE
  5
2AE
100
AcDbEntity
  8
0
100
AcDbLine
 62
7
  6
CONTINUOUS
 10
81.1839208279
 20
101.3634061234
 11
80.512166589
 21
101.7512348402
  0
LINE
  5
2AF
100
AcDbEntity
  8
0
100
AcDbLine
 62
7
  6
CONTINUOUS
 10
68.1576804048
 20
108.883939401
 11
67.9963244539
 21
108.9770961952
  0
LINE
  5
2B0
100
AcDbEntity
  8
0
100
AcDbLine
 62
7
  6
CONTINUOUS
 10
84.749611445
 20
90.3103246661
 11
84.3790134165
 21
91.2113239713
  0
LINE
  5
2B1
100
AcDbEntity
  8
0
100
AcDbLine
 62
7
  6
CONTINUOUS
 10
84.8594107601
 20
91.8242491663
 11
84.3288008417
 21
93.1527174676
  0
LINE
  5
2B2
100
AcDbEntity
  8
0
100
AcDbLine
 62
7
  6
CONTINUOUS
 10
84.7386891629
 20
94.2943024305
 11
83.9512098555
 21
97.477794365
  0
LINE
  5
2B3
100
AcDbEntity
  8
0
100
AcDbLine
 62
7
  6
CONTINUOUS
 10
88.6086655422
 20
99.0949980942
 11
87.3992551411
 21
106.3168222873
  0
LINE
  5
2B4
100
AcDbEntity
  8
0
100
AcDbLine
 62
7
  6
CONTINUOUS
 10
75.6331448131
 20
31.7947942684
 11
67.3600352168
 21
27.0183407275
  0
LINE
  5
2B5
100
AcDbEntity
  8
0
100
AcDbLine
 62
7
  6
CONTINUOUS
 10
80.512166589
 20
33.8768425126
 11
76.2695435657
 21
31.4273775893
  0
LINE
  5
2B6
100
AcDbEntity
  8
0
100
AcDbLine
 62
7
  6
CONTINUOUS
 10
67.3600352168
 20
26.2835012505
 11
63.7891664324
 21
24.2218715029
  0
LINE
  5
2B7
100
AcDbEntity
  8
0
100
AcDbLine
 62
7
  6
CONTINUOUS
 10
88.6086655422
 20
37.7756665674
 11
81.1839208279
 21
33.4890137958
  0
LINE
  5
2B8
100
AcDbEntity
  8
0
100
AcDbLine
 62
7
  6
CONTINUOUS
 10
63.7891664324
 20
23.4462076105
 11
54.6878432591
 21
18.1915875923
  0
LINE
  5
2B9
100
AcDbEntity
  8
0
100
AcDbLine
 62
7
  6
CONTINUOUS
 10
69.3398329317
 20
109.5664514066
 11
67.9963244539
 21
110.3421088402
  0
LINE
  5
2BA
100
AcDbEntity
  8
0
100
AcDbLine
 62
7
  6
CONTINUOUS
 10
56.8239907966
 20
116.7923127616
 11
56.1522365577
 21
117.1801414784
  0
LINE
  5
2BB
100
AcDbEntity
  8
0
100
AcDbLine
 62
7
  6
CONTINUOUS
 10
80.512166589
 20
103.1162474851
 11
81.1839208279
 21
102.7284187684
  0
LINE
  5
2BC
100
AcDbEntity
  8
0
100
AcDbLine
 62
7
  6
CONTINUOUS
 10
70.3140619871
 20
111.7210716567
 11
59.2124393023
 21
118.1304515026
  0
LINE
  5
2BD
100
AcDbEntity
  8
0
100
AcDbLine
 62
7
  6
CONTINUOUS
 10
71.7282814374
 20
110.9045901476
 11
82.8299041222
 21
104.4952103016
  0
LINE
  5
2BE
100
AcDbEntity
  8
0
100
AcDbLine
 62
7
  6
CONTINUOUS
 10
67.8994882698
 20
113.716661513
 11
64.7528499929
 21
115.5333328706
  0
LINE
  5
2BF
100
AcDbEntity
  8
0
100
AcDbLine
 62
7
  6
CONTINUOUS
 10
62.98507568
 20
116.5539347569
 11
59.8384374031
 21
118.3706061145
  0
LINE
  5
2C0
100
AcDbEntity
  8
0
100
AcDbLine
 62
7
  6
CONTINUOUS
 10
63.691206943
 20
116.1989751886
 11
63.0307808545
 21
116.5802637427
  0
LINE
  5
2C1
100
AcDbEntity
  8
0
100
AcDbLine
 62
7
  6
CONTINUOUS
 10
72.7889102701
 20
113.14991745
 11
71.2645449972
 21
114.0299902407
  0
LINE
  5
2C2
100
AcDbEntity
  8
0
100
AcDbLine
 62
7
  6
CONTINUOUS
 10
74.2031297204
 20
112.3334359409
 11
85.3047524052
 21
105.924056095
  0
LINE
  5
2C3
100
AcDbEntity
  8
0
100
AcDbLine
 62
7
  6
CONTINUOUS
 10
71.0185463681
 20
115.7740149566
 11
87.3992551411
 21
106.3168222873
  0
ARC
  5
2C4
100
AcDbEntity
  8
0
100
AcDbCircle
 62
7
  6
CONTINUOUS
 10
216.7374099773
 20
62.7982005983
 40
202.1269451799
100
AcDbArc
 50
179.9994347163
 51
180.3867851046
  0
ARC
  5
2C5
100
AcDbEntity
  8
0
100
AcDbCircle
 62
7
  6
CONTINUOUS
 10
138.1097960627
 20
61.3440626541
 40
122.3050742373
100
AcDbArc
 50
186.5691103844
 51
187.3479494072
  0
ARC
  5
2C6
100
AcDbEntity
  8
0
100
AcDbCircle
 62
7
  6
CONTINUOUS
 10
34.3121363763
 20
139.4149326704
 40
45.3991895934
100
AcDbArc
 50
317.1817495223
 51
317.8982798454
  0
ARC
  5
2C7
100
AcDbEntity
  8
0
100
AcDbCircle
 62
7
  6
CONTINUOUS
 10
55.1747569313
 20
101.9500225876
 40
19.2404867982
100
AcDbArc
 50
56.9284437991
 51
59.9650368415
  0
ARC
  5
2C8
100
AcDbEntity
  8
0
100
AcDbCircle
 62
7
  6
CONTINUOUS
 10
56.0626381719
 20
103.4725675974
 40
17.4779804163
100
AcDbArc
 50
59.9866061633
 51
63.3351541671
  0
ARC
  5
2C9
100
AcDbEntity
  8
0
100
AcDbCircle
 62
7
  6
CONTINUOUS
 10
32.3590246994
 20
48.5520647058
 40
16.5493283909
100
AcDbArc
 50
148.2430108511
 51
148.8981690522
  0
ARC
  5
2CA
100
AcDbEntity
  8
0
100
AcDbCircle
 62
7
  6
CONTINUOUS
 10
26.3485745048
 20
52.0215311602
 40
10.8
100
AcDbArc
 50
161.8329302133
 51
205.4599995739
  0
ARC
  5
2CB
100
AcDbEntity
  8
0
100
AcDbCircle
 62
7
  6
CONTINUOUS
 10
38.8644166399
 20
44.7956698052
 40
10.8
100
AcDbArc
 50
261.4924885063
 51
267.1686667029
  0
ARC
  5
2CC
100
AcDbEntity
  8
0
100
AcDbCircle
 62
7
  6
CONTINUOUS
 10
38.8644166399
 20
44.7956698052
 40
10.8
100
AcDbArc
 50
161.8286936836
 51
205.4599995739
  0
ARC
  5
2CD
100
AcDbEntity
  8
0
100
AcDbCircle
 62
7
  6
CONTINUOUS
 10
26.3485745048
 20
52.0215311602
 40
10.8
100
AcDbArc
 50
261.4924885063
 51
267.1686667029
  0
ARC
  5
2CE
100
AcDbEntity
  8
0
100
AcDbCircle
 62
7
  6
CONTINUOUS
 10
38.253958198
 20
41.900109757
 40
7.8438292371
100
AcDbArc
 50
266.5728879293
 51
273.3873921559
  0
ARC
  5
2CF
100
AcDbEntity
  8
0
100
AcDbCircle
 62
7
  6
CONTINUOUS
 10
25.7381160629
 20
49.125971112
 40
7.8438292371
100
AcDbArc
 50
266.5728879293
 51
273.3873921559
  0
ARC
  5
2D0
100
AcDbEntity
  8
0
100
AcDbCircle
 62
7
  6
CONTINUOUS
 10
38.523355552
 20
37.1965028132
 40
3.1917619004
100
AcDbArc
 50
273.5594313032
 51
275.4479572134
  0
ARC
  5
2D1
100
AcDbEntity
  8
0
100
AcDbCircle
 62
7
  6
CONTINUOUS
 10
26.0075050992
 20
44.4220165131
 40
3.1914148958
100
AcDbArc
 50
273.5603927025
 51
275.4611445857
  0
ARC
  5
2D2
100
AcDbEntity
  8
0
100
AcDbCircle
 62
7
  6
CONTINUOUS
 10
46.5306591515
 20
40.153750908
 40
3.0074473432
100
AcDbArc
 50
167.2713683581
 51
167.927323386
  0
ARC
  5
2D3
100
AcDbEntity
  8
0
100
AcDbCircle
 62
7
  6
CONTINUOUS
 10
59.6086254066
 20
33.4948262681
 40
3.0071125549
100
AcDbArc
 50
167.2760709081
 51
167.9324396496
  0
ARC
  5
2D4
100
AcDbEntity
  8
0
100
AcDbCircle
 62
7
  6
CONTINUOUS
 10
81.2496503904
 20
94.0790072393
 40
3.0071125547
100
AcDbArc
 50
167.2760709082
 51
167.9324396497
  0
ARC
  5
2D5
100
AcDbEntity
  8
0
100
AcDbCircle
 62
7
  6
CONTINUOUS
 10
67.4592925026
 20
61.9501109346
 40
3.0071125532
100
AcDbArc
 50
167.2760709079
 51
167.9324396498
  0
ARC
  5
2D6
100
AcDbEntity
  8
0
100
AcDbCircle
 62
7
  6
CONTINUOUS
 10
83.2616845042
 20
45.2981056022
 40
2.9715294478
100
AcDbArc
 50
167.4758700158
 51
168.8553887928
  0
ARC
  5
2D7
100
AcDbEntity
  8
0
100
AcDbCircle
 62
7
  6
CONTINUOUS
 10
57.2435714518
 20
74.5337315126
 40
2.971479832
100
AcDbArc
 50
167.4758622664
 51
168.8569521282
  0
ARC
  5
2D8
100
AcDbEntity
  8
0
100
AcDbCircle
 62
7
  6
CONTINUOUS
 10
33.3781555365
 20
43.1787823294
 40
2.7821389253
100
AcDbArc
 50
211.7314264741
 51
217.3368148285
  0
ARC
  5
2D9
100
AcDbEntity
  8
0
100
AcDbCircle
 62
7
  6
CONTINUOUS
 10
20.8623134014
 20
50.4046436844
 40
2.7821389253
100
AcDbArc
 50
211.7314264741
 51
217.3368148285
  0
ARC
  5
2DA
100
AcDbEntity
  8
0
100
AcDbCircle
 62
7
  6
CONTINUOUS
 10
33.2963461974
 20
43.1174149142
 40
2.6798744599
100
AcDbArc
 50
217.3544548107
 51
218.1284398035
  0
ARC
  5
2DB
100
AcDbEntity
  8
0
100
AcDbCircle
 62
7
  6
CONTINUOUS
 10
20.7805040624
 20
50.3432762693
 40
2.67987446
100
AcDbArc
 50
217.3544548108
 51
218.1284398035
  0
ARC
  5
2DC
100
AcDbEntity
  8
0
100
AcDbCircle
 62
7
  6
CONTINUOUS
 10
55.3480461604
 20
76.6784593252
 40
0.3748442526
100
AcDbArc
 50
60.0670444566
 51
72.8522426002
  0
ARC
  5
2DD
100
AcDbEntity
  8
0
100
AcDbCircle
 62
7
  6
CONTINUOUS
 10
81.3661321843
 20
47.4429095383
 40
0.3747762176
100
AcDbArc
 50
60.0648767399
 51
72.8470841519
  0
SPLINE
  5
2DE
100
AcDbEntity
  8
0
100
AcDbSpline
 62
7
  6
CONTINUOUS
 70
0
 71
3
 72
10
 73
6
 74
0
 42
0.0000001
 43
0.0000001
 44
0.0000000001
 40
0.0
 40
0.0
 40
0.0
 40
0.0
 40
0.2377246814
 40
0.4801509521
 40
1.0
 40
1.0
 40
1.0
 40
1.0
 10
62.326437245
 20
116.7277524404
 30
0.0
 10
62.3456311679
 20
116.7403812331
 30
0.0
 10
62.3871884818
 20
116.7619263737
 30
0.0
 10
62.4807559695
 20
116.7881540973
 30
0.0
 10
62.5563979752
 20
116.7864881858
 30
0.0
 10
62.6059634815
 20
116.7782647859
 30
0.0
  0
SPLINE
  5
2DF
100
AcDbEntity
  8
0
100
AcDbSpline
 62
7
  6
CONTINUOUS
 70
0
 71
3
 72
11
 73
7
 74
0
 42
0.0000001
 43
0.0000001
 44
0.0000000001
 40
0.0
 40
0.0
 40
0.0
 40
0.0
 40
0.2402311209
 40
0.4941580699
 40
0.7511207131
 40
1.0
 40
1.0
 40
1.0
 40
1.0
 10
67.4236213945
 20
113.3904676783
 30
0.0
 10
67.4109809682
 20
113.4691731496
 30
0.0
 10
67.3694921469
 20
113.6287788601
 30
0.0
 10
67.2698459651
 20
113.8581731858
 30
0.0
 10
67.1364118252
 20
114.0730840925
 30
0.0
 10
67.0271278203
 20
114.2015788738
 30
0.0
 10
66.9684137731
 20
114.2596540912
 30
0.0
  0
SPLINE
  5
2E0
100
AcDbEntity
  8
0
100
AcDbSpline
 62
7
  6
CONTINUOUS
 70
0
 71
3
 72
11
 73
7
 74
0
 42
0.0000001
 43
0.0000001
 44
0.0000000001
 40
0.0
 40
0.0
 40
0.0
 40
0.0
 40
0.2277777526
 40
0.4761035461
 40
0.7366413376
 40
1.0
 40
1.0
 40
1.0
 40
1.0
 10
71.8501772688
 20
113.3788350568
 30
0.0
 10
71.8958402499
 20
113.3524721188
 30
0.0
 10
71.9860841487
 20
113.2881753774
 30
0.0
 10
72.1094061156
 20
113.1697225068
 30
0.0
 10
72.2216848949
 20
113.0300505594
 30
0.0
 10
72.2858607035
 20
112.9267305451
 30
0.0
 10
72.3147315149
 20
112.8730371262
 30
0.0
  0
SPLINE
  5
2E1
100
AcDbEntity
  8
0
100
AcDbSpline
 62
7
  6
CONTINUOUS
 70
0
 71
3
 72
15
 73
11
 74
0
 42
0.0000001
 43
0.0000001
 44
0.0000000001
 40
0.0
 40
0.0
 40
0.0
 40
0.0
 40
0.1114570754
 40
0.2331087603
 40
0.3622385399
 40
0.495591397
 40
0.6295529174
 40
0.7604635889
 40
0.8849331785
 40
1.0
 40
1.0
 40
1.0
 40
1.0
 10
71.0938042521
 20
114.5731522501
 30
0.0
 10
71.0971995204
 20
114.5189751883
 30
0.0
 10
71.1143015776
 20
114.4062042427
 30
0.0
 10
71.1643251133
 20
114.2365856581
 30
0.0
 10
71.238171195
 20
114.064249369
 30
0.0
 10
71.333041658
 20
113.8956756036
 30
0.0
 10
71.445421035
 20
113.7371727046
 30
0.0
 10
71.5710840331
 20
113.5946493652
 30
0.0
 10
71.7053065555
 20
113.4734949294
 30
0.0
 10
71.8016437045
 20
113.4068552893
 30
0.0
 10
71.8501772688
 20
113.3788350568
 30
0.0
  0
SPLINE
  5
2E2
100
AcDbEntity
  8
0
100
AcDbSpline
 62
7
  6
CONTINUOUS
 70
0
 71
3
 72
11
 73
7
 74
0
 42
0.0000001
 43
0.0000001
 44
0.0000000001
 40
0.0
 40
0.0
 40
0.0
 40
0.0
 40
0.2840590145
 40
0.5438121362
 40
0.7806698713
 40
1.0
 40
1.0
 40
1.0
 40
1.0
 10
60.7565443272
 20
117.7299648463
 30
0.0
 10
60.7565035869
 20
117.6876822343
 30
0.0
 10
60.7511635422
 20
117.6065692829
 30
0.0
 10
60.7245792762
 20
117.492801441
 30
0.0
 10
60.679923587
 20
117.3951609844
 30
0.0
 10
60.6372955988
 20
117.3411732029
 30
0.0
 10
60.6137066525
 20
117.3186026538
 30
0.0
  0
SPLINE
  5
2E3
100
AcDbEntity
  8
0
100
AcDbSpline
 62
7
  6
CONTINUOUS
 70
0
 71
3
 72
9
 73
5
 74
0
 42
0.0000001
 43
0.0000001
 44
0.0000000001
 40
0.0
 40
0.0
 40
0.0
 40
0.0
 40
0.5116259532
 40
1.0
 40
1.0
 40
1.0
 40
1.0
 10
67.900785459
 20
115.0629566613
 30
0.0
 10
67.4005602207
 20
115.5293382491
 30
0.0
 10
66.3870676679
 20
116.4034699691
 30
0.0
 10
65.301924185
 20
117.1876857683
 30
0.0
 10
64.7547871451
 20
117.5438172688
 30
0.0
  0
SPLINE
  5
2E4
100
AcDbEntity
  8
0
100
AcDbSpline
 62
7
  6
CONTINUOUS
 70
0
 71
3
 72
9
 73
5
 74
0
 42
0.0000001
 43
0.0000001
 44
0.0000000001
 40
0.0
 40
0.0
 40
0.0
 40
0.0
 40
0.5247085148
 40
1.0
 40
1.0
 40
1.0
 40
1.0
 10
68.9594817669
 20
112.50027615
 30
0.0
 10
68.914906809
 20
112.5945989143
 30
0.0
 10
68.8459307225
 20
112.7824617102
 30
0.0
 10
68.8175041411
 20
112.9815205913
 30
0.0
 10
68.8175951939
 20
113.0760202447
 30
0.0
  0
SPLINE
  5
2E5
100
AcDbEntity
  8
0
100
AcDbSpline
 62
7
  6
CONTINUOUS
 70
0
 71
3
 72
11
 73
7
 74
0
 42
0.0000001
 43
0.0000001
 44
0.0000000001
 40
0.0
 40
0.0
 40
0.0
 40
0.0
 40
0.2760748422
 40
0.5316654208
 40
0.7708693641
 40
1.0
 40
1.0
 40
1.0
 40
1.0
 10
62.1495779347
 20
116.4353912105
 30
0.0
 10
62.1558881967
 20
116.4670058805
 30
0.0
 10
62.172394403
 20
116.5271709096
 30
0.0
 10
62.2109833589
 20
116.6090646456
 30
0.0
 10
62.2618998993
 20
116.6773188973
 30
0.0
 10
62.3040851123
 20
116.7130456787
 30
0.0
 10
62.326437245
 20
116.7277524404
 30
0.0
  0
SPLINE
  5
2E6
100
AcDbEntity
  8
0
100
AcDbSpline
 62
7
  6
CONTINUOUS
 70
0
 71
3
 72
9
 73
5
 74
0
 42
0.0000001
 43
0.0000001
 44
0.0000000001
 40
0.0
 40
0.0
 40
0.0
 40
0.0
 40
0.5165865499
 40
1.0
 40
1.0
 40
1.0
 40
1.0
 10
62.9870106702
 20
118.562175212
 30
0.0
 10
62.4705117569
 20
118.8210622473
 30
0.0
 10
61.4434167047
 20
119.2703253775
 30
0.0
 10
60.3677816442
 20
119.5902171323
 30
0.0
 10
59.839724297
 20
119.7062161386
 30
0.0
  0
SPLINE
  5
2E7
100
AcDbEntity
  8
0
100
AcDbSpline
 62
7
  6
CONTINUOUS
 70
0
 71
3
 72
11
 73
7
 74
0
 42
0.0000001
 43
0.0000001
 44
0.0000000001
 40
0.0
 40
0.0
 40
0.0
 40
0.0
 40
0.2748684045
 40
0.5399812359
 40
0.7842352396
 40
1.0
 40
1.0
 40
1.0
 40
1.0
 10
39.9026444544
 20
30.6041208219
 30
0.0
 10
39.9665858086
 20
30.7065800249
 30
0.0
 10
40.0772114844
 20
30.9176724507
 30
0.0
 10
40.1889455708
 20
31.2452129954
 30
0.0
 10
40.2390942421
 20
31.5615195712
 30
0.0
 10
40.2279313225
 20
31.7658513128
 30
0.0
 10
40.2086147849
 20
31.8586671981
 30
0.0
  0
SPLINE
  5
2E8
100
AcDbEntity
  8
0
100
AcDbSpline
 62
7
  6
CONTINUOUS
 70
0
 71
3
 72
13
 73
9
 74
0
 42
0.0000001
 43
0.0000001
 44
0.0000000001
 40
0.0
 40
0.0
 40
0.0
 40
0.0
 40
0.1061196375
 40
0.2188902133
 40
0.337873429
 40
0.4625386378
 40
0.7254433116
 40
1.0
 40
1.0
 40
1.0
 40
1.0
 10
36.5130690344
 20
27.1618692688
 30
0.0
 10
36.6487210984
 20
27.2114170764
 30
0.0
 10
36.922403284
 20
27.3309180144
 30
0.0
 10
37.3228645641
 20
27.558269253
 30
0.0
 10
37.7209912702
 20
27.8365040844
 30
0.0
 10
38.251137765
 20
28.2782153646
 30
0.0
 10
38.8733252882
 20
28.9347162318
 30
0.0
 10
39.3010724036
 20
29.530985526
 30
0.0
 10
39.4988898729
 20
29.8479669305
 30
0.0
  0
SPLINE
  5
2E9
100
AcDbEntity
  8
0
100
AcDbSpline
 62
7
  6
CONTINUOUS
 70
0
 71
3
 72
9
 73
5
 74
0
 42
0.0000001
 43
0.0000001
 44
0.0000000001
 40
0.0
 40
0.0
 40
0.0
 40
0.0
 40
0.2440473651
 40
1.0
 40
1.0
 40
1.0
 40
1.0
 10
36.1289317068
 20
27.047497309
 30
0.0
 10
36.1607302744
 20
27.0547588939
 30
0.0
 10
36.2905200215
 20
27.0867118807
 30
0.0
 10
36.4181676142
 20
27.1272059016
 30
0.0
 10
36.5130690344
 20
27.1618692688
 30
0.0
  0
SPLINE
  5
2EA
100
AcDbEntity
  8
0
100
AcDbSpline
 62
7
  6
CONTINUOUS
 70
0
 71
3
 72
9
 73
5
 74
0
 42
0.0000001
 43
0.0000001
 44
0.0000000001
 40
0.0
 40
0.0
 40
0.0
 40
0.0
 40
0.2581879441
 40
1.0
 40
1.0
 40
1.0
 40
1.0
 10
13.9371205055
 20
47.18120898
 30
0.0
 10
13.9488608476
 20
47.1854972171
 30
0.0
 10
13.9946455694
 20
47.2012244319
 30
0.0
 10
14.0417186244
 20
47.2133042146
 30
0.0
 10
14.0770520744
 20
47.2197212114
 30
0.0
  0
SPLINE
  5
2EB
100
AcDbEntity
  8
0
100
AcDbSpline
 62
7
  6
CONTINUOUS
 70
0
 71
3
 72
11
 73
7
 74
0
 42
0.0000001
 43
0.0000001
 44
0.0000000001
 40
0.0
 40
0.0
 40
0.0
 40
0.0
 40
0.2747257619
 40
0.5377264588
 40
0.7812558141
 40
1.0
 40
1.0
 40
1.0
 40
1.0
 10
13.1170867347
 20
46.4457260834
 30
0.0
 10
13.1715632232
 20
46.5325241415
 30
0.0
 10
13.2892389123
 20
46.6957960853
 30
0.0
 10
13.4907771143
 20
46.9076608664
 30
0.0
 10
13.7057125776
 20
47.0737753072
 30
0.0
 10
13.8604778219
 20
47.1532147363
 30
0.0
 10
13.9371205055
 20
47.18120898
 30
0.0
  0
SPLINE
  5
2EC
100
AcDbEntity
  8
0
100
AcDbSpline
 62
7
  6
CONTINUOUS
 70
0
 71
3
 72
14
 73
10
 74
0
 42
0.0000001
 43
0.0000001
 44
0.0000000001
 40
0.0
 40
0.0
 40
0.0
 40
0.0
 40
0.1054450223
 40
0.2181711344
 40
0.3376198962
 40
0.4630145647
 40
0.5932789803
 40
0.7271467777
 40
1.0
 40
1.0
 40
1.0
 40
1.0
 10
11.4816454578
 20
41.3347715217
 30
0.0
 10
11.4546239665
 20
41.4959906367
 30
0.0
 10
11.4216095717
 20
41.833643324
 30
0.0
 10
11.4307971989
 20
42.3578955894
 30
0.0
 10
11.4967675451
 20
42.9091671304
 30
0.0
 10
11.6183171297
 20
43.4785730875
 30
0.0
 10
11.7935727258
 20
44.057192794
 30
0.0
 10
12.0967876774
 20
44.833084828
 30
0.0
 10
12.3923013789
 20
45.3935296021
 30
0.0
 10
12.6162475073
 20
45.7523793971
 30
0.0
  0
SPLINE
  5
2ED
100
AcDbEntity
  8
0
100
AcDbSpline
 62
7
  6
CONTINUOUS
 70
0
 71
3
 72
11
 73
7
 74
0
 42
0.0000001
 43
0.0000001
 44
0.0000000001
 40
0.0
 40
0.0
 40
0.0
 40
0.0
 40
0.2275403642
 40
0.4652460505
 40
0.7213359238
 40
1.0
 40
1.0
 40
1.0
 40
1.0
 10
11.6387320363
 20
41.0770916502
 30
0.0
 10
11.6182814208
 20
41.0888945972
 30
0.0
 10
11.5795729516
 20
41.1188387616
 30
0.0
 10
11.5334861276
 20
41.1787091247
 30
0.0
 10
11.4998166173
 20
41.2520746931
 30
0.0
 10
11.4864255495
 20
41.3062519207
 30
0.0
 10
11.4816454578
 20
41.3347715217
 30
0.0
  0
SPLINE
  5
2EE
100
AcDbEntity
  8
0
100
AcDbSpline
 62
7
  6
CONTINUOUS
 70
0
 71
3
 72
16
 73
12
 74
0
 42
0.0000001
 43
0.0000001
 44
0.0000000001
 40
0.0
 40
0.0
 40
0.0
 40
0.0
 40
0.0950322655
 40
0.1460575813
 40
0.1995731194
 40
0.3141616765
 40
0.4385107854
 40
0.571354814
 40
0.7108020528
 40
0.8545388475
 40
1.0
 40
1.0
 40
1.0
 40
1.0
 10
18.4960409165
 20
48.9414104401
 30
0.0
 10
18.3647470228
 20
49.153274962
 30
0.0
 10
18.2041948971
 20
49.5057049764
 30
0.0
 10
18.0607185856
 20
50.0094773816
 30
0.0
 10
17.9549827988
 20
50.5752261585
 30
0.0
 10
17.9120236175
 20
51.3444375447
 30
0.0
 10
17.9945559335
 20
52.3186352322
 30
0.0
 10
18.2073465948
 20
53.3392690867
 30
0.0
 10
18.5445756
 20
54.3790566051
 30
0.0
 10
18.9970716265
 20
55.4100692468
 30
0.0
 10
19.367675654
 20
56.0734342091
 30
0.0
 10
19.5694679299
 20
56.3972105546
 30
0.0
  0
SPLINE
  5
2EF
100
AcDbEntity
  8
0
100
AcDbSpline
 62
7
  6
CONTINUOUS
 70
0
 71
3
 72
16
 73
12
 74
0
 42
0.0000001
 43
0.0000001
 44
0.0000000001
 40
0.0
 40
0.0
 40
0.0
 40
0.0
 40
0.0950322655
 40
0.1460575813
 40
0.1995731194
 40
0.3141616765
 40
0.4385107854
 40
0.571354814
 40
0.7108020528
 40
0.8545388475
 40
1.0
 40
1.0
 40
1.0
 40
1.0
 10
31.0118830517
 20
41.7155490851
 30
0.0
 10
30.8805891579
 20
41.927413607
 30
0.0
 10
30.7200370322
 20
42.2798436214
 30
0.0
 10
30.5765607207
 20
42.7836160266
 30
0.0
 10
30.4708249339
 20
43.3493648035
 30
0.0
 10
30.4278657526
 20
44.1185761897
 30
0.0
 10
30.5103980686
 20
45.0927738772
 30
0.0
 10
30.7231887299
 20
46.1134077317
 30
0.0
 10
31.0604177351
 20
47.1531952501
 30
0.0
 10
31.5129137616
 20
48.1842078918
 30
0.0
 10
31.8835177891
 20
48.8475728541
 30
0.0
 10
32.085310065
 20
49.1713491996
 30
0.0
  0
SPLINE
  5
2F0
100
AcDbEntity
  8
0
100
AcDbSpline
 62
7
  6
CONTINUOUS
 70
0
 71
3
 72
11
 73
7
 74
0
 42
0.0000001
 43
0.0000001
 44
0.0000000001
 40
0.0
 40
0.0
 40
0.0
 40
0.0
 40
0.2786640762
 40
0.5347539495
 40
0.7724596358
 40
1.0
 40
1.0
 40
1.0
 40
1.0
 10
35.7355090303
 20
27.3321136417
 30
0.0
 10
35.740289122
 20
27.3035940407
 30
0.0
 10
35.7536801899
 20
27.2494168131
 30
0.0
 10
35.7873497002
 20
27.1760512446
 30
0.0
 10
35.8334365241
 20
27.1161808816
 30
0.0
 10
35.8721449933
 20
27.0862367172
 30
0.0
 10
35.8925956089
 20
27.0744337701
 30
0.0
  0
SPLINE
  5
2F1
100
AcDbEntity
  8
0
100
AcDbSpline
 62
7
  6
CONTINUOUS
 70
0
 71
3
 72
14
 73
10
 74
0
 42
0.0000001
 43
0.0000001
 44
0.0000000001
 40
0.0
 40
0.0
 40
0.0
 40
0.0
 40
0.2728532223
 40
0.4067210197
 40
0.5369854353
 40
0.6623801038
 40
0.7818288656
 40
0.8945549777
 40
1.0
 40
1.0
 40
1.0
 40
1.0
 10
36.8701110798
 20
31.7497215171
 30
0.0
 10
36.6461649514
 20
31.390871722
 30
0.0
 10
36.3506512499
 20
30.8304269479
 30
0.0
 10
36.0474362983
 20
30.054534914
 30
0.0
 10
35.8721807023
 20
29.4759152075
 30
0.0
 10
35.7506311177
 20
28.9065092504
 30
0.0
 10
35.6846607714
 20
28.3552377094
 30
0.0
 10
35.6754731443
 20
27.8309854439
 30
0.0
 10
35.7084875391
 20
27.4933327567
 30
0.0
 10
35.7355090303
 20
27.3321136417
 30
0.0
  0
SPLINE
  5
2F2
100
AcDbEntity
  8
0
100
AcDbSpline
 62
7
  6
CONTINUOUS
 70
0
 71
3
 72
11
 73
7
 74
0
 42
0.0000001
 43
0.0000001
 44
0.0000000001
 40
0.0
 40
0.0
 40
0.0
 40
0.0
 40
0.2186920048
 40
0.4622551843
 40
0.7253111554
 40
1.0
 40
1.0
 40
1.0
 40
1.0
 10
38.190984078
 20
33.1785511
 30
0.0
 10
38.113947832
 20
33.150413105
 30
0.0
 10
37.9583942739
 20
33.0704482664
 30
0.0
 10
37.7425011175
 20
32.9031516046
 30
0.0
 10
37.5402399104
 20
32.6897701526
 30
0.0
 10
37.42228937
 20
32.5253481368
 30
0.0
 10
37.3677506183
 20
32.4379556018
 30
0.0
  0
SPLINE
  5
2F3
100
AcDbEntity
  8
0
100
AcDbSpline
 62
7
  6
CONTINUOUS
 70
0
 71
3
 72
9
 73
5
 74
0
 42
0.0000001
 43
0.0000001
 44
0.0000000001
 40
0.0
 40
0.0
 40
0.0
 40
0.0
 40
0.2421431411
 40
1.0
 40
1.0
 40
1.0
 40
1.0
 10
38.330915647
 20
33.2170633313
 30
0.0
 10
38.3193817256
 20
33.2149686269
 30
0.0
 10
38.2719542747
 20
33.2052022391
 30
0.0
 10
38.2254464079
 20
33.1911386924
 30
0.0
 10
38.190984078
 20
33.1785511
 30
0.0
  0
SPLINE
  5
2F4
100
AcDbEntity
  8
0
100
AcDbSpline
 62
7
  6
CONTINUOUS
 70
0
 71
3
 72
18
 73
14
 74
0
 42
0.0000001
 43
0.0000001
 44
0.0000000001
 40
0.0
 40
0.0
 40
0.0
 40
0.0
 40
0.0445254165
 40
0.0899823005
 40
0.1372048927
 40
0.1868749583
 40
0.2394755822
 40
0.2953075509
 40
0.4168550068
 40
0.5510036637
 40
0.6953415584
 40
0.8463937646
 40
1.0
 40
1.0
 40
1.0
 40
1.0
 10
60.3569988184
 20
108.8315785978
 30
0.0
 10
60.3570016769
 20
108.7088721187
 30
0.0
 10
60.3345530425
 20
108.4603307535
 30
0.0
 10
60.2340913058
 20
108.0939604601
 30
0.0
 10
60.0687533468
 20
107.7363613916
 30
0.0
 10
59.8405242988
 20
107.3916901522
 30
0.0
 10
59.55252972
 20
107.0631451097
 30
0.0
 10
59.0795896214
 20
106.6393125844
 30
0.0
 10
58.3508759561
 20
106.1743443966
 30
0.0
 10
57.3312936659
 20
105.7445747485
 30
0.0
 10
56.1828095332
 20
105.4431069306
 30
0.0
 10
54.9529823403
 20
105.28239186
 30
0.0
 10
54.1110838806
 20
105.2733362769
 30
0.0
 10
53.688270515
 20
105.2940321564
 30
0.0
  0
SPLINE
  5
2F5
100
AcDbEntity
  8
0
100
AcDbSpline
 62
7
  6
CONTINUOUS
 70
0
 71
3
 72
11
 73
7
 74
0
 42
0.0000001
 43
0.0000001
 44
0.0000000001
 40
0.0
 40
0.0
 40
0.0
 40
0.0
 40
0.2177690984
 40
0.4509043648
 40
0.7103747685
 40
1.0
 40
1.0
 40
1.0
 40
1.0
 10
54.7440485018
 20
73.5918776398
 30
0.0
 10
54.6698523369
 20
73.6347573053
 30
0.0
 10
54.5309169695
 20
73.7513906405
 30
0.0
 10
54.3831072087
 20
73.9931895861
 30
0.0
 10
54.2953501576
 20
74.2910802977
 30
0.0
 10
54.2780251169
 20
74.5078889664
 30
0.0
 10
54.2780251169
 20
74.6218611021
 30
0.0
  0
SPLINE
  5
2F6
100
AcDbEntity
  8
0
100
AcDbSpline
 62
7
  6
CONTINUOUS
 70
0
 71
3
 72
14
 73
10
 74
0
 42
0.0000001
 43
0.0000001
 44
0.0000000001
 40
0.0
 40
0.0
 40
0.0
 40
0.0
 40
0.1457246573
 40
0.2867062365
 40
0.4220723222
 40
0.5512141351
 40
0.6736713543
 40
0.7892355737
 40
1.0
 40
1.0
 40
1.0
 40
1.0
 10
63.7891664324
 20
24.958038426
 30
0.0
 10
64.4627129817
 20
25.6897232969
 30
0.0
 10
65.8357407086
 20
27.086234373
 30
0.0
 10
67.9968005559
 20
28.9943235983
 30
0.0
 10
70.2067707919
 20
30.6647592235
 30
0.0
 10
72.4406667185
 20
32.0789746469
 30
0.0
 10
74.6761246701
 20
33.2215427056
 30
0.0
 10
77.5330510116
 20
34.3306505441
 30
0.0
 10
79.7472178185
 20
34.7849430242
 30
0.0
 10
81.1839208279
 20
34.8540264751
 30
0.0
  0
SPLINE
  5
2F7
100
AcDbEntity
  8
0
100
AcDbSpline
 62
7
  6
CONTINUOUS
 70
0
 71
3
 72
9
 73
5
 74
0
 42
0.0000001
 43
0.0000001
 44
0.0000000001
 40
0.0
 40
0.0
 40
0.0
 40
0.0
 40
0.2385515737
 40
1.0
 40
1.0
 40
1.0
 40
1.0
 10
43.5299603964
 20
40.249496402
 30
0.0
 10
43.5299603964
 20
40.2922110672
 30
0.0
 10
43.5354494029
 20
40.471256189
 30
0.0
 10
43.5612125
 20
40.649436653
 30
0.0
 10
43.5897272531
 20
40.7827652891
 30
0.0
  0
SPLINE
  5
2F8
100
AcDbEntity
  8
0
100
AcDbSpline
 62
7
  6
CONTINUOUS
 70
0
 71
3
 72
9
 73
5
 74
0
 42
0.0000001
 43
0.0000001
 44
0.0000000001
 40
0.0
 40
0.0
 40
0.0
 40
0.0
 40
0.2458629461
 40
1.0
 40
1.0
 40
1.0
 40
1.0
 10
43.5971211458
 20
40.816392811
 30
0.0
 10
43.6033106395
 20
40.8437956628
 30
0.0
 10
43.63003419
 20
40.9548979647
 30
0.0
 10
43.6627591381
 20
41.0645401343
 30
0.0
 10
43.6904256608
 20
41.1461483141
 30
0.0
  0
SPLINE
  5
2F9
100
AcDbEntity
  8
0
100
AcDbSpline
 62
7
  6
CONTINUOUS
 70
0
 71
3
 72
11
 73
7
 74
0
 42
0.0000001
 43
0.0000001
 44
0.0000000001
 40
0.0
 40
0.0
 40
0.0
 40
0.0
 40
0.2508924202
 40
0.5061658718
 40
0.7582679678
 40
1.0
 40
1.0
 40
1.0
 40
1.0
 10
43.6904256608
 20
41.1461483141
 30
0.0
 10
43.7401698214
 20
41.2928790924
 30
0.0
 10
43.8602545907
 20
41.5825150841
 30
0.0
 10
44.0910376641
 20
41.9911892054
 30
0.0
 10
44.3660482146
 20
42.3645410587
 30
0.0
 10
44.5774151496
 20
42.5859010696
 30
0.0
 10
44.688161769
 20
42.685994669
 30
0.0
  0
SPLINE
  5
2FA
100
AcDbEntity
  8
0
100
AcDbSpline
 62
7
  6
CONTINUOUS
 70
0
 71
3
 72
13
 73
9
 74
0
 42
0.0000001
 43
0.0000001
 44
0.0000000001
 40
0.0
 40
0.0
 40
0.0
 40
0.0
 40
0.3018267813
 40
0.5667315199
 40
0.6852445675
 40
0.7954633422
 40
0.8994311343
 40
1.0
 40
1.0
 40
1.0
 40
1.0
 10
44.688161769
 20
42.685994669
 30
0.0
 10
44.816484987
 20
42.8019741261
 30
0.0
 10
45.0765917008
 20
43.0000391165
 30
0.0
 10
45.4381968952
 20
43.1655699007
 30
0.0
 10
45.7167777341
 20
43.2213425183
 30
0.0
 10
45.9085673561
 20
43.2252230973
 30
0.0
 10
46.0872565225
 20
43.1923322511
 30
0.0
 10
46.1960048505
 20
43.145416581
 30
0.0
 10
46.245904279
 20
43.1165785568
 30
0.0
  0
SPLINE
  5
2FB
100
AcDbEntity
  8
0
100
AcDbSpline
 62
7
  6
CONTINUOUS
 70
0
 71
3
 72
9
 73
5
 74
0
 42
0.0000001
 43
0.0000001
 44
0.0000000001
 40
0.0
 40
0.0
 40
0.0
 40
0.0
 40
0.2385557651
 40
1.0
 40
1.0
 40
1.0
 40
1.0
 10
56.6082536291
 20
33.590499858
 30
0.0
 10
56.6082536291
 20
33.6331941178
 30
0.0
 10
56.6137372952
 20
33.8121505732
 30
0.0
 10
56.6394761641
 20
33.9902436297
 30
0.0
 10
56.6679647419
 20
34.1235080418
 30
0.0
  0
SPLINE
  5
2FC
100
AcDbEntity
  8
0
100
AcDbSpline
 62
7
  6
CONTINUOUS
 70
0
 71
3
 72
9
 73
5
 74
0
 42
0.0000001
 43
0.0000001
 44
0.0000000001
 40
0.0
 40
0.0
 40
0.0
 40
0.0
 40
0.245859257
 40
1.0
 40
1.0
 40
1.0
 40
1.0
 10
56.6753595913
 20
34.1571536604
 30
0.0
 10
56.6815512303
 20
34.1845764791
 30
0.0
 10
56.708286344
 20
34.2957612371
 30
0.0
 10
56.7410321739
 20
34.4054840153
 30
0.0
 10
56.7687188935
 20
34.4871517701
 30
0.0
  0
SPLINE
  5
2FD
100
AcDbEntity
  8
0
100
AcDbSpline
 62
7
  6
CONTINUOUS
 70
0
 71
3
 72
11
 73
7
 74
0
 42
0.0000001
 43
0.0000001
 44
0.0000000001
 40
0.0
 40
0.0
 40
0.0
 40
0.0
 40
0.2508953323
 40
0.5061712526
 40
0.7582730446
 40
1.0
 40
1.0
 40
1.0
 40
1.0
 10
56.7687188935
 20
34.4871517701
 30
0.0
 10
56.8184707203
 20
34.6339051614
 30
0.0
 10
56.9385768886
 20
34.9235845684
 30
0.0
 10
57.1694057795
 20
35.3323136015
 30
0.0
 10
57.4444718501
 20
35.7057048437
 30
0.0
 10
57.655882463
 20
35.9270794954
 30
0.0
 10
57.7666513177
 20
36.0271755412
 30
0.0
  0
SPLINE
  5
2FE
100
AcDbEntity
  8
0
100
AcDbSpline
 62
7
  6
CONTINUOUS
 70
0
 71
3
 72
13
 73
9
 74
0
 42
0.0000001
 43
0.0000001
 44
0.0000000001
 40
0.0
 40
0.0
 40
0.0
 40
0.0
 40
0.3018225674
 40
0.5667243911
 40
0.6852375207
 40
0.7954576534
 40
0.8994279501
 40
1.0
 40
1.0
 40
1.0
 40
1.0
 10
57.7666513177
 20
36.0271755412
 30
0.0
 10
57.8949632307
 20
36.1431243351
 30
0.0
 10
58.1550435955
 20
36.3411342698
 30
0.0
 10
58.5166026789
 20
36.5066085299
 30
0.0
 10
58.7951437532
 20
36.5623527875
 30
0.0
 10
58.9869062758
 20
36.5662214406
 30
0.0
 10
59.1655704403
 20
36.533327782
 30
0.0
 10
59.2743041579
 20
36.4864165263
 30
0.0
 10
59.3241975117
 20
36.4575820127
 30
0.0
  0
SPLINE
  5
2FF
100
AcDbEntity
  8
0
100
AcDbSpline
 62
7
  6
CONTINUOUS
 70
0
 71
3
 72
9
 73
5
 74
0
 42
0.0000001
 43
0.0000001
 44
0.0000000001
 40
0.0
 40
0.0
 40
0.0
 40
0.0
 40
0.239327097
 40
1.0
 40
1.0
 40
1.0
 40
1.0
 10
80.2960896471
 20
45.3862455586
 30
0.0
 10
80.2960896471
 20
45.4252742238
 30
0.0
 10
80.30065714
 20
45.5883403042
 30
0.0
 10
80.3222211765
 20
45.7507503401
 30
0.0
 10
80.3461907724
 20
45.8724605086
 30
0.0
  0
SPLINE
  5
300
100
AcDbEntity
  8
0
100
AcDbSpline
 62
7
  6
CONTINUOUS
 70
0
 71
3
 72
9
 73
5
 74
0
 42
0.0000001
 43
0.0000001
 44
0.0000000001
 40
0.0
 40
0.0
 40
0.0
 40
0.0
 40
0.2460280775
 40
1.0
 40
1.0
 40
1.0
 40
1.0
 10
80.3608632906
 20
45.9424840199
 30
0.0
 10
80.3665725123
 20
45.9681924448
 30
0.0
 10
80.3911474526
 20
46.0723791518
 30
0.0
 10
80.42103719
 20
46.1752986983
 30
0.0
 10
80.446231192
 20
46.2519702716
 30
0.0
  0
SPLINE
  5
301
100
AcDbEntity
  8
0
100
AcDbSpline
 62
7
  6
CONTINUOUS
 70
0
 71
3
 72
11
 73
7
 74
0
 42
0.0000001
 43
0.0000001
 44
0.0000000001
 40
0.0
 40
0.0
 40
0.0
 40
0.0
 40
0.2509704666
 40
0.5067285095
 40
0.7590196267
 40
1.0
 40
1.0
 40
1.0
 40
1.0
 10
80.446231192
 20
46.2519702716
 30
0.0
 10
80.4966964636
 20
46.4055485625
 30
0.0
 10
80.6203424446
 20
46.7088246274
 30
0.0
 10
80.8611846559
 20
47.1357080033
 30
0.0
 10
81.1499855804
 20
47.5237712052
 30
0.0
 10
81.3728911876
 20
47.7519937543
 30
0.0
 10
81.4896882386
 20
47.8542307164
 30
0.0
  0
SPLINE
  5
302
100
AcDbEntity
  8
0
100
AcDbSpline
 62
7
  6
CONTINUOUS
 70
0
 71
3
 72
12
 73
8
 74
0
 42
0.0000001
 43
0.0000001
 44
0.0000000001
 40
0.0
 40
0.0
 40
0.0
 40
0.0
 40
0.3013075422
 40
0.565920186
 40
0.794249618
 40
0.8987649571
 40
1.0
 40
1.0
 40
1.0
 40
1.0
 10
81.4896882386
 20
47.8542307164
 30
0.0
 10
81.6159359231
 20
47.9647401823
 30
0.0
 10
81.8716429054
 20
48.1529892884
 30
0.0
 10
82.2800001747
 20
48.3334103359
 30
0.0
 10
82.6180646268
 20
48.3735050221
 30
0.0
 10
82.857090755
 20
48.3276407082
 30
0.0
 10
82.9632257215
 20
48.2815348651
 30
0.0
 10
83.0120335296
 20
48.2533277133
 30
0.0
  0
SPLINE
  5
303
100
AcDbEntity
  8
0
100
AcDbSpline
 62
7
  6
CONTINUOUS
 70
0
 71
3
 72
9
 73
5
 74
0
 42
0.0000001
 43
0.0000001
 44
0.0000000001
 40
0.0
 40
0.0
 40
0.0
 40
0.0
 40
0.2385557651
 40
1.0
 40
1.0
 40
1.0
 40
1.0
 10
78.2492786131
 20
94.1746808292
 30
0.0
 10
78.2492786131
 20
94.217375089
 30
0.0
 10
78.2547622792
 20
94.3963315444
 30
0.0
 10
78.280501148
 20
94.5744246009
 30
0.0
 10
78.3089897258
 20
94.7076890129
 30
0.0
  0
SPLINE
  5
304
100
AcDbEntity
  8
0
100
AcDbSpline
 62
7
  6
CONTINUOUS
 70
0
 71
3
 72
9
 73
5
 74
0
 42
0.0000001
 43
0.0000001
 44
0.0000000001
 40
0.0
 40
0.0
 40
0.0
 40
0.0
 40
0.245859257
 40
1.0
 40
1.0
 40
1.0
 40
1.0
 10
78.3163845753
 20
94.7413346316
 30
0.0
 10
78.3225762143
 20
94.7687574503
 30
0.0
 10
78.349311328
 20
94.8799422083
 30
0.0
 10
78.3820571579
 20
94.9896649865
 30
0.0
 10
78.4097438775
 20
95.0713327413
 30
0.0
  0
SPLINE
  5
305
100
AcDbEntity
  8
0
100
AcDbSpline
 62
7
  6
CONTINUOUS
 70
0
 71
3
 72
11
 73
7
 74
0
 42
0.0000001
 43
0.0000001
 44
0.0000000001
 40
0.0
 40
0.0
 40
0.0
 40
0.0
 40
0.2508953323
 40
0.5061712526
 40
0.7582730446
 40
1.0
 40
1.0
 40
1.0
 40
1.0
 10
78.4097438775
 20
95.0713327413
 30
0.0
 10
78.4594957043
 20
95.2180861326
 30
0.0
 10
78.5796018726
 20
95.5077655396
 30
0.0
 10
78.8104307635
 20
95.9164945727
 30
0.0
 10
79.0854968341
 20
96.2898858149
 30
0.0
 10
79.296907447
 20
96.5112604666
 30
0.0
 10
79.4076763017
 20
96.6113565123
 30
0.0
  0
SPLINE
  5
306
100
AcDbEntity
  8
0
100
AcDbSpline
 62
7
  6
CONTINUOUS
 70
0
 71
3
 72
13
 73
9
 74
0
 42
0.0000001
 43
0.0000001
 44
0.0000000001
 40
0.0
 40
0.0
 40
0.0
 40
0.0
 40
0.3018225674
 40
0.5667243911
 40
0.6852375207
 40
0.7954576534
 40
0.8994279501
 40
1.0
 40
1.0
 40
1.0
 40
1.0
 10
79.4076763017
 20
96.6113565123
 30
0.0
 10
79.5359882147
 20
96.7273053063
 30
0.0
 10
79.7960685795
 20
96.925315241
 30
0.0
 10
80.1576276629
 20
97.090789501
 30
0.0
 10
80.4361687372
 20
97.1465337586
 30
0.0
 10
80.6279312598
 20
97.1504024118
 30
0.0
 10
80.8065954243
 20
97.1175087532
 30
0.0
 10
80.9153291418
 20
97.0705974975
 30
0.0
 10
80.9652224957
 20
97.0417629839
 30
0.0
  0
SPLINE
  5
307
100
AcDbEntity
  8
0
100
AcDbSpline
 62
7
  6
CONTINUOUS
 70
0
 71
3
 72
9
 73
5
 74
0
 42
0.0000001
 43
0.0000001
 44
0.0000000001
 40
0.0
 40
0.0
 40
0.0
 40
0.0
 40
0.2385557651
 40
1.0
 40
1.0
 40
1.0
 40
1.0
 10
64.4589207268
 20
62.0457845241
 30
0.0
 10
64.4589207268
 20
62.088478784
 30
0.0
 10
64.4644043929
 20
62.2674352394
 30
0.0
 10
64.4901432617
 20
62.4455282959
 30
0.0
 10
64.5186318395
 20
62.5787927079
 30
0.0
  0
SPLINE
  5
308
100
AcDbEntity
  8
0
100
AcDbSpline
 62
7
  6
CONTINUOUS
 70
0
 71
3
 72
9
 73
5
 74
0
 42
0.0000001
 43
0.0000001
 44
0.0000000001
 40
0.0
 40
0.0
 40
0.0
 40
0.0
 40
0.245859257
 40
1.0
 40
1.0
 40
1.0
 40
1.0
 10
64.526026689
 20
62.6124383266
 30
0.0
 10
64.5322183279
 20
62.6398611452
 30
0.0
 10
64.5589534416
 20
62.7510459032
 30
0.0
 10
64.5916992716
 20
62.8607686815
 30
0.0
 10
64.6193859911
 20
62.9424364362
 30
0.0
  0
SPLINE
  5
309
100
AcDbEntity
  8
0
100
AcDbSpline
 62
7
  6
CONTINUOUS
 70
0
 71
3
 72
11
 73
7
 74
0
 42
0.0000001
 43
0.0000001
 44
0.0000000001
 40
0.0
 40
0.0
 40
0.0
 40
0.0
 40
0.2508953323
 40
0.5061712526
 40
0.7582730446
 40
1.0
 40
1.0
 40
1.0
 40
1.0
 10
64.6193859911
 20
62.9424364362
 30
0.0
 10
64.669137818
 20
63.0891898276
 30
0.0
 10
64.7892439862
 20
63.3788692345
 30
0.0
 10
65.0200728772
 20
63.7875982677
 30
0.0
 10
65.2951389477
 20
64.1609895098
 30
0.0
 10
65.5065495607
 20
64.3823641616
 30
0.0
 10
65.6173184154
 20
64.4824602073
 30
0.0
  0
SPLINE
  5
30A
100
AcDbEntity
  8
0
100
AcDbSpline
 62
7
  6
CONTINUOUS
 70
0
 71
3
 72
13
 73
9
 74
0
 42
0.0000001
 43
0.0000001
 44
0.0000000001
 40
0.0
 40
0.0
 40
0.0
 40
0.0
 40
0.3018225674
 40
0.5667243911
 40
0.6852375207
 40
0.7954576534
 40
0.8994279501
 40
1.0
 40
1.0
 40
1.0
 40
1.0
 10
65.6173184154
 20
64.4824602073
 30
0.0
 10
65.7456303283
 20
64.5984090012
 30
0.0
 10
66.0057106932
 20
64.796418936
 30
0.0
 10
66.3672697766
 20
64.961893196
 30
0.0
 10
66.6458108509
 20
65.0176374536
 30
0.0
 10
66.8375733734
 20
65.0215061067
 30
0.0
 10
67.016237538
 20
64.9886124481
 30
0.0
 10
67.1249712555
 20
64.9417011924
 30
0.0
 10
67.1748646094
 20
64.9128666789
 30
0.0
  0
SPLINE
  5
30B
100
AcDbEntity
  8
0
100
AcDbSpline
 62
7
  6
CONTINUOUS
 70
0
 71
3
 72
9
 73
5
 74
0
 42
0.0000001
 43
0.0000001
 44
0.0000000001
 40
0.0
 40
0.0
 40
0.0
 40
0.0
 40
0.2393284277
 40
1.0
 40
1.0
 40
1.0
 40
1.0
 10
54.2780251169
 20
74.6218611021
 30
0.0
 10
54.2780251169
 20
74.6608835908
 30
0.0
 10
54.2825911385
 20
74.8239229609
 30
0.0
 10
54.3041484397
 20
74.9863066051
 30
0.0
 10
54.3281107299
 20
75.1079972799
 30
0.0
  0
SPLINE
  5
30C
100
AcDbEntity
  8
0
100
AcDbSpline
 62
7
  6
CONTINUOUS
 70
0
 71
3
 72
9
 73
5
 74
0
 42
0.0000001
 43
0.0000001
 44
0.0000000001
 40
0.0
 40
0.0
 40
0.0
 40
0.0
 40
0.2460280775
 40
1.0
 40
1.0
 40
1.0
 40
1.0
 10
54.3427987604
 20
75.1780995635
 30
0.0
 10
54.3485079821
 20
75.2038079884
 30
0.0
 10
54.3730829224
 20
75.3079946954
 30
0.0
 10
54.4029726598
 20
75.4109142419
 30
0.0
 10
54.4281666619
 20
75.4875858152
 30
0.0
  0
SPLINE
  5
30D
100
AcDbEntity
  8
0
100
AcDbSpline
 62
7
  6
CONTINUOUS
 70
0
 71
3
 72
11
 73
7
 74
0
 42
0.0000001
 43
0.0000001
 44
0.0000000001
 40
0.0
 40
0.0
 40
0.0
 40
0.0
 40
0.2509713765
 40
0.506730192
 40
0.7590212116
 40
1.0
 40
1.0
 40
1.0
 40
1.0
 10
54.4281666619
 20
75.4875858152
 30
0.0
 10
54.4786341655
 20
75.6411708989
 30
0.0
 10
54.60228653
 20
75.9444599983
 30
0.0
 10
54.8431425838
 20
76.3713597104
 30
0.0
 10
55.1319603091
 20
76.759434309
 30
0.0
 10
55.3548791438
 20
76.9876607514
 30
0.0
 10
55.4716829006
 20
77.0898980718
 30
0.0
  0
SPLINE
  5
30E
100
AcDbEntity
  8
0
100
AcDbSpline
 62
7
  6
CONTINUOUS
 70
0
 71
3
 72
12
 73
8
 74
0
 42
0.0000001
 43
0.0000001
 44
0.0000000001
 40
0.0
 40
0.0
 40
0.0
 40
0.0
 40
0.3013061853
 40
0.565917949
 40
0.79424788
 40
0.8987639872
 40
1.0
 40
1.0
 40
1.0
 40
1.0
 10
55.4716829006
 20
77.0898980718
 30
0.0
 10
55.5979270532
 20
77.2003984891
 30
0.0
 10
55.8536259
 20
77.3886313655
 30
0.0
 10
56.2619675708
 20
77.5690334691
 30
0.0
 10
56.6000169076
 20
77.6091191332
 30
0.0
 10
56.8390323979
 20
77.563253859
 30
0.0
 10
56.9451630108
 20
77.5171493572
 30
0.0
 10
56.9939689995
 20
77.4889432569
 30
0.0
  0
SPLINE
  5
30F
100
AcDbEntity
  8
0
100
AcDbSpline
 62
7
  6
CONTINUOUS
 70
0
 71
3
 72
9
 73
5
 74
0
 42
0.0000001
 43
0.0000001
 44
0.0000000001
 40
0.0
 40
0.0
 40
0.0
 40
0.0
 40
0.246372157
 40
1.0
 40
1.0
 40
1.0
 40
1.0
 10
14.611579093
 20
63.474286651
 30
0.0
 10
14.6155448074
 20
64.6749648289
 30
0.0
 10
14.6745277286
 20
69.5481910666
 30
0.0
 10
14.9023168223
 20
74.4191358048
 30
0.0
 10
15.161635108
 20
78.0827444769
 30
0.0
  0
SPLINE
  5
310
100
AcDbEntity
  8
0
100
AcDbSpline
 62
7
  6
CONTINUOUS
 70
0
 71
3
 72
11
 73
7
 74
0
 42
0.0000001
 43
0.0000001
 44
0.0000000001
 40
0.0
 40
0.0
 40
0.0
 40
0.0
 40
0.2372473097
 40
0.500007152
 40
0.7627631022
 40
1.0
 40
1.0
 40
1.0
 40
1.0
 10
14.3961587092
 20
63.1866213764
 30
0.0
 10
14.3961587092
 20
63.2098069953
 30
0.0
 10
14.4048578092
 20
63.2587027125
 30
0.0
 10
14.4351683327
 20
63.3274087027
 30
0.0
 10
14.4795162616
 20
63.3880086081
 30
0.0
 10
14.5175124996
 20
63.4199871152
 30
0.0
 10
14.5375918625
 20
63.431577841
 30
0.0
  0
SPLINE
  5
311
100
AcDbEntity
  8
0
100
AcDbSpline
 62
7
  6
CONTINUOUS
 70
0
 71
3
 72
9
 73
5
 74
0
 42
0.0000001
 43
0.0000001
 44
0.0000000001
 40
0.0
 40
0.0
 40
0.0
 40
0.0
 40
0.2475715178
 40
1.0
 40
1.0
 40
1.0
 40
1.0
 10
54.4351548883
 20
75.0981197235
 30
0.0
 10
54.4261939658
 20
75.103292738
 30
0.0
 10
54.3908812898
 20
75.1256950343
 30
0.0
 10
54.3594801154
 20
75.154150768
 30
0.0
 10
54.338817633
 20
75.1778563433
 30
0.0
  0
LINE
  5
312
100
AcDbEntity
  8
0
100
AcDbLine
 62
7
  6
CONTINUOUS
 10
14.6104648072
 20
62.8001947951
 11
14.6105581743
 21
62.9951899302
  0
SPLINE
  5
313
100
AcDbEntity
  8
0
100
AcDbSpline
 62
7
  6
CONTINUOUS
 70
0
 71
3
 72
9
 73
5
 74
0
 42
0.0000001
 43
0.0000001
 44
0.0000000001
 40
0.0
 40
0.0
 40
0.0
 40
0.0
 40
0.2477798314
 40
1.0
 40
1.0
 40
1.0
 40
1.0
 10
15.9619792752
 20
54.9291523592
 30
0.0
 10
15.9348035193
 20
55.4112657118
 30
0.0
 10
15.835424166
 20
57.3575680621
 30
0.0
 10
15.7768641335
 20
59.3059326492
 30
0.0
 10
15.7547420073
 20
60.771708569
 30
0.0
  0
SPLINE
  5
314
100
AcDbEntity
  8
0
100
AcDbSpline
 62
7
  6
CONTINUOUS
 70
0
 71
3
 72
11
 73
7
 74
0
 42
0.0000001
 43
0.0000001
 44
0.0000000001
 40
0.0
 40
0.0
 40
0.0
 40
0.0
 40
0.2177690984
 40
0.4509043648
 40
0.7103747685
 40
1.0
 40
1.0
 40
1.0
 40
1.0
 10
64.9249441117
 20
61.0158010618
 30
0.0
 10
64.8507479467
 20
61.0586807273
 30
0.0
 10
64.7118125794
 20
61.1753140625
 30
0.0
 10
64.5640028186
 20
61.4171130081
 30
0.0
 10
64.4762457675
 20
61.7150037197
 30
0.0
 10
64.4589207268
 20
61.9318123884
 30
0.0
 10
64.4589207268
 20
62.0457845241
 30
0.0
  0
SPLINE
  5
315
100
AcDbEntity
  8
0
100
AcDbSpline
 62
7
  6
CONTINUOUS
 70
0
 71
3
 72
9
 73
5
 74
0
 42
0.0000001
 43
0.0000001
 44
0.0000000001
 40
0.0
 40
0.0
 40
0.0
 40
0.0
 40
0.2469587757
 40
1.0
 40
1.0
 40
1.0
 40
1.0
 10
64.6410489848
 20
62.5653427668
 30
0.0
 10
64.631458965
 20
62.5708789503
 30
0.0
 10
64.5936850619
 20
62.5951066381
 30
0.0
 10
64.5607062009
 20
62.6266181793
 30
0.0
 10
64.5394979424
 20
62.652891885
 30
0.0
  0
SPLINE
  5
316
100
AcDbEntity
  8
0
100
AcDbSpline
 62
7
  6
CONTINUOUS
 70
0
 71
3
 72
11
 73
7
 74
0
 42
0.0000001
 43
0.0000001
 44
0.0000000001
 40
0.0
 40
0.0
 40
0.0
 40
0.0
 40
0.2177690984
 40
0.4509043648
 40
0.7103747685
 40
1.0
 40
1.0
 40
1.0
 40
1.0
 10
78.715301998
 20
93.1446973669
 30
0.0
 10
78.6411058331
 20
93.1875770324
 30
0.0
 10
78.5021704657
 20
93.3042103675
 30
0.0
 10
78.3543607049
 20
93.5460093131
 30
0.0
 10
78.2666036538
 20
93.8439000248
 30
0.0
 10
78.2492786131
 20
94.0607086934
 30
0.0
 10
78.2492786131
 20
94.1746808292
 30
0.0
  0
SPLINE
  5
317
100
AcDbEntity
  8
0
100
AcDbSpline
 62
7
  6
CONTINUOUS
 70
0
 71
3
 72
9
 73
5
 74
0
 42
0.0000001
 43
0.0000001
 44
0.0000000001
 40
0.0
 40
0.0
 40
0.0
 40
0.0
 40
0.2469587757
 40
1.0
 40
1.0
 40
1.0
 40
1.0
 10
78.4314068712
 20
94.6942390718
 30
0.0
 10
78.4218168513
 20
94.6997752553
 30
0.0
 10
78.3840429482
 20
94.7240029431
 30
0.0
 10
78.3510640873
 20
94.7555144843
 30
0.0
 10
78.3298558287
 20
94.78178819
 30
0.0
  0
SPLINE
  5
318
100
AcDbEntity
  8
0
100
AcDbSpline
 62
7
  6
CONTINUOUS
 70
0
 71
3
 72
9
 73
5
 74
0
 42
0.0000001
 43
0.0000001
 44
0.0000000001
 40
0.0
 40
0.0
 40
0.0
 40
0.0
 40
0.4918853171
 40
1.0
 40
1.0
 40
1.0
 40
1.0
 10
28.7167618804
 20
85.9087538528
 30
0.0
 10
28.716763203
 20
88.5334569867
 30
0.0
 10
28.8814753702
 20
93.8704360742
 30
0.0
 10
29.3483124273
 20
99.1889455827
 30
0.0
 10
29.6561589914
 20
101.8827152763
 30
0.0
  0
SPLINE
  5
319
100
AcDbEntity
  8
0
100
AcDbSpline
 62
7
  6
CONTINUOUS
 70
0
 71
3
 72
11
 73
7
 74
0
 42
0.0000001
 43
0.0000001
 44
0.0000000001
 40
0.0
 40
0.0
 40
0.0
 40
0.0
 40
0.2177690984
 40
0.4509043648
 40
0.7103747685
 40
1.0
 40
1.0
 40
1.0
 40
1.0
 10
80.762113032
 20
44.3562620962
 30
0.0
 10
80.687916867
 20
44.3991417618
 30
0.0
 10
80.5489814997
 20
44.5157750969
 30
0.0
 10
80.4011717389
 20
44.7575740425
 30
0.0
 10
80.3134146878
 20
45.0554647541
 30
0.0
 10
80.2960896471
 20
45.2722734228
 30
0.0
 10
80.2960896471
 20
45.3862455586
 30
0.0
  0
SPLINE
  5
31A
100
AcDbEntity
  8
0
100
AcDbSpline
 62
7
  6
CONTINUOUS
 70
0
 71
3
 72
9
 73
5
 74
0
 42
0.0000001
 43
0.0000001
 44
0.0000000001
 40
0.0
 40
0.0
 40
0.0
 40
0.0
 40
0.247588157
 40
1.0
 40
1.0
 40
1.0
 40
1.0
 10
80.4532195855
 20
45.8625044585
 30
0.0
 10
80.4442788145
 20
45.8676661659
 30
0.0
 10
80.4090461159
 20
45.890014605
 30
0.0
 10
80.3777038098
 20
45.918386087
 30
0.0
 10
80.3570717128
 20
45.9420212647
 30
0.0
  0
SPLINE
  5
31B
100
AcDbEntity
  8
0
100
AcDbSpline
 62
7
  6
CONTINUOUS
 70
0
 71
3
 72
11
 73
7
 74
0
 42
0.0000001
 43
0.0000001
 44
0.0000000001
 40
0.0
 40
0.0
 40
0.0
 40
0.0
 40
0.2798275919
 40
0.5354642284
 40
0.7721982788
 40
1.0
 40
1.0
 40
1.0
 40
1.0
 10
35.5668156888
 20
94.9005495653
 30
0.0
 10
35.4076297381
 20
94.9924535377
 30
0.0
 10
35.0859451606
 20
95.1415938894
 30
0.0
 10
34.5847643935
 20
95.2478702388
 30
0.0
 10
34.1062022503
 20
95.2188785717
 30
0.0
 10
33.8159760618
 20
95.1072252652
 30
0.0
 10
33.686397701
 20
95.0323881784
 30
0.0
  0
SPLINE
  5
31C
100
AcDbEntity
  8
0
100
AcDbSpline
 62
7
  6
CONTINUOUS
 70
0
 71
3
 72
11
 73
7
 74
0
 42
0.0000001
 43
0.0000001
 44
0.0000000001
 40
0.0
 40
0.0
 40
0.0
 40
0.0
 40
0.2177690984
 40
0.4509043648
 40
0.7103747685
 40
1.0
 40
1.0
 40
1.0
 40
1.0
 10
57.074277014
 20
32.5605163957
 30
0.0
 10
57.0000808491
 20
32.6033960612
 30
0.0
 10
56.8611454817
 20
32.7200293963
 30
0.0
 10
56.713335721
 20
32.9618283419
 30
0.0
 10
56.6255786698
 20
33.2597190536
 30
0.0
 10
56.6082536291
 20
33.4765277222
 30
0.0
 10
56.6082536291
 20
33.590499858
 30
0.0
  0
SPLINE
  5
31D
100
AcDbEntity
  8
0
100
AcDbSpline
 62
7
  6
CONTINUOUS
 70
0
 71
3
 72
11
 73
7
 74
0
 42
0.0000001
 43
0.0000001
 44
0.0000000001
 40
0.0
 40
0.0
 40
0.0
 40
0.0
 40
0.2798270675
 40
0.5354638927
 40
0.7721982629
 40
1.0
 40
1.0
 40
1.0
 40
1.0
 10
48.0826578239
 20
87.6746882103
 30
0.0
 10
47.9234721794
 20
87.7665920059
 30
0.0
 10
47.6017878483
 20
87.9157323188
 30
0.0
 10
47.1006071127
 20
88.0220086267
 30
0.0
 10
46.6220446585
 20
87.9930172343
 30
0.0
 10
46.3318181666
 20
87.8813640375
 30
0.0
 10
46.2022398334
 20
87.8065268969
 30
0.0
  0
SPLINE
  5
31E
100
AcDbEntity
  8
0
100
AcDbSpline
 62
7
  6
CONTINUOUS
 70
0
 71
3
 72
9
 73
5
 74
0
 42
0.0000001
 43
0.0000001
 44
0.0000000001
 40
0.0
 40
0.0
 40
0.0
 40
0.0
 40
0.2469587757
 40
1.0
 40
1.0
 40
1.0
 40
1.0
 10
56.7903818872
 20
34.1100581006
 30
0.0
 10
56.7807918674
 20
34.1155942841
 30
0.0
 10
56.7430179642
 20
34.139821972
 30
0.0
 10
56.7100391033
 20
34.1713335131
 30
0.0
 10
56.6888308448
 20
34.1976072189
 30
0.0
  0
SPLINE
  5
31F
100
AcDbEntity
  8
0
100
AcDbSpline
 62
7
  6
CONTINUOUS
 70
0
 71
3
 72
11
 73
7
 74
0
 42
0.0000001
 43
0.0000001
 44
0.0000000001
 40
0.0
 40
0.0
 40
0.0
 40
0.0
 40
0.2655415043
 40
0.5252851508
 40
0.7720737559
 40
1.0
 40
1.0
 40
1.0
 40
1.0
 10
25.3584261293
 20
53.1798607688
 30
0.0
 10
25.0072540313
 20
52.6125297781
 30
0.0
 10
24.3793169472
 20
51.4473252864
 30
0.0
 10
23.6715156315
 20
49.6357159342
 30
0.0
 10
23.2275189007
 20
47.8389410537
 30
0.0
 10
23.1151041125
 20
46.6449631915
 30
0.0
 10
23.1151041125
 20
46.0722557635
 30
0.0
  0
SPLINE
  5
320
100
AcDbEntity
  8
0
100
AcDbSpline
 62
7
  6
CONTINUOUS
 70
0
 71
3
 72
9
 73
5
 74
0
 42
0.0000001
 43
0.0000001
 44
0.0000000001
 40
0.0
 40
0.0
 40
0.0
 40
0.0
 40
0.4886808071
 40
1.0
 40
1.0
 40
1.0
 40
1.0
 10
29.7603584803
 20
39.1779714625
 30
0.0
 10
29.6313666105
 20
39.3190281015
 30
0.0
 10
29.3907636021
 20
39.6297092857
 30
0.0
 10
29.1992512015
 20
39.9724018071
 30
0.0
 10
29.1132681118
 20
40.1529738985
 30
0.0
  0
SPLINE
  5
321
100
AcDbEntity
  8
0
100
AcDbSpline
 62
7
  6
CONTINUOUS
 70
0
 71
3
 72
11
 73
7
 74
0
 42
0.0000001
 43
0.0000001
 44
0.0000000001
 40
0.0
 40
0.0
 40
0.0
 40
0.0
 40
0.2655415043
 40
0.5252851508
 40
0.7720737559
 40
1.0
 40
1.0
 40
1.0
 40
1.0
 10
37.8742682644
 20
45.9539994138
 30
0.0
 10
37.5230961664
 20
45.3866684231
 30
0.0
 10
36.8951590823
 20
44.2214639314
 30
0.0
 10
36.1873577666
 20
42.4098545792
 30
0.0
 10
35.7433610358
 20
40.6130796987
 30
0.0
 10
35.6309462476
 20
39.4191018365
 30
0.0
 10
35.6309462476
 20
38.8463944085
 30
0.0
  0
SPLINE
  5
322
100
AcDbEntity
  8
0
100
AcDbSpline
 62
7
  6
CONTINUOUS
 70
0
 71
3
 72
20
 73
16
 74
0
 42
0.0000001
 43
0.0000001
 44
0.0000000001
 40
0.0
 40
0.0
 40
0.0
 40
0.0
 40
0.039141275
 40
0.0800356496
 40
0.1245734163
 40
0.173955781
 40
0.2286933107
 40
0.2887663266
 40
0.3537580501
 40
0.4229467265
 40
0.5699659999
 40
0.7211894443
 40
0.8672426674
 40
0.9357706673
 40
1.0
 40
1.0
 40
1.0
 40
1.0
 10
49.8008069571
 20
24.5628616565
 30
0.0
 10
49.8798965245
 20
24.608542942
 30
0.0
 10
50.0288806445
 20
24.7261180555
 30
0.0
 10
50.1998535507
 20
24.9651413914
 30
0.0
 10
50.3177175968
 20
25.259503371
 30
0.0
 10
50.3818911548
 20
25.602180203
 30
0.0
 10
50.3927031031
 20
25.986437115
 30
0.0
 10
50.3504462722
 20
26.4048303541
 30
0.0
 10
50.2560423429
 20
26.8489784929
 30
0.0
 10
50.0591960654
 20
27.4757353162
 30
0.0
 10
49.6968528512
 20
28.2573946087
 30
0.0
 10
49.1214216821
 20
29.1240713393
 30
0.0
 10
48.54137661
 20
29.7566524462
 30
0.0
 10
48.0384649859
 20
30.1707172137
 30
0.0
 10
47.7796598068
 20
30.3423935536
 30
0.0
 10
47.6498626893
 20
30.417330259
 30
0.0
  0
SPLINE
  5
323
100
AcDbEntity
  8
0
100
AcDbSpline
 62
7
  6
CONTINUOUS
 70
0
 71
3
 72
9
 73
5
 74
0
 42
0.0000001
 43
0.0000001
 44
0.0000000001
 40
0.0
 40
0.0
 40
0.0
 40
0.0
 40
0.4886808071
 40
1.0
 40
1.0
 40
1.0
 40
1.0
 10
17.2445163452
 20
46.4038328175
 30
0.0
 10
17.1155244754
 20
46.5448894565
 30
0.0
 10
16.874921467
 20
46.8555706407
 30
0.0
 10
16.6834090664
 20
47.1982631621
 30
0.0
 10
16.5974259767
 20
47.3788352535
 30
0.0
  0
SPLINE
  5
324
100
AcDbEntity
  8
0
100
AcDbSpline
 62
7
  6
CONTINUOUS
 70
0
 71
3
 72
11
 73
7
 74
0
 42
0.0000001
 43
0.0000001
 44
0.0000000001
 40
0.0
 40
0.0
 40
0.0
 40
0.0
 40
0.3005044385
 40
0.5698487567
 40
0.8040874463
 40
1.0
 40
1.0
 40
1.0
 40
1.0
 10
21.1314153127
 20
55.4490345219
 30
0.0
 10
20.8386701303
 20
55.6180472082
 30
0.0
 10
20.2862107273
 20
55.9432213123
 30
0.0
 10
19.5164990226
 20
56.4184398856
 30
0.0
 10
18.858305274
 20
56.849781736
 30
0.0
 10
18.4632570249
 20
57.1295441392
 30
0.0
 10
18.2873288778
 20
57.262268314
 30
0.0
  0
SPLINE
  5
325
100
AcDbEntity
  8
0
100
AcDbSpline
 62
7
  6
CONTINUOUS
 70
0
 71
3
 72
9
 73
5
 74
0
 42
0.0000001
 43
0.0000001
 44
0.0000000001
 40
0.0
 40
0.0
 40
0.0
 40
0.0
 40
0.5238468844
 40
1.0
 40
1.0
 40
1.0
 40
1.0
 10
25.3584261293
 20
53.1798607688
 30
0.0
 10
24.6104058773
 20
53.5572125121
 30
0.0
 10
23.1907692493
 20
54.2941398987
 30
0.0
 10
21.790925993
 20
55.0682744671
 30
0.0
 10
21.1314153127
 20
55.4490345219
 30
0.0
  0
SPLINE
  5
326
100
AcDbEntity
  8
0
100
AcDbSpline
 62
7
  6
CONTINUOUS
 70
0
 71
3
 72
15
 73
11
 74
0
 42
0.0000001
 43
0.0000001
 44
0.0000000001
 40
0.0
 40
0.0
 40
0.0
 40
0.0
 40
0.1130939583
 40
0.2239051977
 40
0.3357446155
 40
0.4518747043
 40
0.5749298812
 40
0.7067350768
 40
0.848362741
 40
1.0
 40
1.0
 40
1.0
 40
1.0
 10
26.2015821347
 20
41.2958461895
 30
0.0
 10
25.9709309632
 20
41.3353657735
 30
0.0
 10
25.52032381
 20
41.4587880889
 30
0.0
 10
24.9001325402
 20
41.7834317687
 30
0.0
 10
24.3598597649
 20
42.23850744
 30
0.0
 10
23.9092181523
 20
42.8141125507
 30
0.0
 10
23.5544389114
 20
43.4992460938
 30
0.0
 10
23.2993147759
 20
44.2822872013
 30
0.0
 10
23.1466625488
 20
45.1509533875
 30
0.0
 10
23.1151041125
 20
45.7584902403
 30
0.0
 10
23.1151041125
 20
46.0722557635
 30
0.0
  0
SPLINE
  5
327
100
AcDbEntity
  8
0
100
AcDbSpline
 62
7
  6
CONTINUOUS
 70
0
 71
3
 72
11
 73
7
 74
0
 42
0.0000001
 43
0.0000001
 44
0.0000000001
 40
0.0
 40
0.0
 40
0.0
 40
0.0
 40
0.2177690984
 40
0.4509043648
 40
0.7103747685
 40
1.0
 40
1.0
 40
1.0
 40
1.0
 10
43.9959837813
 20
39.2195129397
 30
0.0
 10
43.9217876164
 20
39.2623926052
 30
0.0
 10
43.782852249
 20
39.3790259404
 30
0.0
 10
43.6350424882
 20
39.620824886
 30
0.0
 10
43.5472854371
 20
39.9187155976
 30
0.0
 10
43.5299603964
 20
40.1355242663
 30
0.0
 10
43.5299603964
 20
40.249496402
 30
0.0
  0
SPLINE
  5
328
100
AcDbEntity
  8
0
100
AcDbSpline
 62
7
  6
CONTINUOUS
 70
0
 71
3
 72
9
 73
5
 74
0
 42
0.0000001
 43
0.0000001
 44
0.0000000001
 40
0.0
 40
0.0
 40
0.0
 40
0.0
 40
0.5238468844
 40
1.0
 40
1.0
 40
1.0
 40
1.0
 10
37.8742682644
 20
45.9539994138
 30
0.0
 10
37.1262480124
 20
46.331351157
 30
0.0
 10
35.7066113844
 20
47.0682785437
 30
0.0
 10
34.3067681281
 20
47.842413112
 30
0.0
 10
33.6472574478
 20
48.2231731669
 30
0.0
  0
SPLINE
  5
329
100
AcDbEntity
  8
0
100
AcDbSpline
 62
7
  6
CONTINUOUS
 70
0
 71
3
 72
11
 73
7
 74
0
 42
0.0000001
 43
0.0000001
 44
0.0000000001
 40
0.0
 40
0.0
 40
0.0
 40
0.0
 40
0.3005044385
 40
0.5698487567
 40
0.8040874463
 40
1.0
 40
1.0
 40
1.0
 40
1.0
 10
33.6472574478
 20
48.2231731669
 30
0.0
 10
33.3545122654
 20
48.3921858532
 30
0.0
 10
32.8020528624
 20
48.7173599573
 30
0.0
 10
32.0323411577
 20
49.1925785306
 30
0.0
 10
31.3741474091
 20
49.623920381
 30
0.0
 10
30.97909916
 20
49.9036827842
 30
0.0
 10
30.8031710129
 20
50.036406959
 30
0.0
  0
SPLINE
  5
32A
100
AcDbEntity
  8
0
100
AcDbSpline
 62
7
  6
CONTINUOUS
 70
0
 71
3
 72
9
 73
5
 74
0
 42
0.0000001
 43
0.0000001
 44
0.0000000001
 40
0.0
 40
0.0
 40
0.0
 40
0.0
 40
0.2469900321
 40
1.0
 40
1.0
 40
1.0
 40
1.0
 10
43.7120905226
 20
40.7690580111
 30
0.0
 10
43.7025291137
 20
40.7745777952
 30
0.0
 10
43.6648695032
 20
40.7987248068
 30
0.0
 10
43.6319690752
 20
40.8301070863
 30
0.0
 10
43.6107995414
 20
40.8562755261
 30
0.0
  0
SPLINE
  5
32B
100
AcDbEntity
  8
0
100
AcDbSpline
 62
7
  6
CONTINUOUS
 70
0
 71
3
 72
15
 73
11
 74
0
 42
0.0000001
 43
0.0000001
 44
0.0000000001
 40
0.0
 40
0.0
 40
0.0
 40
0.0
 40
0.1130939583
 40
0.2239051977
 40
0.3357446155
 40
0.4518747043
 40
0.5749298812
 40
0.7067350768
 40
0.848362741
 40
1.0
 40
1.0
 40
1.0
 40
1.0
 10
38.7174242698
 20
34.0699848345
 30
0.0
 10
38.4867730984
 20
34.1095044185
 30
0.0
 10
38.0361659451
 20
34.2329267339
 30
0.0
 10
37.4159746753
 20
34.5575704136
 30
0.0
 10
36.8757019
 20
35.012646085
 30
0.0
 10
36.4250602874
 20
35.5882511957
 30
0.0
 10
36.0702810465
 20
36.2733847388
 30
0.0
 10
35.815156911
 20
37.0564258463
 30
0.0
 10
35.6625046839
 20
37.9250920325
 30
0.0
 10
35.6309462476
 20
38.5326288853
 30
0.0
 10
35.6309462476
 20
38.8463944085
 30
0.0
  0
SPLINE
  5
32C
100
AcDbEntity
  8
0
100
AcDbSpline
 62
7
  6
CONTINUOUS
 70
0
 71
3
 72
9
 73
5
 74
0
 42
0.0000001
 43
0.0000001
 44
0.0000000001
 40
0.0
 40
0.0
 40
0.0
 40
0.0
 40
0.2529251866
 40
1.0
 40
1.0
 40
1.0
 40
1.0
 10
44.672900688
 20
42.6240328282
 30
0.0
 10
44.6807687444
 20
42.6219856092
 30
0.0
 10
44.7116050675
 20
42.6128832388
 30
0.0
 10
44.7412260334
 20
42.5996415526
 30
0.0
 10
44.7620232248
 20
42.5876353717
 30
0.0
  0
SPLINE
  5
32D
100
AcDbEntity
  8
0
100
AcDbSpline
 62
7
  6
CONTINUOUS
 70
0
 71
3
 72
17
 73
13
 74
0
 42
0.0000001
 43
0.0000001
 44
0.0000000001
 40
0.0
 40
0.0
 40
0.0
 40
0.0
 40
0.0449375096
 40
0.0918934651
 40
0.1420334214
 40
0.1960648685
 40
0.316143803
 40
0.4503882321
 40
0.5931036754
 40
0.7369915309
 40
0.8746286419
 40
1.0
 40
1.0
 40
1.0
 40
1.0
 10
49.4967770874
 20
81.3948168792
 30
0.0
 10
49.5919383908
 20
81.449778277
 30
0.0
 10
49.7734305343
 20
81.5864545638
 30
0.0
 10
49.9978362996
 20
81.8548932211
 30
0.0
 10
50.174561988
 20
82.1819816695
 30
0.0
 10
50.3486529652
 20
82.7043532162
 30
0.0
 10
50.4214175247
 20
83.4644306592
 30
0.0
 10
50.2989047283
 20
84.4335655997
 30
0.0
 10
49.9801379396
 20
85.418162844
 30
0.0
 10
49.48745697
 20
86.3378221687
 30
0.0
 10
48.8582136594
 20
87.1163567706
 30
0.0
 10
48.3481744264
 20
87.5213955963
 30
0.0
 10
48.0826578239
 20
87.6746882103
 30
0.0
  0
SPLINE
  5
32E
100
AcDbEntity
  8
0
100
AcDbSpline
 62
7
  6
CONTINUOUS
 70
0
 71
3
 72
17
 73
13
 74
0
 42
0.0000001
 43
0.0000001
 44
0.0000000001
 40
0.0
 40
0.0
 40
0.0
 40
0.0
 40
0.0449374776
 40
0.0918934203
 40
0.1420333549
 40
0.196064749
 40
0.3161435822
 40
0.4503878424
 40
0.5931033929
 40
0.736991588
 40
0.8746287397
 40
1.0
 40
1.0
 40
1.0
 40
1.0
 10
36.9809349318
 20
88.6206782501
 30
0.0
 10
37.0760961801
 20
88.6756395875
 30
0.0
 10
37.2575883264
 20
88.8123156973
 30
0.0
 10
37.4819939137
 20
89.0807543071
 30
0.0
 10
37.6587195835
 20
89.4078424954
 30
0.0
 10
37.8328108055
 20
89.9302135288
 30
0.0
 10
37.905575029
 20
90.6902901779
 30
0.0
 10
37.7830636213
 20
91.6594248915
 30
0.0
 10
37.4642958248
 20
92.6440225829
 30
0.0
 10
36.9716151359
 20
93.5636833387
 30
0.0
 10
36.3423714424
 20
94.3422186598
 30
0.0
 10
35.8323320853
 20
94.7472570703
 30
0.0
 10
35.5668156888
 20
94.9005495653
 30
0.0
  0
SPLINE
  5
32F
100
AcDbEntity
  8
0
100
AcDbSpline
 62
7
  6
CONTINUOUS
 70
0
 71
3
 72
18
 73
14
 74
0
 42
0.0000001
 43
0.0000001
 44
0.0000000001
 40
0.0
 40
0.0
 40
0.0
 40
0.0
 40
0.0445254165
 40
0.0899823005
 40
0.1372048927
 40
0.1868749583
 40
0.2394755822
 40
0.2953075509
 40
0.4168550068
 40
0.5510036637
 40
0.6953415584
 40
0.8463937646
 40
1.0
 40
1.0
 40
1.0
 40
1.0
 10
72.8728409535
 20
101.6057172428
 30
0.0
 10
72.872843812
 20
101.4830107637
 30
0.0
 10
72.8503951776
 20
101.2344693985
 30
0.0
 10
72.7499334409
 20
100.868099105
 30
0.0
 10
72.5845954819
 20
100.5105000366
 30
0.0
 10
72.3563664339
 20
100.1658287972
 30
0.0
 10
72.0683718551
 20
99.8372837547
 30
0.0
 10
71.5954317565
 20
99.4134512294
 30
0.0
 10
70.8667180912
 20
98.9484830416
 30
0.0
 10
69.847135801
 20
98.5187133935
 30
0.0
 10
68.6986516683
 20
98.2172455756
 30
0.0
 10
67.4688244754
 20
98.056530505
 30
0.0
 10
66.6269260157
 20
98.0474749219
 30
0.0
 10
66.2041126501
 20
98.0681708014
 30
0.0
  0
SPLINE
  5
330
100
AcDbEntity
  8
0
100
AcDbSpline
 62
7
  6
CONTINUOUS
 70
0
 71
3
 72
9
 73
5
 74
0
 42
0.0000001
 43
0.0000001
 44
0.0000000001
 40
0.0
 40
0.0
 40
0.0
 40
0.0
 40
0.2529206042
 40
1.0
 40
1.0
 40
1.0
 40
1.0
 10
65.6020118065
 20
64.4202820071
 30
0.0
 10
65.6098663338
 20
64.4182351413
 30
0.0
 10
65.6406502267
 20
64.4091373688
 30
0.0
 10
65.6702213373
 20
64.3959136749
 30
0.0
 10
65.6909854233
 20
64.3839268602
 30
0.0
  0
SPLINE
  5
331
100
AcDbEntity
  8
0
100
AcDbSpline
 62
7
  6
CONTINUOUS
 70
0
 71
3
 72
9
 73
5
 74
0
 42
0.0000001
 43
0.0000001
 44
0.0000000001
 40
0.0
 40
0.0
 40
0.0
 40
0.0
 40
0.2529206042
 40
1.0
 40
1.0
 40
1.0
 40
1.0
 10
79.3923696928
 20
96.5491783121
 30
0.0
 10
79.4002242201
 20
96.5471314463
 30
0.0
 10
79.431008113
 20
96.5380336738
 30
0.0
 10
79.4605792236
 20
96.5248099799
 30
0.0
 10
79.4813433096
 20
96.5128231653
 30
0.0
  0
SPLINE
  5
332
100
AcDbEntity
  8
0
100
AcDbSpline
 62
7
  6
CONTINUOUS
 70
0
 71
3
 72
9
 73
5
 74
0
 42
0.0000001
 43
0.0000001
 44
0.0000000001
 40
0.0
 40
0.0
 40
0.0
 40
0.0
 40
0.2529206042
 40
1.0
 40
1.0
 40
1.0
 40
1.0
 10
57.7513447088
 20
35.9649973409
 30
0.0
 10
57.7591992362
 20
35.9629504751
 30
0.0
 10
57.789983129
 20
35.9538527027
 30
0.0
 10
57.8195542397
 20
35.9406290087
 30
0.0
 10
57.8403183257
 20
35.9286421941
 30
0.0
  0
SPLINE
  5
333
100
AcDbEntity
  8
0
100
AcDbSpline
 62
7
  6
CONTINUOUS
 70
0
 71
3
 72
9
 73
5
 74
0
 42
0.0000001
 43
0.0000001
 44
0.0000000001
 40
0.0
 40
0.0
 40
0.0
 40
0.0
 40
0.5282242979
 40
1.0
 40
1.0
 40
1.0
 40
1.0
 10
47.6498626893
 20
30.417330259
 30
0.0
 10
47.5025593257
 20
30.5023739717
 30
0.0
 10
47.2118624796
 20
30.6442045772
 30
0.0
 10
46.8991101225
 20
30.7315435208
 30
0.0
 10
46.748910548
 20
30.7542996616
 30
0.0
  0
SPLINE
  5
334
100
AcDbEntity
  8
0
100
AcDbSpline
 62
7
  6
CONTINUOUS
 70
0
 71
3
 72
9
 73
5
 74
0
 42
0.0000001
 43
0.0000001
 44
0.0000000001
 40
0.0
 40
0.0
 40
0.0
 40
0.0
 40
0.2524721246
 40
1.0
 40
1.0
 40
1.0
 40
1.0
 10
40.7778624637
 20
46.9876739342
 30
0.0
 10
40.7836543916
 20
46.4394918419
 30
0.0
 10
40.8186496622
 20
44.2683823159
 30
0.0
 10
40.9023139442
 20
42.0980234844
 30
0.0
 10
40.9936635454
 20
40.4774296492
 30
0.0
  0
SPLINE
  5
335
100
AcDbEntity
  8
0
100
AcDbSpline
 62
7
  6
CONTINUOUS
 70
0
 71
3
 72
11
 73
7
 74
0
 42
0.0000001
 43
0.0000001
 44
0.0000000001
 40
0.0
 40
0.0
 40
0.0
 40
0.0
 40
0.2667765399
 40
0.5183486852
 40
0.7605156353
 40
1.0
 40
1.0
 40
1.0
 40
1.0
 10
16.0870146178
 20
55.3887875134
 30
0.0
 10
16.1594647434
 20
55.6094591061
 30
0.0
 10
16.3344062051
 20
56.0283268101
 30
0.0
 10
16.7008868002
 20
56.5848675077
 30
0.0
 10
17.1578669005
 20
57.0373705877
 30
0.0
 10
17.5164512005
 20
57.2623670518
 30
0.0
 10
17.7040621638
 20
57.3533295051
 30
0.0
  0
SPLINE
  5
336
100
AcDbEntity
  8
0
100
AcDbSpline
 62
7
  6
CONTINUOUS
 70
0
 71
3
 72
17
 73
13
 74
0
 42
0.0000001
 43
0.0000001
 44
0.0000000001
 40
0.0
 40
0.0
 40
0.0
 40
0.0
 40
0.128689231
 40
0.2702836787
 40
0.4174394209
 40
0.561781138
 40
0.6954494175
 40
0.8127106903
 40
0.8646752289
 40
0.9125083026
 40
0.9571386961
 40
1.0
 40
1.0
 40
1.0
 40
1.0
 10
46.7119276639
 20
42.0865950945
 30
0.0
 10
46.7119276639
 20
41.8942761431
 30
0.0
 10
46.6581173449
 20
41.4898922171
 30
0.0
 10
46.4573097973
 20
40.8961413386
 30
0.0
 10
46.1478709021
 20
40.3241723207
 30
0.0
 10
45.7546858437
 20
39.8208929254
 30
0.0
 10
45.3098743013
 20
39.4269588211
 30
0.0
 10
44.9072685779
 20
39.2068138074
 30
0.0
 10
44.5923302973
 20
39.1230304097
 30
0.0
 10
44.3755712825
 20
39.1070677816
 30
0.0
 10
44.1737298693
 20
39.1366438283
 30
0.0
 10
44.0514422875
 20
39.187462197
 30
0.0
 10
43.9959837813
 20
39.2195129397
 30
0.0
  0
SPLINE
  5
337
100
AcDbEntity
  8
0
100
AcDbSpline
 62
7
  6
CONTINUOUS
 70
0
 71
3
 72
13
 73
9
 74
0
 42
0.0000001
 43
0.0000001
 44
0.0000000001
 40
0.0
 40
0.0
 40
0.0
 40
0.0
 40
0.2893788297
 40
0.5483104504
 40
0.6677404521
 40
0.781766187
 40
0.8919049606
 40
1.0
 40
1.0
 40
1.0
 40
1.0
 10
58.5559323646
 20
111.3419860919
 30
0.0
 10
58.825828751
 20
111.1861648657
 30
0.0
 10
59.3152676875
 20
110.8493488884
 30
0.0
 10
59.8158075551
 20
110.3227894663
 30
0.0
 10
60.0975903673
 20
109.8716616079
 30
0.0
 10
60.246502816
 20
109.5313148787
 30
0.0
 10
60.3368402988
 20
109.1835010402
 30
0.0
 10
60.3569961064
 20
108.9479920022
 30
0.0
 10
60.3569988184
 20
108.8315785978
 30
0.0
  0
SPLINE
  5
338
100
AcDbEntity
  8
0
100
AcDbSpline
 62
7
  6
CONTINUOUS
 70
0
 71
3
 72
15
 73
11
 74
0
 42
0.0000001
 43
0.0000001
 44
0.0000000001
 40
0.0
 40
0.0
 40
0.0
 40
0.0
 40
0.0976733723
 40
0.2097423926
 40
0.3349734931
 40
0.4697475266
 40
0.6090824115
 40
0.7473791908
 40
0.8792521625
 40
1.0
 40
1.0
 40
1.0
 40
1.0
 10
80.3781837983
 20
44.7648215085
 30
0.0
 10
80.5068962015
 20
44.7756707096
 30
0.0
 10
80.7795067687
 20
44.8482235544
 30
0.0
 10
81.1690031761
 20
45.0654361187
 30
0.0
 10
81.5475691803
 20
45.3837466871
 30
0.0
 10
81.8938361094
 20
45.7850910655
 30
0.0
 10
82.1882026091
 20
46.2463490857
 30
0.0
 10
82.4136902915
 20
46.7408213771
 30
0.0
 10
82.5569492207
 20
47.2395179847
 30
0.0
 10
82.5941697581
 20
47.5739613712
 30
0.0
 10
82.5941697581
 20
47.7336451941
 30
0.0
  0
SPLINE
  5
339
100
AcDbEntity
  8
0
100
AcDbSpline
 62
7
  6
CONTINUOUS
 70
0
 71
3
 72
10
 73
6
 74
0
 42
0.0000001
 43
0.0000001
 44
0.0000000001
 40
0.0
 40
0.0
 40
0.0
 40
0.0
 40
0.4707924722
 40
0.7281502779
 40
1.0
 40
1.0
 40
1.0
 40
1.0
 10
16.5974259767
 20
47.3788352535
 30
0.0
 10
16.4051775477
 20
47.7825739538
 30
0.0
 10
16.198386355
 20
48.4522184435
 30
0.0
 10
16.0656350116
 20
49.3932169596
 30
0.0
 10
16.044006861
 20
49.8964517247
 30
0.0
 10
16.044006861
 20
50.1546633087
 30
0.0
  0
SPLINE
  5
33A
100
AcDbEntity
  8
0
100
AcDbSpline
 62
7
  6
CONTINUOUS
 70
0
 71
3
 72
17
 73
13
 74
0
 42
0.0000001
 43
0.0000001
 44
0.0000000001
 40
0.0
 40
0.0
 40
0.0
 40
0.0
 40
0.128689231
 40
0.2702836787
 40
0.4174394209
 40
0.561781138
 40
0.6954494175
 40
0.8127106903
 40
0.8646752289
 40
0.9125083026
 40
0.9571386961
 40
1.0
 40
1.0
 40
1.0
 40
1.0
 10
59.7902208966
 20
35.4275985504
 30
0.0
 10
59.7902208966
 20
35.2352795991
 30
0.0
 10
59.7364105776
 20
34.830895673
 30
0.0
 10
59.53560303
 20
34.2371447945
 30
0.0
 10
59.2261641348
 20
33.6651757766
 30
0.0
 10
58.8329790764
 20
33.1618963814
 30
0.0
 10
58.388167534
 20
32.767962277
 30
0.0
 10
57.9855618106
 20
32.5478172634
 30
0.0
 10
57.67062353
 20
32.4640338656
 30
0.0
 10
57.4538645153
 20
32.4480712375
 30
0.0
 10
57.252023102
 20
32.4776472843
 30
0.0
 10
57.1297355202
 20
32.528465653
 30
0.0
 10
57.074277014
 20
32.5605163957
 30
0.0
  0
SPLINE
  5
33B
100
AcDbEntity
  8
0
100
AcDbSpline
 62
7
  6
CONTINUOUS
 70
0
 71
3
 72
11
 73
7
 74
0
 42
0.0000001
 43
0.0000001
 44
0.0000000001
 40
0.0
 40
0.0
 40
0.0
 40
0.0
 40
0.217727726
 40
0.4508670227
 40
0.7104594228
 40
1.0
 40
1.0
 40
1.0
 40
1.0
 10
81.5531526632
 20
47.7676872373
 30
0.0
 10
81.5894285387
 20
47.7467443616
 30
0.0
 10
81.6573607496
 20
47.6897430397
 30
0.0
 10
81.7296472084
 20
47.5715212053
 30
0.0
 10
81.7724930595
 20
47.4258623582
 30
0.0
 10
81.7810003453
 20
47.3198673075
 30
0.0
 10
81.7810003453
 20
47.2641644172
 30
0.0
  0
SPLINE
  5
33C
100
AcDbEntity
  8
0
100
AcDbSpline
 62
7
  6
CONTINUOUS
 70
0
 71
3
 72
17
 73
13
 74
0
 42
0.0000001
 43
0.0000001
 44
0.0000000001
 40
0.0
 40
0.0
 40
0.0
 40
0.0
 40
0.128689231
 40
0.2702836787
 40
0.4174394209
 40
0.561781138
 40
0.6954494175
 40
0.8127106903
 40
0.8646752289
 40
0.9125083026
 40
0.9571386961
 40
1.0
 40
1.0
 40
1.0
 40
1.0
 10
83.4780569145
 20
47.223344251
 30
0.0
 10
83.4780569145
 20
47.0310252997
 30
0.0
 10
83.4242465956
 20
46.6266413736
 30
0.0
 10
83.2234390479
 20
46.0328904951
 30
0.0
 10
82.9140001527
 20
45.4609214772
 30
0.0
 10
82.5208150943
 20
44.9576420819
 30
0.0
 10
82.076003552
 20
44.5637079776
 30
0.0
 10
81.6733978286
 20
44.343562964
 30
0.0
 10
81.358459548
 20
44.2597795662
 30
0.0
 10
81.1417005332
 20
44.2438169381
 30
0.0
 10
80.9398591199
 20
44.2733929848
 30
0.0
 10
80.8175715381
 20
44.3242113535
 30
0.0
 10
80.762113032
 20
44.3562620962
 30
0.0
  0
SPLINE
  5
33D
100
AcDbEntity
  8
0
100
AcDbSpline
 62
7
  6
CONTINUOUS
 70
0
 71
3
 72
17
 73
13
 74
0
 42
0.0000001
 43
0.0000001
 44
0.0000000001
 40
0.0
 40
0.0
 40
0.0
 40
0.0
 40
0.128689231
 40
0.2702836787
 40
0.4174394209
 40
0.561781138
 40
0.6954494175
 40
0.8127106903
 40
0.8646752289
 40
0.9125083026
 40
0.9571386961
 40
1.0
 40
1.0
 40
1.0
 40
1.0
 10
81.4312458806
 20
96.0117795216
 30
0.0
 10
81.4312458806
 20
95.8194605703
 30
0.0
 10
81.3774355616
 20
95.4150766442
 30
0.0
 10
81.1766280139
 20
94.8213257657
 30
0.0
 10
80.8671891187
 20
94.2493567478
 30
0.0
 10
80.4740040604
 20
93.7460773525
 30
0.0
 10
80.029192518
 20
93.3521432482
 30
0.0
 10
79.6265867946
 20
93.1319982346
 30
0.0
 10
79.311648514
 20
93.0482148368
 30
0.0
 10
79.0948894992
 20
93.0322522087
 30
0.0
 10
78.8930480859
 20
93.0618282555
 30
0.0
 10
78.7707605041
 20
93.1126466241
 30
0.0
 10
78.715301998
 20
93.1446973669
 30
0.0
  0
SPLINE
  5
33E
100
AcDbEntity
  8
0
100
AcDbSpline
 62
7
  6
CONTINUOUS
 70
0
 71
3
 72
17
 73
13
 74
0
 42
0.0000001
 43
0.0000001
 44
0.0000000001
 40
0.0
 40
0.0
 40
0.0
 40
0.0
 40
0.128689231
 40
0.2702836787
 40
0.4174394209
 40
0.561781138
 40
0.6954494175
 40
0.8127106903
 40
0.8646752289
 40
0.9125083026
 40
0.9571386961
 40
1.0
 40
1.0
 40
1.0
 40
1.0
 10
67.6408879942
 20
63.8828832166
 30
0.0
 10
67.6408879942
 20
63.6905642652
 30
0.0
 10
67.5870776753
 20
63.2861803391
 30
0.0
 10
67.3862701276
 20
62.6924294607
 30
0.0
 10
67.0768312324
 20
62.1204604428
 30
0.0
 10
66.683646174
 20
61.6171810475
 30
0.0
 10
66.2388346317
 20
61.2232469432
 30
0.0
 10
65.8362289083
 20
61.0031019295
 30
0.0
 10
65.5212906277
 20
60.9193185318
 30
0.0
 10
65.3045316129
 20
60.9033559037
 30
0.0
 10
65.1026901996
 20
60.9329319504
 30
0.0
 10
64.9804026178
 20
60.9837503191
 30
0.0
 10
64.9249441117
 20
61.0158010618
 30
0.0
  0
SPLINE
  5
33F
100
AcDbEntity
  8
0
100
AcDbSpline
 62
7
  6
CONTINUOUS
 70
0
 71
3
 72
11
 73
7
 74
0
 42
0.0000001
 43
0.0000001
 44
0.0000000001
 40
0.0
 40
0.0
 40
0.0
 40
0.0
 40
0.2177690984
 40
0.4509043648
 40
0.7103747685
 40
1.0
 40
1.0
 40
1.0
 40
1.0
 10
56.9939689995
 20
77.4889432569
 30
0.0
 10
57.0681651644
 20
77.4460635914
 30
0.0
 10
57.2071005318
 20
77.3294302562
 30
0.0
 10
57.3549102925
 20
77.0876313106
 30
0.0
 10
57.4426673437
 20
76.789740599
 30
0.0
 10
57.4599923844
 20
76.5729319303
 30
0.0
 10
57.4599923844
 20
76.4589597946
 30
0.0
  0
SPLINE
  5
340
100
AcDbEntity
  8
0
100
AcDbSpline
 62
7
  6
CONTINUOUS
 70
0
 71
3
 72
11
 73
7
 74
0
 42
0.0000001
 43
0.0000001
 44
0.0000000001
 40
0.0
 40
0.0
 40
0.0
 40
0.0
 40
0.2177690984
 40
0.4509043648
 40
0.7103747685
 40
1.0
 40
1.0
 40
1.0
 40
1.0
 10
59.3241975117
 20
36.4575820127
 30
0.0
 10
59.3983936766
 20
36.4147023472
 30
0.0
 10
59.537329044
 20
36.2980690121
 30
0.0
 10
59.6851388048
 20
36.0562700665
 30
0.0
 10
59.7728958559
 20
35.7583793548
 30
0.0
 10
59.7902208966
 20
35.5415706862
 30
0.0
 10
59.7902208966
 20
35.4275985504
 30
0.0
  0
LINE
  5
341
100
AcDbEntity
  8
0
100
AcDbLine
 62
7
  6
CONTINUOUS
 10
39.6421490774
 20
48.3484720851
 11
39.64244465
 21
48.6954903742
  0
SPLINE
  5
342
100
AcDbEntity
  8
0
100
AcDbSpline
 62
7
  6
CONTINUOUS
 70
0
 71
3
 72
15
 73
11
 74
0
 42
0.0000001
 43
0.0000001
 44
0.0000000001
 40
0.0
 40
0.0
 40
0.0
 40
0.0
 40
0.1213355431
 40
0.2346989164
 40
0.3445806685
 40
0.4562065693
 40
0.5745568087
 40
0.7034022913
 40
0.8450079055
 40
1.0
 40
1.0
 40
1.0
 40
1.0
 10
28.6030781815
 20
48.1637112092
 30
0.0
 10
28.6930165346
 20
48.4375860442
 30
0.0
 10
28.9197627227
 20
48.9528411386
 30
0.0
 10
29.4248446379
 20
49.6083009653
 30
0.0
 10
30.0698688624
 20
50.0914806762
 30
0.0
 10
30.8336734886
 20
50.3824770301
 30
0.0
 10
31.6897033805
 20
50.4727291828
 30
0.0
 10
32.6133571018
 20
50.3631268147
 30
0.0
 10
33.5819940299
 20
50.0582835912
 30
0.0
 10
34.2157180024
 20
49.7438807921
 30
0.0
 10
34.534611398
 20
49.5597717694
 30
0.0
  0
SPLINE
  5
343
100
AcDbEntity
  8
0
100
AcDbSpline
 62
7
  6
CONTINUOUS
 70
0
 71
3
 72
11
 73
7
 74
0
 42
0.0000001
 43
0.0000001
 44
0.0000000001
 40
0.0
 40
0.0
 40
0.0
 40
0.0
 40
0.2493334396
 40
0.436860515
 40
0.6248235543
 40
1.0
 40
1.0
 40
1.0
 40
1.0
 10
39.6467546736
 20
46.9819952248
 30
0.0
 10
39.6459876263
 20
47.0955632508
 30
0.0
 10
39.6438206872
 20
47.2945413431
 30
0.0
 10
39.6429747703
 20
47.5791477163
 30
0.0
 10
39.6440147168
 20
47.9210738972
 30
0.0
 10
39.6421490774
 20
48.1775803658
 30
0.0
 10
39.6421490774
 20
48.3484720851
 30
0.0
  0
SPLINE
  5
344
100
AcDbEntity
  8
0
100
AcDbSpline
 62
7
  6
CONTINUOUS
 70
0
 71
3
 72
17
 73
13
 74
0
 42
0.0000001
 43
0.0000001
 44
0.0000000001
 40
0.0
 40
0.0
 40
0.0
 40
0.0
 40
0.128689231
 40
0.2702836787
 40
0.4174394209
 40
0.561781138
 40
0.6954494175
 40
0.8127106903
 40
0.8646752289
 40
0.9125083026
 40
0.9571386961
 40
1.0
 40
1.0
 40
1.0
 40
1.0
 10
57.4599923844
 20
76.4589597946
 30
0.0
 10
57.4599923844
 20
76.2666408432
 30
0.0
 10
57.4061820654
 20
75.8622569172
 30
0.0
 10
57.2053745177
 20
75.2685060387
 30
0.0
 10
56.8959356226
 20
74.6965370208
 30
0.0
 10
56.5027505642
 20
74.1932576255
 30
0.0
 10
56.0579390218
 20
73.7993235212
 30
0.0
 10
55.6553332984
 20
73.5791785075
 30
0.0
 10
55.3403950178
 20
73.4953951098
 30
0.0
 10
55.123636003
 20
73.4794324817
 30
0.0
 10
54.9217945898
 20
73.5090085284
 30
0.0
 10
54.7995070079
 20
73.5598268971
 30
0.0
 10
54.7440485018
 20
73.5918776398
 30
0.0
  0
SPLINE
  5
345
100
AcDbEntity
  8
0
100
AcDbSpline
 62
7
  6
CONTINUOUS
 70
0
 71
3
 72
10
 73
6
 74
0
 42
0.0000001
 43
0.0000001
 44
0.0000000001
 40
0.0
 40
0.0
 40
0.0
 40
0.0
 40
0.4707924722
 40
0.7281502779
 40
1.0
 40
1.0
 40
1.0
 40
1.0
 10
29.1132681118
 20
40.1529738985
 30
0.0
 10
28.9210196828
 20
40.5567125988
 30
0.0
 10
28.7142284901
 20
41.2263570885
 30
0.0
 10
28.5814771467
 20
42.1673556046
 30
0.0
 10
28.5598489961
 20
42.6705903697
 30
0.0
 10
28.5598489961
 20
42.9288019537
 30
0.0
  0
SPLINE
  5
346
100
AcDbEntity
  8
0
100
AcDbSpline
 62
7
  6
CONTINUOUS
 70
0
 71
3
 72
11
 73
7
 74
0
 42
0.0000001
 43
0.0000001
 44
0.0000000001
 40
0.0
 40
0.0
 40
0.0
 40
0.0
 40
0.2837544423
 40
0.5405877674
 40
0.7756758499
 40
1.0
 40
1.0
 40
1.0
 40
1.0
 10
35.1348036053
 20
88.7723113581
 30
0.0
 10
35.2933869143
 20
88.6807553132
 30
0.0
 10
35.6114767721
 20
88.5313765718
 30
0.0
 10
36.1044338177
 20
88.4201010934
 30
0.0
 10
36.5725185172
 20
88.4414945058
 30
0.0
 10
36.8555778356
 20
88.5482769968
 30
0.0
 10
36.9809349318
 20
88.6206782501
 30
0.0
  0
SPLINE
  5
347
100
AcDbEntity
  8
0
100
AcDbSpline
 62
7
  6
CONTINUOUS
 70
0
 71
3
 72
17
 73
13
 74
0
 42
0.0000001
 43
0.0000001
 44
0.0000000001
 40
0.0
 40
0.0
 40
0.0
 40
0.0
 40
0.046206409
 40
0.094206323
 40
0.145030449
 40
0.1993455823
 40
0.3189852116
 40
0.452147401
 40
0.5938909749
 40
0.7372896691
 40
0.8748285634
 40
1.0
 40
1.0
 40
1.0
 40
1.0
 10
46.2022398334
 20
87.8065268969
 30
0.0
 10
46.1039712583
 20
87.7497725077
 30
0.0
 10
45.9165863877
 20
87.6100516681
 30
0.0
 10
45.6833130765
 20
87.3375789647
 30
0.0
 10
45.4988990406
 20
87.0072119509
 30
0.0
 10
45.3175567799
 20
86.4833251926
 30
0.0
 10
45.2418806465
 20
85.7224237245
 30
0.0
 10
45.3741110111
 20
84.7557186648
 30
0.0
 10
45.7117569744
 20
83.7789588424
 30
0.0
 10
46.2255575944
 20
82.8702540301
 30
0.0
 10
46.8704463244
 20
82.1021689198
 30
0.0
 10
47.3844160433
 20
81.7001543131
 30
0.0
 10
47.6506457404
 20
81.5464500031
 30
0.0
  0
SPLINE
  5
348
100
AcDbEntity
  8
0
100
AcDbSpline
 62
7
  6
CONTINUOUS
 70
0
 71
3
 72
11
 73
7
 74
0
 42
0.0000001
 43
0.0000001
 44
0.0000000001
 40
0.0
 40
0.0
 40
0.0
 40
0.0
 40
0.2837542804
 40
0.5405877251
 40
0.77567587
 40
1.0
 40
1.0
 40
1.0
 40
1.0
 10
47.6506457404
 20
81.5464500031
 30
0.0
 10
47.8092289584
 20
81.4548940107
 30
0.0
 10
48.1273187975
 20
81.3055153012
 30
0.0
 10
48.6202758481
 20
81.1942398033
 30
0.0
 10
49.0883606477
 20
81.2156331422
 30
0.0
 10
49.3714200192
 20
81.3224156044
 30
0.0
 10
49.4967770874
 20
81.3948168792
 30
0.0
  0
SPLINE
  5
349
100
AcDbEntity
  8
0
100
AcDbSpline
 62
7
  6
CONTINUOUS
 70
0
 71
3
 72
17
 73
13
 74
0
 42
0.0000001
 43
0.0000001
 44
0.0000000001
 40
0.0
 40
0.0
 40
0.0
 40
0.0
 40
0.0462063603
 40
0.0942062454
 40
0.1450303297
 40
0.1993454067
 40
0.3189849999
 40
0.4521471339
 40
0.5938907415
 40
0.7372896485
 40
0.874828621
 40
1.0
 40
1.0
 40
1.0
 40
1.0
 10
33.686397701
 20
95.0323881784
 30
0.0
 10
33.588129207
 20
94.9756338888
 30
0.0
 10
33.4007442738
 20
94.8359134383
 30
0.0
 10
33.16747134
 20
94.5634407515
 30
0.0
 10
32.9830574784
 20
94.2330740555
 30
0.0
 10
32.8017145856
 20
93.709187866
 30
0.0
 10
32.7260384591
 20
92.9482866804
 30
0.0
 10
32.8582685942
 20
91.9815817905
 30
0.0
 10
33.1959143237
 20
91.0048213778
 30
0.0
 10
33.7097151865
 20
90.0961157754
 30
0.0
 10
34.3546041822
 20
89.3280301129
 30
0.0
 10
34.8685740314
 20
88.926015597
 30
0.0
 10
35.1348036053
 20
88.7723113581
 30
0.0
  0
SPLINE
  5
34A
100
AcDbEntity
  8
0
100
AcDbSpline
 62
7
  6
CONTINUOUS
 70
0
 71
3
 72
15
 73
11
 74
0
 42
0.0000001
 43
0.0000001
 44
0.0000000001
 40
0.0
 40
0.0
 40
0.0
 40
0.0
 40
0.0976733723
 40
0.2097423926
 40
0.3349734931
 40
0.4697475266
 40
0.6090824115
 40
0.7473791908
 40
0.8792521625
 40
1.0
 40
1.0
 40
1.0
 40
1.0
 10
56.6903477803
 20
32.9690758079
 30
0.0
 10
56.8190601836
 20
32.9799250091
 30
0.0
 10
57.0916707508
 20
33.0524778538
 30
0.0
 10
57.4811671582
 20
33.2696904181
 30
0.0
 10
57.8597331623
 20
33.5880009865
 30
0.0
 10
58.2060000915
 20
33.989345365
 30
0.0
 10
58.5003665911
 20
34.4506033852
 30
0.0
 10
58.7258542736
 20
34.9450756765
 30
0.0
 10
58.8691132027
 20
35.4437722841
 30
0.0
 10
58.9063337402
 20
35.7782156706
 30
0.0
 10
58.9063337402
 20
35.9378994936
 30
0.0
  0
SPLINE
  5
34B
100
AcDbEntity
  8
0
100
AcDbSpline
 62
7
  6
CONTINUOUS
 70
0
 71
3
 72
21
 73
17
 74
0
 42
0.0000001
 43
0.0000001
 44
0.0000000001
 40
0.0
 40
0.0
 40
0.0
 40
0.0
 40
0.0428479459
 40
0.0874442562
 40
0.1352360434
 40
0.187159211
 40
0.2436221644
 40
0.3045954999
 40
0.3697097587
 40
0.4383362386
 40
0.5825633947
 40
0.7295988115
 40
0.8016033769
 40
0.8712160389
 40
0.9376107969
 40
1.0
 40
1.0
 40
1.0
 40
1.0
 10
48.0585508598
 20
108.831578756
 30
0.0
 10
48.0585920871
 20
109.0067236822
 30
0.0
 10
48.1052656631
 20
109.3656962477
 30
0.0
 10
48.3112401961
 20
109.8839067035
 30
0.0
 10
48.6452903325
 20
110.3750199045
 30
0.0
 10
49.0978734946
 20
110.8295879351
 30
0.0
 10
49.6588058913
 20
111.2393576462
 30
0.0
 10
50.3159807186
 20
111.596735884
 30
0.0
 10
51.0556943586
 20
111.8947770507
 30
0.0
 10
52.1490970982
 20
112.2096712913
 30
0.0
 10
53.6140275302
 20
112.4152012848
 30
0.0
 10
55.1057730382
 20
112.3740883126
 30
0.0
 10
56.2724470347
 20
112.1892325759
 30
0.0
 10
57.0978861011
 20
111.9797006022
 30
0.0
 10
57.8615595313
 20
111.7028626146
 30
0.0
 10
58.3350759119
 20
111.4694947397
 30
0.0
 10
58.5559323646
 20
111.3419860919
 30
0.0
  0
SPLINE
  5
34C
100
AcDbEntity
  8
0
100
AcDbSpline
 62
7
  6
CONTINUOUS
 70
0
 71
3
 72
15
 73
11
 74
0
 42
0.0000001
 43
0.0000001
 44
0.0000000001
 40
0.0
 40
0.0
 40
0.0
 40
0.0
 40
0.1120002832
 40
0.2319190081
 40
0.357975618
 40
0.4880509916
 40
0.6197355386
 40
0.7505513418
 40
0.8780774572
 40
1.0
 40
1.0
 40
1.0
 40
1.0
 10
22.0187692629
 20
56.7856331244
 30
0.0
 10
22.3873303801
 20
56.572849078
 30
0.0
 10
23.1187475576
 20
56.0759850981
 30
0.0
 10
24.1472687043
 20
55.181913928
 30
0.0
 10
25.1227227114
 20
54.1344281262
 30
0.0
 10
26.0219926912
 20
52.964489688
 30
0.0
 10
26.8245289156
 20
51.7048768076
 30
0.0
 10
27.5124070503
 20
50.3901281859
 30
0.0
 10
28.0715319071
 20
49.055957757
 30
0.0
 10
28.3595943545
 20
48.1512290751
 30
0.0
 10
28.4778214103
 20
47.7032910055
 30
0.0
  0
SPLINE
  5
34D
100
AcDbEntity
  8
0
100
AcDbSpline
 62
7
  6
CONTINUOUS
 70
0
 71
3
 72
11
 73
7
 74
0
 42
0.0000001
 43
0.0000001
 44
0.0000000001
 40
0.0
 40
0.0
 40
0.0
 40
0.0
 40
0.2177231375
 40
0.4508717887
 40
0.7104673698
 40
1.0
 40
1.0
 40
1.0
 40
1.0
 10
57.8403183257
 20
35.9286421941
 30
0.0
 10
57.8749450741
 20
35.9086526595
 30
0.0
 10
57.9397877601
 20
35.854238675
 30
0.0
 10
58.0087902125
 20
35.7413908412
 30
0.0
 10
58.0496894983
 20
35.6023520315
 30
0.0
 10
58.0578091355
 20
35.5011759277
 30
0.0
 10
58.0578091355
 20
35.4480065089
 30
0.0
  0
SPLINE
  5
34E
100
AcDbEntity
  8
0
100
AcDbSpline
 62
7
  6
CONTINUOUS
 70
0
 71
3
 72
15
 73
11
 74
0
 42
0.0000001
 43
0.0000001
 44
0.0000000001
 40
0.0
 40
0.0
 40
0.0
 40
0.0
 40
0.1120000463
 40
0.2319189282
 40
0.3579755853
 40
0.4880509818
 40
0.6197356536
 40
0.7505513995
 40
0.8780775273
 40
1.0
 40
1.0
 40
1.0
 40
1.0
 10
34.534611398
 20
49.5597717694
 30
0.0
 10
34.9031717417
 20
49.3469881695
 30
0.0
 10
35.6345933817
 20
48.8501309668
 30
0.0
 10
36.6631064594
 20
47.9560498788
 30
0.0
 10
37.6385602933
 20
46.90856362
 30
0.0
 10
38.5378362411
 20
45.7386286978
 30
0.0
 10
39.340373549
 20
44.4790158226
 30
0.0
 10
40.0282498235
 20
43.1642659806
 30
0.0
 10
40.5873769277
 20
41.830096863
 30
0.0
 10
40.8754365557
 20
40.9253674687
 30
0.0
 10
40.9936635454
 20
40.4774296492
 30
0.0
  0
SPLINE
  5
34F
100
AcDbEntity
  8
0
100
AcDbSpline
 62
7
  6
CONTINUOUS
 70
0
 71
3
 72
21
 73
17
 74
0
 42
0.0000001
 43
0.0000001
 44
0.0000000001
 40
0.0
 40
0.0
 40
0.0
 40
0.0
 40
0.0428479459
 40
0.0874442562
 40
0.1352360434
 40
0.187159211
 40
0.2436221644
 40
0.3045954999
 40
0.3697097587
 40
0.4383362386
 40
0.5825633947
 40
0.7295988115
 40
0.8016033769
 40
0.8712160389
 40
0.9376107969
 40
1.0
 40
1.0
 40
1.0
 40
1.0
 10
60.5743929949
 20
101.6057174009
 30
0.0
 10
60.5744342222
 20
101.7808623272
 30
0.0
 10
60.6211077982
 20
102.1398348927
 30
0.0
 10
60.8270823312
 20
102.6580453484
 30
0.0
 10
61.1611324676
 20
103.1491585495
 30
0.0
 10
61.6137156297
 20
103.6037265801
 30
0.0
 10
62.1746480264
 20
104.0134962912
 30
0.0
 10
62.8318228537
 20
104.370874529
 30
0.0
 10
63.5715364937
 20
104.6689156957
 30
0.0
 10
64.6649392333
 20
104.9838099363
 30
0.0
 10
66.1298696653
 20
105.1893399298
 30
0.0
 10
67.6216151733
 20
105.1482269576
 30
0.0
 10
68.7882891698
 20
104.9633712209
 30
0.0
 10
69.6137282362
 20
104.7538392472
 30
0.0
 10
70.3774016664
 20
104.4770012596
 30
0.0
 10
70.850918047
 20
104.2436333847
 30
0.0
 10
71.0717744997
 20
104.1161247369
 30
0.0
  0
SPLINE
  5
350
100
AcDbEntity
  8
0
100
AcDbSpline
 62
7
  6
CONTINUOUS
 70
0
 71
3
 72
11
 73
7
 74
0
 42
0.0000001
 43
0.0000001
 44
0.0000000001
 40
0.0
 40
0.0
 40
0.0
 40
0.0
 40
0.2177231375
 40
0.4508717887
 40
0.7104673698
 40
1.0
 40
1.0
 40
1.0
 40
1.0
 10
55.5350883001
 20
77.0033030595
 30
0.0
 10
55.5713639413
 20
76.9823616423
 30
0.0
 10
55.6392943742
 20
76.9253565157
 30
0.0
 10
55.7115826577
 20
76.8071349756
 30
0.0
 10
55.7544295285
 20
76.6614752701
 30
0.0
 10
55.7629358151
 20
76.5554812566
 30
0.0
 10
55.7629358151
 20
76.4997799608
 30
0.0
  0
SPLINE
  5
351
100
AcDbEntity
  8
0
100
AcDbSpline
 62
7
  6
CONTINUOUS
 70
0
 71
3
 72
13
 73
9
 74
0
 42
0.0000001
 43
0.0000001
 44
0.0000000001
 40
0.0
 40
0.0
 40
0.0
 40
0.0
 40
0.2893788297
 40
0.5483104504
 40
0.6677404521
 40
0.781766187
 40
0.8919049606
 40
1.0
 40
1.0
 40
1.0
 40
1.0
 10
71.0717744997
 20
104.1161247369
 30
0.0
 10
71.3416708861
 20
103.9603035107
 30
0.0
 10
71.8311098226
 20
103.6234875334
 30
0.0
 10
72.3316496902
 20
103.0969281113
 30
0.0
 10
72.6134325024
 20
102.6458002529
 30
0.0
 10
72.7623449511
 20
102.3054535237
 30
0.0
 10
72.8526824339
 20
101.9576396852
 30
0.0
 10
72.8728382415
 20
101.7221306472
 30
0.0
 10
72.8728409535
 20
101.6057172428
 30
0.0
  0
SPLINE
  5
352
100
AcDbEntity
  8
0
100
AcDbSpline
 62
7
  6
CONTINUOUS
 70
0
 71
3
 72
16
 73
12
 74
0
 42
0.0000001
 43
0.0000001
 44
0.0000000001
 40
0.0
 40
0.0
 40
0.0
 40
0.0
 40
0.0937199313
 40
0.1465061809
 40
0.2031763238
 40
0.3269684194
 40
0.4616890103
 40
0.6022555055
 40
0.7427806239
 40
0.8771943255
 40
1.0
 40
1.0
 40
1.0
 40
1.0
 10
45.3950872766
 20
30.0026849518
 30
0.0
 10
45.3267583953
 20
29.8206105339
 30
0.0
 10
45.2730963787
 20
29.5153309035
 30
0.0
 10
45.2765491186
 20
29.0935783303
 30
0.0
 10
45.3332596795
 20
28.6118871868
 30
0.0
 10
45.5044932443
 20
27.9770714326
 30
0.0
 10
45.8391672788
 20
27.2168138554
 30
0.0
 10
46.2895304805
 20
26.4780421452
 30
0.0
 10
46.8285939036
 20
25.802110283
 30
0.0
 10
47.4240086428
 20
25.2272798077
 30
0.0
 10
47.8604573631
 20
24.9149246354
 30
0.0
 10
48.0811459731
 20
24.7875128894
 30
0.0
  0
SPLINE
  5
353
100
AcDbEntity
  8
0
100
AcDbSpline
 62
7
  6
CONTINUOUS
 70
0
 71
3
 72
9
 73
5
 74
0
 42
0.0000001
 43
0.0000001
 44
0.0000000001
 40
0.0
 40
0.0
 40
0.0
 40
0.0
 40
0.2408017624
 40
1.0
 40
1.0
 40
1.0
 40
1.0
 10
63.7843216253
 20
91.6227849823
 30
0.0
 10
64.0771649815
 20
91.656384847
 30
0.0
 10
65.2890931557
 20
91.8317584934
 30
0.0
 10
66.4795124719
 20
92.1447916216
 30
0.0
 10
67.3600352168
 20
92.4420081168
 30
0.0
  0
SPLINE
  5
354
100
AcDbEntity
  8
0
100
AcDbSpline
 62
7
  6
CONTINUOUS
 70
0
 71
3
 72
9
 73
5
 74
0
 42
0.0000001
 43
0.0000001
 44
0.0000000001
 40
0.0
 40
0.0
 40
0.0
 40
0.0
 40
0.2438158945
 40
1.0
 40
1.0
 40
1.0
 40
1.0
 10
76.2695435657
 20
97.6560366228
 30
0.0
 10
76.6378215128
 20
97.9630413806
 30
0.0
 10
78.1242029282
 20
99.2509606042
 30
0.0
 10
79.5151731016
 20
100.6479529405
 30
0.0
 10
80.512166589
 20
101.7512348402
 30
0.0
  0
SPLINE
  5
355
100
AcDbEntity
  8
0
100
AcDbSpline
 62
7
  6
CONTINUOUS
 70
0
 71
3
 72
17
 73
13
 74
0
 42
0.0000001
 43
0.0000001
 44
0.0000000001
 40
0.0
 40
0.0
 40
0.0
 40
0.0
 40
0.1286849204
 40
0.270303802
 40
0.4174438806
 40
0.5617821443
 40
0.6954492858
 40
0.8127130378
 40
0.8646795618
 40
0.9125091497
 40
0.9571393989
 40
1.0
 40
1.0
 40
1.0
 40
1.0
 10
55.7629358151
 20
76.4997799608
 30
0.0
 10
55.7629358151
 20
76.4057614472
 30
0.0
 10
55.7366134241
 20
76.2080528714
 30
0.0
 10
55.6384647166
 20
75.9177656549
 30
0.0
 10
55.4871511595
 20
75.6381512643
 30
0.0
 10
55.2949479682
 20
75.392115823
 30
0.0
 10
55.0774853639
 20
75.1995189823
 30
0.0
 10
54.8806491648
 20
75.0919303458
 30
0.0
 10
54.7266899841
 20
75.0509079954
 30
0.0
 10
54.6207213673
 20
75.0431655105
 30
0.0
 10
54.5220332968
 20
75.057559653
 30
0.0
 10
54.4622747026
 20
75.0824638364
 30
0.0
 10
54.4351548883
 20
75.0981197235
 30
0.0
  0
SPLINE
  5
356
100
AcDbEntity
  8
0
100
AcDbSpline
 62
7
  6
CONTINUOUS
 70
0
 71
3
 72
9
 73
5
 74
0
 42
0.0000001
 43
0.0000001
 44
0.0000000001
 40
0.0
 40
0.0
 40
0.0
 40
0.0
 40
0.26774376
 40
1.0
 40
1.0
 40
1.0
 40
1.0
 10
56.5761052279
 20
76.9692607377
 30
0.0
 10
56.5761052279
 20
77.0196947443
 30
0.0
 10
56.5693111858
 20
77.2078301349
 30
0.0
 10
56.5340935891
 20
77.3962077855
 30
0.0
 10
56.4864009336
 20
77.5256328083
 30
0.0
  0
SPLINE
  5
357
100
AcDbEntity
  8
0
100
AcDbSpline
 62
7
  6
CONTINUOUS
 70
0
 71
3
 72
11
 73
7
 74
0
 42
0.0000001
 43
0.0000001
 44
0.0000000001
 40
0.0
 40
0.0
 40
0.0
 40
0.0
 40
0.2279262483
 40
0.4747148547
 40
0.7344585006
 40
1.0
 40
1.0
 40
1.0
 40
1.0
 10
28.5598489961
 20
42.9288019537
 30
0.0
 10
28.5598489961
 20
43.5015093923
 30
0.0
 10
28.6722637933
 20
44.6954872678
 30
0.0
 10
29.1162605313
 20
46.4922621585
 30
0.0
 10
29.8240618436
 20
48.3038715001
 30
0.0
 10
30.4519989215
 20
49.469075979
 30
0.0
 10
30.8031710129
 20
50.036406959
 30
0.0
  0
SPLINE
  5
358
100
AcDbEntity
  8
0
100
AcDbSpline
 62
7
  6
CONTINUOUS
 70
0
 71
3
 72
16
 73
12
 74
0
 42
0.0000001
 43
0.0000001
 44
0.0000000001
 40
0.0
 40
0.0
 40
0.0
 40
0.0
 40
0.1287410646
 40
0.2704217334
 40
0.4176260079
 40
0.5620272452
 40
0.6957527047
 40
0.8130676178
 40
0.9124709781
 40
0.9571206991
 40
1.0
 40
1.0
 40
1.0
 40
1.0
 10
65.9084762332
 20
63.9032911751
 30
0.0
 10
65.9084762332
 20
63.8135462303
 30
0.0
 10
65.8833488832
 20
63.6248242425
 30
0.0
 10
65.789668556
 20
63.3477327177
 30
0.0
 10
65.6452056174
 20
63.0808249182
 30
0.0
 10
65.4618369587
 20
62.8459842428
 30
0.0
 10
65.2539342153
 20
62.6621042396
 30
0.0
 10
65.037647185
 20
62.5434528117
 30
0.0
 10
64.8540526994
 20
62.5076342352
 30
0.0
 10
64.7239784498
 20
62.5266299281
 30
0.0
 10
64.6669360803
 20
62.5503985109
 30
0.0
 10
64.6410489848
 20
62.5653427668
 30
0.0
  0
SPLINE
  5
359
100
AcDbEntity
  8
0
100
AcDbSpline
 62
7
  6
CONTINUOUS
 70
0
 71
3
 72
9
 73
5
 74
0
 42
0.0000001
 43
0.0000001
 44
0.0000000001
 40
0.0
 40
0.0
 40
0.0
 40
0.0
 40
0.26774376
 40
1.0
 40
1.0
 40
1.0
 40
1.0
 10
66.7570008378
 20
64.3931841597
 30
0.0
 10
66.7570008378
 20
64.4436181663
 30
0.0
 10
66.7502067957
 20
64.6317535569
 30
0.0
 10
66.714989199
 20
64.8201312075
 30
0.0
 10
66.6672965434
 20
64.9495562303
 30
0.0
  0
SPLINE
  5
35A
100
AcDbEntity
  8
0
100
AcDbSpline
 62
7
  6
CONTINUOUS
 70
0
 71
3
 72
11
 73
7
 74
0
 42
0.0000001
 43
0.0000001
 44
0.0000000001
 40
0.0
 40
0.0
 40
0.0
 40
0.0
 40
0.2245784705
 40
0.4651274317
 40
0.7234336445
 40
1.0
 40
1.0
 40
1.0
 40
1.0
 10
41.272240765
 20
36.5556122498
 30
0.0
 10
41.1835826432
 20
36.6937266699
 30
0.0
 10
41.0269404091
 20
36.9977041096
 30
0.0
 10
40.8635467269
 20
37.5024715399
 30
0.0
 10
40.7655319209
 20
38.062210347
 30
0.0
 10
40.7452849925
 20
38.453547548
 30
0.0
 10
40.7452849925
 20
38.6556616491
 30
0.0
  0
SPLINE
  5
35B
100
AcDbEntity
  8
0
100
AcDbSpline
 62
7
  6
CONTINUOUS
 70
0
 71
3
 72
16
 73
12
 74
0
 42
0.0000001
 43
0.0000001
 44
0.0000000001
 40
0.0
 40
0.0
 40
0.0
 40
0.0
 40
0.1287410646
 40
0.2704217334
 40
0.4176260079
 40
0.5620272452
 40
0.6957527047
 40
0.8130676178
 40
0.9124709781
 40
0.9571206991
 40
1.0
 40
1.0
 40
1.0
 40
1.0
 10
79.6988341195
 20
96.0321874801
 30
0.0
 10
79.6988341195
 20
95.9424425353
 30
0.0
 10
79.6737067695
 20
95.7537205475
 30
0.0
 10
79.5800264423
 20
95.4766290227
 30
0.0
 10
79.4355635037
 20
95.2097212232
 30
0.0
 10
79.252194845
 20
94.9748805478
 30
0.0
 10
79.0442921016
 20
94.7910005447
 30
0.0
 10
78.8280050713
 20
94.6723491167
 30
0.0
 10
78.6444105857
 20
94.6365305402
 30
0.0
 10
78.5143363361
 20
94.6555262332
 30
0.0
 10
78.4572939666
 20
94.6792948159
 30
0.0
 10
78.4314068712
 20
94.6942390718
 30
0.0
  0
SPLINE
  5
35C
100
AcDbEntity
  8
0
100
AcDbSpline
 62
7
  6
CONTINUOUS
 70
0
 71
3
 72
11
 73
7
 74
0
 42
0.0000001
 43
0.0000001
 44
0.0000000001
 40
0.0
 40
0.0
 40
0.0
 40
0.0
 40
0.2559003253
 40
0.4997663668
 40
0.7436980864
 40
1.0
 40
1.0
 40
1.0
 40
1.0
 10
28.3424720919
 20
42.5844355092
 30
0.0
 10
28.2382448541
 20
42.3951340375
 30
0.0
 10
27.9956638326
 20
42.0444730475
 30
0.0
 10
27.5169711521
 20
41.6273080514
 30
0.0
 10
26.9452057807
 20
41.3501273001
 30
0.0
 10
26.5266866802
 20
41.2657106485
 30
0.0
 10
26.3112342815
 20
41.2450875525
 30
0.0
  0
SPLINE
  5
35D
100
AcDbEntity
  8
0
100
AcDbSpline
 62
7
  6
CONTINUOUS
 70
0
 71
3
 72
9
 73
5
 74
0
 42
0.0000001
 43
0.0000001
 44
0.0000000001
 40
0.0
 40
0.0
 40
0.0
 40
0.0
 40
0.2452599574
 40
1.0
 40
1.0
 40
1.0
 40
1.0
 10
26.2056938501
 20
41.2367613811
 30
0.0
 10
26.1738129047
 20
41.2347741428
 30
0.0
 10
26.0437095294
 20
41.2285832084
 30
0.0
 10
25.9132718788
 20
41.2299120377
 30
0.0
 10
25.8150918419
 20
41.2347231841
 30
0.0
  0
SPLINE
  5
35E
100
AcDbEntity
  8
0
100
AcDbSpline
 62
7
  6
CONTINUOUS
 70
0
 71
3
 72
9
 73
5
 74
0
 42
0.0000001
 43
0.0000001
 44
0.0000000001
 40
0.0
 40
0.0
 40
0.0
 40
0.0
 40
0.26774376
 40
1.0
 40
1.0
 40
1.0
 40
1.0
 10
80.5473587241
 20
96.5220804647
 30
0.0
 10
80.5473587241
 20
96.5725144713
 30
0.0
 10
80.540564682
 20
96.7606498619
 30
0.0
 10
80.5053470853
 20
96.9490275125
 30
0.0
 10
80.4576544297
 20
97.0784525353
 30
0.0
  0
SPLINE
  5
35F
100
AcDbEntity
  8
0
100
AcDbSpline
 62
7
  6
CONTINUOUS
 70
0
 71
3
 72
15
 73
11
 74
0
 42
0.0000001
 43
0.0000001
 44
0.0000000001
 40
0.0
 40
0.0
 40
0.0
 40
0.0
 40
0.0976733723
 40
0.2097423926
 40
0.3349734931
 40
0.4697475266
 40
0.6090824115
 40
0.7473791908
 40
0.8792521625
 40
1.0
 40
1.0
 40
1.0
 40
1.0
 10
54.3601192681
 20
74.0004370521
 30
0.0
 10
54.4888316714
 20
74.0112862532
 30
0.0
 10
54.7614422386
 20
74.083839098
 30
0.0
 10
55.1509386459
 20
74.3010516623
 30
0.0
 10
55.5295046501
 20
74.6193622307
 30
0.0
 10
55.8757715793
 20
75.0207066091
 30
0.0
 10
56.1701380789
 20
75.4819646293
 30
0.0
 10
56.3956257614
 20
75.9764369206
 30
0.0
 10
56.5388846905
 20
76.4751335283
 30
0.0
 10
56.5761052279
 20
76.8095769148
 30
0.0
 10
56.5761052279
 20
76.9692607377
 30
0.0
  0
SPLINE
  5
360
100
AcDbEntity
  8
0
100
AcDbSpline
 62
7
  6
CONTINUOUS
 70
0
 71
3
 72
15
 73
11
 74
0
 42
0.0000001
 43
0.0000001
 44
0.0000000001
 40
0.0
 40
0.0
 40
0.0
 40
0.0
 40
0.1440700769
 40
0.278757422
 40
0.4052083164
 40
0.5254093162
 40
0.6419693846
 40
0.7578839904
 40
0.8762722073
 40
1.0
 40
1.0
 40
1.0
 40
1.0
 10
41.272240765
 20
36.5556122498
 30
0.0
 10
41.2379127896
 20
36.3759891488
 30
0.0
 10
41.153175223
 20
36.031499448
 30
0.0
 10
40.9687612506
 20
35.5497571819
 30
0.0
 10
40.7316425606
 20
35.1255700239
 30
0.0
 10
40.4428675639
 20
34.7632587757
 30
0.0
 10
40.1038268101
 20
34.4670472535
 30
0.0
 10
39.7173270168
 20
34.2404471443
 30
0.0
 10
39.2871848854
 20
34.0865045765
 30
0.0
 10
38.9827279831
 20
34.0340870648
 30
0.0
 10
38.8263864598
 20
34.0191585923
 30
0.0
  0
SPLINE
  5
361
100
AcDbEntity
  8
0
100
AcDbSpline
 62
7
  6
CONTINUOUS
 70
0
 71
3
 72
9
 73
5
 74
0
 42
0.0000001
 43
0.0000001
 44
0.0000000001
 40
0.0
 40
0.0
 40
0.0
 40
0.0
 40
0.2452603157
 40
1.0
 40
1.0
 40
1.0
 40
1.0
 10
38.721512399
 20
34.0108980209
 30
0.0
 10
38.6896331602
 20
34.0089114691
 30
0.0
 10
38.559536978
 20
34.0027231537
 30
0.0
 10
38.4291067033
 20
34.0040536815
 30
0.0
 10
38.3309322656
 20
34.0088654247
 30
0.0
  0
SPLINE
  5
362
100
AcDbEntity
  8
0
100
AcDbSpline
 62
7
  6
CONTINUOUS
 70
0
 71
3
 72
11
 73
7
 74
0
 42
0.0000001
 43
0.0000001
 44
0.0000000001
 40
0.0
 40
0.0
 40
0.0
 40
0.0
 40
0.2318614594
 40
0.4761834941
 40
0.7325470363
 40
1.0
 40
1.0
 40
1.0
 40
1.0
 10
67.3538666312
 20
93.0336312304
 30
0.0
 10
68.0567383224
 20
93.2963889854
 30
0.0
 10
69.4726306958
 20
93.9121098245
 30
0.0
 10
71.5534300148
 20
95.0541002495
 30
0.0
 10
73.6282471722
 20
96.4280589539
 30
0.0
 10
74.9682932035
 20
97.4692180863
 30
0.0
 10
75.6331448131
 20
98.0234533019
 30
0.0
  0
SPLINE
  5
363
100
AcDbEntity
  8
0
100
AcDbSpline
 62
7
  6
CONTINUOUS
 70
0
 71
3
 72
13
 73
9
 74
0
 42
0.0000001
 43
0.0000001
 44
0.0000000001
 40
0.0
 40
0.0
 40
0.0
 40
0.0
 40
0.290913474
 40
0.4250696086
 40
0.5518251106
 40
0.7850935381
 40
0.8941954242
 40
1.0
 40
1.0
 40
1.0
 40
1.0
 10
22.0187692629
 20
56.7856331244
 30
0.0
 10
21.639174336
 20
57.0047873997
 30
0.0
 10
21.0582136212
 20
57.2847147003
 30
0.0
 10
20.2624119521
 20
57.5304362715
 30
0.0
 10
19.5305710269
 20
57.6721124778
 30
0.0
 10
18.8135765377
 20
57.6822019993
 30
0.0
 10
18.1511563353
 20
57.5401047222
 30
0.0
 10
17.8475057456
 20
57.4228775735
 30
0.0
 10
17.7040621638
 20
57.3533295051
 30
0.0
  0
SPLINE
  5
364
100
AcDbEntity
  8
0
100
AcDbSpline
 62
7
  6
CONTINUOUS
 70
0
 71
3
 72
16
 73
12
 74
0
 42
0.0000001
 43
0.0000001
 44
0.0000000001
 40
0.0
 40
0.0
 40
0.0
 40
0.0
 40
0.1287423347
 40
0.2704249801
 40
0.417638208
 40
0.5620439327
 40
0.6957622448
 40
0.8130688335
 40
0.9124700511
 40
0.9571204075
 40
1.0
 40
1.0
 40
1.0
 40
1.0
 10
81.7810003453
 20
47.2641644172
 30
0.0
 10
81.7810003453
 20
47.1701449962
 30
0.0
 10
81.7546747155
 20
46.97243417
 30
0.0
 10
81.656531902
 20
46.6821388392
 30
0.0
 10
81.505178315
 20
46.4025142455
 30
0.0
 10
81.3130717409
 20
46.1564896956
 30
0.0
 10
81.0952719731
 20
45.9638626158
 30
0.0
 10
80.8686957862
 20
45.8395690296
 30
0.0
 10
80.6763661578
 20
45.8020492854
 30
0.0
 10
80.5400983152
 20
45.8219460411
 30
0.0
 10
80.4803391502
 20
45.8468477263
 30
0.0
 10
80.4532195855
 20
45.8625044585
 30
0.0
  0
SPLINE
  5
365
100
AcDbEntity
  8
0
100
AcDbSpline
 62
7
  6
CONTINUOUS
 70
0
 71
3
 72
9
 73
5
 74
0
 42
0.0000001
 43
0.0000001
 44
0.0000000001
 40
0.0
 40
0.0
 40
0.0
 40
0.0
 40
0.26774376
 40
1.0
 40
1.0
 40
1.0
 40
1.0
 10
82.5941697581
 20
47.7336451941
 30
0.0
 10
82.5941697581
 20
47.7840792007
 30
0.0
 10
82.587375716
 20
47.9722145913
 30
0.0
 10
82.5521581193
 20
48.1605922419
 30
0.0
 10
82.5044654637
 20
48.2900172647
 30
0.0
  0
SPLINE
  5
366
100
AcDbEntity
  8
0
100
AcDbSpline
 62
7
  6
CONTINUOUS
 70
0
 71
3
 72
11
 73
7
 74
0
 42
0.0000001
 43
0.0000001
 44
0.0000000001
 40
0.0
 40
0.0
 40
0.0
 40
0.0
 40
0.2281214068
 40
0.4747686025
 40
0.7343306683
 40
1.0
 40
1.0
 40
1.0
 40
1.0
 10
16.044006861
 20
50.1546633087
 30
0.0
 10
16.044006861
 20
50.7135015161
 30
0.0
 10
16.1507762229
 20
51.877700169
 30
0.0
 10
16.5749499368
 20
53.6311040079
 30
0.0
 10
17.2518309394
 20
55.4016919695
 30
0.0
 10
17.8524633409
 20
56.5435320074
 30
0.0
 10
18.1886527027
 20
57.1007972239
 30
0.0
  0
SPLINE
  5
367
100
AcDbEntity
  8
0
100
AcDbSpline
 62
7
  6
CONTINUOUS
 70
0
 71
3
 72
11
 73
7
 74
0
 42
0.0000001
 43
0.0000001
 44
0.0000000001
 40
0.0
 40
0.0
 40
0.0
 40
0.0
 40
0.2177690984
 40
0.4509043648
 40
0.7103747685
 40
1.0
 40
1.0
 40
1.0
 40
1.0
 10
67.1748646094
 20
64.9128666789
 30
0.0
 10
67.2490607743
 20
64.8699870134
 30
0.0
 10
67.3879961416
 20
64.7533536782
 30
0.0
 10
67.5358059024
 20
64.5115547326
 30
0.0
 10
67.6235629535
 20
64.213664021
 30
0.0
 10
67.6408879942
 20
63.9968553523
 30
0.0
 10
67.6408879942
 20
63.8828832166
 30
0.0
  0
SPLINE
  5
368
100
AcDbEntity
  8
0
100
AcDbSpline
 62
7
  6
CONTINUOUS
 70
0
 71
3
 72
16
 73
12
 74
0
 42
0.0000001
 43
0.0000001
 44
0.0000000001
 40
0.0
 40
0.0
 40
0.0
 40
0.0
 40
0.1287410646
 40
0.2704217334
 40
0.4176260079
 40
0.5620272452
 40
0.6957527047
 40
0.8130676178
 40
0.9124709781
 40
0.9571206991
 40
1.0
 40
1.0
 40
1.0
 40
1.0
 10
58.0578091355
 20
35.4480065089
 30
0.0
 10
58.0578091355
 20
35.3582615641
 30
0.0
 10
58.0326817856
 20
35.1695395763
 30
0.0
 10
57.9390014583
 20
34.8924480516
 30
0.0
 10
57.7945385197
 20
34.6255402521
 30
0.0
 10
57.611169861
 20
34.3906995766
 30
0.0
 10
57.4032671176
 20
34.2068195735
 30
0.0
 10
57.1869800874
 20
34.0881681455
 30
0.0
 10
57.0033856018
 20
34.052349569
 30
0.0
 10
56.8733113521
 20
34.071345262
 30
0.0
 10
56.8162689827
 20
34.0951138447
 30
0.0
 10
56.7903818872
 20
34.1100581006
 30
0.0
  0
SPLINE
  5
369
100
AcDbEntity
  8
0
100
AcDbSpline
 62
7
  6
CONTINUOUS
 70
0
 71
3
 72
9
 73
5
 74
0
 42
0.0000001
 43
0.0000001
 44
0.0000000001
 40
0.0
 40
0.0
 40
0.0
 40
0.0
 40
0.26774376
 40
1.0
 40
1.0
 40
1.0
 40
1.0
 10
58.9063337402
 20
35.9378994936
 30
0.0
 10
58.9063337402
 20
35.9883335002
 30
0.0
 10
58.899539698
 20
36.1764688907
 30
0.0
 10
58.8643221013
 20
36.3648465413
 30
0.0
 10
58.8166294458
 20
36.4942715641
 30
0.0
  0
SPLINE
  5
36A
100
AcDbEntity
  8
0
100
AcDbSpline
 62
7
  6
CONTINUOUS
 70
0
 71
3
 72
9
 73
5
 74
0
 42
0.0000001
 43
0.0000001
 44
0.0000000001
 40
0.0
 40
0.0
 40
0.0
 40
0.0
 40
0.2287819179
 40
1.0
 40
1.0
 40
1.0
 40
1.0
 10
39.5692761327
 20
48.979855131
 30
0.0
 10
39.5596107962
 20
48.9742758571
 30
0.0
 10
39.5195786962
 20
48.9461153575
 30
0.0
 10
39.4880816045
 20
48.9068699665
 30
0.0
 10
39.469270712
 20
48.8742902663
 30
0.0
  0
SPLINE
  5
36B
100
AcDbEntity
  8
0
100
AcDbSpline
 62
7
  6
CONTINUOUS
 70
0
 71
3
 72
9
 73
5
 74
0
 42
0.0000001
 43
0.0000001
 44
0.0000000001
 40
0.0
 40
0.0
 40
0.0
 40
0.0
 40
0.2670394002
 40
1.0
 40
1.0
 40
1.0
 40
1.0
 10
39.469270712
 20
48.8742902663
 30
0.0
 10
39.4627610562
 20
48.8630158075
 30
0.0
 10
39.4408519532
 20
48.8195483162
 30
0.0
 10
39.4278429794
 20
48.7706322108
 30
0.0
 10
39.4278429794
 20
48.7348986664
 30
0.0
  0
SPLINE
  5
36C
100
AcDbEntity
  8
0
100
AcDbSpline
 62
7
  6
CONTINUOUS
 70
0
 71
3
 72
12
 73
8
 74
0
 42
0.0000001
 43
0.0000001
 44
0.0000000001
 40
0.0
 40
0.0
 40
0.0
 40
0.0
 40
0.3007046217
 40
0.5640712644
 40
0.7930525651
 40
0.8983210541
 40
1.0
 40
1.0
 40
1.0
 40
1.0
 10
48.0811459731
 20
24.7875128894
 30
0.0
 10
48.2382329188
 20
24.6968207507
 30
0.0
 10
48.5457536391
 20
24.5469243987
 30
0.0
 10
49.0105541013
 20
24.4203692348
 30
0.0
 10
49.3769565552
 20
24.4161642905
 30
0.0
 10
49.633295273
 20
24.4800810307
 30
0.0
 10
49.7476960619
 20
24.5321853734
 30
0.0
 10
49.8008069571
 20
24.5628616565
 30
0.0
  0
SPLINE
  5
36D
100
AcDbEntity
  8
0
100
AcDbSpline
 62
7
  6
CONTINUOUS
 70
0
 71
3
 72
9
 73
5
 74
0
 42
0.0000001
 43
0.0000001
 44
0.0000000001
 40
0.0
 40
0.0
 40
0.0
 40
0.0
 40
0.2536295994
 40
1.0
 40
1.0
 40
1.0
 40
1.0
 10
40.1933193782
 20
63.6310217668
 30
0.0
 10
40.1060473138
 20
62.3980555266
 30
0.0
 10
39.8011748733
 20
57.534102931
 30
0.0
 10
39.6552772441
 20
52.6599425313
 30
0.0
 10
39.6432633632
 20
49.022563941
 30
0.0
  0
SPLINE
  5
36E
100
AcDbEntity
  8
0
100
AcDbSpline
 62
7
  6
CONTINUOUS
 70
0
 71
3
 72
15
 73
11
 74
0
 42
0.0000001
 43
0.0000001
 44
0.0000000001
 40
0.0
 40
0.0
 40
0.0
 40
0.0
 40
0.0976733723
 40
0.2097423926
 40
0.3349734931
 40
0.4697475266
 40
0.6090824115
 40
0.7473791908
 40
0.8792521625
 40
1.0
 40
1.0
 40
1.0
 40
1.0
 10
64.541014878
 20
61.4243604741
 30
0.0
 10
64.6697272812
 20
61.4352096752
 30
0.0
 10
64.9423378484
 20
61.50776252
 30
0.0
 10
65.3318342558
 20
61.7249750843
 30
0.0
 10
65.71040026
 20
62.0432856527
 30
0.0
 10
66.0566671892
 20
62.4446300311
 30
0.0
 10
66.3510336888
 20
62.9058880513
 30
0.0
 10
66.5765213712
 20
63.4003603426
 30
0.0
 10
66.7197803004
 20
63.8990569503
 30
0.0
 10
66.7570008378
 20
64.2335003368
 30
0.0
 10
66.7570008378
 20
64.3931841597
 30
0.0
  0
SPLINE
  5
36F
100
AcDbEntity
  8
0
100
AcDbSpline
 62
7
  6
CONTINUOUS
 70
0
 71
3
 72
11
 73
7
 74
0
 42
0.0000001
 43
0.0000001
 44
0.0000000001
 40
0.0
 40
0.0
 40
0.0
 40
0.0
 40
0.2177231375
 40
0.4508717887
 40
0.7104673698
 40
1.0
 40
1.0
 40
1.0
 40
1.0
 10
65.6909854233
 20
64.3839268602
 30
0.0
 10
65.7256121718
 20
64.3639373257
 30
0.0
 10
65.7904548577
 20
64.3095233412
 30
0.0
 10
65.8594573102
 20
64.1966755074
 30
0.0
 10
65.9003565959
 20
64.0576366976
 30
0.0
 10
65.9084762332
 20
63.9564605938
 30
0.0
 10
65.9084762332
 20
63.9032911751
 30
0.0
  0
SPLINE
  5
370
100
AcDbEntity
  8
0
100
AcDbSpline
 62
7
  6
CONTINUOUS
 70
0
 71
3
 72
9
 73
5
 74
0
 42
0.0000001
 43
0.0000001
 44
0.0000000001
 40
0.0
 40
0.0
 40
0.0
 40
0.0
 40
0.5081146829
 40
1.0
 40
1.0
 40
1.0
 40
1.0
 10
54.6878432616
 20
87.4309925663
 30
0.0
 10
54.3799966975
 20
84.7372228727
 30
0.0
 10
53.9131596404
 20
79.4187133642
 30
0.0
 10
53.7484474732
 20
74.0817342766
 30
0.0
 10
53.7484461506
 20
71.4570311428
 30
0.0
  0
SPLINE
  5
371
100
AcDbEntity
  8
0
100
AcDbSpline
 62
7
  6
CONTINUOUS
 70
0
 71
3
 72
14
 73
10
 74
0
 42
0.0000001
 43
0.0000001
 44
0.0000000001
 40
0.0
 40
0.0
 40
0.0
 40
0.0
 40
0.1453434057
 40
0.286097215
 40
0.4213752794
 40
0.5505486926
 40
0.6731300346
 40
0.7888754824
 40
1.0
 40
1.0
 40
1.0
 40
1.0
 10
81.1839208279
 20
101.3634061234
 30
0.0
 10
80.514445545
 20
100.6225587946
 30
0.0
 10
79.1484855883
 20
99.2067820154
 30
0.0
 10
76.9960213981
 20
97.2673897083
 30
0.0
 10
74.7913428825
 20
95.5628871844
 30
0.0
 10
72.5593830258
 20
94.1122272524
 30
0.0
 10
70.3225595736
 20
92.9311820743
 30
0.0
 10
67.4593239413
 20
91.7702595484
 30
0.0
 10
65.2362357637
 20
91.2727279699
 30
0.0
 10
63.7891664324
 20
91.173781802
 30
0.0
  0
SPLINE
  5
372
100
AcDbEntity
  8
0
100
AcDbSpline
 62
7
  6
CONTINUOUS
 70
0
 71
3
 72
11
 73
7
 74
0
 42
0.0000001
 43
0.0000001
 44
0.0000000001
 40
0.0
 40
0.0
 40
0.0
 40
0.0
 40
0.2177690984
 40
0.4509043648
 40
0.7103747685
 40
1.0
 40
1.0
 40
1.0
 40
1.0
 10
80.9652224957
 20
97.0417629839
 30
0.0
 10
81.0394186606
 20
96.9988833184
 30
0.0
 10
81.178354028
 20
96.8822499833
 30
0.0
 10
81.3261637887
 20
96.6404510377
 30
0.0
 10
81.4139208399
 20
96.342560326
 30
0.0
 10
81.4312458806
 20
96.1257516574
 30
0.0
 10
81.4312458806
 20
96.0117795216
 30
0.0
  0
SPLINE
  5
373
100
AcDbEntity
  8
0
100
AcDbSpline
 62
7
  6
CONTINUOUS
 70
0
 71
3
 72
11
 73
7
 74
0
 42
0.0000001
 43
0.0000001
 44
0.0000000001
 40
0.0
 40
0.0
 40
0.0
 40
0.0
 40
0.2177690984
 40
0.4509043648
 40
0.7103747685
 40
1.0
 40
1.0
 40
1.0
 40
1.0
 10
46.245904279
 20
43.1165785568
 30
0.0
 10
46.3201004439
 20
43.0736988913
 30
0.0
 10
46.4590358113
 20
42.9570655561
 30
0.0
 10
46.606845572
 20
42.7152666105
 30
0.0
 10
46.6946026232
 20
42.4173758989
 30
0.0
 10
46.7119276639
 20
42.2005672302
 30
0.0
 10
46.7119276639
 20
42.0865950945
 30
0.0
  0
SPLINE
  5
374
100
AcDbEntity
  8
0
100
AcDbSpline
 62
7
  6
CONTINUOUS
 70
0
 71
3
 72
15
 73
11
 74
0
 42
0.0000001
 43
0.0000001
 44
0.0000000001
 40
0.0
 40
0.0
 40
0.0
 40
0.0
 40
0.0976733723
 40
0.2097423926
 40
0.3349734931
 40
0.4697475266
 40
0.6090824115
 40
0.7473791908
 40
0.8792521625
 40
1.0
 40
1.0
 40
1.0
 40
1.0
 10
78.3313727643
 20
93.5532567791
 30
0.0
 10
78.4600851676
 20
93.5641059802
 30
0.0
 10
78.7326957348
 20
93.636658825
 30
0.0
 10
79.1221921421
 20
93.8538713893
 30
0.0
 10
79.5007581463
 20
94.1721819577
 30
0.0
 10
79.8470250755
 20
94.5735263362
 30
0.0
 10
80.1413915751
 20
95.0347843563
 30
0.0
 10
80.3668792576
 20
95.5292566477
 30
0.0
 10
80.5101381867
 20
96.0279532553
 30
0.0
 10
80.5473587241
 20
96.3623966418
 30
0.0
 10
80.5473587241
 20
96.5220804647
 30
0.0
  0
SPLINE
  5
375
100
AcDbEntity
  8
0
100
AcDbSpline
 62
7
  6
CONTINUOUS
 70
0
 71
3
 72
11
 73
7
 74
0
 42
0.0000001
 43
0.0000001
 44
0.0000000001
 40
0.0
 40
0.0
 40
0.0
 40
0.0
 40
0.2177231375
 40
0.4508717887
 40
0.7104673698
 40
1.0
 40
1.0
 40
1.0
 40
1.0
 10
79.4813433096
 20
96.5128231653
 30
0.0
 10
79.5159700581
 20
96.4928336307
 30
0.0
 10
79.5808127441
 20
96.4384196462
 30
0.0
 10
79.6498151965
 20
96.3255718124
 30
0.0
 10
79.6907144822
 20
96.1865330027
 30
0.0
 10
79.6988341195
 20
96.0853568988
 30
0.0
 10
79.6988341195
 20
96.0321874801
 30
0.0
  0
SPLINE
  5
376
100
AcDbEntity
  8
0
100
AcDbSpline
 62
7
  6
CONTINUOUS
 70
0
 71
3
 72
15
 73
11
 74
0
 42
0.0000001
 43
0.0000001
 44
0.0000000001
 40
0.0
 40
0.0
 40
0.0
 40
0.0
 40
0.0976733723
 40
0.2097423926
 40
0.3349734931
 40
0.4697475266
 40
0.6090824115
 40
0.7473791908
 40
0.8792521625
 40
1.0
 40
1.0
 40
1.0
 40
1.0
 10
43.6120545476
 20
39.628072352
 30
0.0
 10
43.7407669509
 20
39.6389215531
 30
0.0
 10
44.0133775181
 20
39.7114743979
 30
0.0
 10
44.4028739254
 20
39.9286869622
 30
0.0
 10
44.7814399296
 20
40.2469975306
 30
0.0
 10
45.1277068588
 20
40.648341909
 30
0.0
 10
45.4220733584
 20
41.1095999292
 30
0.0
 10
45.6475610409
 20
41.6040722205
 30
0.0
 10
45.79081997
 20
42.1027688282
 30
0.0
 10
45.8280405074
 20
42.4372122147
 30
0.0
 10
45.8280405074
 20
42.5968960376
 30
0.0
  0
SPLINE
  5
377
100
AcDbEntity
  8
0
100
AcDbSpline
 62
7
  6
CONTINUOUS
 70
0
 71
3
 72
11
 73
7
 74
0
 42
0.0000001
 43
0.0000001
 44
0.0000000001
 40
0.0
 40
0.0
 40
0.0
 40
0.0
 40
0.2177505635
 40
0.4508989791
 40
0.7104722024
 40
1.0
 40
1.0
 40
1.0
 40
1.0
 10
44.7620232248
 20
42.5876353717
 30
0.0
 10
44.7966541895
 20
42.5676429784
 30
0.0
 10
44.861506377
 20
42.513231338
 30
0.0
 10
44.9304998375
 20
42.4003757238
 30
0.0
 10
44.9714010484
 20
42.2613437109
 30
0.0
 10
44.9795159028
 20
42.1601716431
 30
0.0
 10
44.9795159028
 20
42.107003053
 30
0.0
  0
SPLINE
  5
378
100
AcDbEntity
  8
0
100
AcDbSpline
 62
7
  6
CONTINUOUS
 70
0
 71
3
 72
9
 73
5
 74
0
 42
0.0000001
 43
0.0000001
 44
0.0000000001
 40
0.0
 40
0.0
 40
0.0
 40
0.0
 40
0.5093275912
 40
1.0
 40
1.0
 40
1.0
 40
1.0
 10
53.748446493
 20
33.071555984
 30
0.0
 10
53.7486322404
 20
30.5389163793
 30
0.0
 10
53.8970969006
 20
25.5650286913
 30
0.0
 10
54.3693720561
 20
20.6105900787
 30
0.0
 10
54.687843259
 20
18.1915875922
 30
0.0
  0
SPLINE
  5
379
100
AcDbEntity
  8
0
100
AcDbSpline
 62
7
  6
CONTINUOUS
 70
0
 71
3
 72
9
 73
5
 74
0
 42
0.0000001
 43
0.0000001
 44
0.0000000001
 40
0.0
 40
0.0
 40
0.0
 40
0.0
 40
0.2536442689
 40
1.0
 40
1.0
 40
1.0
 40
1.0
 10
41.272240765
 20
36.5556122498
 30
0.0
 10
41.3339321241
 20
35.8380793651
 30
0.0
 10
41.6006269117
 20
33.0112711834
 30
0.0
 10
41.9624975528
 20
30.1932927666
 30
0.0
 10
42.289896644
 20
28.0995854139
 30
0.0
  0
SPLINE
  5
37A
100
AcDbEntity
  8
0
100
AcDbSpline
 62
7
  6
CONTINUOUS
 70
0
 71
3
 72
9
 73
5
 74
0
 42
0.0000001
 43
0.0000001
 44
0.0000000001
 40
0.0
 40
0.0
 40
0.0
 40
0.0
 40
0.5170870974
 40
1.0
 40
1.0
 40
1.0
 40
1.0
 10
40.9936635454
 20
40.4774296492
 30
0.0
 10
40.9139771463
 20
40.1700526038
 30
0.0
 10
40.7917399905
 20
39.5667268883
 30
0.0
 10
40.7452849925
 20
38.9522138965
 30
0.0
 10
40.7452849925
 20
38.6556616491
 30
0.0
  0
SPLINE
  5
37B
100
AcDbEntity
  8
0
100
AcDbSpline
 62
7
  6
CONTINUOUS
 70
0
 71
3
 72
11
 73
7
 74
0
 42
0.0000001
 43
0.0000001
 44
0.0000000001
 40
0.0
 40
0.0
 40
0.0
 40
0.0
 40
0.2177690984
 40
0.4509043648
 40
0.7103747685
 40
1.0
 40
1.0
 40
1.0
 40
1.0
 10
83.0120335296
 20
48.2533277133
 30
0.0
 10
83.0862296946
 20
48.2104480478
 30
0.0
 10
83.2251650619
 20
48.0938147127
 30
0.0
 10
83.3729748227
 20
47.852015767
 30
0.0
 10
83.4607318738
 20
47.5541250554
 30
0.0
 10
83.4780569145
 20
47.3373163868
 30
0.0
 10
83.4780569145
 20
47.223344251
 30
0.0
  0
SPLINE
  5
37C
100
AcDbEntity
  8
0
100
AcDbSpline
 62
7
  6
CONTINUOUS
 70
0
 71
3
 72
9
 73
5
 74
0
 42
0.0000001
 43
0.0000001
 44
0.0000000001
 40
0.0
 40
0.0
 40
0.0
 40
0.0
 40
0.26774376
 40
1.0
 40
1.0
 40
1.0
 40
1.0
 10
45.8280405074
 20
42.5968960376
 30
0.0
 10
45.8280405074
 20
42.6473300442
 30
0.0
 10
45.8212464653
 20
42.8354654348
 30
0.0
 10
45.7860288686
 20
43.0238430854
 30
0.0
 10
45.7383362131
 20
43.1532681082
 30
0.0
  0
SPLINE
  5
37D
100
AcDbEntity
  8
0
100
AcDbSpline
 62
7
  6
CONTINUOUS
 70
0
 71
3
 72
16
 73
12
 74
0
 42
0.0000001
 43
0.0000001
 44
0.0000000001
 40
0.0
 40
0.0
 40
0.0
 40
0.0
 40
0.1287384341
 40
0.2704126171
 40
0.4176117646
 40
0.5620104189
 40
0.6957362742
 40
0.8130529929
 40
0.9124610459
 40
0.9571149178
 40
1.0
 40
1.0
 40
1.0
 40
1.0
 10
44.9795159028
 20
42.107003053
 30
0.0
 10
44.9795159028
 20
42.0172599308
 30
0.0
 10
44.9543902722
 20
41.8285442087
 30
0.0
 10
44.8607150159
 20
41.5514616135
 30
0.0
 10
44.7162614246
 20
41.2845601155
 30
0.0
 10
44.5328998969
 20
41.0497203977
 30
0.0
 10
44.3250021237
 20
40.8658353469
 30
0.0
 10
44.1087146593
 20
40.7471748383
 30
0.0
 10
43.9251149001
 20
40.7113464927
 30
0.0
 10
43.7950288658
 20
40.7303373952
 30
0.0
 10
43.7379809742
 20
40.7541115004
 30
0.0
 10
43.7120905226
 20
40.7690580111
 30
0.0
  0
ELLIPSE
  5
37E
100
AcDbEntity
  8
0
100
AcDbEllipse
 62
7
  6
CONTINUOUS
 10
67.8509543196
 20
104.5621833723
 30
0.0
 11
-10.6181495476
 21
16.2036140087
 31
0.0
 40
0.535815383
 41
5.1696791611
 42
5.7677003779
  0
ELLIPSE
  5
37F
100
AcDbEntity
  8
0
100
AcDbEllipse
 62
7
  6
CONTINUOUS
 10
64.787227017
 20
115.5662020191
 30
0.0
 11
-0.7717439985
 21
1.3464672017
 31
0.0
 40
0.5779938537
 41
5.5330161882
 42
7.0716647293
  0
ENDSEC
  0
SECTION
  2
OBJECTS
  0
DICTIONARY
  5
C
100
AcDbDictionary
280
0
281
1
  3
ACAD_GROUP
350
D
  3
ACAD_MLINESTYLE
350
17
  3
ACAD_LAYOUT
350
1A
  3
ACAD_PLOTSETTINGS
350
19
  3
ACAD_PLOTSTYLENAME
350
E
  0
DICTIONARY
  5
D
102
{ACAD_REACTORS
330
C
102
}
100
AcDbDictionary
280
0
281
1
  0
ACDBDICTIONARYWDFLT
  5
E
102
{ACAD_REACTORS
330
C
102
}
100
AcDbDictionary
281
1
  3
Normal
350
F
100
AcDbDictionaryWithDefault
340
F
  0
DICTIONARY
  5
17
102
{ACAD_REACTORS
330
C
102
}
100
AcDbDictionary
280
0
281
1
  3
Standard
350
18
  0
DICTIONARY
  5
19
102
{ACAD_REACTORS
330
C
102
}
100
AcDbDictionary
281
1
  0
DICTIONARY
  5
1A
102
{ACAD_REACTORS
330
C
102
}
100
AcDbDictionary
281
1
  3
Model
350
380
  3
Layout1
350
381
  0
ACDBPLACEHOLDER
  5
F
102
{ACAD_REACTORS
330
E
102
}
  0
MLINESTYLE
  5
18
102
{ACAD_REACTORS
330
17
102
}
100
AcDbMlineStyle
  2
STANDARD
 70
0
  3

 62
256
 51
90.0
 52
90.0
 71
2
 49
0.5
 62
256
  6
BYLAYER
 49
-0.5
 62
256
  6
BYLAYER
  0
LAYOUT
  5
380
102
{ACAD_REACTORS
330
1A
102
}
100
AcDbPlotSettings
  1

  2
none_device
  4

  6

 40
0.0
 41
0.0
 42
0.0
 43
0.0
 44
210.0
 45
297.0
 46
0.0
 47
0.0
 48
0.0
 49
0.0
140
0.0
141
0.0
142
1.0
143
1.0
 70
1024
 72
1
 73
0
 74
0
  7

 75
0
147
1.0
148
0.0
149
0.0
100
AcDbLayout
  1
Model
 70
0
 71
0
 10
0.0
 20
0.0
 11
210.0
 21
297.0
 12
0.0
 22
0.0
 32
0.0
 14
0.0
 24
0.0
 34
0.0
 15
0.0
 25
0.0
 35
0.0
146
0.0
 13
0.0
 23
0.0
 33
0.0
 16
1.0
 26
0.0
 36
0.0
 17
0.0
 27
1.0
 37
0.0
 76
0
330
210
345
0
346
0
  0
LAYOUT
  5
381
102
{ACAD_REACTORS
330
1A
102
}
100
AcDbPlotSettings
  1

  2
none_device
  4

  6

 40
0.0
 41
0.0
 42
0.0
 43
0.0
 44
210.0
 45
297.0
 46
0.0
 47
0.0
 48
0.0
 49
0.0
140
0.0
141
0.0
142
1.0
143
1.0
 70
0
 72
1
 73
0
 74
0
  7

 75
0
147
1.0
148
0.0
149
0.0
100
AcDbLayout
  1
Layout1
 70
0
 71
1
 10
0.0
 20
0.0
 11
210.0
 21
297.0
 12
0.0
 22
0.0
 32
0.0
 14
0.0
 24
0.0
 34
0.0
 15
0.0
 25
0.0
 35
0.0
146
0.0
 13
0.0
 23
0.0
 33
0.0
 16
1.0
 26
0.0
 36
0.0
 17
0.0
 27
1.0
 37
0.0
 76
0
330
211
345
0
346
0
  0
ENDSEC
  0
EOF
