999
DXF file: C:\Users\sesa63760\Documents\7-Dev\_Creo\CAD\MCADFD0000999_3D-CAD\drw0001_1.dxf
999
Pro/ENGINEER 2019471 by Parametric Technology Corporation
  0
SECTION
  2
HEADER
  9
$ACADVER
  1
AC1024
  9
$DWGCODEPAGE
  3
ANSI_1252
  9
$EXTMAX
 10
114.2269257168
 20
161.5495092281
 30
0.0
  9
$EXTMIN
 10
0.0
 20
0.0
 30
0.0
  9
$LIMMIN
 10
0.0
 20
0.0
  9
$LIMMAX
 10
114.2269257168
 20
161.5495092281
  9
$VIEWCTR
 10
57.1134628584
 20
80.774754614
  9
$VIEWSIZE
 40
161.5495092281
  9
$CLAYER
  8
0
  9
$LTSCALE
 40
10.5306346756
  9
$CELTYPE
  6
BYLAYER
  9
$DIMSCALE
 40
1.0
  9
$DIMASZ
 40
1.3598443538
  9
$DIMEXO
 40
1.0
  9
$DIMDLI
 40
7.2757112304
  9
$DIMEXE
 40
1.0
  9
$DIMCEN
 40
1.7231947651
  9
$DIMLFAC
 40
1.0
  9
$DIMBLK
  1
_FILLED
  9
$DIMALT
 70
0
  9
$DIMALTF
 40
0.0393700787
  9
$DIMTXT
 40
1.9037820953
  9
$DIMTOL
 70
1
  9
$DIMLIM
 70
0
  9
$DIMTFAC
 40
1.0
  9
$DIMTP
 40
0.01
  9
$DIMTM
 40
0.01
  9
$DIMGAP
 40
0.625
  9
$DIMDSEP
 70
46
  9
$AUNITS
 70
0
  9
$PDMODE
 70
3
  9
$PDSIZE
 40
0.3125
  9
$HANDSEED
  5
349
  9
$TILEMODE
 70
1
  9
$MEASUREMENT
 70
1
  9
$INSUNITS
 70
4
  0
ENDSEC
  0
SECTION
  2
CLASSES
  0
CLASS
  1
ACDBDICTIONARYWDFLT
  2
AcDbDictionaryWithDefault
  3
AutoCAD 2000
 90
0
 91
1
280
0
281
0
  0
CLASS
  1
ACDBPLACEHOLDER
  2
AcDbPlaceHolder
  3
AutoCAD 2000
 90
0
 91
1
280
0
281
0
  0
CLASS
  1
LAYOUT
  2
AcDbLayout
  3
AutoCAD 2000
 90
0
 91
0
280
0
281
0
  0
ENDSEC
  0
SECTION
  2
TABLES
  0
TABLE
  2
VPORT
  5
8
100
AcDbSymbolTable
 70
2
  0
VPORT
  5
1F4
100
AcDbSymbolTableRecord
100
AcDbViewportTableRecord
  2
*ACTIVE
 70
0
 10
0.0
 20
0.0
 11
1.0
 21
1.0
 12
57.1134628584
 22
80.774754614
 13
0.0
 23
0.0
 14
1.0
 24
1.0
 15
0.0
 25
0.0
 16
0.0
 26
0.0
 36
1.0
 17
0.0
 27
0.0
 37
0.0
 40
161.5495092281
 41
0.7070707071
 42
50.0
 43
0.0
 44
0.0
 50
0.0
 51
0.0
 71
0
 72
100
 73
1
 74
1
 75
0
 76
0
 77
0
 78
0
  0
ENDTAB
  0
TABLE
  2
LTYPE
  5
5
100
AcDbSymbolTable
 70
6
  0
LTYPE
  5
14
100
AcDbSymbolTableRecord
100
AcDbLinetypeTableRecord
  2
BYBLOCK
 70
0
  3

 72
65
 73
0
 40
0.0
  0
LTYPE
  5
15
100
AcDbSymbolTableRecord
100
AcDbLinetypeTableRecord
  2
BYLAYER
 70
0
  3

 72
65
 73
0
 40
0.0
  0
LTYPE
  5
16
100
AcDbSymbolTableRecord
100
AcDbLinetypeTableRecord
  2
CONTINUOUS
 70
64
  3
Solid line
 72
65
 73
0
 40
0.0
  0
LTYPE
  5
1F5
100
AcDbSymbolTableRecord
100
AcDbLinetypeTableRecord
  2
CENTER
 70
64
  3
____ _ ____ _ ____ _ ____ _ ____ _ ____ _ ____
 72
65
 73
4
 40
0.6
 49
0.375
 74
0
 49
-0.075
 74
0
 49
0.075
 74
0
 49
-0.075
 74
0
  0
LTYPE
  5
1F6
100
AcDbSymbolTableRecord
100
AcDbLinetypeTableRecord
  2
HIDDEN
 70
64
  3
- - - - - - - - - - - - - - - - - - - -
 72
65
 73
2
 40
0.2
 49
0.1
 74
0
 49
-0.1
 74
0
  0
LTYPE
  5
1F7
100
AcDbSymbolTableRecord
100
AcDbLinetypeTableRecord
  2
PHANTOM
 70
64
  3
_____ _ _ _____ _ _ _____ _ _ _____
 72
65
 73
6
 40
0.8
 49
0.45
 74
0
 49
-0.05
 74
0
 49
0.1
 74
0
 49
-0.05
 74
0
 49
0.1
 74
0
 49
-0.05
 74
0
  0
LTYPE
  5
1F8
100
AcDbSymbolTableRecord
100
AcDbLinetypeTableRecord
  2
DOT
 70
64
  3
. . . . . . . . . . . . . . . . . . . .
 72
65
 73
2
 40
0.2
 49
0.1
 74
0
 49
-0.1
 74
0
  0
LTYPE
  5
1F9
100
AcDbSymbolTableRecord
100
AcDbLinetypeTableRecord
  2
DASHED
 70
64
  3
- - - - - - - - - - - - - - - - - - - -
 72
65
 73
2
 40
0.2
 49
0.1
 74
0
 49
-0.1
 74
0
  0
ENDTAB
  0
TABLE
  2
LAYER
  5
2
100
AcDbSymbolTable
 70
36
  0
LAYER
  5
10
100
AcDbSymbolTableRecord
100
AcDbLayerTableRecord
  2
0
 70
0
 62
7
  6
CONTINUOUS
370
-3
390
F
  0
LAYER
  5
1FA
100
AcDbSymbolTableRecord
100
AcDbLayerTableRecord
  2
DEFAULT_1
 70
0
 62
7
  6
CENTER
370
-3
390
F
  0
LAYER
  5
1FB
100
AcDbSymbolTableRecord
100
AcDbLayerTableRecord
  2
DEFAULT_2
 70
0
 62
8
  6
HIDDEN
370
-3
390
F
  0
LAYER
  5
1FC
100
AcDbSymbolTableRecord
100
AcDbLayerTableRecord
  2
DEFAULT_3
 70
0
 62
7
  6
PHANTOM
370
-3
390
F
  0
LAYER
  5
1FD
100
AcDbSymbolTableRecord
100
AcDbLayerTableRecord
  2
00_COMPONENTS
 70
0
 62
7
  6
CONTINUOUS
370
-3
390
F
  0
LAYER
  5
1FE
100
AcDbSymbolTableRecord
100
AcDbLayerTableRecord
  2
01_1_DEFAULT_DATUMS
 70
0
 62
7
  6
CONTINUOUS
370
-3
390
F
  0
LAYER
  5
1FF
100
AcDbSymbolTableRecord
100
AcDbLayerTableRecord
  2
01_PLANES
 70
0
 62
7
  6
CONTINUOUS
370
-3
390
F
  0
LAYER
  5
200
100
AcDbSymbolTableRecord
100
AcDbLayerTableRecord
  2
02_COORD_SYS
 70
0
 62
7
  6
CONTINUOUS
370
-3
390
F
  0
LAYER
  5
201
100
AcDbSymbolTableRecord
100
AcDbLayerTableRecord
  2
03_AXES
 70
0
 62
7
  6
CONTINUOUS
370
-3
390
F
  0
LAYER
  5
202
100
AcDbSymbolTableRecord
100
AcDbLayerTableRecord
  2
04_POINTS
 70
0
 62
7
  6
CONTINUOUS
370
-3
390
F
  0
LAYER
  5
203
100
AcDbSymbolTableRecord
100
AcDbLayerTableRecord
  2
05_CURVES
 70
0
 62
7
  6
CONTINUOUS
370
-3
390
F
  0
LAYER
  5
204
100
AcDbSymbolTableRecord
100
AcDbLayerTableRecord
  2
06_SURFS
 70
0
 62
7
  6
CONTINUOUS
370
-3
390
F
  0
LAYER
  5
205
100
AcDbSymbolTableRecord
100
AcDbLayerTableRecord
  2
07_COSMETICS
 70
0
 62
7
  6
CONTINUOUS
370
-3
390
F
  0
LAYER
  5
206
100
AcDbSymbolTableRecord
100
AcDbLayerTableRecord
  2
10_NOTES
 70
0
 62
7
  6
CONTINUOUS
370
-3
390
F
  0
LAYER
  5
207
100
AcDbSymbolTableRecord
100
AcDbLayerTableRecord
  2
11_NOTES_PUB
 70
0
 62
7
  6
CONTINUOUS
370
-3
390
F
  0
LAYER
  5
208
100
AcDbSymbolTableRecord
100
AcDbLayerTableRecord
  2
13_REF_GTOL
 70
0
 62
7
  6
CONTINUOUS
370
-3
390
F
  0
LAYER
  5
209
100
AcDbSymbolTableRecord
100
AcDbLayerTableRecord
  2
16_MISC
 70
0
 62
7
  6
CONTINUOUS
370
-3
390
F
  0
LAYER
  5
20A
100
AcDbSymbolTableRecord
100
AcDbLayerTableRecord
  2
17_NO_PRINT
 70
0
 62
7
  6
CONTINUOUS
370
-3
390
F
  0
LAYER
  5
20B
100
AcDbSymbolTableRecord
100
AcDbLayerTableRecord
  2
18_DATUM_CAMS_JOINTS
 70
0
 62
7
  6
CONTINUOUS
370
-3
390
F
  0
LAYER
  5
20C
100
AcDbSymbolTableRecord
100
AcDbLayerTableRecord
  2
19_DATUM_FUNCTIONAL
 70
0
 62
7
  6
CONTINUOUS
370
-3
390
F
  0
LAYER
  5
20D
100
AcDbSymbolTableRecord
100
AcDbLayerTableRecord
  2
20_DATUM_KINEMATIC_SCHEME
 70
0
 62
7
  6
CONTINUOUS
370
-3
390
F
  0
ENDTAB
  0
TABLE
  2
STYLE
  5
3
100
AcDbSymbolTable
 70
1
  0
STYLE
  5
11
100
AcDbSymbolTableRecord
100
AcDbTextStyleTableRecord
  2
STANDARD
 70
0
 40
0.0
 41
0.8
 50
0.0
 71
0
 42
0.2
  3
txt
  4

  0
STYLE
  5
20E
100
AcDbSymbolTableRecord
100
AcDbTextStyleTableRecord
  2
TEXTSTYLE_1
 70
0
 40
0.0
 41
0.8
 50
0.0
 71
0
 42
0.2
  3
gdt
  4

  0
ENDTAB
  0
TABLE
  2
VIEW
  5
6
100
AcDbSymbolTable
 70
0
  0
ENDTAB
  0
TABLE
  2
UCS
  5
7
100
AcDbSymbolTable
 70
0
  0
ENDTAB
  0
TABLE
  2
APPID
  5
9
100
AcDbSymbolTable
 70
1
  0
APPID
  5
20F
100
AcDbSymbolTableRecord
100
AcDbRegAppTableRecord
  2
ACAD
 70
0
  0
ENDTAB
  0
TABLE
  2
BLOCK_RECORD
  5
1
100
AcDbSymbolTable
 70
0
  0
BLOCK_RECORD
  5
210
100
AcDbSymbolTableRecord
100
AcDbBlockTableRecord
  2
*Model_Space
  0
BLOCK_RECORD
  5
211
100
AcDbSymbolTableRecord
100
AcDbBlockTableRecord
  2
*Paper_Space
  0
BLOCK_RECORD
  5
212
100
AcDbSymbolTableRecord
100
AcDbBlockTableRecord
  2
_FILLED
  0
ENDTAB
  0
TABLE
  2
DIMSTYLE
  5
A
100
AcDbSymbolTable
 70
1
100
AcDbDimStyleTable
 71
0
  0
DIMSTYLE
105
213
100
AcDbSymbolTableRecord
100
AcDbDimStyleTableRecord
  2
STANDARD
 70
0
  3

  4

 40
1.0
 41
1.3598443538
 42
1.0
 43
0.38
 44
1.0
 45
0.0
 46
0.0
 47
0.01
 48
0.01
140
1.9037820953
141
0.09
142
0.0
143
25.4
144
1.0
145
0.0
146
1.0
147
0.625
 71
1
 72
0
 73
0
 74
0
 75
0
 76
0
 77
1
 78
8
 79
2
170
0
171
1
172
0
173
0
174
0
175
0
176
0
177
0
178
0
270
2
179
2
271
2
272
2
273
2
274
2
275
0
280
0
281
0
282
0
283
1
284
8
285
0
286
0
287
3
288
0
340
11
278
46
341
212
342
212
343
212
344
212
  0
ENDTAB
  0
ENDSEC
  0
SECTION
  2
BLOCKS
  0
BLOCK
  5
20
100
AcDbEntity
  8
0
100
AcDbBlockBegin
  2
*Model_Space
 70
0
 10
0.0
 20
0.0
 30
0.0
  3
*Model_Space
  1

  0
ENDBLK
  5
21
100
AcDbEntity
  8
0
100
AcDbBlockEnd
  0
BLOCK
  5
1C
100
AcDbEntity
  8
0
100
AcDbBlockBegin
  2
*Paper_Space
 70
0
 10
0.0
 20
0.0
 30
0.0
  3
*Paper_Space
  1

  0
ENDBLK
  5
1D
100
AcDbEntity
  8
0
100
AcDbBlockEnd
  0
BLOCK
  5
214
100
AcDbEntity
  8
0
100
AcDbBlockBegin
  2
_FILLED
 70
64
 10
0.0
 20
0.0
  3
_FILLED
  1

  0
SOLID
  5
215
100
AcDbEntity
  8
0
  6
BYBLOCK
 62
0
100
AcDbTrace
 10
0.0
 20
0.0
 11
-1.0
 21
0.25
 12
-1.0
 22
-0.25
 13
-1.0
 23
-0.25
  0
ENDBLK
  5
216
100
AcDbEntity
  8
0
  6
BYBLOCK
 62
0
100
AcDbBlockEnd
  0
ENDSEC
  0
SECTION
  2
ENTITIES
  0
LINE
  5
217
100
AcDbEntity
  8
0
100
AcDbLine
 62
7
  6
CONTINUOUS
 10
61.5870890109
 20
133.7486249549
 11
31.2811256262
 21
116.25157328
  0
LINE
  5
218
100
AcDbEntity
  8
0
100
AcDbLine
 62
7
  6
CONTINUOUS
 10
60.8374059371
 20
132.4993095063
 11
62.0917434883
 21
133.2234973063
  0
LINE
  5
219
100
AcDbEntity
  8
0
100
AcDbLine
 62
7
  6
CONTINUOUS
 10
64.6409426278
 20
136.6091885851
 11
61.5881507849
 21
134.8505931075
  0
LINE
  5
21A
100
AcDbEntity
  8
0
100
AcDbLine
 62
7
  6
CONTINUOUS
 10
65.6546715769
 20
134.2360876275
 11
64.7354371581
 21
133.7065521809
  0
LINE
  5
21B
100
AcDbEntity
  8
0
100
AcDbLine
 62
7
  6
CONTINUOUS
 10
50.2477523476
 20
34.0299274283
 11
13.47804664
 21
55.2584466633
  0
LINE
  5
21C
100
AcDbEntity
  8
0
100
AcDbLine
 62
7
  6
CONTINUOUS
 10
13.3238202722
 20
55.5004593267
 11
50.0935259798
 21
34.2719400917
  0
LINE
  5
21D
100
AcDbEntity
  8
0
100
AcDbLine
 62
7
  6
CONTINUOUS
 10
68.8286520289
 20
25.3345842409
 11
52.1435566895
 21
34.9675106006
  0
LINE
  5
21E
100
AcDbEntity
  8
0
100
AcDbLine
 62
7
  6
CONTINUOUS
 10
62.3052670798
 20
133.1002221922
 11
61.3952333813
 21
132.5014285385
  0
LINE
  5
21F
100
AcDbEntity
  8
0
100
AcDbLine
 62
7
  6
CONTINUOUS
 10
62.5050277537
 20
132.9288078284
 11
61.7970706471
 21
132.4629786804
  0
LINE
  5
220
100
AcDbEntity
  8
0
100
AcDbLine
 62
7
  6
CONTINUOUS
 10
66.5025917494
 20
132.0427687794
 11
65.439633431
 21
131.3433521576
  0
LINE
  5
221
100
AcDbEntity
  8
0
100
AcDbLine
 62
7
  6
CONTINUOUS
 10
66.5020240971
 20
131.4536276232
 11
64.7011151661
 21
130.2686464072
  0
LINE
  5
222
100
AcDbEntity
  8
0
100
AcDbLine
 62
7
  6
CONTINUOUS
 10
65.6527365867
 20
132.2278471724
 11
64.7335021679
 21
131.6983117258
  0
LINE
  5
223
100
AcDbEntity
  8
0
100
AcDbLine
 62
7
  6
CONTINUOUS
 10
66.5032136331
 20
132.6881942377
 11
67.4224480519
 21
133.2177296843
  0
LINE
  5
224
100
AcDbEntity
  8
0
100
AcDbLine
 62
7
  6
CONTINUOUS
 10
56.4307054139
 20
35.2425820626
 11
53.7742344351
 21
36.7762616009
  0
LINE
  5
225
100
AcDbEntity
  8
0
100
AcDbLine
 62
7
  6
CONTINUOUS
 10
14.3671814314
 20
59.8998962991
 11
51.1368871391
 21
38.671377064
  0
LINE
  5
226
100
AcDbEntity
  8
0
100
AcDbLine
 62
7
  6
CONTINUOUS
 10
51.5762473656
 20
39.4013645429
 11
14.806541658
 21
60.629883778
  0
LINE
  5
227
100
AcDbEntity
  8
0
100
AcDbLine
 62
7
  6
CONTINUOUS
 10
15.8123429879
 20
61.4050216307
 11
52.5820486955
 21
40.1765023956
  0
LINE
  5
228
100
AcDbEntity
  8
0
100
AcDbLine
 62
7
  6
CONTINUOUS
 10
68.5902186544
 20
128.0233222573
 11
69.1750127523
 21
128.4081112987
  0
LINE
  5
229
100
AcDbEntity
  8
0
100
AcDbLine
 62
7
  6
CONTINUOUS
 10
69.6492119469
 20
130.2073336303
 11
72.7013475507
 21
131.9655510737
  0
LINE
  5
22A
100
AcDbEntity
  8
0
100
AcDbLine
 62
7
  6
CONTINUOUS
 10
70.5671491765
 20
129.3905739284
 11
69.6479147577
 21
128.8610384819
  0
LINE
  5
22B
100
AcDbEntity
  8
0
100
AcDbLine
 62
7
  6
CONTINUOUS
 10
49.7772283762
 20
46.0822624896
 11
45.464639562
 21
48.5720804752
  0
LINE
  5
22C
100
AcDbEntity
  8
0
100
AcDbLine
 62
7
  6
CONTINUOUS
 10
37.2613862411
 20
53.3081238446
 11
32.9487974269
 21
55.7979418302
  0
LINE
  5
22D
100
AcDbEntity
  8
0
100
AcDbLine
 62
7
  6
CONTINUOUS
 10
24.8576685617
 20
60.4692515794
 11
20.4329552918
 21
63.0238031852
  0
LINE
  5
22E
100
AcDbEntity
  8
0
100
AcDbLine
 62
7
  6
CONTINUOUS
 10
52.5820486955
 20
40.1765023956
 11
54.51802652
 21
38.9131914102
  0
LINE
  5
22F
100
AcDbEntity
  8
0
100
AcDbLine
 62
7
  6
CONTINUOUS
 10
20.0251232158
 20
71.551701876
 11
19.169299477
 21
69.799519222
  0
LINE
  5
230
100
AcDbEntity
  8
0
100
AcDbLine
 62
7
  6
CONTINUOUS
 10
70.5660214552
 20
128.2201279071
 11
72.8422267909
 21
129.7175922333
  0
LINE
  5
231
100
AcDbEntity
  8
0
100
AcDbLine
 62
7
  6
CONTINUOUS
 10
73.5986024441
 20
128.5232127836
 11
71.2721436233
 21
126.9926654453
  0
LINE
  5
232
100
AcDbEntity
  8
0
100
AcDbLine
 62
7
  6
CONTINUOUS
 10
74.2037021698
 20
127.5677582713
 11
72.0916178942
 21
126.1780265919
  0
LINE
  5
233
100
AcDbEntity
  8
0
100
AcDbLine
 62
7
  6
CONTINUOUS
 10
71.9390286219
 20
126.0899296603
 11
74.4138769049
 21
127.5187754536
  0
LINE
  5
234
100
AcDbEntity
  8
0
100
AcDbLine
 62
7
  6
CONTINUOUS
 10
73.3532480722
 20
125.2734481513
 11
75.8280963552
 21
126.7022939446
  0
LINE
  5
235
100
AcDbEntity
  8
0
100
AcDbLine
 62
7
  6
CONTINUOUS
 10
30.3417285152
 20
100.2776118565
 11
16.7866017428
 21
92.4516024805
  0
LINE
  5
236
100
AcDbEntity
  8
0
100
AcDbLine
 62
7
  6
CONTINUOUS
 10
75.4746139054
 20
124.0487047239
 11
75.9762462105
 21
124.3383205415
  0
LINE
  5
237
100
AcDbEntity
  8
0
100
AcDbLine
 62
7
  6
CONTINUOUS
 10
67.889255263
 20
40.2145526299
 11
66.4658470069
 21
41.0363391786
  0
LINE
  5
238
100
AcDbEntity
  8
0
100
AcDbLine
 62
7
  6
CONTINUOUS
 10
19.169299477
 20
69.799519222
 11
26.0545290148
 21
65.8244200237
  0
LINE
  5
239
100
AcDbEntity
  8
0
100
AcDbLine
 62
7
  6
CONTINUOUS
 10
31.6851416121
 20
62.573657867
 11
38.602650696
 21
58.5799224857
  0
LINE
  5
23A
100
AcDbEntity
  8
0
100
AcDbLine
 62
7
  6
CONTINUOUS
 10
44.2009837472
 20
55.347796512
 11
51.1184928311
 21
51.3540611306
  0
LINE
  5
23B
100
AcDbEntity
  8
0
100
AcDbLine
 62
7
  6
CONTINUOUS
 10
14.806541658
 20
60.6298837779
 11
14.3671814315
 21
59.8998962992
  0
LINE
  5
23C
100
AcDbEntity
  8
0
100
AcDbLine
 62
7
  6
CONTINUOUS
 10
54.9186712336
 20
54.1306705829
 11
53.7875596635
 21
54.1254007436
  0
LINE
  5
23D
100
AcDbEntity
  8
0
100
AcDbLine
 62
7
  6
CONTINUOUS
 10
16.2383369814
 20
75.8025674034
 11
53.7858639564
 21
54.1249833412
  0
LINE
  5
23E
100
AcDbEntity
  8
0
100
AcDbLine
 62
7
  6
CONTINUOUS
 10
16.0625478081
 20
77.4639221505
 11
53.6100742134
 21
55.7863380855
  0
LINE
  5
23F
100
AcDbEntity
  8
0
100
AcDbLine
 62
7
  6
CONTINUOUS
 10
53.7100698621
 20
56.1228430976
 11
16.1625395554
 21
77.8004249105
  0
LINE
  5
240
100
AcDbEntity
  8
0
100
AcDbLine
 62
7
  6
CONTINUOUS
 10
53.7840721439
 20
56.1655605958
 11
16.2365457386
 21
77.8431446608
  0
LINE
  5
241
100
AcDbEntity
  8
0
100
AcDbLine
 62
7
  6
CONTINUOUS
 10
20.4329552918
 20
63.0238031852
 11
18.5142920987
 21
59.8359859401
  0
LINE
  5
242
100
AcDbEntity
  8
0
100
AcDbLine
 62
7
  6
CONTINUOUS
 10
84.454870757
 20
118.8640683053
 11
86.6195604259
 21
120.1138450082
  0
LINE
  5
243
100
AcDbEntity
  8
0
100
AcDbLine
 62
7
  6
CONTINUOUS
 10
89.672626898
 20
122.157465875
 11
86.6198350551
 21
120.3988703975
  0
LINE
  5
244
100
AcDbEntity
  8
0
100
AcDbLine
 62
7
  6
CONTINUOUS
 10
32.5409653509
 20
64.325840521
 11
31.6851416121
 21
62.573657867
  0
LINE
  5
245
100
AcDbEntity
  8
0
100
AcDbLine
 62
7
  6
CONTINUOUS
 10
69.017469175
 20
127.926094497
 11
69.1673564135
 21
128.1831060371
  0
LINE
  5
246
100
AcDbEntity
  8
0
100
AcDbLine
 62
7
  6
CONTINUOUS
 10
25.0904125425
 20
56.039346923
 11
25.7230496207
 21
57.0904596952
  0
LINE
  5
247
100
AcDbEntity
  8
0
100
AcDbLine
 62
7
  6
CONTINUOUS
 10
87.33695135
 20
118.6484994821
 11
86.4269176515
 21
118.0497058285
  0
LINE
  5
248
100
AcDbEntity
  8
0
100
AcDbLine
 62
7
  6
CONTINUOUS
 10
87.5367120239
 20
118.4770851183
 11
86.8287549174
 21
118.0112559703
  0
LINE
  5
249
100
AcDbEntity
  8
0
100
AcDbLine
 62
7
  6
CONTINUOUS
 10
85.8690902073
 20
118.0475867963
 11
87.1234277585
 21
118.7717745963
  0
LINE
  5
24A
100
AcDbEntity
  8
0
100
AcDbLine
 62
7
  6
CONTINUOUS
 10
16.2365457097
 20
77.8431465148
 11
16.1625192583
 21
77.8004120141
  0
LINE
  5
24B
100
AcDbEntity
  8
0
100
AcDbLine
 62
7
  6
CONTINUOUS
 10
90.6863558471
 20
119.7843649174
 11
89.7671214283
 21
119.2548294709
  0
LINE
  5
24C
100
AcDbEntity
  8
0
100
AcDbLine
 62
7
  6
CONTINUOUS
 10
90.6844208569
 20
117.7761244623
 11
89.7651864381
 21
117.2465890158
  0
LINE
  5
24D
100
AcDbEntity
  8
0
100
AcDbLine
 62
7
  6
CONTINUOUS
 10
91.5348979033
 20
118.2364715277
 11
92.4541323221
 21
118.7660069742
  0
LINE
  5
24E
100
AcDbEntity
  8
0
100
AcDbLine
 62
7
  6
CONTINUOUS
 10
27.1946327523
 20
55.8395488285
 11
26.7453118538
 21
55.0930119096
  0
LINE
  5
24F
100
AcDbEntity
  8
0
100
AcDbLine
 62
7
  6
CONTINUOUS
 10
91.5342760196
 20
117.5910460694
 11
90.4713177012
 21
116.8916294475
  0
LINE
  5
250
100
AcDbEntity
  8
0
100
AcDbLine
 62
7
  6
CONTINUOUS
 10
91.5337083673
 20
117.0019049132
 11
89.7327994363
 21
115.8169236972
  0
LINE
  5
251
100
AcDbEntity
  8
0
100
AcDbLine
 62
7
  6
CONTINUOUS
 10
94.6808962171
 20
115.7556109202
 11
97.7330318209
 21
117.5138283637
  0
LINE
  5
252
100
AcDbEntity
  8
0
100
AcDbLine
 62
7
  6
CONTINUOUS
 10
95.5988334467
 20
114.9388512184
 11
94.6795990279
 21
114.4093157719
  0
LINE
  5
253
100
AcDbEntity
  8
0
100
AcDbLine
 62
7
  6
CONTINUOUS
 10
16.7866017428
 20
92.4516024805
 11
54.3341281481
 21
70.7740184155
  0
LINE
  5
254
100
AcDbEntity
  8
0
100
AcDbLine
 62
7
  6
CONTINUOUS
 10
38.594612985
 20
58.5614047315
 11
38.602650696
 21
58.5799224857
  0
LINE
  5
255
100
AcDbEntity
  8
0
100
AcDbLine
 62
7
  6
CONTINUOUS
 10
38.5559579007
 20
58.5716283692
 11
38.5645407052
 21
58.5901471417
  0
LINE
  5
256
100
AcDbEntity
  8
0
100
AcDbLine
 62
7
  6
CONTINUOUS
 10
32.9487974269
 20
55.7979418302
 11
31.0301342338
 21
52.6101245851
  0
LINE
  5
257
100
AcDbEntity
  8
0
100
AcDbLine
 62
7
  6
CONTINUOUS
 10
93.6219029246
 20
113.5715995473
 11
94.2066970224
 21
113.9563885886
  0
LINE
  5
258
100
AcDbEntity
  8
0
100
AcDbLine
 62
7
  6
CONTINUOUS
 10
95.5977057254
 20
113.7684051973
 11
97.8739110611
 21
115.2658695233
  0
LINE
  5
259
100
AcDbEntity
  8
0
100
AcDbLine
 62
7
  6
CONTINUOUS
 10
98.630286712
 20
114.0714900749
 11
96.3038278938
 21
112.5409427351
  0
LINE
  5
25A
100
AcDbEntity
  8
0
100
AcDbLine
 62
7
  6
CONTINUOUS
 10
99.23538644
 20
113.1160355612
 11
97.1233021644
 21
111.7263038819
  0
LINE
  5
25B
100
AcDbEntity
  8
0
100
AcDbLine
 62
7
  6
CONTINUOUS
 10
96.9707128921
 20
111.6382069503
 11
99.4455611751
 21
113.0670527436
  0
LINE
  5
25C
100
AcDbEntity
  8
0
100
AcDbLine
 62
7
  6
CONTINUOUS
 10
68.8286520315
 20
94.573989215
 11
101.540063911
 21
113.459818936
  0
LINE
  5
25D
100
AcDbEntity
  8
0
100
AcDbLine
 62
7
  6
CONTINUOUS
 10
97.8259724726
 20
108.8659927927
 11
100.3008207555
 21
110.294838586
  0
LINE
  5
25E
100
AcDbEntity
  8
0
100
AcDbLine
 62
7
  6
CONTINUOUS
 10
45.0559365812
 20
57.0981961071
 11
44.2009837472
 21
55.347796512
  0
LINE
  5
25F
100
AcDbEntity
  8
0
100
AcDbLine
 62
7
  6
CONTINUOUS
 10
37.6062546776
 20
48.813485568
 11
38.291495304
 21
49.9519979935
  0
LINE
  5
260
100
AcDbEntity
  8
0
100
AcDbLine
 62
7
  6
CONTINUOUS
 10
99.5802294799
 20
107.6135004902
 11
97.970831459
 21
106.5545316602
  0
LINE
  5
261
100
AcDbEntity
  8
0
100
AcDbLine
 62
7
  6
CONTINUOUS
 10
61.5881507849
 20
134.8505931075
 11
61.586863891
 21
133.5149830835
  0
LINE
  5
262
100
AcDbEntity
  8
0
100
AcDbLine
 62
7
  6
CONTINUOUS
 10
62.5050815391
 20
132.9848618701
 11
62.5049749789
 21
132.873807107
  0
LINE
  5
263
100
AcDbEntity
  8
0
100
AcDbLine
 62
7
  6
CONTINUOUS
 10
39.7350320166
 20
48.6544886106
 11
39.2611539889
 21
47.8671505546
  0
LINE
  5
264
100
AcDbEntity
  8
0
100
AcDbLine
 62
7
  6
CONTINUOUS
 10
100.0033233682
 20
103.581058108
 11
98.2302917562
 21
102.414419907
  0
LINE
  5
265
100
AcDbEntity
  8
0
100
AcDbLine
 62
7
  6
CONTINUOUS
 10
67.8892549205
 20
78.6000277915
 11
30.3417285152
 21
100.2776118565
  0
LINE
  5
266
100
AcDbEntity
  8
0
100
AcDbLine
 62
7
  6
CONTINUOUS
 10
67.889255263
 20
40.2145526281
 11
67.8395500229
 21
41.8294422505
  0
LINE
  5
267
100
AcDbEntity
  8
0
100
AcDbLine
 62
7
  6
CONTINUOUS
 10
64.7335021679
 20
131.6983117258
 11
64.7354371581
 21
133.7065521809
  0
LINE
  5
268
100
AcDbEntity
  8
0
100
AcDbLine
 62
7
  6
CONTINUOUS
 10
65.6546715769
 20
134.2360876275
 11
65.6527365867
 21
132.2278471724
  0
LINE
  5
269
100
AcDbEntity
  8
0
100
AcDbLine
 62
7
  6
CONTINUOUS
 10
66.5032136331
 20
132.6881942377
 11
66.5012764808
 21
130.6777098395
  0
LINE
  5
26A
100
AcDbEntity
  8
0
100
AcDbLine
 62
7
  6
CONTINUOUS
 10
51.1104551201
 20
51.3355433765
 11
51.1184928311
 21
51.3540611306
  0
LINE
  5
26B
100
AcDbEntity
  8
0
100
AcDbLine
 62
7
  6
CONTINUOUS
 10
51.0718000358
 20
51.3457670142
 11
51.0803828403
 21
51.3642857867
  0
LINE
  5
26C
100
AcDbEntity
  8
0
100
AcDbLine
 62
7
  6
CONTINUOUS
 10
45.464639562
 20
48.5720804752
 11
43.5459763689
 21
45.3842632301
  0
LINE
  5
26D
100
AcDbEntity
  8
0
100
AcDbLine
 62
7
  6
CONTINUOUS
 10
100.0622889357
 20
101.0089381515
 11
98.3874376177
 21
99.9069016648
  0
LINE
  5
26E
100
AcDbEntity
  8
0
100
AcDbLine
 62
7
  6
CONTINUOUS
 10
67.8892549205
 20
78.6000277915
 11
54.3341281481
 21
70.7740184155
  0
LINE
  5
26F
100
AcDbEntity
  8
0
100
AcDbLine
 62
7
  6
CONTINUOUS
 10
98.7345866051
 20
94.3675739982
 11
99.33562228
 21
94.7145485285
  0
LINE
  5
270
100
AcDbEntity
  8
0
100
AcDbLine
 62
7
  6
CONTINUOUS
 10
98.860403207
 20
65.5450565508
 11
99.3907157763
 21
65.238871692
  0
LINE
  5
271
100
AcDbEntity
  8
0
100
AcDbLine
 62
7
  6
CONTINUOUS
 10
98.860403207
 20
66.1068665629
 11
100.0271136457
 21
65.4332812156
  0
LINE
  5
272
100
AcDbEntity
  8
0
100
AcDbLine
 62
7
  6
CONTINUOUS
 10
98.860403207
 20
66.524828089
 11
98.9748617385
 21
66.4587435356
  0
LINE
  5
273
100
AcDbEntity
  8
0
100
AcDbLine
 62
7
  6
CONTINUOUS
 10
100.0271018703
 20
67.0662510326
 11
102.7494743121
 21
65.4945241277
  0
LINE
  5
274
100
AcDbEntity
  8
0
100
AcDbLine
 62
7
  6
CONTINUOUS
 10
69.6479147577
 20
128.8610384819
 11
69.6492119469
 21
130.2073336303
  0
LINE
  5
275
100
AcDbEntity
  8
0
100
AcDbLine
 62
7
  6
CONTINUOUS
 10
70.5660214552
 20
128.2201279071
 11
70.5671491765
 21
129.3905739284
  0
LINE
  5
276
100
AcDbEntity
  8
0
100
AcDbLine
 62
7
  6
CONTINUOUS
 10
94.0491534452
 20
113.474371787
 11
94.1990406837
 21
113.731383327
  0
LINE
  5
277
100
AcDbEntity
  8
0
100
AcDbLine
 62
7
  6
CONTINUOUS
 10
50.1220968127
 20
41.587624213
 11
50.8073374391
 21
42.7261366385
  0
LINE
  5
278
100
AcDbEntity
  8
0
100
AcDbLine
 62
7
  6
CONTINUOUS
 10
99.9484294791
 20
93.6716647726
 11
99.4226606394
 21
93.3257137985
  0
LINE
  5
279
100
AcDbEntity
  8
0
100
AcDbLine
 62
7
  6
CONTINUOUS
 10
98.860403207
 20
92.3983175727
 11
99.4591177141
 21
92.7439834912
  0
LINE
  5
27A
100
AcDbEntity
  8
0
100
AcDbLine
 62
7
  6
CONTINUOUS
 10
101.3329314141
 20
93.8258238777
 11
102.7494743121
 21
94.6436604194
  0
LINE
  5
27B
100
AcDbEntity
  8
0
100
AcDbLine
 62
7
  6
CONTINUOUS
 10
72.7013475507
 20
131.9655510737
 11
72.8422267909
 21
129.7175922333
  0
LINE
  5
27C
100
AcDbEntity
  8
0
100
AcDbLine
 62
7
  6
CONTINUOUS
 10
74.2140037728
 20
127.4033793359
 11
74.2037021698
 21
127.5677582713
  0
LINE
  5
27D
100
AcDbEntity
  8
0
100
AcDbLine
 62
7
  6
CONTINUOUS
 10
52.2508741517
 20
41.4286272556
 11
51.776996124
 21
40.6412891996
  0
LINE
  5
27E
100
AcDbEntity
  8
0
100
AcDbLine
 62
7
  6
CONTINUOUS
 10
51.5762473656
 20
39.4013645429
 11
51.1368871391
 21
38.671377064
  0
LINE
  5
27F
100
AcDbEntity
  8
0
100
AcDbLine
 62
7
  6
CONTINUOUS
 10
53.8472560935
 20
36.9027416845
 11
54.2870104091
 21
37.6333839337
  0
LINE
  5
280
100
AcDbEntity
  8
0
100
AcDbLine
 62
7
  6
CONTINUOUS
 10
53.7840721439
 20
56.1655605958
 11
53.7100698621
 21
56.1228430976
  0
LINE
  5
281
100
AcDbEntity
  8
0
100
AcDbLine
 62
7
  6
CONTINUOUS
 10
53.7100789212
 20
55.7962473588
 11
53.7831551579
 21
55.8384303015
  0
LINE
  5
282
100
AcDbEntity
  8
0
100
AcDbLine
 62
7
  6
CONTINUOUS
 10
31.2811256262
 20
116.25157328
 11
68.8286520315
 21
94.573989215
  0
LINE
  5
283
100
AcDbEntity
  8
0
100
AcDbLine
 62
7
  6
CONTINUOUS
 10
75.8280963552
 20
126.7022939446
 11
75.9762462105
 21
124.3383205415
  0
LINE
  5
284
100
AcDbEntity
  8
0
100
AcDbLine
 62
7
  6
CONTINUOUS
 10
86.6198350551
 20
120.3988703975
 11
86.6185481612
 21
119.0632603734
  0
LINE
  5
285
100
AcDbEntity
  8
0
100
AcDbLine
 62
7
  6
CONTINUOUS
 10
87.5367658093
 20
118.5331391601
 11
87.5366592491
 21
118.422084397
  0
LINE
  5
286
100
AcDbEntity
  8
0
100
AcDbLine
 62
7
  6
CONTINUOUS
 10
89.7651864381
 20
117.2465890158
 11
89.7671214283
 21
119.2548294709
  0
LINE
  5
287
100
AcDbEntity
  8
0
100
AcDbLine
 62
7
  6
CONTINUOUS
 10
90.6863558471
 20
119.7843649174
 11
90.6844208569
 21
117.7761244623
  0
LINE
  5
288
100
AcDbEntity
  8
0
100
AcDbLine
 62
7
  6
CONTINUOUS
 10
91.5348979033
 20
118.2364715277
 11
91.532960751
 21
116.2259871295
  0
LINE
  5
289
100
AcDbEntity
  8
0
100
AcDbLine
 62
7
  6
CONTINUOUS
 10
100.0271018703
 20
67.0662510326
 11
98.860403207
 21
66.3926612661
  0
LINE
  5
28A
100
AcDbEntity
  8
0
100
AcDbLine
 62
7
  6
CONTINUOUS
 10
86.4269774293
 20
118.0496148718
 11
86.6748179185
 21
118.0753987181
  0
LINE
  5
28B
100
AcDbEntity
  8
0
100
AcDbLine
 62
7
  6
CONTINUOUS
 10
99.3356226848
 20
94.7145487949
 11
98.6894625975
 21
95.0876010553
  0
LINE
  5
28C
100
AcDbEntity
  8
0
100
AcDbLine
 62
7
  6
CONTINUOUS
 10
101.3329314141
 20
93.8258238777
 11
99.9630942091
 21
94.6166818651
  0
LINE
  5
28D
100
AcDbEntity
  8
0
100
AcDbLine
 62
7
  6
CONTINUOUS
 10
96.7037182509
 20
41.4281651621
 11
96.7037182509
 21
40.3884026901
  0
LINE
  5
28E
100
AcDbEntity
  8
0
100
AcDbLine
 62
7
  6
CONTINUOUS
 10
94.6795990279
 20
114.4093157719
 11
94.6808962171
 21
115.7556109202
  0
LINE
  5
28F
100
AcDbEntity
  8
0
100
AcDbLine
 62
7
  6
CONTINUOUS
 10
95.5977057254
 20
113.7684051973
 11
95.5988334467
 21
114.9388512184
  0
LINE
  5
290
100
AcDbEntity
  8
0
100
AcDbLine
 62
7
  6
CONTINUOUS
 10
98.860403207
 20
64.7596846505
 11
100.0271136457
 21
65.4332812156
  0
LINE
  5
291
100
AcDbEntity
  8
0
100
AcDbLine
 62
7
  6
CONTINUOUS
 10
102.7494743121
 20
65.4945241277
 11
98.860403207
 21
63.2491812812
  0
LINE
  5
292
100
AcDbEntity
  8
0
100
AcDbLine
 62
7
  6
CONTINUOUS
 10
97.8259724726
 20
108.8659927927
 11
98.7345866051
 21
94.3675739982
  0
LINE
  5
293
100
AcDbEntity
  8
0
100
AcDbLine
 62
7
  6
CONTINUOUS
 10
97.7330318209
 20
117.5138283637
 11
97.8739110611
 21
115.2658695233
  0
LINE
  5
294
100
AcDbEntity
  8
0
100
AcDbLine
 62
7
  6
CONTINUOUS
 10
99.33562228
 20
94.7145485285
 11
99.4591177141
 21
92.7439834912
  0
LINE
  5
295
100
AcDbEntity
  8
0
100
AcDbLine
 62
7
  6
CONTINUOUS
 10
99.5802294799
 20
107.6135004902
 11
99.4432203301
 21
109.799705705
  0
LINE
  5
296
100
AcDbEntity
  8
0
100
AcDbLine
 62
7
  6
CONTINUOUS
 10
99.245688043
 20
112.9516566258
 11
99.23538644
 21
113.1160355612
  0
LINE
  5
297
100
AcDbEntity
  8
0
100
AcDbLine
 62
7
  6
CONTINUOUS
 10
100.0622889357
 20
101.0089381515
 11
100.0033233682
 21
103.581058108
  0
LINE
  5
298
100
AcDbEntity
  8
0
100
AcDbLine
 62
7
  6
CONTINUOUS
 10
98.860403207
 20
63.2491812812
 11
98.860403207
 21
92.3983175727
  0
LINE
  5
299
100
AcDbEntity
  8
0
100
AcDbLine
 62
7
  6
CONTINUOUS
 10
99.0371609137
 20
42.7753708699
 11
99.0371609137
 21
41.7356083978
  0
LINE
  5
29A
100
AcDbEntity
  8
0
100
AcDbLine
 62
7
  6
CONTINUOUS
 10
99.3907157763
 20
65.238871692
 11
99.3907157763
 21
65.0658589276
  0
LINE
  5
29B
100
AcDbEntity
  8
0
100
AcDbLine
 62
7
  6
CONTINUOUS
 10
99.9484294791
 20
93.6716647726
 11
100.0622889357
 21
101.0089381515
  0
LINE
  5
29C
100
AcDbEntity
  8
0
100
AcDbLine
 62
7
  6
CONTINUOUS
 10
56.4307054139
 20
35.2425820626
 11
67.8395500229
 21
41.8294422505
  0
LINE
  5
29D
100
AcDbEntity
  8
0
100
AcDbLine
 62
7
  6
CONTINUOUS
 10
100.0033233682
 20
103.581058108
 11
99.5802294799
 21
107.6135004902
  0
LINE
  5
29E
100
AcDbEntity
  8
0
100
AcDbLine
 62
7
  6
CONTINUOUS
 10
101.3329314141
 20
93.8258238777
 11
100.3008207555
 21
110.294838586
  0
LINE
  5
29F
100
AcDbEntity
  8
0
100
AcDbLine
 62
7
  6
CONTINUOUS
 10
102.7494743121
 20
44.918663216
 11
102.7494743121
 21
65.4945241277
  0
LINE
  5
2A0
100
AcDbEntity
  8
0
100
AcDbLine
 62
7
  6
CONTINUOUS
 10
102.7494743121
 20
94.6436604194
 11
102.7494743121
 21
106.2379947429
  0
LINE
  5
2A1
100
AcDbEntity
  8
0
100
AcDbLine
 62
7
  6
CONTINUOUS
 10
96.9707128921
 20
111.6382069503
 11
85.8690902073
 21
118.0475867963
  0
LINE
  5
2A2
100
AcDbEntity
  8
0
100
AcDbLine
 62
7
  6
CONTINUOUS
 10
84.454870757
 20
118.8640683053
 11
73.3532480722
 21
125.2734481513
  0
LINE
  5
2A3
100
AcDbEntity
  8
0
100
AcDbLine
 62
7
  6
CONTINUOUS
 10
60.8374059371
 20
132.4993095063
 11
71.9390286219
 21
126.0899296603
  0
LINE
  5
2A4
100
AcDbEntity
  8
0
100
AcDbLine
 62
7
  6
CONTINUOUS
 10
61.6431336483
 20
132.5271214282
 11
63.9020086505
 21
131.2229882102
  0
LINE
  5
2A5
100
AcDbEntity
  8
0
100
AcDbLine
 62
7
  6
CONTINUOUS
 10
94.1990406837
 20
113.731383327
 11
96.4579184524
 21
112.4272498872
  0
LINE
  5
2A6
100
AcDbEntity
  8
0
100
AcDbLine
 62
7
  6
CONTINUOUS
 10
86.6748179185
 20
118.0753987181
 11
88.9336929207
 21
116.7712655001
  0
LINE
  5
2A7
100
AcDbEntity
  8
0
100
AcDbLine
 62
7
  6
CONTINUOUS
 10
69.1673564135
 20
128.1831060371
 11
71.4262341822
 21
126.8789725972
  0
LINE
  5
2A8
100
AcDbEntity
  8
0
100
AcDbLine
 62
7
  6
CONTINUOUS
 10
61.586863891
 20
133.5149830834
 11
64.7335021679
 21
131.6983117258
  0
LINE
  5
2A9
100
AcDbEntity
  8
0
100
AcDbLine
 62
7
  6
CONTINUOUS
 10
66.5012764808
 20
130.6777098395
 11
69.6479147577
 21
128.8610384819
  0
LINE
  5
2AA
100
AcDbEntity
  8
0
100
AcDbLine
 62
7
  6
CONTINUOUS
 10
86.6185481612
 20
119.0632603734
 11
89.7651864381
 21
117.2465890158
  0
LINE
  5
2AB
100
AcDbEntity
  8
0
100
AcDbLine
 62
7
  6
CONTINUOUS
 10
91.532960751
 20
116.2259871295
 11
94.6795990279
 21
114.4093157719
  0
LINE
  5
2AC
100
AcDbEntity
  8
0
100
AcDbLine
 62
7
  6
CONTINUOUS
 10
64.7792073424
 20
131.7246407117
 11
65.439633431
 21
131.3433521576
  0
LINE
  5
2AD
100
AcDbEntity
  8
0
100
AcDbLine
 62
7
  6
CONTINUOUS
 10
89.8108916126
 20
117.2729180016
 11
90.4713177012
 21
116.8916294475
  0
LINE
  5
2AE
100
AcDbEntity
  8
0
100
AcDbLine
 62
7
  6
CONTINUOUS
 10
61.3952931591
 20
132.5013375819
 11
61.6431336483
 21
132.5271214282
  0
LINE
  5
2AF
100
AcDbEntity
  8
0
100
AcDbLine
 62
7
  6
CONTINUOUS
 10
99.4455611751
 20
113.0670527436
 11
99.2087177884
 21
113.2037912432
  0
LINE
  5
2B0
100
AcDbEntity
  8
0
100
AcDbLine
 62
7
  6
CONTINUOUS
 10
86.6830840105
 20
120.435305678
 11
75.8280963552
 21
126.7022939446
  0
LINE
  5
2B1
100
AcDbEntity
  8
0
100
AcDbLine
 62
7
  6
CONTINUOUS
 10
74.1770335184
 20
127.6555139531
 11
74.4138769049
 21
127.5187754536
  0
LINE
  5
2B2
100
AcDbEntity
  8
0
100
AcDbLine
 62
7
  6
CONTINUOUS
 10
101.540063911
 20
113.459818936
 11
97.8537179525
 21
115.5880836197
  0
LINE
  5
2B3
100
AcDbEntity
  8
0
100
AcDbLine
 62
7
  6
CONTINUOUS
 10
88.0720232487
 20
121.2354199302
 11
72.8220336823
 21
130.0398063297
  0
LINE
  5
2B4
100
AcDbEntity
  8
0
100
AcDbLine
 62
7
  6
CONTINUOUS
 10
101.540063911
 20
113.459818936
 11
102.7494743121
 21
106.2379947429
  0
LINE
  5
2B5
100
AcDbEntity
  8
0
100
AcDbLine
 62
7
  6
CONTINUOUS
 10
102.7494743121
 20
44.918663216
 11
68.8286520289
 21
25.3345842409
  0
LINE
  5
2B6
100
AcDbEntity
  8
0
100
AcDbLine
 62
7
  6
CONTINUOUS
 10
96.7037182509
 20
40.3884026901
 11
99.0371609137
 21
41.7356083978
  0
ARC
  5
2B7
100
AcDbEntity
  8
0
100
AcDbCircle
 62
7
  6
CONTINUOUS
 10
218.8582559497
 20
77.1684541474
 40
202.6228245085
100
AcDbArc
 50
179.999830719
 51
180.3861175203
  0
ARC
  5
2B8
100
AcDbEntity
  8
0
100
AcDbCircle
 62
7
  6
CONTINUOUS
 10
256.0652383313
 20
55.4898468526
 40
202.2822804904
100
AcDbArc
 50
179.9995406076
 51
180.3864777284
  0
ARC
  5
2B9
100
AcDbEntity
  8
0
100
AcDbCircle
 62
7
  6
CONTINUOUS
 10
160.4026639884
 20
77.2845145942
 40
143.039023486
100
AcDbArc
 50
180.8592144912
 51
183.0199078525
  0
ARC
  5
2BA
100
AcDbEntity
  8
0
100
AcDbCircle
 62
7
  6
CONTINUOUS
 10
196.4101692089
 20
55.5621211608
 40
141.4987386871
100
AcDbArc
 50
180.5796339703
 51
183.2174479833
  0
ARC
  5
2BB
100
AcDbEntity
  8
0
100
AcDbCircle
 62
7
  6
CONTINUOUS
 10
154.6237891669
 20
77.0222853549
 40
137.2543654459
100
AcDbArc
 50
183.0376838007
 51
183.2261436597
  0
ARC
  5
2BC
100
AcDbEntity
  8
0
100
AcDbCircle
 62
7
  6
CONTINUOUS
 10
140.0538689323
 20
75.752407615
 40
122.6266027546
100
AcDbArc
 50
186.5719401369
 51
187.4397574415
  0
ARC
  5
2BD
100
AcDbEntity
  8
0
100
AcDbCircle
 62
7
  6
CONTINUOUS
 10
176.662309492
 20
54.0013216554
 40
121.6861903845
100
AcDbArc
 50
184.8568329088
 51
188.8678899739
  0
ARC
  5
2BE
100
AcDbEntity
  8
0
100
AcDbCircle
 62
7
  6
CONTINUOUS
 10
57.0765795649
 20
117.3441978063
 40
18.9474538931
100
AcDbArc
 50
56.9049568734
 51
59.9885237671
  0
ARC
  5
2BF
100
AcDbEntity
  8
0
100
AcDbCircle
 62
7
  6
CONTINUOUS
 10
82.108263835
 20
102.8924750962
 40
18.9474538932
100
AcDbArc
 50
56.9049568734
 51
59.9885237671
  0
ARC
  5
2C0
100
AcDbEntity
  8
0
100
AcDbCircle
 62
7
  6
CONTINUOUS
 10
57.9504102748
 20
118.8753146925
 40
17.1845566533
100
AcDbArc
 50
59.9580098327
 51
63.3637504977
  0
ARC
  5
2C1
100
AcDbEntity
  8
0
100
AcDbCircle
 62
7
  6
CONTINUOUS
 10
82.982094545
 20
104.4235919825
 40
17.1845566533
100
AcDbArc
 50
59.9580098327
 51
63.3637504977
  0
ARC
  5
2C2
100
AcDbEntity
  8
0
100
AcDbCircle
 62
7
  6
CONTINUOUS
 10
46.5018613573
 20
55.6948067427
 40
16.5511867083
100
AcDbArc
 50
148.2459561618
 51
155.1636086744
  0
ARC
  5
2C3
100
AcDbEntity
  8
0
100
AcDbCircle
 62
7
  6
CONTINUOUS
 10
58.9896481273
 20
48.4842333009
 40
16.5192852723
100
AcDbArc
 50
148.2398334879
 51
155.1431089644
  0
ARC
  5
2C4
100
AcDbEntity
  8
0
100
AcDbCircle
 62
7
  6
CONTINUOUS
 10
41.0180999908
 20
58.8590977787
 40
16.5070445554
100
AcDbArc
 50
148.236184804
 51
155.0614716451
  0
ARC
  5
2C5
100
AcDbEntity
  8
0
100
AcDbCircle
 62
7
  6
CONTINUOUS
 10
65.9937232839
 20
44.4378862459
 40
16.4433188191
100
AcDbArc
 50
148.2237447036
 51
155.0878085658
  0
ARC
  5
2C6
100
AcDbEntity
  8
0
100
AcDbCircle
 62
7
  6
CONTINUOUS
 10
53.4778811489
 20
51.6637476009
 40
16.4433188192
100
AcDbArc
 50
148.2237447036
 51
155.0878085658
  0
ARC
  5
2C7
100
AcDbEntity
  8
0
100
AcDbCircle
 62
7
  6
CONTINUOUS
 10
40.6654615476
 20
59.0272756967
 40
16.1163748404
100
AcDbArc
 50
155.0750119064
 51
155.2162288513
  0
ARC
  5
2C8
100
AcDbEntity
  8
0
100
AcDbCircle
 62
7
  6
CONTINUOUS
 10
16.4291790539
 20
58.4604691227
 40
14.1425466634
100
AcDbArc
 50
14.7958100522
 51
16.3716398406
  0
ARC
  5
2C9
100
AcDbEntity
  8
0
100
AcDbCircle
 62
7
  6
CONTINUOUS
 10
100.3098095811
 20
53.9918836873
 40
14.0733290277
100
AcDbArc
 50
250.8162244531
 51
255.1531729937
  0
ARC
  5
2CA
100
AcDbEntity
  8
0
100
AcDbCircle
 62
7
  6
CONTINUOUS
 10
29.0601159143
 20
51.2667952385
 40
14.0230588714
100
AcDbArc
 50
14.7889297417
 51
16.3789996051
  0
ARC
  5
2CB
100
AcDbEntity
  8
0
100
AcDbCircle
 62
7
  6
CONTINUOUS
 10
40.4893832747
 20
59.1645278089
 40
10.8
100
AcDbArc
 50
265.2378035078
 51
267.164978664
  0
ARC
  5
2CC
100
AcDbEntity
  8
0
100
AcDbCircle
 62
7
  6
CONTINUOUS
 10
40.4893832747
 20
59.1645278089
 40
10.8
100
AcDbArc
 50
161.8302285456
 51
205.4588313486
  0
ARC
  5
2CD
100
AcDbEntity
  8
0
100
AcDbCircle
 62
7
  6
CONTINUOUS
 10
27.9735411396
 20
66.3903891639
 40
10.8
100
AcDbArc
 50
263.3784446543
 51
267.1683788124
  0
ARC
  5
2CE
100
AcDbEntity
  8
0
100
AcDbCircle
 62
7
  6
CONTINUOUS
 10
53.0052254098
 20
51.9386664539
 40
10.8
100
AcDbArc
 50
161.8323192528
 51
205.4614140754
  0
ARC
  5
2CF
100
AcDbEntity
  8
0
100
AcDbCircle
 62
7
  6
CONTINUOUS
 10
53.0052254098
 20
51.9386664539
 40
10.8
100
AcDbArc
 50
265.2378035078
 51
267.164978664
  0
ARC
  5
2D0
100
AcDbEntity
  8
0
100
AcDbCircle
 62
7
  6
CONTINUOUS
 10
27.9735411396
 20
66.3903891639
 40
10.8
100
AcDbArc
 50
161.8331327721
 51
205.4599201604
  0
ARC
  5
2D1
100
AcDbEntity
  8
0
100
AcDbCircle
 62
7
  6
CONTINUOUS
 10
52.3936057209
 20
49.1310082784
 40
7.9316471729
100
AcDbArc
 50
268.0974255662
 51
273.3582473407
  0
ARC
  5
2D2
100
AcDbEntity
  8
0
100
AcDbCircle
 62
7
  6
CONTINUOUS
 10
39.8777635858
 20
56.3568696334
 40
7.9316471729
100
AcDbArc
 50
268.0974255662
 51
273.3582473407
  0
ARC
  5
2D3
100
AcDbEntity
  8
0
100
AcDbCircle
 62
7
  6
CONTINUOUS
 10
27.3616421863
 20
63.531269045
 40
7.8802906481
100
AcDbArc
 50
267.9878264189
 51
273.3821926759
  0
SPLINE
  5
2D4
100
AcDbEntity
  8
0
100
AcDbSpline
 62
7
  6
CONTINUOUS
 70
0
 71
3
 72
9
 73
5
 74
0
 42
0.0000001
 43
0.0000001
 44
0.0000000001
 40
0.0
 40
0.0
 40
0.0
 40
0.0
 40
0.4717567417
 40
1.0
 40
1.0
 40
1.0
 40
1.0
 10
60.8891597381
 20
37.8973797293
 30
0.0
 10
61.0394475755
 20
37.8746566643
 30
0.0
 10
61.3524029343
 20
37.7873244215
 30
0.0
 10
61.6432770606
 20
37.6454231783
 30
0.0
 10
61.7906714592
 20
37.5603269077
 30
0.0
  0
SPLINE
  5
2D5
100
AcDbEntity
  8
0
100
AcDbSpline
 62
7
  6
CONTINUOUS
 70
0
 71
3
 72
9
 73
5
 74
0
 42
0.0000001
 43
0.0000001
 44
0.0000000001
 40
0.0
 40
0.0
 40
0.0
 40
0.0
 40
0.25607925
 40
1.0
 40
1.0
 40
1.0
 40
1.0
 10
31.2811256262
 20
116.25157328
 30
0.0
 10
31.1259937531
 20
114.8941128206
 30
0.0
 10
30.590467967
 20
109.5855440406
 30
0.0
 10
30.3417305154
 20
104.2467579513
 30
0.0
 10
30.3417285152
 20
100.2776118565
 30
0.0
  0
SPLINE
  5
2D6
100
AcDbEntity
  8
0
100
AcDbSpline
 62
7
  6
CONTINUOUS
 70
0
 71
3
 72
9
 73
5
 74
0
 42
0.0000001
 43
0.0000001
 44
0.0000000001
 40
0.0
 40
0.0
 40
0.0
 40
0.0
 40
0.2536295987
 40
1.0
 40
1.0
 40
1.0
 40
1.0
 10
16.7866017428
 20
92.4516024805
 30
0.0
 10
16.6993296898
 20
91.2186364005
 30
0.0
 10
16.3944572852
 20
86.3546844237
 30
0.0
 10
16.2485596224
 20
81.4805246461
 30
0.0
 10
16.2365457097
 20
77.8431465148
 30
0.0
  0
SPLINE
  5
2D7
100
AcDbEntity
  8
0
100
AcDbSpline
 62
7
  6
CONTINUOUS
 70
0
 71
3
 72
11
 73
7
 74
0
 42
0.0000001
 43
0.0000001
 44
0.0000000001
 40
0.0
 40
0.0
 40
0.0
 40
0.0
 40
0.2370529294
 40
0.5000092319
 40
0.7629563175
 40
1.0
 40
1.0
 40
1.0
 40
1.0
 10
16.1625192583
 20
77.8004120141
 30
0.0
 10
16.142461192
 20
77.7888307991
 30
0.0
 10
16.104543903
 20
77.756786026
 30
0.0
 10
16.060057753
 20
77.6962806678
 30
0.0
 10
16.0299094723
 20
77.6274986845
 30
0.0
 10
16.021125344
 20
77.5786398791
 30
0.0
 10
16.021125344
 20
77.5554793801
 30
0.0
  0
SPLINE
  5
2D8
100
AcDbEntity
  8
0
100
AcDbSpline
 62
7
  6
CONTINUOUS
 70
0
 71
3
 72
9
 73
5
 74
0
 42
0.0000001
 43
0.0000001
 44
0.0000000001
 40
0.0
 40
0.0
 40
0.0
 40
0.0
 40
0.5500412599
 40
1.0
 40
1.0
 40
1.0
 40
1.0
 10
16.021125344
 20
77.5554793801
 30
0.0
 10
16.021125344
 20
77.5364103683
 30
0.0
 10
16.0258851188
 20
77.5009883912
 30
0.0
 10
16.0490291517
 20
77.471705776
 30
0.0
 10
16.0625386617
 20
77.4639062976
 30
0.0
  0
LINE
  5
2D9
100
AcDbEntity
  8
0
100
AcDbLine
 62
7
  6
CONTINUOUS
 10
16.2355248091
 20
77.3640479337
 11
16.235431442
 21
77.1690527988
  0
SPLINE
  5
2DA
100
AcDbEntity
  8
0
100
AcDbSpline
 62
7
  6
CONTINUOUS
 70
0
 71
3
 72
11
 73
7
 74
0
 42
0.0000001
 43
0.0000001
 44
0.0000000001
 40
0.0
 40
0.0
 40
0.0
 40
0.0
 40
0.2278041495
 40
0.4645486446
 40
0.7201852825
 40
1.0
 40
1.0
 40
1.0
 40
1.0
 10
60.3430520609
 20
94.9495268698
 30
0.0
 10
60.4726312012
 20
95.0243651787
 30
0.0
 10
60.7628708842
 20
95.1360068537
 30
0.0
 10
61.2414371441
 20
95.165003085
 30
0.0
 10
61.7426205827
 20
95.0587396152
 30
0.0
 10
62.0642882954
 20
94.9095844133
 30
0.0
 10
62.2234665938
 20
94.817684859
 30
0.0
  0
SPLINE
  5
2DB
100
AcDbEntity
  8
0
100
AcDbSpline
 62
7
  6
CONTINUOUS
 70
0
 71
3
 72
11
 73
7
 74
0
 42
0.0000001
 43
0.0000001
 44
0.0000000001
 40
0.0
 40
0.0
 40
0.0
 40
0.0
 40
0.227804148
 40
0.4645486344
 40
0.7201852742
 40
1.0
 40
1.0
 40
1.0
 40
1.0
 10
47.8272099342
 20
102.1753882331
 30
0.0
 10
47.9567890743
 20
102.2502265389
 30
0.0
 10
48.2470287535
 20
102.3618681973
 30
0.0
 10
48.7255950019
 20
102.3908644455
 30
0.0
 10
49.2267784431
 20
102.2846009827
 30
0.0
 10
49.5484461564
 20
102.1354457706
 30
0.0
 10
49.7076244587
 20
102.043546214
 30
0.0
  0
SPLINE
  5
2DC
100
AcDbEntity
  8
0
100
AcDbSpline
 62
7
  6
CONTINUOUS
 70
0
 71
3
 72
11
 73
7
 74
0
 42
0.0000001
 43
0.0000001
 44
0.0000000001
 40
0.0
 40
0.0
 40
0.0
 40
0.0
 40
0.2277920023
 40
0.464528622
 40
0.7201752575
 40
1.0
 40
1.0
 40
1.0
 40
1.0
 10
35.311367647
 20
109.4012488543
 30
0.0
 10
35.4409397117
 20
109.4760834674
 30
0.0
 10
35.7311641564
 20
109.587726222
 30
0.0
 10
36.2097239926
 20
109.6167273165
 30
0.0
 10
36.7109158988
 20
109.5104658843
 30
0.0
 10
37.0325983185
 20
109.3613104181
 30
0.0
 10
37.1917823236
 20
109.269407569
 30
0.0
  0
SPLINE
  5
2DD
100
AcDbEntity
  8
0
100
AcDbSpline
 62
7
  6
CONTINUOUS
 70
0
 71
3
 72
9
 73
5
 74
0
 42
0.0000001
 43
0.0000001
 44
0.0000000001
 40
0.0
 40
0.0
 40
0.0
 40
0.0
 40
0.550054588
 40
1.0
 40
1.0
 40
1.0
 40
1.0
 10
53.7100990748
 20
55.7962578211
 30
0.0
 10
53.6935806712
 20
55.7867203667
 30
0.0
 10
53.6605197781
 20
55.7731225129
 30
0.0
 10
53.623577183
 20
55.7785206756
 30
0.0
 10
53.6100649719
 20
55.7863220943
 30
0.0
  0
SPLINE
  5
2DE
100
AcDbEntity
  8
0
100
AcDbSpline
 62
7
  6
CONTINUOUS
 70
0
 71
3
 72
19
 73
15
 74
0
 42
0.0000001
 43
0.0000001
 44
0.0000000001
 40
0.0
 40
0.0
 40
0.0
 40
0.0
 40
0.048918775
 40
0.0968658504
 40
0.1447271356
 40
0.1934756958
 40
0.244012744
 40
0.2970570263
 40
0.3531394612
 40
0.4125903825
 40
0.5419145331
 40
0.6846771698
 40
0.8385371525
 40
1.0
 40
1.0
 40
1.0
 40
1.0
 10
52.8582330397
 20
41.2129814832
 30
0.0
 10
52.6692601522
 20
41.2453599439
 30
0.0
 10
52.2993863984
 20
41.3397757823
 30
0.0
 10
51.7794409497
 20
41.5734696643
 30
0.0
 10
51.3095455303
 20
41.8953305172
 30
0.0
 10
50.8954389023
 20
42.3006885975
 30
0.0
 10
50.5415893363
 20
42.7846223444
 30
0.0
 10
50.2508985035
 20
43.3411576327
 30
0.0
 10
50.0262145218
 20
43.9644107368
 30
0.0
 10
49.8107248263
 20
44.9015391718
 30
0.0
 10
49.7290223437
 20
46.2073434453
 30
0.0
 10
49.9076519897
 20
47.8733495015
 30
0.0
 10
50.3517722686
 20
49.6183305924
 30
0.0
 10
50.8060627293
 20
50.7714468252
 30
0.0
 10
51.0718000358
 20
51.3457670142
 30
0.0
  0
SPLINE
  5
2DF
100
AcDbEntity
  8
0
100
AcDbSpline
 62
7
  6
CONTINUOUS
 70
0
 71
3
 72
9
 73
5
 74
0
 42
0.0000001
 43
0.0000001
 44
0.0000000001
 40
0.0
 40
0.0
 40
0.0
 40
0.0
 40
0.5238656579
 40
1.0
 40
1.0
 40
1.0
 40
1.0
 10
52.0150770343
 20
53.0969960625
 30
0.0
 10
51.2670300629
 20
53.4743612848
 30
0.0
 10
49.847413107
 20
54.2113254692
 30
0.0
 10
48.4475508177
 20
54.9854248179
 30
0.0
 10
47.7880662177
 20
55.3661698156
 30
0.0
  0
SPLINE
  5
2E0
100
AcDbEntity
  8
0
100
AcDbSpline
 62
7
  6
CONTINUOUS
 70
0
 71
3
 72
10
 73
6
 74
0
 42
0.0000001
 43
0.0000001
 44
0.0000000001
 40
0.0
 40
0.0
 40
0.0
 40
0.0
 40
0.5697572473
 40
0.8040487327
 40
1.0
 40
1.0
 40
1.0
 40
1.0
 10
47.7880662177
 20
55.3661698156
 30
0.0
 10
47.2330392222
 20
55.6866075516
 30
0.0
 10
46.4561048615
 20
56.1504326035
 30
0.0
 10
45.5150307986
 20
56.7668047967
 30
0.0
 10
45.1199367723
 20
57.0466576735
 30
0.0
 10
44.9439797829
 20
57.1794036077
 30
0.0
  0
SPLINE
  5
2E1
100
AcDbEntity
  8
0
100
AcDbSpline
 62
7
  6
CONTINUOUS
 70
0
 71
3
 72
11
 73
7
 74
0
 42
0.0000001
 43
0.0000001
 44
0.0000000001
 40
0.0
 40
0.0
 40
0.0
 40
0.0
 40
0.2177660671
 40
0.4518634576
 40
0.7117386628
 40
1.0
 40
1.0
 40
1.0
 40
1.0
 10
87.3449463827
 20
117.9724470468
 30
0.0
 10
87.3757518791
 20
117.9926975825
 30
0.0
 10
87.4328927689
 20
118.0458225931
 30
0.0
 10
87.4934018372
 20
118.1516854746
 30
0.0
 10
87.5293477912
 20
118.2802220123
 30
0.0
 10
87.536607548
 20
118.3732821575
 30
0.0
 10
87.5366545676
 20
118.4220817001
 30
0.0
  0
SPLINE
  5
2E2
100
AcDbEntity
  8
0
100
AcDbSpline
 62
7
  6
CONTINUOUS
 70
0
 71
3
 72
9
 73
5
 74
0
 42
0.0000001
 43
0.0000001
 44
0.0000000001
 40
0.0
 40
0.0
 40
0.0
 40
0.0
 40
0.2250292617
 40
1.0
 40
1.0
 40
1.0
 40
1.0
 10
54.51802652
 20
38.9131914102
 30
0.0
 10
54.5323343203
 20
38.8774378121
 30
0.0
 10
54.5822206496
 20
38.7130367284
 30
0.0
 10
54.582207724
 20
38.5368154496
 30
0.0
 10
54.5658152975
 20
38.4052085351
 30
0.0
  0
SPLINE
  5
2E3
100
AcDbEntity
  8
0
100
AcDbSpline
 62
7
  6
CONTINUOUS
 70
0
 71
3
 72
9
 73
5
 74
0
 42
0.0000001
 43
0.0000001
 44
0.0000000001
 40
0.0
 40
0.0
 40
0.0
 40
0.0
 40
0.4834427759
 40
1.0
 40
1.0
 40
1.0
 40
1.0
 10
54.5658152975
 20
38.4052085351
 30
0.0
 10
54.5494144436
 20
38.2735339613
 30
0.0
 10
54.4803888586
 20
38.0052374379
 30
0.0
 10
54.3608910014
 20
37.7561816382
 30
0.0
 10
54.287798587
 20
37.6346934743
 30
0.0
  0
SPLINE
  5
2E4
100
AcDbEntity
  8
0
100
AcDbSpline
 62
7
  6
CONTINUOUS
 70
0
 71
3
 72
11
 73
7
 74
0
 42
0.0000001
 43
0.0000001
 44
0.0000000001
 40
0.0
 40
0.0
 40
0.0
 40
0.0
 40
0.2731303197
 40
0.5357960995
 40
0.7799885908
 40
1.0
 40
1.0
 40
1.0
 40
1.0
 10
53.8472560935
 20
36.9027416845
 30
0.0
 10
53.6540154786
 20
36.5816765978
 30
0.0
 10
53.2337780531
 20
35.9755075245
 30
0.0
 10
52.5088434416
 20
35.1834976653
 30
0.0
 10
51.7299622368
 20
34.5544169602
 30
0.0
 10
51.1662637975
 20
34.246646148
 30
0.0
 10
50.8858448555
 20
34.1349272353
 30
0.0
  0
SPLINE
  5
2E5
100
AcDbEntity
  8
0
100
AcDbSpline
 62
7
  6
CONTINUOUS
 70
0
 71
3
 72
9
 73
5
 74
0
 42
0.0000001
 43
0.0000001
 44
0.0000000001
 40
0.0
 40
0.0
 40
0.0
 40
0.0
 40
0.2560811817
 40
1.0
 40
1.0
 40
1.0
 40
1.0
 10
50.8858448555
 20
34.1349272353
 30
0.0
 10
50.8535365716
 20
34.1220556142
 30
0.0
 10
50.7266717288
 20
34.073581252
 30
0.0
 10
50.5969639677
 20
34.0324459536
 30
0.0
 10
50.4992620842
 20
34.0067271464
 30
0.0
  0
SPLINE
  5
2E6
100
AcDbEntity
  8
0
100
AcDbSpline
 62
7
  6
CONTINUOUS
 70
0
 71
3
 72
9
 73
5
 74
0
 42
0.0000001
 43
0.0000001
 44
0.0000000001
 40
0.0
 40
0.0
 40
0.0
 40
0.0
 40
0.5270167299
 40
1.0
 40
1.0
 40
1.0
 40
1.0
 10
50.4992620842
 20
34.0067271464
 30
0.0
 10
50.4555048105
 20
33.9952085877
 30
0.0
 10
50.3683673029
 20
33.9846383201
 30
0.0
 10
50.2828992126
 20
34.009585441
 30
0.0
 10
50.2477153735
 20
34.0298628289
 30
0.0
  0
SPLINE
  5
2E7
100
AcDbEntity
  8
0
100
AcDbSpline
 62
7
  6
CONTINUOUS
 70
0
 71
3
 72
11
 73
7
 74
0
 42
0.0000001
 43
0.0000001
 44
0.0000000001
 40
0.0
 40
0.0
 40
0.0
 40
0.0
 40
0.2037690862
 40
0.4430901951
 40
0.7126731016
 40
1.0
 40
1.0
 40
1.0
 40
1.0
 10
15.8123429879
 20
61.4050216307
 30
0.0
 10
15.7234195688
 20
61.3997982109
 30
0.0
 10
15.5325031848
 20
61.3460840202
 30
0.0
 10
15.2661686822
 20
61.1796023657
 30
0.0
 10
15.0144052083
 20
60.9361577439
 30
0.0
 10
14.8713123785
 20
60.737498924
 30
0.0
 10
14.806541658
 20
60.6298837779
 30
0.0
  0
SPLINE
  5
2E8
100
AcDbEntity
  8
0
100
AcDbSpline
 62
7
  6
CONTINUOUS
 70
0
 71
3
 72
11
 73
7
 74
0
 42
0.0000001
 43
0.0000001
 44
0.0000000001
 40
0.0
 40
0.0
 40
0.0
 40
0.0
 40
0.2748403475
 40
0.5394197829
 40
0.7834909424
 40
1.0
 40
1.0
 40
1.0
 40
1.0
 10
14.3671814315
 20
59.8998962992
 30
0.0
 10
14.1493811699
 20
59.5380258925
 30
0.0
 10
13.7728291913
 20
58.7956376702
 30
0.0
 10
13.3927378092
 20
57.6480030748
 30
0.0
 10
13.2220584082
 20
56.541242595
 30
0.0
 10
13.2592812069
 20
55.8263191194
 30
0.0
 10
13.3239229277
 20
55.4999401118
 30
0.0
  0
SPLINE
  5
2E9
100
AcDbEntity
  8
0
100
AcDbSpline
 62
7
  6
CONTINUOUS
 70
0
 71
3
 72
9
 73
5
 74
0
 42
0.0000001
 43
0.0000001
 44
0.0000000001
 40
0.0
 40
0.0
 40
0.0
 40
0.0
 40
0.5328433688
 40
1.0
 40
1.0
 40
1.0
 40
1.0
 10
13.3239229277
 20
55.4999401118
 30
0.0
 10
13.3339999717
 20
55.4488412237
 30
0.0
 10
13.3667757203
 20
55.3540958441
 30
0.0
 10
13.4384963372
 20
55.2812681566
 30
0.0
 10
13.4780397106
 20
55.2584343722
 30
0.0
  0
SPLINE
  5
2EA
100
AcDbEntity
  8
0
100
AcDbSpline
 62
7
  6
CONTINUOUS
 70
0
 71
3
 72
11
 73
7
 74
0
 42
0.0000001
 43
0.0000001
 44
0.0000000001
 40
0.0
 40
0.0
 40
0.0
 40
0.0
 40
0.2177660671
 40
0.4518634576
 40
0.7117386628
 40
1.0
 40
1.0
 40
1.0
 40
1.0
 10
62.3132621125
 20
132.4241697568
 30
0.0
 10
62.3440676089
 20
132.4444202926
 30
0.0
 10
62.4012084987
 20
132.4975453031
 30
0.0
 10
62.4617175669
 20
132.6034081846
 30
0.0
 10
62.497663521
 20
132.7319447223
 30
0.0
 10
62.5049232778
 20
132.8250048675
 30
0.0
 10
62.5049702974
 20
132.8738044101
 30
0.0
  0
SPLINE
  5
2EB
100
AcDbEntity
  8
0
100
AcDbSpline
 62
7
  6
CONTINUOUS
 70
0
 71
3
 72
9
 73
5
 74
0
 42
0.0000001
 43
0.0000001
 44
0.0000000001
 40
0.0
 40
0.0
 40
0.0
 40
0.0
 40
0.512616224
 40
1.0
 40
1.0
 40
1.0
 40
1.0
 10
30.738108241
 20
54.5219938792
 30
0.0
 10
30.8375767214
 20
54.3131493077
 30
0.0
 10
31.0630772173
 20
53.9196700549
 30
0.0
 10
31.3541504729
 20
53.5710325274
 30
0.0
 10
31.5108277005
 20
53.4166819754
 30
0.0
  0
SPLINE
  5
2EC
100
AcDbEntity
  8
0
100
AcDbSpline
 62
7
  6
CONTINUOUS
 70
0
 71
3
 72
9
 73
5
 74
0
 42
0.0000001
 43
0.0000001
 44
0.0000000001
 40
0.0
 40
0.0
 40
0.0
 40
0.0
 40
0.5125786228
 40
1.0
 40
1.0
 40
1.0
 40
1.0
 10
43.2541838105
 20
47.2957229917
 30
0.0
 10
43.3530854221
 20
47.0881134586
 30
0.0
 10
43.5769429914
 20
46.6967631756
 30
0.0
 10
43.8658070492
 20
46.3497373147
 30
0.0
 10
44.0212971584
 20
46.1959762557
 30
0.0
  0
SPLINE
  5
2ED
100
AcDbEntity
  8
0
100
AcDbSpline
 62
7
  6
CONTINUOUS
 70
0
 71
3
 72
9
 73
5
 74
0
 42
0.0000001
 43
0.0000001
 44
0.0000000001
 40
0.0
 40
0.0
 40
0.0
 40
0.0
 40
0.5126941131
 40
1.0
 40
1.0
 40
1.0
 40
1.0
 10
18.2223139056
 20
61.7476271013
 30
0.0
 10
18.3218938471
 20
61.5382840483
 30
0.0
 10
18.5476777052
 20
61.1438647236
 30
0.0
 10
18.8399614978
 20
60.7950137967
 30
0.0
 10
18.9971369139
 20
60.6405924514
 30
0.0
  0
SPLINE
  5
2EE
100
AcDbEntity
  8
0
100
AcDbSpline
 62
7
  6
CONTINUOUS
 70
0
 71
3
 72
10
 73
6
 74
0
 42
0.0000001
 43
0.0000001
 44
0.0000000001
 40
0.0
 40
0.0
 40
0.0
 40
0.0
 40
0.1959191042
 40
0.4301656258
 40
1.0
 40
1.0
 40
1.0
 40
1.0
 10
19.9122955127
 20
71.6311263177
 30
0.0
 10
20.0882236597
 20
71.4984021429
 30
0.0
 10
20.4832606774
 20
71.2186194935
 30
0.0
 10
21.4242726214
 20
70.6021527084
 30
0.0
 10
22.2012796962
 20
70.1383737096
 30
0.0
 10
22.7563819475
 20
69.8178925256
 30
0.0
  0
SPLINE
  5
2EF
100
AcDbEntity
  8
0
100
AcDbSpline
 62
7
  6
CONTINUOUS
 70
0
 71
3
 72
9
 73
5
 74
0
 42
0.0000001
 43
0.0000001
 44
0.0000000001
 40
0.0
 40
0.0
 40
0.0
 40
0.0
 40
0.4761531156
 40
1.0
 40
1.0
 40
1.0
 40
1.0
 10
22.7563819475
 20
69.8178925256
 30
0.0
 10
23.4158926278
 20
69.4371324707
 30
0.0
 10
24.8157358841
 20
68.6629979024
 30
0.0
 10
26.2353725121
 20
67.9260705157
 30
0.0
 10
26.9833927641
 20
67.5487187725
 30
0.0
  0
SPLINE
  5
2F0
100
AcDbEntity
  8
0
100
AcDbSpline
 62
7
  6
CONTINUOUS
 70
0
 71
3
 72
19
 73
15
 74
0
 42
0.0000001
 43
0.0000001
 44
0.0000000001
 40
0.0
 40
0.0
 40
0.0
 40
0.0
 40
0.0489147249
 40
0.0968051581
 40
0.1446226849
 40
0.1933388444
 40
0.2438267899
 40
0.2968299538
 40
0.3528746921
 40
0.4122853862
 40
0.5415593538
 40
0.684347708
 40
0.8383299178
 40
1.0
 40
1.0
 40
1.0
 40
1.0
 10
27.8265487695
 20
55.6647041932
 30
0.0
 10
27.6378449199
 20
55.6970365572
 30
0.0
 10
27.2686179313
 20
55.7909555205
 30
0.0
 10
26.7497574931
 20
56.0242275389
 30
0.0
 10
26.2807804013
 20
56.3451013752
 30
0.0
 10
25.8670624069
 20
56.7489801517
 30
0.0
 10
25.5127736489
 20
57.2310153699
 30
0.0
 10
25.222250957
 20
57.7861536598
 30
0.0
 10
24.9971539374
 20
58.4077878341
 30
0.0
 10
24.7805232101
 20
59.3428175062
 30
0.0
 10
24.6969822106
 20
60.6465160497
 30
0.0
 10
24.8734552685
 20
62.3108949593
 30
0.0
 10
25.3152708436
 20
64.055403185
 30
0.0
 10
25.7682066003
 20
65.2086783634
 30
0.0
 10
26.0334652565
 20
65.7831784886
 30
0.0
  0
SPLINE
  5
2F1
100
AcDbEntity
  8
0
100
AcDbSpline
 62
7
  6
CONTINUOUS
 70
0
 71
3
 72
10
 73
6
 74
0
 42
0.0000001
 43
0.0000001
 44
0.0000000001
 40
0.0
 40
0.0
 40
0.0
 40
0.0
 40
0.1959191042
 40
0.4301656258
 40
1.0
 40
1.0
 40
1.0
 40
1.0
 10
32.4281376478
 20
64.4052649627
 30
0.0
 10
32.6040657948
 20
64.2725407879
 30
0.0
 10
32.9991028125
 20
63.9927581385
 30
0.0
 10
33.9401147565
 20
63.3762913534
 30
0.0
 10
34.7171218313
 20
62.9125123546
 30
0.0
 10
35.2722240826
 20
62.5920311706
 30
0.0
  0
SPLINE
  5
2F2
100
AcDbEntity
  8
0
100
AcDbSpline
 62
7
  6
CONTINUOUS
 70
0
 71
3
 72
19
 73
15
 74
0
 42
0.0000001
 43
0.0000001
 44
0.0000000001
 40
0.0
 40
0.0
 40
0.0
 40
0.0
 40
0.048918775
 40
0.0968658504
 40
0.1447271356
 40
0.1934756958
 40
0.244012744
 40
0.2970570263
 40
0.3531394612
 40
0.4125903825
 40
0.5419145331
 40
0.6846771698
 40
0.8385371525
 40
1.0
 40
1.0
 40
1.0
 40
1.0
 10
40.3423909046
 20
48.4388428382
 30
0.0
 10
40.1534180171
 20
48.4712212989
 30
0.0
 10
39.7835442633
 20
48.5656371374
 30
0.0
 10
39.2635988146
 20
48.7993310193
 30
0.0
 10
38.7937033952
 20
49.1211918722
 30
0.0
 10
38.3795967672
 20
49.5265499525
 30
0.0
 10
38.0257472012
 20
50.0104836994
 30
0.0
 10
37.7350563684
 20
50.5670189877
 30
0.0
 10
37.5103723867
 20
51.1902720918
 30
0.0
 10
37.2948826912
 20
52.1274005268
 30
0.0
 10
37.2131802086
 20
53.4332048004
 30
0.0
 10
37.3918098546
 20
55.0992108565
 30
0.0
 10
37.8359301335
 20
56.8441919474
 30
0.0
 10
38.2902205942
 20
57.9973081802
 30
0.0
 10
38.5559579007
 20
58.5716283692
 30
0.0
  0
SPLINE
  5
2F3
100
AcDbEntity
  8
0
100
AcDbSpline
 62
7
  6
CONTINUOUS
 70
0
 71
3
 72
9
 73
5
 74
0
 42
0.0000001
 43
0.0000001
 44
0.0000000001
 40
0.0
 40
0.0
 40
0.0
 40
0.0
 40
0.5238656579
 40
1.0
 40
1.0
 40
1.0
 40
1.0
 10
39.4992348992
 20
60.3228574175
 30
0.0
 10
38.7511879278
 20
60.7002226398
 30
0.0
 10
37.3315709719
 20
61.4371868242
 30
0.0
 10
35.9317086826
 20
62.2112861729
 30
0.0
 10
35.2722240826
 20
62.5920311706
 30
0.0
  0
SPLINE
  5
2F4
100
AcDbEntity
  8
0
100
AcDbSpline
 62
7
  6
CONTINUOUS
 70
0
 71
3
 72
18
 73
14
 74
0
 42
0.0000001
 43
0.0000001
 44
0.0000000001
 40
0.0
 40
0.0
 40
0.0
 40
0.0
 40
0.1326164902
 40
0.2787146918
 40
0.4299847903
 40
0.5770525491
 40
0.7111275767
 40
0.7712230799
 40
0.8259799342
 40
0.8753798719
 40
0.9199330412
 40
0.9608423142
 40
1.0
 40
1.0
 40
1.0
 40
1.0
 10
61.7906714592
 20
37.5603269077
 30
0.0
 10
62.058578174
 20
37.405654393
 30
0.0
 10
62.581269342
 20
37.0095035947
 30
0.0
 10
63.2619852244
 20
36.2674500096
 30
0.0
 10
63.8377941173
 20
35.4001848588
 30
0.0
 10
64.2633881761
 20
34.4815701877
 30
0.0
 10
64.4748619712
 20
33.7084641067
 30
0.0
 10
64.5335329339
 20
33.1295013752
 30
0.0
 10
64.5226953812
 20
32.7452197484
 30
0.0
 10
64.4585405758
 20
32.4025384824
 30
0.0
 10
64.3406821861
 20
32.1081657626
 30
0.0
 10
64.169708116
 20
31.8691291719
 30
0.0
 10
64.0207167508
 20
31.7515454072
 30
0.0
 10
63.9416207676
 20
31.7058598898
 30
0.0
  0
SPLINE
  5
2F5
100
AcDbEntity
  8
0
100
AcDbSpline
 62
7
  6
CONTINUOUS
 70
0
 71
3
 72
11
 73
7
 74
0
 42
0.0000001
 43
0.0000001
 44
0.0000000001
 40
0.0
 40
0.0
 40
0.0
 40
0.0
 40
0.2330021467
 40
0.4955564482
 40
0.7605132213
 40
1.0
 40
1.0
 40
1.0
 40
1.0
 10
99.23538644
 20
113.1160355612
 30
0.0
 10
99.2297187242
 20
113.206473243
 30
0.0
 10
99.1834759051
 20
113.3966530227
 30
0.0
 10
99.0500205855
 20
113.6626629665
 30
0.0
 10
98.8647729025
 20
113.8988359716
 30
0.0
 10
98.7109473599
 20
114.0249218962
 30
0.0
 10
98.6302878135
 20
114.0714894526
 30
0.0
  0
SPLINE
  5
2F6
100
AcDbEntity
  8
0
100
AcDbSpline
 62
7
  6
CONTINUOUS
 70
0
 71
3
 72
11
 73
7
 74
0
 42
0.0000001
 43
0.0000001
 44
0.0000000001
 40
0.0
 40
0.0
 40
0.0
 40
0.0
 40
0.23948704
 40
0.5044441186
 40
0.7669977107
 40
1.0
 40
1.0
 40
1.0
 40
1.0
 10
98.6302878135
 20
114.0714894526
 30
0.0
 10
98.5294635143
 20
114.129699273
 30
0.0
 10
98.3371816558
 20
114.2873064614
 30
0.0
 10
98.1056204963
 20
114.5825225061
 30
0.0
 10
97.9388082153
 20
114.9150355537
 30
0.0
 10
97.8809918327
 20
115.1527588803
 30
0.0
 10
97.8739150134
 20
115.2658064881
 30
0.0
  0
SPLINE
  5
2F7
100
AcDbEntity
  8
0
100
AcDbSpline
 62
7
  6
CONTINUOUS
 70
0
 71
3
 72
17
 73
13
 74
0
 42
0.0000001
 43
0.0000001
 44
0.0000000001
 40
0.0
 40
0.0
 40
0.0
 40
0.0
 40
0.1253691628
 40
0.2630010182
 40
0.4068822913
 40
0.5495928619
 40
0.6838402039
 40
0.803923913
 40
0.8579581078
 40
0.9081018686
 40
0.9550610615
 40
1.0
 40
1.0
 40
1.0
 40
1.0
 10
62.2234665938
 20
94.817684859
 30
0.0
 10
62.4889786547
 20
94.664394867
 30
0.0
 10
62.999015344
 20
94.2593812501
 30
0.0
 10
63.6282251352
 20
93.4808632055
 30
0.0
 10
64.1209193637
 20
92.5612593805
 30
0.0
 10
64.4396936276
 20
91.5766845036
 30
0.0
 10
64.5622196602
 20
90.6075442877
 30
0.0
 10
64.4894773523
 20
89.8474410674
 30
0.0
 10
64.3154059615
 20
89.325032429
 30
0.0
 10
64.1386653106
 20
88.9979235855
 30
0.0
 10
63.9142493821
 20
88.7294673727
 30
0.0
 10
63.7327522396
 20
88.592778035
 30
0.0
 10
63.6375883116
 20
88.5378141059
 30
0.0
  0
SPLINE
  5
2F8
100
AcDbEntity
  8
0
100
AcDbSpline
 62
7
  6
CONTINUOUS
 70
0
 71
3
 72
17
 73
13
 74
0
 42
0.0000001
 43
0.0000001
 44
0.0000000001
 40
0.0
 40
0.0
 40
0.0
 40
0.0
 40
0.1253691488
 40
0.263000985
 40
0.4068822649
 40
0.549592839
 40
0.6838401947
 40
0.8039239131
 40
0.8579581012
 40
0.9081018617
 40
0.9550610568
 40
1.0
 40
1.0
 40
1.0
 40
1.0
 10
49.7076244587
 20
102.043546214
 30
0.0
 10
49.9731364904
 20
101.8902562389
 30
0.0
 10
50.4831731393
 20
101.4852427
 30
0.0
 10
51.1123828735
 20
100.7067246923
 30
0.0
 10
51.6050771744
 20
99.7871209319
 30
0.0
 10
51.9238514771
 20
98.8025459993
 30
0.0
 10
52.0463775286
 20
97.8334057186
 30
0.0
 10
51.9736352201
 20
97.0733024559
 30
0.0
 10
51.7995638414
 20
96.5508938084
 30
0.0
 10
51.6228232014
 20
96.2237849674
 30
0.0
 10
51.398407243
 20
95.9553287644
 30
0.0
 10
51.2169101181
 20
95.8186393741
 30
0.0
 10
51.1217461796
 20
95.7636754397
 30
0.0
  0
SPLINE
  5
2F9
100
AcDbEntity
  8
0
100
AcDbSpline
 62
7
  6
CONTINUOUS
 70
0
 71
3
 72
11
 73
7
 74
0
 42
0.0000001
 43
0.0000001
 44
0.0000000001
 40
0.0
 40
0.0
 40
0.0
 40
0.0
 40
0.2330021451
 40
0.4955564447
 40
0.7605132186
 40
1.0
 40
1.0
 40
1.0
 40
1.0
 10
74.2037021698
 20
127.5677582713
 30
0.0
 10
74.1980344543
 20
127.6581959485
 30
0.0
 10
74.1517916392
 20
127.8483757186
 30
0.0
 10
74.0183363298
 20
128.1143856517
 30
0.0
 10
73.8330886608
 20
128.3505586509
 30
0.0
 10
73.6792631286
 20
128.4766445776
 30
0.0
 10
73.598603585
 20
128.5232121328
 30
0.0
  0
SPLINE
  5
2FA
100
AcDbEntity
  8
0
100
AcDbSpline
 62
7
  6
CONTINUOUS
 70
0
 71
3
 72
11
 73
7
 74
0
 42
0.0000001
 43
0.0000001
 44
0.0000000001
 40
0.0
 40
0.0
 40
0.0
 40
0.0
 40
0.2394870379
 40
0.5044441159
 40
0.7669977095
 40
1.0
 40
1.0
 40
1.0
 40
1.0
 10
73.598603585
 20
128.5232121328
 30
0.0
 10
73.497779283
 20
128.5814219543
 30
0.0
 10
73.305497414
 20
128.7390291407
 30
0.0
 10
73.0739362406
 20
129.0342451913
 30
0.0
 10
72.9071239494
 20
129.3667582495
 30
0.0
 10
72.8493075628
 20
129.6044815857
 30
0.0
 10
72.8422307432
 20
129.7175291981
 30
0.0
  0
SPLINE
  5
2FB
100
AcDbEntity
  8
0
100
AcDbSpline
 62
7
  6
CONTINUOUS
 70
0
 71
3
 72
17
 73
13
 74
0
 42
0.0000001
 43
0.0000001
 44
0.0000000001
 40
0.0
 40
0.0
 40
0.0
 40
0.0
 40
0.1253690296
 40
0.2630005856
 40
0.4068818323
 40
0.5495925365
 40
0.6838399825
 40
0.8039238515
 40
0.8579580708
 40
0.9081018491
 40
0.955061055
 40
1.0
 40
1.0
 40
1.0
 40
1.0
 10
37.1917823236
 20
109.269407569
 30
0.0
 10
37.4572941036
 20
109.1161177392
 30
0.0
 10
37.9673302112
 20
108.7111050886
 30
0.0
 10
38.5965391343
 20
107.9325878195
 30
0.0
 10
39.0892341648
 20
107.0129849854
 30
0.0
 10
39.4080088594
 20
106.0284096511
 30
0.0
 10
39.5305354788
 20
105.0592685381
 30
0.0
 10
39.4577933074
 20
104.2991645587
 30
0.0
 10
39.2837218203
 20
103.776755424
 30
0.0
 10
39.1069811047
 20
103.4496464624
 30
0.0
 10
38.8825651825
 20
103.1811901263
 30
0.0
 10
38.7010680057
 20
103.0445007434
 30
0.0
 10
38.605904061
 20
102.9895368106
 30
0.0
  0
SPLINE
  5
2FC
100
AcDbEntity
  8
0
100
AcDbSpline
 62
7
  6
CONTINUOUS
 70
0
 71
3
 72
10
 73
6
 74
0
 42
0.0000001
 43
0.0000001
 44
0.0000000001
 40
0.0
 40
0.0
 40
0.0
 40
0.0
 40
0.5392620345
 40
0.7755204558
 40
1.0
 40
1.0
 40
1.0
 40
1.0
 10
61.2700414461
 20
132.2531328328
 30
0.0
 10
61.2744272734
 20
132.3044628016
 30
0.0
 10
61.2912207582
 20
132.3792398015
 30
0.0
 10
61.3438511473
 20
132.4600152056
 30
0.0
 10
61.3773263306
 20
132.4896289124
 30
0.0
 10
61.3952426553
 20
132.5014143427
 30
0.0
  0
SPLINE
  5
2FD
100
AcDbEntity
  8
0
100
AcDbSpline
 62
7
  6
CONTINUOUS
 70
0
 71
3
 72
9
 73
5
 74
0
 42
0.0000001
 43
0.0000001
 44
0.0000000001
 40
0.0
 40
0.0
 40
0.0
 40
0.0
 40
0.2383244032
 40
1.0
 40
1.0
 40
1.0
 40
1.0
 10
69.1673547194
 20
128.1831070004
 30
0.0
 10
69.1705649486
 20
128.1969081496
 30
0.0
 10
69.1821345387
 20
128.2552552698
 30
0.0
 10
69.1864766227
 20
128.3149316525
 30
0.0
 10
69.1865200312
 20
128.3602170956
 30
0.0
  0
SPLINE
  5
2FE
100
AcDbEntity
  8
0
100
AcDbSpline
 62
7
  6
CONTINUOUS
 70
0
 71
3
 72
11
 73
7
 74
0
 42
0.0000001
 43
0.0000001
 44
0.0000000001
 40
0.0
 40
0.0
 40
0.0
 40
0.0
 40
0.2319293186
 40
0.4883257528
 40
0.7509090292
 40
1.0
 40
1.0
 40
1.0
 40
1.0
 10
69.1865200312
 20
128.3602170956
 30
0.0
 10
69.186615699
 20
128.4600212956
 30
0.0
 10
69.15484234
 20
128.6704427704
 30
0.0
 10
69.0380554611
 20
128.9738297271
 30
0.0
 10
68.8619113559
 20
129.2557432124
 30
0.0
 10
68.7093443134
 20
129.4174156134
 30
0.0
 10
68.6265926671
 20
129.4855456845
 30
0.0
  0
SPLINE
  5
2FF
100
AcDbEntity
  8
0
100
AcDbSpline
 62
7
  6
CONTINUOUS
 70
0
 71
3
 72
10
 73
6
 74
0
 42
0.0000001
 43
0.0000001
 44
0.0000000001
 40
0.0
 40
0.0
 40
0.0
 40
0.0
 40
0.5308849357
 40
0.7694010912
 40
1.0
 40
1.0
 40
1.0
 40
1.0
 10
64.444696838
 20
131.89991303
 30
0.0
 10
64.380488904
 20
131.9211980054
 30
0.0
 10
64.2803636457
 20
131.9384464639
 30
0.0
 10
64.1540629431
 20
131.9145066628
 30
0.0
 10
64.0994489192
 20
131.8882167643
 30
0.0
 10
64.0748824381
 20
131.872098186
 30
0.0
  0
SPLINE
  5
300
100
AcDbEntity
  8
0
100
AcDbSpline
 62
7
  6
CONTINUOUS
 70
0
 71
3
 72
10
 73
6
 74
0
 42
0.0000001
 43
0.0000001
 44
0.0000000001
 40
0.0
 40
0.0
 40
0.0
 40
0.0
 40
0.5392620345
 40
0.7755204558
 40
1.0
 40
1.0
 40
1.0
 40
1.0
 10
86.3017257163
 20
117.8014101228
 30
0.0
 10
86.3061115436
 20
117.8527400916
 30
0.0
 10
86.3229050284
 20
117.9275170914
 30
0.0
 10
86.3755354175
 20
118.0082924956
 30
0.0
 10
86.4090106008
 20
118.0379062024
 30
0.0
 10
86.4269269255
 20
118.0496916327
 30
0.0
  0
SPLINE
  5
301
100
AcDbEntity
  8
0
100
AcDbSpline
 62
7
  6
CONTINUOUS
 70
0
 71
3
 72
9
 73
5
 74
0
 42
0.0000001
 43
0.0000001
 44
0.0000000001
 40
0.0
 40
0.0
 40
0.0
 40
0.0
 40
0.2383244032
 40
1.0
 40
1.0
 40
1.0
 40
1.0
 10
94.1990389896
 20
113.7313842904
 30
0.0
 10
94.2022492188
 20
113.7451854395
 30
0.0
 10
94.2138188089
 20
113.8035325597
 30
0.0
 10
94.2181608929
 20
113.8632089422
 30
0.0
 10
94.2182043014
 20
113.9084943852
 30
0.0
  0
SPLINE
  5
302
100
AcDbEntity
  8
0
100
AcDbSpline
 62
7
  6
CONTINUOUS
 70
0
 71
3
 72
11
 73
7
 74
0
 42
0.0000001
 43
0.0000001
 44
0.0000000001
 40
0.0
 40
0.0
 40
0.0
 40
0.0
 40
0.2319293186
 40
0.4883257528
 40
0.7509090292
 40
1.0
 40
1.0
 40
1.0
 40
1.0
 10
94.2182043014
 20
113.9084943852
 30
0.0
 10
94.2182999692
 20
114.0082985852
 30
0.0
 10
94.1865266103
 20
114.2187200602
 30
0.0
 10
94.0697397314
 20
114.522107017
 30
0.0
 10
93.893595626
 20
114.8040205025
 30
0.0
 10
93.7410285834
 20
114.9656929036
 30
0.0
 10
93.658276937
 20
115.0338229747
 30
0.0
  0
SPLINE
  5
303
100
AcDbEntity
  8
0
100
AcDbSpline
 62
7
  6
CONTINUOUS
 70
0
 71
3
 72
10
 73
6
 74
0
 42
0.0000001
 43
0.0000001
 44
0.0000000001
 40
0.0
 40
0.0
 40
0.0
 40
0.0
 40
0.5308849357
 40
0.7694010912
 40
1.0
 40
1.0
 40
1.0
 40
1.0
 10
89.4763811082
 20
117.44819032
 30
0.0
 10
89.4121731742
 20
117.4694752954
 30
0.0
 10
89.3120479159
 20
117.4867237539
 30
0.0
 10
89.1857472134
 20
117.4627839527
 30
0.0
 10
89.1311331894
 20
117.4364940543
 30
0.0
 10
89.1065667083
 20
117.420375476
 30
0.0
  0
SPLINE
  5
304
100
AcDbEntity
  8
0
100
AcDbSpline
 62
7
  6
CONTINUOUS
 70
0
 71
3
 72
17
 73
13
 74
0
 42
0.0000001
 43
0.0000001
 44
0.0000000001
 40
0.0
 40
0.0
 40
0.0
 40
0.0
 40
0.125167769
 40
0.2627038166
 40
0.4061006072
 40
0.5478439075
 40
0.6810084106
 40
0.8006493496
 40
0.8549651652
 40
0.9057917298
 40
0.9537937015
 40
1.0
 40
1.0
 40
1.0
 40
1.0
 10
36.7597702401
 20
103.1411693618
 30
0.0
 10
36.4935483303
 20
103.2948691759
 30
0.0
 10
35.9795762614
 20
103.6968582656
 30
0.0
 10
35.3347395233
 20
104.4649571158
 30
0.0
 10
34.8208759616
 20
105.3736109693
 30
0.0
 10
34.48326327
 20
106.3503862798
 30
0.0
 10
34.3510092739
 20
107.3170933033
 30
0.0
 10
34.4266748348
 20
108.07800695
 30
0.0
 10
34.6080094243
 20
108.6019085587
 30
0.0
 10
34.7924361496
 20
108.9322836851
 30
0.0
 10
35.0257148127
 20
109.2047647878
 30
0.0
 10
35.213099661
 20
109.3444939763
 30
0.0
 10
35.311367647
 20
109.4012488543
 30
0.0
  0
SPLINE
  5
305
100
AcDbEntity
  8
0
100
AcDbSpline
 62
7
  6
CONTINUOUS
 70
0
 71
3
 72
11
 73
7
 74
0
 42
0.0000001
 43
0.0000001
 44
0.0000000001
 40
0.0
 40
0.0
 40
0.0
 40
0.0
 40
0.224329835
 40
0.4594233732
 40
0.7162534257
 40
1.0
 40
1.0
 40
1.0
 40
1.0
 10
51.1217461796
 20
95.7636754397
 30
0.0
 10
50.9963863728
 20
95.6912712463
 30
0.0
 10
50.7133162417
 20
95.584495556
 30
0.0
 10
50.2452272585
 20
95.5630953183
 30
0.0
 10
49.7522737576
 20
95.6743772842
 30
0.0
 10
49.4341914503
 20
95.8237544062
 30
0.0
 10
49.2756123752
 20
95.9153080067
 30
0.0
  0
SPLINE
  5
306
100
AcDbEntity
  8
0
100
AcDbSpline
 62
7
  6
CONTINUOUS
 70
0
 71
3
 72
9
 73
5
 74
0
 42
0.0000001
 43
0.0000001
 44
0.0000000001
 40
0.0
 40
0.0
 40
0.0
 40
0.0
 40
0.4913110592
 40
1.0
 40
1.0
 40
1.0
 40
1.0
 10
63.9020086505
 20
131.2229882102
 30
0.0
 10
63.9384920736
 20
131.0742626239
 30
0.0
 10
64.0640999676
 20
130.7839429136
 30
0.0
 10
64.2553355723
 20
130.5331521073
 30
0.0
 10
64.3684030095
 20
130.4220020743
 30
0.0
  0
SPLINE
  5
307
100
AcDbEntity
  8
0
100
AcDbSpline
 62
7
  6
CONTINUOUS
 70
0
 71
3
 72
9
 73
5
 74
0
 42
0.0000001
 43
0.0000001
 44
0.0000000001
 40
0.0
 40
0.0
 40
0.0
 40
0.0
 40
0.5260642086
 40
1.0
 40
1.0
 40
1.0
 40
1.0
 10
68.770109808
 20
127.8807329924
 30
0.0
 10
68.8144928911
 20
127.8741183542
 30
0.0
 10
68.9015004792
 20
127.8724344818
 30
0.0
 10
68.9837800276
 20
127.9037475831
 30
0.0
 10
69.0175537414
 20
127.9259659676
 30
0.0
  0
SPLINE
  5
308
100
AcDbEntity
  8
0
100
AcDbSpline
 62
7
  6
CONTINUOUS
 70
0
 71
3
 72
10
 73
6
 74
0
 42
0.0000001
 43
0.0000001
 44
0.0000000001
 40
0.0
 40
0.0
 40
0.0
 40
0.0
 40
0.5084840745
 40
0.763540135
 40
1.0
 40
1.0
 40
1.0
 40
1.0
 10
71.4262341822
 20
126.8789725972
 30
0.0
 10
71.5375986994
 20
126.7815943193
 30
0.0
 10
71.679479597
 20
126.6042454048
 30
0.0
 10
71.8085222926
 20
126.3429463663
 30
0.0
 10
71.8502255622
 20
126.2050468348
 30
0.0
 10
71.8629663211
 20
126.1374431469
 30
0.0
  0
SPLINE
  5
309
100
AcDbEntity
  8
0
100
AcDbSpline
 62
7
  6
CONTINUOUS
 70
0
 71
3
 72
15
 73
11
 74
0
 42
0.0000001
 43
0.0000001
 44
0.0000000001
 40
0.0
 40
0.0
 40
0.0
 40
0.0
 40
0.1228382332
 40
0.2572851448
 40
0.3978466234
 40
0.5384393136
 40
0.6731816291
 40
0.7969886137
 40
0.9062834538
 40
1.0
 40
1.0
 40
1.0
 40
1.0
 10
62.221954743
 20
31.930509538
 30
0.0
 10
62.0012006949
 20
32.0579590638
 30
0.0
 10
61.5646370592
 20
32.3704232372
 30
0.0
 10
60.9690924384
 20
32.9454565829
 30
0.0
 10
60.4299114863
 20
33.6216023296
 30
0.0
 10
59.9796049622
 20
34.3606011532
 30
0.0
 10
59.6448218271
 20
35.1211184624
 30
0.0
 10
59.4456319571
 20
35.861844905
 30
0.0
 10
59.3935242301
 20
36.5424015015
 30
0.0
 10
59.4678616042
 20
36.9648293086
 30
0.0
 10
59.5363398663
 20
37.146846613
 30
0.0
  0
SPLINE
  5
30A
100
AcDbEntity
  8
0
100
AcDbSpline
 62
7
  6
CONTINUOUS
 70
0
 71
3
 72
13
 73
9
 74
0
 42
0.0000001
 43
0.0000001
 44
0.0000000001
 40
0.0
 40
0.0
 40
0.0
 40
0.0
 40
0.2868598162
 40
0.4236817607
 40
0.5542990508
 40
0.6777282458
 40
0.7933003403
 40
1.0
 40
1.0
 40
1.0
 40
1.0
 10
44.0007004879
 20
55.4281683935
 30
0.0
 10
43.6635579583
 20
54.6995238479
 30
0.0
 10
43.2431870922
 20
53.5836716735
 30
0.0
 10
42.8832615155
 20
52.0730401209
 30
0.0
 10
42.7270144291
 20
50.9887063709
 30
0.0
 10
42.6824877742
 20
49.9526993668
 30
0.0
 10
42.7703201629
 20
48.7077381023
 30
0.0
 10
43.0053809026
 20
47.8179981574
 30
0.0
 10
43.2541838105
 20
47.2957229917
 30
0.0
  0
SPLINE
  5
30B
100
AcDbEntity
  8
0
100
AcDbSpline
 62
7
  6
CONTINUOUS
 70
0
 71
3
 72
9
 73
5
 74
0
 42
0.0000001
 43
0.0000001
 44
0.0000000001
 40
0.0
 40
0.0
 40
0.0
 40
0.0
 40
0.2646321867
 40
1.0
 40
1.0
 40
1.0
 40
1.0
 10
61.7970727775
 20
132.4629776251
 30
0.0
 10
61.7843106991
 20
132.4703456545
 30
0.0
 10
61.7353000884
 20
132.4967556097
 30
0.0
 10
61.6828635115
 20
132.5171982811
 30
0.0
 10
61.6431342848
 20
132.5271211705
 30
0.0
  0
SPLINE
  5
30C
100
AcDbEntity
  8
0
100
AcDbSpline
 62
7
  6
CONTINUOUS
 70
0
 71
3
 72
11
 73
7
 74
0
 42
0.0000001
 43
0.0000001
 44
0.0000000001
 40
0.0
 40
0.0
 40
0.0
 40
0.0
 40
0.2165447349
 40
0.4606301675
 40
0.7251940753
 40
1.0
 40
1.0
 40
1.0
 40
1.0
 10
50.0931880853
 20
34.2743922319
 30
0.0
 10
50.0285777867
 20
34.6006125876
 30
0.0
 10
49.9920552587
 20
35.3152174227
 30
0.0
 10
50.162888337
 20
36.4212103119
 30
0.0
 10
50.5429550967
 20
37.5679783595
 30
0.0
 10
50.9192558772
 20
38.3097874468
 30
0.0
 10
51.136887139
 20
38.671377064
 30
0.0
  0
SPLINE
  5
30D
100
AcDbEntity
  8
0
100
AcDbSpline
 62
7
  6
CONTINUOUS
 70
0
 71
3
 72
9
 73
5
 74
0
 42
0.0000001
 43
0.0000001
 44
0.0000000001
 40
0.0
 40
0.0
 40
0.0
 40
0.0
 40
0.2412027317
 40
1.0
 40
1.0
 40
1.0
 40
1.0
 10
66.5032136331
 20
132.6881942377
 30
0.0
 10
66.7733802609
 20
132.5123427791
 30
0.0
 10
67.8757440967
 20
131.7561991076
 30
0.0
 10
68.9074838478
 20
130.8988787625
 30
0.0
 10
69.6492119469
 20
130.2073336303
 30
0.0
  0
SPLINE
  5
30E
100
AcDbEntity
  8
0
100
AcDbSpline
 62
7
  6
CONTINUOUS
 70
0
 71
3
 72
9
 73
5
 74
0
 42
0.0000001
 43
0.0000001
 44
0.0000000001
 40
0.0
 40
0.0
 40
0.0
 40
0.0
 40
0.2608575893
 40
1.0
 40
1.0
 40
1.0
 40
1.0
 10
71.426231842
 20
126.8789739902
 30
0.0
 10
71.4138749269
 20
126.8901580735
 30
0.0
 10
71.3655155224
 20
126.9319073084
 30
0.0
 10
71.3130631932
 20
126.9690665396
 30
0.0
 10
71.2721577122
 20
126.9926663542
 30
0.0
  0
SPLINE
  5
30F
100
AcDbEntity
  8
0
100
AcDbSpline
 62
7
  6
CONTINUOUS
 70
0
 71
3
 72
11
 73
7
 74
0
 42
0.0000001
 43
0.0000001
 44
0.0000000001
 40
0.0
 40
0.0
 40
0.0
 40
0.0
 40
0.2372377481
 40
0.4999233022
 40
0.7627020154
 40
1.0
 40
1.0
 40
1.0
 40
1.0
 10
70.5660214243
 20
128.220127887
 30
0.0
 10
70.5658699873
 20
128.1040472075
 30
0.0
 10
70.6089048503
 20
127.8591993014
 30
0.0
 10
70.7600655355
 20
127.5149702563
 30
0.0
 10
70.9814581489
 20
127.2110747727
 30
0.0
 10
71.1716167176
 20
127.0507447413
 30
0.0
 10
71.2721577122
 20
126.9926663542
 30
0.0
  0
SPLINE
  5
310
100
AcDbEntity
  8
0
100
AcDbSpline
 62
7
  6
CONTINUOUS
 70
0
 71
3
 72
9
 73
5
 74
0
 42
0.0000001
 43
0.0000001
 44
0.0000000001
 40
0.0
 40
0.0
 40
0.0
 40
0.0
 40
0.2405290184
 40
1.0
 40
1.0
 40
1.0
 40
1.0
 10
63.8832025795
 20
131.4219832794
 30
0.0
 10
63.8831872835
 20
131.4059451993
 30
0.0
 10
63.8848597123
 20
131.3392694508
 30
0.0
 10
63.8929469671
 20
131.2728135096
 30
0.0
 10
63.9020056327
 20
131.2229900141
 30
0.0
  0
SPLINE
  5
311
100
AcDbEntity
  8
0
100
AcDbSpline
 62
7
  6
CONTINUOUS
 70
0
 71
3
 72
11
 73
7
 74
0
 42
0.0000001
 43
0.0000001
 44
0.0000000001
 40
0.0
 40
0.0
 40
0.0
 40
0.0
 40
0.2905217831
 40
0.5496340775
 40
0.7818648513
 40
1.0
 40
1.0
 40
1.0
 40
1.0
 10
61.7970727775
 20
132.4629776251
 30
0.0
 10
61.8426574801
 20
132.4366598993
 30
0.0
 10
61.9333894086
 20
132.3939061902
 30
0.0
 10
62.0729241051
 20
132.3623029722
 30
0.0
 10
62.2032902299
 20
132.3697596986
 30
0.0
 10
62.2802372242
 20
132.4024602647
 30
0.0
 10
62.3132621125
 20
132.4241697568
 30
0.0
  0
SPLINE
  5
312
100
AcDbEntity
  8
0
100
AcDbSpline
 62
7
  6
CONTINUOUS
 70
0
 71
3
 72
14
 73
10
 74
0
 42
0.0000001
 43
0.0000001
 44
0.0000000001
 40
0.0
 40
0.0
 40
0.0
 40
0.0
 40
0.296892735
 40
0.4360592419
 40
0.5669892497
 40
0.6887169535
 40
0.8009458223
 40
0.9042016105
 40
1.0
 40
1.0
 40
1.0
 40
1.0
 10
45.3842443741
 20
54.6584615582
 30
0.0
 10
45.1330826791
 20
54.0695385716
 30
0.0
 10
44.8340567552
 20
53.1705315753
 30
0.0
 10
44.6247761892
 20
51.9641302161
 30
0.0
 10
44.5721799358
 20
51.1187959272
 30
0.0
 10
44.6220015461
 20
50.3311563043
 30
0.0
 10
44.7739864181
 20
49.6168105913
 30
0.0
 10
45.026281731
 20
48.9907554252
 30
0.0
 10
45.2669275465
 20
48.6302756653
 30
0.0
 10
45.4015014471
 20
48.4735329029
 30
0.0
  0
SPLINE
  5
313
100
AcDbEntity
  8
0
100
AcDbSpline
 62
7
  6
CONTINUOUS
 70
0
 71
3
 72
9
 73
5
 74
0
 42
0.0000001
 43
0.0000001
 44
0.0000000001
 40
0.0
 40
0.0
 40
0.0
 40
0.0
 40
0.2378608104
 40
1.0
 40
1.0
 40
1.0
 40
1.0
 10
61.5881507849
 20
134.8505931075
 30
0.0
 10
61.8478666259
 20
134.7935410096
 30
0.0
 10
62.9310545407
 20
134.5143942947
 30
0.0
 10
63.9737549748
 20
134.0883335115
 30
0.0
 10
64.7354371581
 20
133.7065521809
 30
0.0
  0
SPLINE
  5
314
100
AcDbEntity
  8
0
100
AcDbSpline
 62
7
  6
CONTINUOUS
 70
0
 71
3
 72
14
 73
10
 74
0
 42
0.0000001
 43
0.0000001
 44
0.0000000001
 40
0.0
 40
0.0
 40
0.0
 40
0.0
 40
0.1433947382
 40
0.2853392969
 40
0.4234651121
 40
0.5558090693
 40
0.6806209963
 40
0.7966512013
 40
1.0
 40
1.0
 40
1.0
 40
1.0
 10
19.9122955126
 20
71.6311263177
 30
0.0
 10
19.6511006066
 20
71.2091566747
 30
0.0
 10
19.168815239
 20
70.3456249177
 30
0.0
 10
18.5710468302
 20
69.0054246171
 30
0.0
 10
18.1131437477
 20
67.6511338758
 30
0.0
 10
17.8057007142
 20
66.3158495458
 30
0.0
 10
17.6565285571
 20
65.0289651299
 30
0.0
 10
17.6717423436
 20
63.4914026376
 30
0.0
 10
17.9200096342
 20
62.3831496587
 30
0.0
 10
18.2223139056
 20
61.7476271013
 30
0.0
  0
SPLINE
  5
315
100
AcDbEntity
  8
0
100
AcDbSpline
 62
7
  6
CONTINUOUS
 70
0
 71
3
 72
15
 73
11
 74
0
 42
0.0000001
 43
0.0000001
 44
0.0000000001
 40
0.0
 40
0.0
 40
0.0
 40
0.0
 40
0.1549862138
 40
0.2965872328
 40
0.4254326184
 40
0.543778121
 40
0.6554009132
 40
0.7652835298
 40
0.8786491247
 40
1.0
 40
1.0
 40
1.0
 40
1.0
 10
23.6437358977
 20
71.154491128
 30
0.0
 10
23.3248182005
 20
71.338614181
 30
0.0
 10
22.6910343039
 20
71.6530267559
 30
0.0
 10
21.7222980333
 20
71.957848944
 30
0.0
 10
20.7985612926
 20
72.067461618
 30
0.0
 10
19.9424497797
 20
71.9771260989
 30
0.0
 10
19.1786346676
 20
71.6859436308
 30
0.0
 10
18.5335908763
 20
71.202648719
 30
0.0
 10
18.028490049
 20
70.5470175407
 30
0.0
 10
17.801837454
 20
70.0316013199
 30
0.0
 10
17.7119366371
 20
69.7576411869
 30
0.0
  0
SPLINE
  5
316
100
AcDbEntity
  8
0
100
AcDbSpline
 62
7
  6
CONTINUOUS
 70
0
 71
3
 72
9
 73
5
 74
0
 42
0.0000001
 43
0.0000001
 44
0.0000000001
 40
0.0
 40
0.0
 40
0.0
 40
0.0
 40
0.2549911173
 40
1.0
 40
1.0
 40
1.0
 40
1.0
 10
39.9551816399
 20
48.3778079461
 30
0.0
 10
39.988491771
 20
48.3761552369
 30
0.0
 10
40.1192007802
 20
48.3713914836
 30
0.0
 10
40.2501898702
 20
48.3736524472
 30
0.0
 10
40.3474432063
 20
48.3797147687
 30
0.0
  0
SPLINE
  5
317
100
AcDbEntity
  8
0
100
AcDbSpline
 62
7
  6
CONTINUOUS
 70
0
 71
3
 72
11
 73
7
 74
0
 42
0.0000001
 43
0.0000001
 44
0.0000000001
 40
0.0
 40
0.0
 40
0.0
 40
0.0
 40
0.257881779
 40
0.501600685
 40
0.7445389581
 40
1.0
 40
1.0
 40
1.0
 40
1.0
 10
40.3474432063
 20
48.3797147687
 30
0.0
 10
40.5764090107
 20
48.3939874339
 30
0.0
 10
41.0213428576
 20
48.4696132165
 30
0.0
 10
41.630625745
 20
48.7493967079
 30
0.0
 10
42.1377098122
 20
49.1846555839
 30
0.0
 10
42.3907323688
 20
49.5548598893
 30
0.0
 10
42.4983916334
 20
49.7549976185
 30
0.0
  0
SPLINE
  5
318
100
AcDbEntity
  8
0
100
AcDbSpline
 62
7
  6
CONTINUOUS
 70
0
 71
3
 72
11
 73
7
 74
0
 42
0.0000001
 43
0.0000001
 44
0.0000000001
 40
0.0
 40
0.0
 40
0.0
 40
0.0
 40
0.2382667178
 40
0.4880116379
 40
0.7438235428
 40
1.0
 40
1.0
 40
1.0
 40
1.0
 10
55.1344723153
 20
47.6204262979
 30
0.0
 10
55.004933072
 20
48.1112239265
 30
0.0
 10
54.684238753
 20
49.1024148728
 30
0.0
 10
54.05295034
 20
50.5582882099
 30
0.0
 10
53.2712399531
 20
51.9829506993
 30
0.0
 10
52.6585659406
 20
52.8877613981
 30
0.0
 10
52.3304959536
 20
53.3239081241
 30
0.0
  0
SPLINE
  5
319
100
AcDbEntity
  8
0
100
AcDbSpline
 62
7
  6
CONTINUOUS
 70
0
 71
3
 72
11
 73
7
 74
0
 42
0.0000001
 43
0.0000001
 44
0.0000000001
 40
0.0
 40
0.0
 40
0.0
 40
0.0
 40
0.2663883317
 40
0.5240694047
 40
0.7696157929
 40
1.0
 40
1.0
 40
1.0
 40
1.0
 10
52.3304959536
 20
53.3239081241
 30
0.0
 10
52.0631736237
 20
53.6792949733
 30
0.0
 10
51.5084928898
 20
54.3574326717
 30
0.0
 10
50.6093739147
 20
55.2777055353
 30
0.0
 10
49.6707430294
 20
56.0674839913
 30
0.0
 10
49.0084943453
 20
56.5104723024
 30
0.0
 10
48.6754201679
 20
56.702768418
 30
0.0
  0
SPLINE
  5
31A
100
AcDbEntity
  8
0
100
AcDbSpline
 62
7
  6
CONTINUOUS
 70
0
 71
3
 72
15
 73
11
 74
0
 42
0.0000001
 43
0.0000001
 44
0.0000000001
 40
0.0
 40
0.0
 40
0.0
 40
0.0
 40
0.1549832441
 40
0.2965879307
 40
0.4254386492
 40
0.5437814412
 40
0.6554042344
 40
0.7652877086
 40
0.8786540842
 40
1.0
 40
1.0
 40
1.0
 40
1.0
 10
48.6754201679
 20
56.702768418
 30
0.0
 10
48.3565186801
 20
56.8868821126
 30
0.0
 10
47.7227435102
 20
57.2012687015
 30
0.0
 10
46.7540316261
 20
57.5060864967
 30
0.0
 10
45.8303201474
 20
57.615797048
 30
0.0
 10
44.9742174582
 20
57.5254137805
 30
0.0
 10
44.2104935107
 20
57.234116114
 30
0.0
 10
43.5653968654
 20
56.7509447763
 30
0.0
 10
43.0602830987
 20
56.0953581798
 30
0.0
 10
42.833583908
 20
55.5799962215
 30
0.0
 10
42.7436702898
 20
55.306062301
 30
0.0
  0
SPLINE
  5
31B
100
AcDbEntity
  8
0
100
AcDbSpline
 62
7
  6
CONTINUOUS
 70
0
 71
3
 72
10
 73
6
 74
0
 42
0.0000001
 43
0.0000001
 44
0.0000000001
 40
0.0
 40
0.0
 40
0.0
 40
0.0
 40
0.2403896208
 40
0.4904430027
 40
1.0
 40
1.0
 40
1.0
 40
1.0
 10
42.514082535
 20
55.2211551463
 30
0.0
 10
42.3786098467
 20
55.6823825962
 30
0.0
 10
42.0554593363
 20
56.6103049139
 30
0.0
 10
41.2313877011
 20
58.4338917439
 30
0.0
 10
40.4274061865
 20
59.7351758418
 30
0.0
 10
39.814823579
 20
60.5494506811
 30
0.0
  0
SPLINE
  5
31C
100
AcDbEntity
  8
0
100
AcDbSpline
 62
7
  6
CONTINUOUS
 70
0
 71
3
 72
10
 73
6
 74
0
 42
0.0000001
 43
0.0000001
 44
0.0000000001
 40
0.0
 40
0.0
 40
0.0
 40
0.0
 40
0.5238240552
 40
0.7694966272
 40
1.0
 40
1.0
 40
1.0
 40
1.0
 10
39.814823579
 20
60.5494506811
 30
0.0
 10
39.2893525609
 20
61.2479325243
 30
0.0
 10
38.4334368423
 20
62.2174926065
 30
0.0
 10
37.1550142526
 20
63.2932101292
 30
0.0
 10
36.4926749925
 20
63.7363205043
 30
0.0
 10
36.1595780328
 20
63.928629773
 30
0.0
  0
SPLINE
  5
31D
100
AcDbEntity
  8
0
100
AcDbSpline
 62
7
  6
CONTINUOUS
 70
0
 71
3
 72
15
 73
11
 74
0
 42
0.0000001
 43
0.0000001
 44
0.0000000001
 40
0.0
 40
0.0
 40
0.0
 40
0.0
 40
0.1549851181
 40
0.2965894104
 40
0.4254413538
 40
0.5437869536
 40
0.6554105239
 40
0.7652934923
 40
0.8786587834
 40
1.0
 40
1.0
 40
1.0
 40
1.0
 10
36.1595780328
 20
63.928629773
 30
0.0
 10
35.8406895929
 20
64.1127359346
 30
0.0
 10
35.2069520647
 20
64.4271224372
 30
0.0
 10
34.2382807217
 20
64.7319156513
 30
0.0
 10
33.314616312
 20
64.8416362734
 30
0.0
 10
32.4585410944
 20
64.7513389995
 30
0.0
 10
31.6948257072
 20
64.4601122782
 30
0.0
 10
31.0497409834
 20
63.9769958112
 30
0.0
 10
30.5446408321
 20
63.3214770673
 30
0.0
 10
30.3178993868
 20
62.8061843464
 30
0.0
 10
30.2279643378
 20
62.5322852972
 30
0.0
  0
SPLINE
  5
31E
100
AcDbEntity
  8
0
100
AcDbSpline
 62
7
  6
CONTINUOUS
 70
0
 71
3
 72
9
 73
5
 74
0
 42
0.0000001
 43
0.0000001
 44
0.0000000001
 40
0.0
 40
0.0
 40
0.0
 40
0.0
 40
0.2549737649
 40
1.0
 40
1.0
 40
1.0
 40
1.0
 10
27.4400406426
 20
55.6035074125
 30
0.0
 10
27.4734414409
 20
55.6018980567
 30
0.0
 10
27.6045134486
 20
55.59732053
 30
0.0
 10
27.7358545457
 20
55.5998188056
 30
0.0
 10
27.833365124
 20
55.6060493082
 30
0.0
  0
SPLINE
  5
31F
100
AcDbEntity
  8
0
100
AcDbSpline
 62
7
  6
CONTINUOUS
 70
0
 71
3
 72
12
 73
8
 74
0
 42
0.0000001
 43
0.0000001
 44
0.0000000001
 40
0.0
 40
0.0
 40
0.0
 40
0.0
 40
0.2564388342
 40
0.3787713739
 40
0.4993314568
 40
0.7422352353
 40
1.0
 40
1.0
 40
1.0
 40
1.0
 10
27.833365124
 20
55.6060493082
 30
0.0
 10
28.07285406
 20
55.6213516113
 30
0.0
 10
28.4268741494
 20
55.6836703199
 30
0.0
 10
28.8616519297
 20
55.8583833219
 30
0.0
 10
29.2562866716
 20
56.087047708
 30
0.0
 10
29.6900127205
 20
56.4862646792
 30
0.0
 10
29.9408957755
 20
56.8883159873
 30
0.0
 10
30.046125811
 20
57.1053708773
 30
0.0
  0
SPLINE
  5
320
100
AcDbEntity
  8
0
100
AcDbSpline
 62
7
  6
CONTINUOUS
 70
0
 71
3
 72
11
 73
7
 74
0
 42
0.0000001
 43
0.0000001
 44
0.0000000001
 40
0.0
 40
0.0
 40
0.0
 40
0.0
 40
0.2243298969
 40
0.4594234426
 40
0.7162533995
 40
1.0
 40
1.0
 40
1.0
 40
1.0
 10
63.6375883116
 20
88.5378141059
 30
0.0
 10
63.5122284699
 20
88.4654098915
 30
0.0
 10
63.2291582891
 20
88.3586341996
 30
0.0
 10
62.7610693221
 20
88.3372339457
 30
0.0
 10
62.2681158619
 20
88.4485159261
 30
0.0
 10
61.9500336008
 20
88.5978930423
 30
0.0
 10
61.7914545103
 20
88.6894466517
 30
0.0
  0
SPLINE
  5
321
100
AcDbEntity
  8
0
100
AcDbSpline
 62
7
  6
CONTINUOUS
 70
0
 71
3
 72
10
 73
6
 74
0
 42
0.0000001
 43
0.0000001
 44
0.0000000001
 40
0.0
 40
0.0
 40
0.0
 40
0.0
 40
0.229353483
 40
0.4685438893
 40
1.0
 40
1.0
 40
1.0
 40
1.0
 10
50.2477153735
 20
34.0298628289
 30
0.0
 10
50.2280305141
 20
34.0412077402
 30
0.0
 10
50.1906487133
 20
34.0697513988
 30
0.0
 10
50.1290024068
 20
34.1483139016
 30
0.0
 10
50.103374191
 20
34.2227403113
 30
0.0
 10
50.0931880853
 20
34.2743922319
 30
0.0
  0
SPLINE
  5
322
100
AcDbEntity
  8
0
100
AcDbSpline
 62
7
  6
CONTINUOUS
 70
0
 71
3
 72
9
 73
5
 74
0
 42
0.0000001
 43
0.0000001
 44
0.0000000001
 40
0.0
 40
0.0
 40
0.0
 40
0.0
 40
0.4913110592
 40
1.0
 40
1.0
 40
1.0
 40
1.0
 10
88.9336929207
 20
116.7712655001
 30
0.0
 10
88.9701763438
 20
116.6225399139
 30
0.0
 10
89.0957842378
 20
116.3322202036
 30
0.0
 10
89.2870198425
 20
116.0814293973
 30
0.0
 10
89.4000872797
 20
115.9702793643
 30
0.0
  0
SPLINE
  5
323
100
AcDbEntity
  8
0
100
AcDbSpline
 62
7
  6
CONTINUOUS
 70
0
 71
3
 72
9
 73
5
 74
0
 42
0.0000001
 43
0.0000001
 44
0.0000000001
 40
0.0
 40
0.0
 40
0.0
 40
0.0
 40
0.5260642086
 40
1.0
 40
1.0
 40
1.0
 40
1.0
 10
93.8017940782
 20
113.4290102824
 30
0.0
 10
93.8461771613
 20
113.4223956442
 30
0.0
 10
93.9331847494
 20
113.4207117718
 30
0.0
 10
94.0154642978
 20
113.452024873
 30
0.0
 10
94.0492380116
 20
113.4742432575
 30
0.0
  0
SPLINE
  5
324
100
AcDbEntity
  8
0
100
AcDbSpline
 62
7
  6
CONTINUOUS
 70
0
 71
3
 72
10
 73
6
 74
0
 42
0.0000001
 43
0.0000001
 44
0.0000000001
 40
0.0
 40
0.0
 40
0.0
 40
0.0
 40
0.5084840745
 40
0.763540135
 40
1.0
 40
1.0
 40
1.0
 40
1.0
 10
96.4579184524
 20
112.4272498872
 30
0.0
 10
96.5692829696
 20
112.3298716093
 30
0.0
 10
96.7111638672
 20
112.1525226947
 30
0.0
 10
96.8402065628
 20
111.8912236563
 30
0.0
 10
96.8819098325
 20
111.7533241248
 30
0.0
 10
96.8946505914
 20
111.6857204369
 30
0.0
  0
SPLINE
  5
325
100
AcDbEntity
  8
0
100
AcDbSpline
 62
7
  6
CONTINUOUS
 70
0
 71
3
 72
9
 73
5
 74
0
 42
0.0000001
 43
0.0000001
 44
0.0000000001
 40
0.0
 40
0.0
 40
0.0
 40
0.0
 40
0.2430512638
 40
1.0
 40
1.0
 40
1.0
 40
1.0
 10
68.8286520289
 20
25.3345842409
 30
0.0
 10
68.6709193116
 20
26.5326700709
 30
0.0
 10
68.1097199687
 20
31.4733980462
 30
0.0
 10
67.8895312809
 20
36.4510863415
 30
0.0
 10
67.889255263
 20
40.2145526281
 30
0.0
  0
SPLINE
  5
326
100
AcDbEntity
  8
0
100
AcDbSpline
 62
7
  6
CONTINUOUS
 70
0
 71
3
 72
9
 73
5
 74
0
 42
0.0000001
 43
0.0000001
 44
0.0000000001
 40
0.0
 40
0.0
 40
0.0
 40
0.0
 40
0.2646321867
 40
1.0
 40
1.0
 40
1.0
 40
1.0
 10
86.8287570483
 20
118.0112549147
 30
0.0
 10
86.8159949699
 20
118.0186229441
 30
0.0
 10
86.766984359
 20
118.0450328996
 30
0.0
 10
86.7145477819
 20
118.065475571
 30
0.0
 10
86.674818555
 20
118.0753984604
 30
0.0
  0
SPLINE
  5
327
100
AcDbEntity
  8
0
100
AcDbSpline
 62
7
  6
CONTINUOUS
 70
0
 71
3
 72
11
 73
7
 74
0
 42
0.0000001
 43
0.0000001
 44
0.0000000001
 40
0.0
 40
0.0
 40
0.0
 40
0.0
 40
0.2100353573
 40
0.4465967181
 40
0.7109777037
 40
1.0
 40
1.0
 40
1.0
 40
1.0
 10
55.4130495349
 20
43.6986088985
 30
0.0
 10
55.2606099485
 20
43.9360840971
 30
0.0
 10
55.0190193
 20
44.495552426
 30
0.0
 10
54.8647335483
 20
45.4450478564
 30
0.0
 10
54.8973486107
 20
46.5111776321
 30
0.0
 10
55.0370246024
 20
47.2445379353
 30
0.0
 10
55.1344723153
 20
47.6204262978
 30
0.0
  0
SPLINE
  5
328
100
AcDbEntity
  8
0
100
AcDbSpline
 62
7
  6
CONTINUOUS
 70
0
 71
3
 72
9
 73
5
 74
0
 42
0.0000001
 43
0.0000001
 44
0.0000000001
 40
0.0
 40
0.0
 40
0.0
 40
0.0
 40
0.2549761724
 40
1.0
 40
1.0
 40
1.0
 40
1.0
 10
52.4710617616
 20
41.1518667089
 30
0.0
 10
52.5045337338
 20
41.1502509346
 30
0.0
 10
52.6358840725
 20
41.1456541909
 30
0.0
 10
52.7675046731
 20
41.1481557388
 30
0.0
 10
52.8652222546
 20
41.1543988978
 30
0.0
  0
SPLINE
  5
329
100
AcDbEntity
  8
0
100
AcDbSpline
 62
7
  6
CONTINUOUS
 70
0
 71
3
 72
15
 73
11
 74
0
 42
0.0000001
 43
0.0000001
 44
0.0000000001
 40
0.0
 40
0.0
 40
0.0
 40
0.0
 40
0.1250249464
 40
0.2440961697
 40
0.3601043541
 40
0.4763750275
 40
0.596058641
 40
0.7219057434
 40
0.856130918
 40
1.0
 40
1.0
 40
1.0
 40
1.0
 10
52.8652222546
 20
41.1543988978
 30
0.0
 10
53.0278359977
 20
41.164788261
 30
0.0
 10
53.3445571591
 20
41.2088407449
 30
0.0
 10
53.793719533
 20
41.3534682749
 30
0.0
 10
54.1974530715
 20
41.5756993403
 30
0.0
 10
54.5510488735
 20
41.872234547
 30
0.0
 10
54.852390558
 20
42.2380862732
 30
0.0
 10
55.0995818343
 20
42.6693132862
 30
0.0
 10
55.2907385647
 20
43.1616040446
 30
0.0
 10
55.3778522597
 20
43.5144371363
 30
0.0
 10
55.4130495349
 20
43.6986088985
 30
0.0
  0
SPLINE
  5
32A
100
AcDbEntity
  8
0
100
AcDbSpline
 62
7
  6
CONTINUOUS
 70
0
 71
3
 72
9
 73
5
 74
0
 42
0.0000001
 43
0.0000001
 44
0.0000000001
 40
0.0
 40
0.0
 40
0.0
 40
0.0
 40
0.2412027317
 40
1.0
 40
1.0
 40
1.0
 40
1.0
 10
91.5348979033
 20
118.2364715277
 30
0.0
 10
91.8050645311
 20
118.060620069
 30
0.0
 10
92.9074283669
 20
117.3044763975
 30
0.0
 10
93.939168118
 20
116.4471560525
 30
0.0
 10
94.6808962171
 20
115.7556109202
 30
0.0
  0
SPLINE
  5
32B
100
AcDbEntity
  8
0
100
AcDbSpline
 62
7
  6
CONTINUOUS
 70
0
 71
3
 72
9
 73
5
 74
0
 42
0.0000001
 43
0.0000001
 44
0.0000000001
 40
0.0
 40
0.0
 40
0.0
 40
0.0
 40
0.4499764078
 40
1.0
 40
1.0
 40
1.0
 40
1.0
 10
53.6100649719
 20
55.7863220943
 30
0.0
 10
53.5965572606
 20
55.794120915
 30
0.0
 10
53.5734160368
 20
55.823396727
 30
0.0
 10
53.5686511186
 20
55.8588121972
 30
0.0
 10
53.5686494556
 20
55.8778775418
 30
0.0
  0
SPLINE
  5
32C
100
AcDbEntity
  8
0
100
AcDbSpline
 62
7
  6
CONTINUOUS
 70
0
 71
3
 72
9
 73
5
 74
0
 42
0.0000001
 43
0.0000001
 44
0.0000000001
 40
0.0
 40
0.0
 40
0.0
 40
0.0
 40
0.2608575893
 40
1.0
 40
1.0
 40
1.0
 40
1.0
 10
96.4579161122
 20
112.4272512802
 30
0.0
 10
96.4455591971
 20
112.4384353635
 30
0.0
 10
96.3971997927
 20
112.4801845983
 30
0.0
 10
96.3447474636
 20
112.5173438294
 30
0.0
 10
96.3038419827
 20
112.540943644
 30
0.0
  0
SPLINE
  5
32D
100
AcDbEntity
  8
0
100
AcDbSpline
 62
7
  6
CONTINUOUS
 70
0
 71
3
 72
11
 73
7
 74
0
 42
0.0000001
 43
0.0000001
 44
0.0000000001
 40
0.0
 40
0.0
 40
0.0
 40
0.0
 40
0.237237748
 40
0.4999233022
 40
0.7627020154
 40
1.0
 40
1.0
 40
1.0
 40
1.0
 10
95.5977056945
 20
113.7684051772
 30
0.0
 10
95.5975542575
 20
113.6523244976
 30
0.0
 10
95.6405891205
 20
113.4074765914
 30
0.0
 10
95.7917498057
 20
113.0632475462
 30
0.0
 10
96.0131424192
 20
112.7593520625
 30
0.0
 10
96.203300988
 20
112.5990220311
 30
0.0
 10
96.3038419827
 20
112.540943644
 30
0.0
  0
SPLINE
  5
32E
100
AcDbEntity
  8
0
100
AcDbSpline
 62
7
  6
CONTINUOUS
 70
0
 71
3
 72
9
 73
5
 74
0
 42
0.0000001
 43
0.0000001
 44
0.0000000001
 40
0.0
 40
0.0
 40
0.0
 40
0.0
 40
0.2405290184
 40
1.0
 40
1.0
 40
1.0
 40
1.0
 10
88.9148868497
 20
116.9702605694
 30
0.0
 10
88.9148715537
 20
116.9542224893
 30
0.0
 10
88.9165439825
 20
116.8875467408
 30
0.0
 10
88.9246312373
 20
116.8210907996
 30
0.0
 10
88.933689903
 20
116.7712673041
 30
0.0
  0
SPLINE
  5
32F
100
AcDbEntity
  8
0
100
AcDbSpline
 62
7
  6
CONTINUOUS
 70
0
 71
3
 72
11
 73
7
 74
0
 42
0.0000001
 43
0.0000001
 44
0.0000000001
 40
0.0
 40
0.0
 40
0.0
 40
0.0
 40
0.290521783
 40
0.5496340774
 40
0.7818648513
 40
1.0
 40
1.0
 40
1.0
 40
1.0
 10
86.8287570483
 20
118.0112549147
 30
0.0
 10
86.8743417509
 20
117.984937189
 30
0.0
 10
86.9650736793
 20
117.9421834799
 30
0.0
 10
87.1046083757
 20
117.9105802622
 30
0.0
 10
87.2349745002
 20
117.9180369886
 30
0.0
 10
87.3119214945
 20
117.9507375547
 30
0.0
 10
87.3449463827
 20
117.9724470468
 30
0.0
  0
SPLINE
  5
330
100
AcDbEntity
  8
0
100
AcDbSpline
 62
7
  6
CONTINUOUS
 70
0
 71
3
 72
9
 73
5
 74
0
 42
0.0000001
 43
0.0000001
 44
0.0000000001
 40
0.0
 40
0.0
 40
0.0
 40
0.0
 40
0.2378608104
 40
1.0
 40
1.0
 40
1.0
 40
1.0
 10
86.6198350551
 20
120.3988703975
 30
0.0
 10
86.8795508961
 20
120.3418182996
 30
0.0
 10
87.9627388109
 20
120.0626715847
 30
0.0
 10
89.005439245
 20
119.6366108014
 30
0.0
 10
89.7671214283
 20
119.2548294709
 30
0.0
  0
SPLINE
  5
331
100
AcDbEntity
  8
0
100
AcDbSpline
 62
7
  6
CONTINUOUS
 70
0
 71
3
 72
9
 73
5
 74
0
 42
0.0000001
 43
0.0000001
 44
0.0000000001
 40
0.0
 40
0.0
 40
0.0
 40
0.0
 40
0.5148179721
 40
1.0
 40
1.0
 40
1.0
 40
1.0
 10
20.3533501146
 20
69.112056454
 30
0.0
 10
20.167794507
 20
68.6772674424
 30
0.0
 10
19.8587799302
 20
67.8096375012
 30
0.0
 10
19.6702009427
 20
66.9070253277
 30
0.0
 10
19.6151348246
 20
66.4649259298
 30
0.0
  0
SPLINE
  5
332
100
AcDbEntity
  8
0
100
AcDbSpline
 62
7
  6
CONTINUOUS
 70
0
 71
3
 72
11
 73
7
 74
0
 42
0.0000001
 43
0.0000001
 44
0.0000000001
 40
0.0
 40
0.0
 40
0.0
 40
0.0
 40
0.2880072739
 40
0.5501852076
 40
0.7861984434
 40
1.0
 40
1.0
 40
1.0
 40
1.0
 10
19.6151348246
 20
66.4649259298
 30
0.0
 10
19.5712408198
 20
66.1125220597
 30
0.0
 10
19.5314883223
 20
65.4324306031
 30
0.0
 10
19.6321387317
 20
64.4631005945
 30
0.0
 10
19.8949716829
 20
63.6185174368
 30
0.0
 10
20.188945426
 20
63.1385083504
 30
0.0
 10
20.3594318779
 20
62.9374264158
 30
0.0
  0
SPLINE
  5
333
100
AcDbEntity
  8
0
100
AcDbSpline
 62
7
  6
CONTINUOUS
 70
0
 71
3
 72
17
 73
13
 74
0
 42
0.0000001
 43
0.0000001
 44
0.0000000001
 40
0.0
 40
0.0
 40
0.0
 40
0.0
 40
0.1251675487
 40
0.2627013926
 40
0.4060962966
 40
0.5478399056
 40
0.6810042767
 40
0.8006468451
 40
0.8549630867
 40
0.9057897445
 40
0.9537922193
 40
1.0
 40
1.0
 40
1.0
 40
1.0
 10
61.7914545103
 20
88.6894466517
 30
0.0
 10
61.5252329847
 20
88.8431462441
 30
0.0
 10
61.0112636607
 20
89.2451301993
 30
0.0
 10
60.3664382967
 20
90.0132234894
 30
0.0
 10
59.852560082
 20
90.9218601518
 30
0.0
 10
59.5149686784
 20
91.8986376227
 30
0.0
 10
59.3826822414
 20
92.8653448344
 30
0.0
 10
59.4583567578
 20
93.6262636978
 30
0.0
 10
59.6396862312
 20
94.1501723231
 30
0.0
 10
59.8241114569
 20
94.4805514754
 30
0.0
 10
60.0573915558
 20
94.7530383847
 30
0.0
 10
60.2447807633
 20
94.8927703757
 30
0.0
 10
60.3430520609
 20
94.9495268698
 30
0.0
  0
LINE
  5
334
100
AcDbEntity
  8
0
100
AcDbLine
 62
7
  6
CONTINUOUS
 10
53.7829578474
 20
55.4914687338
 11
53.7832534234
 21
55.838488779
  0
SPLINE
  5
335
100
AcDbEntity
  8
0
100
AcDbSpline
 62
7
  6
CONTINUOUS
 70
0
 71
3
 72
11
 73
7
 74
0
 42
0.0000001
 43
0.0000001
 44
0.0000000001
 40
0.0
 40
0.0
 40
0.0
 40
0.0
 40
0.2177235526
 40
0.4517850582
 40
0.7116873645
 40
1.0
 40
1.0
 40
1.0
 40
1.0
 10
89.1065667083
 20
117.420375476
 30
0.0
 10
89.075717712
 20
117.400134809
 30
0.0
 10
89.0184863031
 20
117.3470011551
 30
0.0
 10
88.9579249715
 20
117.2410182117
 30
0.0
 10
88.9221079629
 20
117.1122872521
 30
0.0
 10
88.9149334478
 20
117.0191193017
 30
0.0
 10
88.9148868497
 20
116.9702605694
 30
0.0
  0
SPLINE
  5
336
100
AcDbEntity
  8
0
100
AcDbSpline
 62
7
  6
CONTINUOUS
 70
0
 71
3
 72
12
 73
8
 74
0
 42
0.0000001
 43
0.0000001
 44
0.0000000001
 40
0.0
 40
0.0
 40
0.0
 40
0.0
 40
0.1016879691
 40
0.2069652352
 40
0.4359465923
 40
0.6993011674
 40
1.0
 40
1.0
 40
1.0
 40
1.0
 10
63.9416207676
 20
31.7058598898
 30
0.0
 10
63.8885052004
 20
31.6751805547
 30
0.0
 10
63.7740921734
 20
31.623076177
 30
0.0
 10
63.5177433501
 20
31.5591549982
 30
0.0
 10
63.1513399696
 20
31.5633660569
 30
0.0
 10
62.686557542
 20
31.6899432185
 30
0.0
 10
62.3790389952
 20
31.8398189544
 30
0.0
 10
62.221954743
 20
31.930509538
 30
0.0
  0
SPLINE
  5
337
100
AcDbEntity
  8
0
100
AcDbSpline
 62
7
  6
CONTINUOUS
 70
0
 71
3
 72
9
 73
5
 74
0
 42
0.0000001
 43
0.0000001
 44
0.0000000001
 40
0.0
 40
0.0
 40
0.0
 40
0.0
 40
0.4772465344
 40
1.0
 40
1.0
 40
1.0
 40
1.0
 10
53.5686494556
 20
55.8778775418
 30
0.0
 10
53.5686467132
 20
55.9093186327
 30
0.0
 10
53.5841792534
 20
55.9750729051
 30
0.0
 10
53.6175297021
 20
56.0329729175
 30
0.0
 10
53.639106659
 20
56.059814793
 30
0.0
  0
SPLINE
  5
338
100
AcDbEntity
  8
0
100
AcDbSpline
 62
7
  6
CONTINUOUS
 70
0
 71
3
 72
9
 73
5
 74
0
 42
0.0000001
 43
0.0000001
 44
0.0000000001
 40
0.0
 40
0.0
 40
0.0
 40
0.0
 40
0.26692895
 40
1.0
 40
1.0
 40
1.0
 40
1.0
 10
53.639106659
 20
56.059814793
 30
0.0
 10
53.6444126474
 20
56.0664154772
 30
0.0
 10
53.6652667298
 20
56.0902973339
 30
0.0
 10
53.6899210177
 20
56.1112082905
 30
0.0
 10
53.7100630111
 20
56.1228379639
 30
0.0
  0
SPLINE
  5
339
100
AcDbEntity
  8
0
100
AcDbSpline
 62
7
  6
CONTINUOUS
 70
0
 71
3
 72
9
 73
5
 74
0
 42
0.0000001
 43
0.0000001
 44
0.0000000001
 40
0.0
 40
0.0
 40
0.0
 40
0.0
 40
0.2463721579
 40
1.0
 40
1.0
 40
1.0
 40
1.0
 10
53.784072115
 20
56.1655624498
 30
0.0
 10
53.7880378399
 20
57.3662404797
 30
0.0
 10
53.8470208358
 20
62.2394660967
 30
0.0
 10
54.0748098957
 20
67.1104102139
 30
0.0
 10
54.3341281481
 20
70.7740184155
 30
0.0
  0
SPLINE
  5
33A
100
AcDbEntity
  8
0
100
AcDbSpline
 62
7
  6
CONTINUOUS
 70
0
 71
3
 72
9
 73
5
 74
0
 42
0.0000001
 43
0.0000001
 44
0.0000000001
 40
0.0
 40
0.0
 40
0.0
 40
0.0
 40
0.2439112253
 40
1.0
 40
1.0
 40
1.0
 40
1.0
 10
67.8892549205
 20
78.6000277915
 30
0.0
 10
67.8892555763
 20
79.9014148106
 30
0.0
 10
67.971047265
 20
85.2367464664
 30
0.0
 10
68.370611713
 20
90.5659694015
 30
0.0
 10
68.8286520315
 20
94.573989215
 30
0.0
  0
SPLINE
  5
33B
100
AcDbEntity
  8
0
100
AcDbSpline
 62
7
  6
CONTINUOUS
 70
0
 71
3
 72
11
 73
7
 74
0
 42
0.0000001
 43
0.0000001
 44
0.0000000001
 40
0.0
 40
0.0
 40
0.0
 40
0.0
 40
0.2303712323
 40
0.4759165279
 40
0.7336104949
 40
1.0
 40
1.0
 40
1.0
 40
1.0
 10
23.6437358977
 20
71.154491128
 30
0.0
 10
23.9768377659
 20
70.9621790255
 30
0.0
 10
24.6391313209
 20
70.5190945628
 30
0.0
 10
25.5778239925
 20
69.7291315334
 30
0.0
 10
26.4770955629
 20
68.8087311944
 30
0.0
 10
27.0319024763
 20
68.1305080664
 30
0.0
 10
27.2992743502
 20
67.7750784265
 30
0.0
  0
SPLINE
  5
33C
100
AcDbEntity
  8
0
100
AcDbSpline
 62
7
  6
CONTINUOUS
 70
0
 71
3
 72
11
 73
7
 74
0
 42
0.0000001
 43
0.0000001
 44
0.0000000001
 40
0.0
 40
0.0
 40
0.0
 40
0.0
 40
0.2548919483
 40
0.5097976311
 40
0.7597170946
 40
1.0
 40
1.0
 40
1.0
 40
1.0
 10
27.2992743502
 20
67.7750784265
 30
0.0
 10
27.6058353958
 20
67.3675528314
 30
0.0
 10
28.1813502449
 20
66.5235160989
 30
0.0
 10
28.9252829864
 20
65.1959697051
 30
0.0
 10
29.5397554251
 20
63.8357967399
 30
0.0
 10
29.8628221824
 20
62.9080261762
 30
0.0
 10
29.9982965029
 20
62.446780423
 30
0.0
  0
SPLINE
  5
33D
100
AcDbEntity
  8
0
100
AcDbSpline
 62
7
  6
CONTINUOUS
 70
0
 71
3
 72
13
 73
9
 74
0
 42
0.0000001
 43
0.0000001
 44
0.0000000001
 40
0.0
 40
0.0
 40
0.0
 40
0.0
 40
0.2870478841
 40
0.4239240713
 40
0.5545482577
 40
0.6779431611
 40
0.7934583974
 40
1.0
 40
1.0
 40
1.0
 40
1.0
 10
31.4814793243
 20
62.6467780485
 30
0.0
 10
31.1447055783
 20
61.9182700508
 30
0.0
 10
30.7253396566
 20
60.802572654
 30
0.0
 10
30.3663259235
 20
59.2926254168
 30
0.0
 10
30.2105837008
 20
58.2092440934
 30
0.0
 10
30.1667307317
 20
57.1744888679
 30
0.0
 10
30.2548182456
 20
55.9314947294
 30
0.0
 10
30.489788439
 20
55.0433675082
 30
0.0
 10
30.738108241
 20
54.5219938792
 30
0.0
  0
SPLINE
  5
33E
100
AcDbEntity
  8
0
100
AcDbSpline
 62
7
  6
CONTINUOUS
 70
0
 71
3
 72
14
 73
10
 74
0
 42
0.0000001
 43
0.0000001
 44
0.0000000001
 40
0.0
 40
0.0
 40
0.0
 40
0.0
 40
0.296892735
 40
0.4360592419
 40
0.5669892497
 40
0.6887169535
 40
0.8009458223
 40
0.9042016105
 40
1.0
 40
1.0
 40
1.0
 40
1.0
 10
32.868402239
 20
61.8843229132
 30
0.0
 10
32.617240544
 20
61.2953999266
 30
0.0
 10
32.3182146201
 20
60.3963929303
 30
0.0
 10
32.1089340541
 20
59.1899915711
 30
0.0
 10
32.0563378007
 20
58.3446572822
 30
0.0
 10
32.106159411
 20
57.5570176593
 30
0.0
 10
32.258144283
 20
56.8426719463
 30
0.0
 10
32.5104395959
 20
56.2166167802
 30
0.0
 10
32.7510854114
 20
55.8561370203
 30
0.0
 10
32.885659312
 20
55.6993942579
 30
0.0
  0
SPLINE
  5
33F
100
AcDbEntity
  8
0
100
AcDbSpline
 62
7
  6
CONTINUOUS
 70
0
 71
3
 72
17
 73
13
 74
0
 42
0.0000001
 43
0.0000001
 44
0.0000000001
 40
0.0
 40
0.0
 40
0.0
 40
0.0
 40
0.1251675386
 40
0.2627013572
 40
0.4060962647
 40
0.5478398839
 40
0.6810042692
 40
0.800646842
 40
0.8549630833
 40
0.9057897412
 40
0.9537922172
 40
1.0
 40
1.0
 40
1.0
 40
1.0
 10
49.2756123752
 20
95.9153080067
 30
0.0
 10
49.0093908708
 20
96.0690075868
 30
0.0
 10
48.4954215902
 20
96.4709914567
 30
0.0
 10
47.8505962886
 20
97.2390847003
 30
0.0
 10
47.3367180429
 20
98.147721306
 30
0.0
 10
46.9991265413
 20
99.124498826
 30
0.0
 10
46.8668401442
 20
100.0912061123
 30
0.0
 10
46.9425145999
 20
100.8521250301
 30
0.0
 10
47.1238441039
 20
101.3760336583
 30
0.0
 10
47.3082693241
 20
101.7064128141
 30
0.0
 10
47.5415494133
 20
101.9788997444
 30
0.0
 10
47.7289386309
 20
102.1186317378
 30
0.0
 10
47.8272099342
 20
102.1753882331
 30
0.0
  0
SPLINE
  5
340
100
AcDbEntity
  8
0
100
AcDbSpline
 62
7
  6
CONTINUOUS
 70
0
 71
3
 72
11
 73
7
 74
0
 42
0.0000001
 43
0.0000001
 44
0.0000000001
 40
0.0
 40
0.0
 40
0.0
 40
0.0
 40
0.2177235526
 40
0.4517850582
 40
0.7116873645
 40
1.0
 40
1.0
 40
1.0
 40
1.0
 10
64.0748824381
 20
131.872098186
 30
0.0
 10
64.0440334418
 20
131.851857519
 30
0.0
 10
63.9868020329
 20
131.7987238651
 30
0.0
 10
63.9262407013
 20
131.6927409217
 30
0.0
 10
63.8904236927
 20
131.5640099621
 30
0.0
 10
63.8832491776
 20
131.4708420118
 30
0.0
 10
63.8832025795
 20
131.4219832794
 30
0.0
  0
SPLINE
  5
341
100
AcDbEntity
  8
0
100
AcDbSpline
 62
7
  6
CONTINUOUS
 70
0
 71
3
 72
11
 73
7
 74
0
 42
0.0000001
 43
0.0000001
 44
0.0000000001
 40
0.0
 40
0.0
 40
0.0
 40
0.0
 40
0.2243299148
 40
0.4594233884
 40
0.7162533288
 40
1.0
 40
1.0
 40
1.0
 40
1.0
 10
38.605904061
 20
102.9895368106
 30
0.0
 10
38.4805442051
 20
102.9171325959
 30
0.0
 10
38.1974740416
 20
102.8103569835
 30
0.0
 10
37.7293851266
 20
102.7889565672
 30
0.0
 10
37.2364316943
 20
102.9002386797
 30
0.0
 10
36.9183493712
 20
103.049615729
 30
0.0
 10
36.7597702401
 20
103.1411693618
 30
0.0
  0
SPLINE
  5
342
100
AcDbEntity
  8
0
100
AcDbSpline
 62
7
  6
CONTINUOUS
 70
0
 71
3
 72
11
 73
7
 74
0
 42
0.0000001
 43
0.0000001
 44
0.0000000001
 40
0.0
 40
0.0
 40
0.0
 40
0.0
 40
0.2873268984
 40
0.5569098049
 40
0.7962309138
 40
1.0
 40
1.0
 40
1.0
 40
1.0
 10
51.5762473656
 20
39.4013645428
 30
0.0
 10
51.6410180861
 20
39.5089796889
 30
0.0
 10
51.784110916
 20
39.7076385088
 30
0.0
 10
52.0358743898
 20
39.9510831306
 30
0.0
 10
52.3022088924
 20
40.1175647851
 30
0.0
 10
52.4931252764
 20
40.1712789759
 30
0.0
 10
52.5820486955
 20
40.1765023956
 30
0.0
  0
ELLIPSE
  5
343
100
AcDbEntity
  8
0
100
AcDbEllipse
 62
7
  6
CONTINUOUS
 10
94.6310650778
 20
105.2548376312
 30
0.0
 11
-10.6181495476
 21
16.2036140087
 31
0.0
 40
0.535815383
 41
-1.1135061461
 42
-0.5154849293
  0
ELLIPSE
  5
344
100
AcDbEntity
  8
0
100
AcDbEllipse
 62
7
  6
CONTINUOUS
 10
69.5993808076
 20
119.7065603413
 30
0.0
 11
-10.6181495476
 21
16.2036140087
 31
0.0
 40
0.535815383
 41
-1.1135061461
 42
-0.5154849293
  0
ELLIPSE
  5
345
100
AcDbEntity
  8
0
100
AcDbEllipse
 62
7
  6
CONTINUOUS
 10
91.5673377751
 20
116.258856278
 30
0.0
 11
-0.7717439985
 21
1.3464672017
 31
0.0
 40
0.5779938537
 41
5.5336728739
 42
7.0716647293
  0
ELLIPSE
  5
346
100
AcDbEntity
  8
0
100
AcDbEllipse
 62
7
  6
CONTINUOUS
 10
66.5356535049
 20
130.7105789881
 30
0.0
 11
-0.7717439985
 21
1.3464672017
 31
0.0
 40
0.5779938537
 41
5.5336728739
 42
7.0716647293
  0
ENDSEC
  0
SECTION
  2
OBJECTS
  0
DICTIONARY
  5
C
100
AcDbDictionary
280
0
281
1
  3
ACAD_GROUP
350
D
  3
ACAD_MLINESTYLE
350
17
  3
ACAD_LAYOUT
350
1A
  3
ACAD_PLOTSETTINGS
350
19
  3
ACAD_PLOTSTYLENAME
350
E
  0
DICTIONARY
  5
D
102
{ACAD_REACTORS
330
C
102
}
100
AcDbDictionary
280
0
281
1
  0
ACDBDICTIONARYWDFLT
  5
E
102
{ACAD_REACTORS
330
C
102
}
100
AcDbDictionary
281
1
  3
Normal
350
F
100
AcDbDictionaryWithDefault
340
F
  0
DICTIONARY
  5
17
102
{ACAD_REACTORS
330
C
102
}
100
AcDbDictionary
280
0
281
1
  3
Standard
350
18
  0
DICTIONARY
  5
19
102
{ACAD_REACTORS
330
C
102
}
100
AcDbDictionary
281
1
  0
DICTIONARY
  5
1A
102
{ACAD_REACTORS
330
C
102
}
100
AcDbDictionary
281
1
  3
Model
350
347
  3
Layout1
350
348
  0
ACDBPLACEHOLDER
  5
F
102
{ACAD_REACTORS
330
E
102
}
  0
MLINESTYLE
  5
18
102
{ACAD_REACTORS
330
17
102
}
100
AcDbMlineStyle
  2
STANDARD
 70
0
  3

 62
256
 51
90.0
 52
90.0
 71
2
 49
0.5
 62
256
  6
BYLAYER
 49
-0.5
 62
256
  6
BYLAYER
  0
LAYOUT
  5
347
102
{ACAD_REACTORS
330
1A
102
}
100
AcDbPlotSettings
  1

  2
none_device
  4

  6

 40
0.0
 41
0.0
 42
0.0
 43
0.0
 44
210.0
 45
297.0
 46
0.0
 47
0.0
 48
0.0
 49
0.0
140
0.0
141
0.0
142
1.0
143
1.0
 70
1024
 72
1
 73
0
 74
0
  7

 75
0
147
1.0
148
0.0
149
0.0
100
AcDbLayout
  1
Model
 70
0
 71
0
 10
0.0
 20
0.0
 11
210.0
 21
297.0
 12
0.0
 22
0.0
 32
0.0
 14
0.0
 24
0.0
 34
0.0
 15
0.0
 25
0.0
 35
0.0
146
0.0
 13
0.0
 23
0.0
 33
0.0
 16
1.0
 26
0.0
 36
0.0
 17
0.0
 27
1.0
 37
0.0
 76
0
330
210
345
0
346
0
  0
LAYOUT
  5
348
102
{ACAD_REACTORS
330
1A
102
}
100
AcDbPlotSettings
  1

  2
none_device
  4

  6

 40
0.0
 41
0.0
 42
0.0
 43
0.0
 44
210.0
 45
297.0
 46
0.0
 47
0.0
 48
0.0
 49
0.0
140
0.0
141
0.0
142
1.0
143
1.0
 70
0
 72
1
 73
0
 74
0
  7

 75
0
147
1.0
148
0.0
149
0.0
100
AcDbLayout
  1
Layout1
 70
0
 71
1
 10
0.0
 20
0.0
 11
210.0
 21
297.0
 12
0.0
 22
0.0
 32
0.0
 14
0.0
 24
0.0
 34
0.0
 15
0.0
 25
0.0
 35
0.0
146
0.0
 13
0.0
 23
0.0
 33
0.0
 16
1.0
 26
0.0
 36
0.0
 17
0.0
 27
1.0
 37
0.0
 76
0
330
211
345
0
346
0
  0
ENDSEC
  0
EOF
