999
DXF file: C:\Users\sesa63760\Documents\7-Dev\_Creo\CAD\MCADFD0001000_3D-CAD\drw0001_1.dxf
999
Pro/ENGINEER 2019471 by Parametric Technology Corporation
  0
SECTION
  2
HEADER
  9
$ACADVER
  1
AC1024
  9
$DWGCODEPAGE
  3
ANSI_1252
  9
$EXTMAX
 10
130.3863904553
 20
184.4036093582
 30
0.0
  9
$EXTMIN
 10
0.0
 20
0.0
 30
0.0
  9
$LIMMIN
 10
0.0
 20
0.0
  9
$LIMMAX
 10
130.3863904553
 20
184.4036093582
  9
$VIEWCTR
 10
65.1931952276
 20
92.2018046791
  9
$VIEWSIZE
 40
184.4036093582
  9
$CLAYER
  8
0
  9
$LTSCALE
 40
12.0203834248
  9
$CELTYPE
  6
BYLAYER
  9
$DIMSCALE
 40
1.0
  9
$DIMASZ
 40
1.552218934
  9
$DIMEXO
 40
1.0
  9
$DIMDLI
 40
8.3049921844
  9
$DIMEXE
 40
1.0
  9
$DIMCEN
 40
1.9669718332
  9
$DIMLFAC
 40
1.0
  9
$DIMBLK
  1
_FILLED
  9
$DIMALT
 70
0
  9
$DIMALTF
 40
0.0393700787
  9
$DIMTXT
 40
2.1731065076
  9
$DIMTOL
 70
1
  9
$DIMLIM
 70
0
  9
$DIMTFAC
 40
1.0
  9
$DIMTP
 40
0.01
  9
$DIMTM
 40
0.01
  9
$DIMGAP
 40
0.625
  9
$DIMDSEP
 70
46
  9
$AUNITS
 70
0
  9
$PDMODE
 70
3
  9
$PDSIZE
 40
0.3125
  9
$HANDSEED
  5
410
  9
$TILEMODE
 70
1
  9
$MEASUREMENT
 70
1
  9
$INSUNITS
 70
4
  0
ENDSEC
  0
SECTION
  2
CLASSES
  0
CLASS
  1
ACDBDICTIONARYWDFLT
  2
AcDbDictionaryWithDefault
  3
AutoCAD 2000
 90
0
 91
1
280
0
281
0
  0
CLASS
  1
ACDBPLACEHOLDER
  2
AcDbPlaceHolder
  3
AutoCAD 2000
 90
0
 91
1
280
0
281
0
  0
CLASS
  1
LAYOUT
  2
AcDbLayout
  3
AutoCAD 2000
 90
0
 91
0
280
0
281
0
  0
ENDSEC
  0
SECTION
  2
TABLES
  0
TABLE
  2
VPORT
  5
8
100
AcDbSymbolTable
 70
2
  0
VPORT
  5
1F4
100
AcDbSymbolTableRecord
100
AcDbViewportTableRecord
  2
*ACTIVE
 70
0
 10
0.0
 20
0.0
 11
1.0
 21
1.0
 12
65.1931952276
 22
92.2018046791
 13
0.0
 23
0.0
 14
1.0
 24
1.0
 15
0.0
 25
0.0
 16
0.0
 26
0.0
 36
1.0
 17
0.0
 27
0.0
 37
0.0
 40
184.4036093582
 41
0.7070707071
 42
50.0
 43
0.0
 44
0.0
 50
0.0
 51
0.0
 71
0
 72
100
 73
1
 74
1
 75
0
 76
0
 77
0
 78
0
  0
ENDTAB
  0
TABLE
  2
LTYPE
  5
5
100
AcDbSymbolTable
 70
6
  0
LTYPE
  5
14
100
AcDbSymbolTableRecord
100
AcDbLinetypeTableRecord
  2
BYBLOCK
 70
0
  3

 72
65
 73
0
 40
0.0
  0
LTYPE
  5
15
100
AcDbSymbolTableRecord
100
AcDbLinetypeTableRecord
  2
BYLAYER
 70
0
  3

 72
65
 73
0
 40
0.0
  0
LTYPE
  5
16
100
AcDbSymbolTableRecord
100
AcDbLinetypeTableRecord
  2
CONTINUOUS
 70
64
  3
Solid line
 72
65
 73
0
 40
0.0
  0
LTYPE
  5
1F5
100
AcDbSymbolTableRecord
100
AcDbLinetypeTableRecord
  2
CENTER
 70
64
  3
____ _ ____ _ ____ _ ____ _ ____ _ ____ _ ____
 72
65
 73
4
 40
0.6
 49
0.375
 74
0
 49
-0.075
 74
0
 49
0.075
 74
0
 49
-0.075
 74
0
  0
LTYPE
  5
1F6
100
AcDbSymbolTableRecord
100
AcDbLinetypeTableRecord
  2
HIDDEN
 70
64
  3
- - - - - - - - - - - - - - - - - - - -
 72
65
 73
2
 40
0.2
 49
0.1
 74
0
 49
-0.1
 74
0
  0
LTYPE
  5
1F7
100
AcDbSymbolTableRecord
100
AcDbLinetypeTableRecord
  2
PHANTOM
 70
64
  3
_____ _ _ _____ _ _ _____ _ _ _____
 72
65
 73
6
 40
0.8
 49
0.45
 74
0
 49
-0.05
 74
0
 49
0.1
 74
0
 49
-0.05
 74
0
 49
0.1
 74
0
 49
-0.05
 74
0
  0
LTYPE
  5
1F8
100
AcDbSymbolTableRecord
100
AcDbLinetypeTableRecord
  2
DOT
 70
64
  3
. . . . . . . . . . . . . . . . . . . .
 72
65
 73
2
 40
0.2
 49
0.1
 74
0
 49
-0.1
 74
0
  0
LTYPE
  5
1F9
100
AcDbSymbolTableRecord
100
AcDbLinetypeTableRecord
  2
DASHED
 70
64
  3
- - - - - - - - - - - - - - - - - - - -
 72
65
 73
2
 40
0.2
 49
0.1
 74
0
 49
-0.1
 74
0
  0
ENDTAB
  0
TABLE
  2
LAYER
  5
2
100
AcDbSymbolTable
 70
36
  0
LAYER
  5
10
100
AcDbSymbolTableRecord
100
AcDbLayerTableRecord
  2
0
 70
0
 62
7
  6
CONTINUOUS
370
-3
390
F
  0
LAYER
  5
1FA
100
AcDbSymbolTableRecord
100
AcDbLayerTableRecord
  2
DEFAULT_1
 70
0
 62
7
  6
CENTER
370
-3
390
F
  0
LAYER
  5
1FB
100
AcDbSymbolTableRecord
100
AcDbLayerTableRecord
  2
DEFAULT_2
 70
0
 62
8
  6
HIDDEN
370
-3
390
F
  0
LAYER
  5
1FC
100
AcDbSymbolTableRecord
100
AcDbLayerTableRecord
  2
DEFAULT_3
 70
0
 62
7
  6
PHANTOM
370
-3
390
F
  0
LAYER
  5
1FD
100
AcDbSymbolTableRecord
100
AcDbLayerTableRecord
  2
00_COMPONENTS
 70
0
 62
7
  6
CONTINUOUS
370
-3
390
F
  0
LAYER
  5
1FE
100
AcDbSymbolTableRecord
100
AcDbLayerTableRecord
  2
01_1_DEFAULT_DATUMS
 70
0
 62
7
  6
CONTINUOUS
370
-3
390
F
  0
LAYER
  5
1FF
100
AcDbSymbolTableRecord
100
AcDbLayerTableRecord
  2
01_PLANES
 70
0
 62
7
  6
CONTINUOUS
370
-3
390
F
  0
LAYER
  5
200
100
AcDbSymbolTableRecord
100
AcDbLayerTableRecord
  2
02_COORD_SYS
 70
0
 62
7
  6
CONTINUOUS
370
-3
390
F
  0
LAYER
  5
201
100
AcDbSymbolTableRecord
100
AcDbLayerTableRecord
  2
03_AXES
 70
0
 62
7
  6
CONTINUOUS
370
-3
390
F
  0
LAYER
  5
202
100
AcDbSymbolTableRecord
100
AcDbLayerTableRecord
  2
04_POINTS
 70
0
 62
7
  6
CONTINUOUS
370
-3
390
F
  0
LAYER
  5
203
100
AcDbSymbolTableRecord
100
AcDbLayerTableRecord
  2
05_CURVES
 70
0
 62
7
  6
CONTINUOUS
370
-3
390
F
  0
LAYER
  5
204
100
AcDbSymbolTableRecord
100
AcDbLayerTableRecord
  2
06_SURFS
 70
0
 62
7
  6
CONTINUOUS
370
-3
390
F
  0
LAYER
  5
205
100
AcDbSymbolTableRecord
100
AcDbLayerTableRecord
  2
07_COSMETICS
 70
0
 62
7
  6
CONTINUOUS
370
-3
390
F
  0
LAYER
  5
206
100
AcDbSymbolTableRecord
100
AcDbLayerTableRecord
  2
10_NOTES
 70
0
 62
7
  6
CONTINUOUS
370
-3
390
F
  0
LAYER
  5
207
100
AcDbSymbolTableRecord
100
AcDbLayerTableRecord
  2
11_NOTES_PUB
 70
0
 62
7
  6
CONTINUOUS
370
-3
390
F
  0
LAYER
  5
208
100
AcDbSymbolTableRecord
100
AcDbLayerTableRecord
  2
13_REF_GTOL
 70
0
 62
7
  6
CONTINUOUS
370
-3
390
F
  0
LAYER
  5
209
100
AcDbSymbolTableRecord
100
AcDbLayerTableRecord
  2
16_MISC
 70
0
 62
7
  6
CONTINUOUS
370
-3
390
F
  0
LAYER
  5
20A
100
AcDbSymbolTableRecord
100
AcDbLayerTableRecord
  2
17_NO_PRINT
 70
0
 62
7
  6
CONTINUOUS
370
-3
390
F
  0
LAYER
  5
20B
100
AcDbSymbolTableRecord
100
AcDbLayerTableRecord
  2
18_DATUM_CAMS_JOINTS
 70
0
 62
7
  6
CONTINUOUS
370
-3
390
F
  0
LAYER
  5
20C
100
AcDbSymbolTableRecord
100
AcDbLayerTableRecord
  2
19_DATUM_FUNCTIONAL
 70
0
 62
7
  6
CONTINUOUS
370
-3
390
F
  0
LAYER
  5
20D
100
AcDbSymbolTableRecord
100
AcDbLayerTableRecord
  2
20_DATUM_KINEMATIC_SCHEME
 70
0
 62
7
  6
CONTINUOUS
370
-3
390
F
  0
ENDTAB
  0
TABLE
  2
STYLE
  5
3
100
AcDbSymbolTable
 70
1
  0
STYLE
  5
11
100
AcDbSymbolTableRecord
100
AcDbTextStyleTableRecord
  2
STANDARD
 70
0
 40
0.0
 41
0.8
 50
0.0
 71
0
 42
0.2
  3
txt
  4

  0
STYLE
  5
20E
100
AcDbSymbolTableRecord
100
AcDbTextStyleTableRecord
  2
TEXTSTYLE_1
 70
0
 40
0.0
 41
0.8
 50
0.0
 71
0
 42
0.2
  3
gdt
  4

  0
ENDTAB
  0
TABLE
  2
VIEW
  5
6
100
AcDbSymbolTable
 70
0
  0
ENDTAB
  0
TABLE
  2
UCS
  5
7
100
AcDbSymbolTable
 70
0
  0
ENDTAB
  0
TABLE
  2
APPID
  5
9
100
AcDbSymbolTable
 70
1
  0
APPID
  5
20F
100
AcDbSymbolTableRecord
100
AcDbRegAppTableRecord
  2
ACAD
 70
0
  0
ENDTAB
  0
TABLE
  2
BLOCK_RECORD
  5
1
100
AcDbSymbolTable
 70
0
  0
BLOCK_RECORD
  5
210
100
AcDbSymbolTableRecord
100
AcDbBlockTableRecord
  2
*Model_Space
  0
BLOCK_RECORD
  5
211
100
AcDbSymbolTableRecord
100
AcDbBlockTableRecord
  2
*Paper_Space
  0
BLOCK_RECORD
  5
212
100
AcDbSymbolTableRecord
100
AcDbBlockTableRecord
  2
_FILLED
  0
ENDTAB
  0
TABLE
  2
DIMSTYLE
  5
A
100
AcDbSymbolTable
 70
1
100
AcDbDimStyleTable
 71
0
  0
DIMSTYLE
105
213
100
AcDbSymbolTableRecord
100
AcDbDimStyleTableRecord
  2
STANDARD
 70
0
  3

  4

 40
1.0
 41
1.552218934
 42
1.0
 43
0.38
 44
1.0
 45
0.0
 46
0.0
 47
0.01
 48
0.01
140
2.1731065076
141
0.09
142
0.0
143
25.4
144
1.0
145
0.0
146
1.0
147
0.625
 71
1
 72
0
 73
0
 74
0
 75
0
 76
0
 77
1
 78
8
 79
2
170
0
171
1
172
0
173
0
174
0
175
0
176
0
177
0
178
0
270
2
179
2
271
2
272
2
273
2
274
2
275
0
280
0
281
0
282
0
283
1
284
8
285
0
286
0
287
3
288
0
340
11
278
46
341
212
342
212
343
212
344
212
  0
ENDTAB
  0
ENDSEC
  0
SECTION
  2
BLOCKS
  0
BLOCK
  5
20
100
AcDbEntity
  8
0
100
AcDbBlockBegin
  2
*Model_Space
 70
0
 10
0.0
 20
0.0
 30
0.0
  3
*Model_Space
  1

  0
ENDBLK
  5
21
100
AcDbEntity
  8
0
100
AcDbBlockEnd
  0
BLOCK
  5
1C
100
AcDbEntity
  8
0
100
AcDbBlockBegin
  2
*Paper_Space
 70
0
 10
0.0
 20
0.0
 30
0.0
  3
*Paper_Space
  1

  0
ENDBLK
  5
1D
100
AcDbEntity
  8
0
100
AcDbBlockEnd
  0
BLOCK
  5
214
100
AcDbEntity
  8
0
100
AcDbBlockBegin
  2
_FILLED
 70
64
 10
0.0
 20
0.0
  3
_FILLED
  1

  0
SOLID
  5
215
100
AcDbEntity
  8
0
  6
BYBLOCK
 62
0
100
AcDbTrace
 10
0.0
 20
0.0
 11
-1.0
 21
0.25
 12
-1.0
 22
-0.25
 13
-1.0
 23
-0.25
  0
ENDBLK
  5
216
100
AcDbEntity
  8
0
  6
BYBLOCK
 62
0
100
AcDbBlockEnd
  0
ENDSEC
  0
SECTION
  2
ENTITIES
  0
LINE
  5
217
100
AcDbEntity
  8
0
100
AcDbLine
 62
7
  6
CONTINUOUS
 10
15.1839386213
 20
71.1154182209
 11
15.3402913365
 21
70.8621069777
  0
LINE
  5
218
100
AcDbEntity
  8
0
100
AcDbLine
 62
7
  6
CONTINUOUS
 10
64.2017367288
 20
147.7803313107
 11
63.714767533
 21
147.459910139
  0
LINE
  5
219
100
AcDbEntity
  8
0
100
AcDbLine
 62
7
  6
CONTINUOUS
 10
63.959928929
 20
147.3183693431
 11
64.401492941
 21
147.6089143289
  0
LINE
  5
21A
100
AcDbEntity
  8
0
100
AcDbLine
 62
7
  6
CONTINUOUS
 10
33.3010551284
 20
131.7072013638
 11
42.4023782991
 21
136.9618213806
  0
LINE
  5
21B
100
AcDbEntity
  8
0
100
AcDbLine
 62
7
  6
CONTINUOUS
 10
59.7971326946
 20
147.0046275658
 11
63.4842375903
 21
149.1333658631
  0
LINE
  5
21C
100
AcDbEntity
  8
0
100
AcDbLine
 62
7
  6
CONTINUOUS
 10
60.4688869335
 20
146.616798849
 11
56.2262639102
 21
144.1673339258
  0
LINE
  5
21D
100
AcDbEntity
  8
0
100
AcDbLine
 62
7
  6
CONTINUOUS
 10
47.3167555613
 20
139.023457587
 11
43.074132538
 21
136.5739926638
  0
LINE
  5
21E
100
AcDbEntity
  8
0
100
AcDbLine
 62
7
  6
CONTINUOUS
 10
63.4834504454
 20
148.3164230997
 11
62.8573354392
 21
147.9549375901
  0
LINE
  5
21F
100
AcDbEntity
  8
0
100
AcDbLine
 62
7
  6
CONTINUOUS
 10
56.8626626628
 20
143.7999172467
 11
47.9531543139
 21
138.656040908
  0
LINE
  5
220
100
AcDbEntity
  8
0
100
AcDbLine
 62
7
  6
CONTINUOUS
 10
66.5374122768
 20
151.2892977036
 11
63.4846204339
 21
149.530702226
  0
LINE
  5
221
100
AcDbEntity
  8
0
100
AcDbLine
 62
7
  6
CONTINUOUS
 10
67.5511412259
 20
148.916196746
 11
66.6319068071
 21
148.3866612994
  0
LINE
  5
222
100
AcDbEntity
  8
0
100
AcDbLine
 62
7
  6
CONTINUOUS
 10
66.6299718169
 20
146.3784208443
 11
67.5492062357
 21
146.9079562909
  0
LINE
  5
223
100
AcDbEntity
  8
0
100
AcDbLine
 62
7
  6
CONTINUOUS
 10
68.399683282
 20
147.3683033562
 11
69.3189177008
 21
147.8978388028
  0
LINE
  5
224
100
AcDbEntity
  8
0
100
AcDbLine
 62
7
  6
CONTINUOUS
 10
64.8661924934
 20
42.3817077989
 11
64.6258391793
 21
42.4077263877
  0
LINE
  5
225
100
AcDbEntity
  8
0
100
AcDbLine
 62
7
  6
CONTINUOUS
 10
68.3386103299
 20
146.6831016608
 11
67.3361030799
 21
146.0234612761
  0
LINE
  5
226
100
AcDbEntity
  8
0
100
AcDbLine
 62
7
  6
CONTINUOUS
 10
68.3984937461
 20
146.1337367417
 11
67.2830683773
 21
145.3997972919
  0
LINE
  5
227
100
AcDbEntity
  8
0
100
AcDbLine
 62
7
  6
CONTINUOUS
 10
71.5456815959
 20
144.8874427488
 11
74.5978171997
 21
146.6456601923
  0
LINE
  5
228
100
AcDbEntity
  8
0
100
AcDbLine
 62
7
  6
CONTINUOUS
 10
72.4636188255
 20
144.0706830469
 11
71.5443844067
 21
143.5411476004
  0
LINE
  5
229
100
AcDbEntity
  8
0
100
AcDbLine
 62
7
  6
CONTINUOUS
 10
64.6258233329
 20
42.4076989049
 11
15.3402754901
 21
70.862079495
  0
LINE
  5
22A
100
AcDbEntity
  8
0
100
AcDbLine
 62
7
  6
CONTINUOUS
 10
64.469486464
 20
42.6610376308
 11
15.1839386213
 21
71.1154182209
  0
LINE
  5
22B
100
AcDbEntity
  8
0
100
AcDbLine
 62
7
  6
CONTINUOUS
 10
83.3644236662
 20
33.5643509697
 11
66.5526694725
 21
43.2704021987
  0
LINE
  5
22C
100
AcDbEntity
  8
0
100
AcDbLine
 62
7
  6
CONTINUOUS
 10
72.4624907598
 20
142.8999137122
 11
74.738700389
 21
144.3976383376
  0
LINE
  5
22D
100
AcDbEntity
  8
0
100
AcDbLine
 62
7
  6
CONTINUOUS
 10
73.4351992459
 20
141.8479432325
 11
75.4950734056
 21
143.2033211444
  0
LINE
  5
22E
100
AcDbEntity
  8
0
100
AcDbLine
 62
7
  6
CONTINUOUS
 10
66.7621988149
 20
138.0845466835
 11
57.852690466
 21
132.9406703447
  0
LINE
  5
22F
100
AcDbEntity
  8
0
100
AcDbLine
 62
7
  6
CONTINUOUS
 10
76.433806407
 20
142.9744035374
 11
73.958958124
 21
141.5455577441
  0
LINE
  5
230
100
AcDbEntity
  8
0
100
AcDbLine
 62
7
  6
CONTINUOUS
 10
71.6412205908
 20
140.1665949276
 11
67.3985975675
 21
137.7171300044
  0
LINE
  5
231
100
AcDbEntity
  8
0
100
AcDbLine
 62
7
  6
CONTINUOUS
 10
58.4890892186
 20
132.5732536656
 11
54.2464661953
 21
130.1237887424
  0
LINE
  5
232
100
AcDbEntity
  8
0
100
AcDbLine
 62
7
  6
CONTINUOUS
 10
72.9847290686
 20
139.390937494
 11
68.7421060453
 21
136.9414725708
  0
LINE
  5
233
100
AcDbEntity
  8
0
100
AcDbLine
 62
7
  6
CONTINUOUS
 10
59.8325976964
 20
131.797596232
 11
55.5899746731
 21
129.3481313088
  0
LINE
  5
234
100
AcDbEntity
  8
0
100
AcDbLine
 62
7
  6
CONTINUOUS
 10
77.8480258573
 20
142.1579220284
 11
75.3731775743
 21
140.7290762351
  0
LINE
  5
235
100
AcDbEntity
  8
0
100
AcDbLine
 62
7
  6
CONTINUOUS
 10
18.8065312449
 20
107.9072305643
 11
32.3616580173
 21
115.7332399403
  0
LINE
  5
236
100
AcDbEntity
  8
0
100
AcDbLine
 62
7
  6
CONTINUOUS
 10
69.3785047979
 20
136.5740558917
 11
60.468996449
 21
131.430179553
  0
LINE
  5
237
100
AcDbEntity
  8
0
100
AcDbLine
 62
7
  6
CONTINUOUS
 10
70.9664770512
 20
43.4723487914
 11
68.1630278365
 21
45.0908843339
  0
LINE
  5
238
100
AcDbEntity
  8
0
100
AcDbLine
 62
7
  6
CONTINUOUS
 10
16.294289527
 20
75.5286590764
 11
65.5798373697
 21
47.0742784863
  0
LINE
  5
239
100
AcDbEntity
  8
0
100
AcDbLine
 62
7
  6
CONTINUOUS
 10
66.0275481453
 20
47.7986039039
 11
16.7420003025
 21
76.252984494
  0
LINE
  5
23A
100
AcDbEntity
  8
0
100
AcDbLine
 62
7
  6
CONTINUOUS
 10
68.9299548506
 20
47.2186338159
 11
66.9326406288
 21
48.3717576324
  0
LINE
  5
23B
100
AcDbEntity
  8
0
100
AcDbLine
 62
7
  6
CONTINUOUS
 10
17.7510373221
 20
77.006179513
 11
67.0365851648
 21
48.551798923
  0
LINE
  5
23C
100
AcDbEntity
  8
0
100
AcDbLine
 62
7
  6
CONTINUOUS
 10
66.0275481453
 20
47.7986039039
 11
66.0748823874
 21
47.7652747762
  0
LINE
  5
23D
100
AcDbEntity
  8
0
100
AcDbLine
 62
7
  6
CONTINUOUS
 10
68.6309314632
 20
45.9655018817
 11
68.6782657054
 21
45.932172754
  0
LINE
  5
23E
100
AcDbEntity
  8
0
100
AcDbLine
 62
7
  6
CONTINUOUS
 10
66.7056445466
 20
48.0163892017
 11
68.5990142324
 21
46.6832240946
  0
LINE
  5
23F
100
AcDbEntity
  8
0
100
AcDbLine
 62
7
  6
CONTINUOUS
 10
16.294289527
 20
75.5286590764
 11
16.7420003025
 21
76.252984494
  0
LINE
  5
240
100
AcDbEntity
  8
0
100
AcDbLine
 62
7
  6
CONTINUOUS
 10
77.9961757126
 20
139.7939486253
 11
77.4945434075
 21
139.5043328077
  0
LINE
  5
241
100
AcDbEntity
  8
0
100
AcDbLine
 62
7
  6
CONTINUOUS
 10
64.3192455924
 20
54.3974772798
 11
59.9529794341
 21
56.9182851933
  0
LINE
  5
242
100
AcDbEntity
  8
0
100
AcDbLine
 62
7
  6
CONTINUOUS
 10
51.8034034573
 20
61.6233386348
 11
47.437137299
 21
64.1441465483
  0
LINE
  5
243
100
AcDbEntity
  8
0
100
AcDbLine
 62
7
  6
CONTINUOUS
 10
39.3226361214
 20
68.8289500032
 11
34.9212951639
 21
71.3700079034
  0
LINE
  5
244
100
AcDbEntity
  8
0
100
AcDbLine
 62
7
  6
CONTINUOUS
 10
26.840386488
 20
76.035417157
 11
22.4054530288
 21
78.5958692584
  0
LINE
  5
245
100
AcDbEntity
  8
0
100
AcDbLine
 62
7
  6
CONTINUOUS
 10
22.4054530288
 20
78.5958692584
 11
20.4571580687
 21
75.4438353165
  0
LINE
  5
246
100
AcDbEntity
  8
0
100
AcDbLine
 62
7
  6
CONTINUOUS
 10
79.27804095
 20
130.8586853285
 11
70.3685326011
 21
125.7148089897
  0
LINE
  5
247
100
AcDbEntity
  8
0
100
AcDbLine
 62
7
  6
CONTINUOUS
 10
88.9496485421
 20
135.7485421824
 11
86.4748002591
 21
134.3196963891
  0
LINE
  5
248
100
AcDbEntity
  8
0
100
AcDbLine
 62
7
  6
CONTINUOUS
 10
84.1570627259
 20
132.9407335726
 11
79.9144397026
 21
130.4912686494
  0
LINE
  5
249
100
AcDbEntity
  8
0
100
AcDbLine
 62
7
  6
CONTINUOUS
 10
71.0049313537
 20
125.3473923106
 11
66.7623083304
 21
122.8979273874
  0
LINE
  5
24A
100
AcDbEntity
  8
0
100
AcDbLine
 62
7
  6
CONTINUOUS
 10
69.4544428708
 20
62.3604373117
 11
68.3233350807
 21
62.3547586022
  0
LINE
  5
24B
100
AcDbEntity
  8
0
100
AcDbLine
 62
7
  6
CONTINUOUS
 10
81.001618643
 20
49.2661059067
 11
82.4250269002
 21
48.4443193575
  0
LINE
  5
24C
100
AcDbEntity
  8
0
100
AcDbLine
 62
7
  6
CONTINUOUS
 10
64.6258391793
 20
42.4077263877
 11
64.469486464
 21
42.6610376308
  0
LINE
  5
24D
100
AcDbEntity
  8
0
100
AcDbLine
 62
7
  6
CONTINUOUS
 10
27.0332785125
 20
71.6471962994
 11
27.6816602702
 21
72.6961757144
  0
LINE
  5
24E
100
AcDbEntity
  8
0
100
AcDbLine
 62
7
  6
CONTINUOUS
 10
29.1783299016
 20
71.4905717488
 11
28.6855258097
 21
70.6932924579
  0
LINE
  5
24F
100
AcDbEntity
  8
0
100
AcDbLine
 62
7
  6
CONTINUOUS
 10
85.5005712037
 20
132.165076139
 11
81.2579481804
 21
129.7156112158
  0
LINE
  5
250
100
AcDbEntity
  8
0
100
AcDbLine
 62
7
  6
CONTINUOUS
 10
72.3484398315
 20
124.571734877
 11
68.1058168082
 21
122.1222699538
  0
LINE
  5
251
100
AcDbEntity
  8
0
100
AcDbLine
 62
7
  6
CONTINUOUS
 10
90.3638679924
 20
134.9320606734
 11
87.8890197094
 21
133.5032148801
  0
LINE
  5
252
100
AcDbEntity
  8
0
100
AcDbLine
 62
7
  6
CONTINUOUS
 10
81.894346933
 20
129.3481945367
 11
72.9848385841
 21
124.2043181979
  0
LINE
  5
253
100
AcDbEntity
  8
0
100
AcDbLine
 62
7
  6
CONTINUOUS
 10
90.5120178477
 20
132.5680872703
 11
90.0103855426
 21
132.2784714527
  0
LINE
  5
254
100
AcDbEntity
  8
0
100
AcDbLine
 62
7
  6
CONTINUOUS
 10
18.1824879994
 20
93.2560639284
 11
18.2564752299
 21
93.2987727385
  0
LINE
  5
255
100
AcDbEntity
  8
0
100
AcDbLine
 62
7
  6
CONTINUOUS
 10
68.3233350807
 20
62.3547586022
 11
18.2599665403
 21
91.2582040223
  0
LINE
  5
256
100
AcDbEntity
  8
0
100
AcDbLine
 62
7
  6
CONTINUOUS
 10
18.0824773102
 20
92.9195502343
 11
68.1458458506
 21
64.0161048143
  0
LINE
  5
257
100
AcDbEntity
  8
0
100
AcDbLine
 62
7
  6
CONTINUOUS
 10
18.1824879994
 20
93.2560639284
 11
68.2458565398
 21
64.3526185084
  0
LINE
  5
258
100
AcDbEntity
  8
0
100
AcDbLine
 62
7
  6
CONTINUOUS
 10
68.3198437703
 20
64.3953273184
 11
18.2564752299
 21
93.2987727385
  0
LINE
  5
259
100
AcDbEntity
  8
0
100
AcDbLine
 62
7
  6
CONTINUOUS
 10
104.3097252202
 20
47.1675576458
 11
104.9461239728
 21
46.8001409668
  0
LINE
  5
25A
100
AcDbEntity
  8
0
100
AcDbLine
 62
7
  6
CONTINUOUS
 10
34.9212951639
 20
71.3700079034
 11
32.9730002038
 21
68.2179739615
  0
LINE
  5
25B
100
AcDbEntity
  8
0
100
AcDbLine
 62
7
  6
CONTINUOUS
 10
109.1887469961
 20
49.24960589
 11
109.860501235
 21
48.8617771732
  0
LINE
  5
25C
100
AcDbEntity
  8
0
100
AcDbLine
 62
7
  6
CONTINUOUS
 10
51.7038857156
 20
138.6560648079
 11
51.7253557792
 21
138.3561161166
  0
LINE
  5
25D
100
AcDbEntity
  8
0
100
AcDbLine
 62
7
  6
CONTINUOUS
 10
56.2262639102
 20
143.4324944488
 11
56.2262639102
 21
144.1673339258
  0
LINE
  5
25E
100
AcDbEntity
  8
0
100
AcDbLine
 62
7
  6
CONTINUOUS
 10
91.7938830851
 20
123.6328239734
 11
82.8843747362
 21
118.4889476347
  0
LINE
  5
25F
100
AcDbEntity
  8
0
100
AcDbLine
 62
7
  6
CONTINUOUS
 10
101.4654906772
 20
128.5226808274
 11
98.9906423942
 21
127.0938350341
  0
LINE
  5
260
100
AcDbEntity
  8
0
100
AcDbLine
 62
7
  6
CONTINUOUS
 10
96.672904861
 20
125.7148722176
 11
92.4302818377
 21
123.2654072944
  0
LINE
  5
261
100
AcDbEntity
  8
0
100
AcDbLine
 62
7
  6
CONTINUOUS
 10
83.5207734888
 20
118.1215309556
 11
79.2781504655
 21
115.6720660324
  0
LINE
  5
262
100
AcDbEntity
  8
0
100
AcDbLine
 62
7
  6
CONTINUOUS
 10
98.0164133388
 20
124.939214784
 11
93.7737903155
 21
122.4897498608
  0
LINE
  5
263
100
AcDbEntity
  8
0
100
AcDbLine
 62
7
  6
CONTINUOUS
 10
84.8642819666
 20
117.345873522
 11
80.6216589433
 21
114.8964085988
  0
LINE
  5
264
100
AcDbEntity
  8
0
100
AcDbLine
 62
7
  6
CONTINUOUS
 10
101.0309768507
 20
126.6388390347
 11
100.4048618445
 21
126.2773535251
  0
LINE
  5
265
100
AcDbEntity
  8
0
100
AcDbLine
 62
7
  6
CONTINUOUS
 10
94.4101890681
 20
122.1223331817
 11
85.5006807192
 21
116.9784568429
  0
LINE
  5
266
100
AcDbEntity
  8
0
100
AcDbLine
 62
7
  6
CONTINUOUS
 10
104.0849386821
 20
129.6117136385
 11
101.0321468392
 21
127.853118161
  0
LINE
  5
267
100
AcDbEntity
  8
0
100
AcDbLine
 62
7
  6
CONTINUOUS
 10
105.0986676312
 20
127.2386126809
 11
104.1794332124
 21
126.7090772344
  0
LINE
  5
268
100
AcDbEntity
  8
0
100
AcDbLine
 62
7
  6
CONTINUOUS
 10
18.8065312449
 20
107.9072305643
 11
68.8698997853
 21
79.0037851443
  0
LINE
  5
269
100
AcDbEntity
  8
0
100
AcDbLine
 62
7
  6
CONTINUOUS
 10
58.4890892186
 20
131.0219258808
 11
58.4890892186
 21
132.5732536656
  0
LINE
  5
26A
100
AcDbEntity
  8
0
100
AcDbLine
 62
7
  6
CONTINUOUS
 10
59.7971326946
 20
146.2289636735
 11
59.7971326946
 21
147.0046275658
  0
LINE
  5
26B
100
AcDbEntity
  8
0
100
AcDbLine
 62
7
  6
CONTINUOUS
 10
39.5491206476
 20
64.4213349444
 11
40.1537744101
 21
65.3995693603
  0
LINE
  5
26C
100
AcDbEntity
  8
0
100
AcDbLine
 62
7
  6
CONTINUOUS
 10
41.631959305
 20
64.1640600067
 11
41.2013679448
 21
63.4674311029
  0
LINE
  5
26D
100
AcDbEntity
  8
0
100
AcDbLine
 62
7
  6
CONTINUOUS
 10
101.7492631341
 20
126.1027472456
 11
101.2622939383
 21
125.7823260739
  0
LINE
  5
26E
100
AcDbEntity
  8
0
100
AcDbLine
 62
7
  6
CONTINUOUS
 10
101.5074553343
 20
125.640785278
 11
101.9490193463
 21
125.9313302639
  0
LINE
  5
26F
100
AcDbEntity
  8
0
100
AcDbLine
 62
7
  6
CONTINUOUS
 10
105.8861367352
 20
125.0055175957
 11
104.8836294852
 21
124.345877211
  0
LINE
  5
270
100
AcDbEntity
  8
0
100
AcDbLine
 62
7
  6
CONTINUOUS
 10
105.9460201514
 20
124.4561526766
 11
104.8305947826
 21
123.7222132269
  0
LINE
  5
271
100
AcDbEntity
  8
0
100
AcDbLine
 62
7
  6
CONTINUOUS
 10
104.1774982222
 20
124.7008367793
 11
105.096732641
 21
125.2303722258
  0
LINE
  5
272
100
AcDbEntity
  8
0
100
AcDbLine
 62
7
  6
CONTINUOUS
 10
105.9472096874
 20
125.6907192912
 11
106.8664441062
 21
126.2202547377
  0
LINE
  5
273
100
AcDbEntity
  8
0
100
AcDbLine
 62
7
  6
CONTINUOUS
 10
109.0932080012
 20
123.2098586837
 11
112.145343605
 21
124.9680761272
  0
LINE
  5
274
100
AcDbEntity
  8
0
100
AcDbLine
 62
7
  6
CONTINUOUS
 10
66.7621988149
 20
138.0845466835
 11
66.7621988149
 21
135.0738007443
  0
LINE
  5
275
100
AcDbEntity
  8
0
100
AcDbLine
 62
7
  6
CONTINUOUS
 10
63.4846204339
 20
149.530702226
 11
63.48333354
 21
148.195092202
  0
LINE
  5
276
100
AcDbEntity
  8
0
100
AcDbLine
 62
7
  6
CONTINUOUS
 10
64.4015469554
 20
147.6649734323
 11
64.4014398931
 21
147.5538583137
  0
LINE
  5
277
100
AcDbEntity
  8
0
100
AcDbLine
 62
7
  6
CONTINUOUS
 10
66.6319068071
 20
148.3866612994
 11
66.6299718169
 21
146.3784208443
  0
LINE
  5
278
100
AcDbEntity
  8
0
100
AcDbLine
 62
7
  6
CONTINUOUS
 10
47.437137299
 20
64.1441465483
 11
45.4888423389
 21
60.9921126065
  0
LINE
  5
279
100
AcDbEntity
  8
0
100
AcDbLine
 62
7
  6
CONTINUOUS
 10
110.0100171651
 20
121.2223296471
 11
112.2862267943
 21
122.7200542726
  0
LINE
  5
27A
100
AcDbEntity
  8
0
100
AcDbLine
 62
7
  6
CONTINUOUS
 10
104.3097252202
 20
116.4069626184
 11
95.4002168713
 21
111.2630862797
  0
LINE
  5
27B
100
AcDbEntity
  8
0
100
AcDbLine
 62
7
  6
CONTINUOUS
 10
113.9813328123
 20
121.2968194724
 11
111.5064845293
 21
119.8679736791
  0
LINE
  5
27C
100
AcDbEntity
  8
0
100
AcDbLine
 62
7
  6
CONTINUOUS
 10
109.1887469961
 20
118.4890108626
 11
104.9461239728
 21
116.0395459394
  0
LINE
  5
27D
100
AcDbEntity
  8
0
100
AcDbLine
 62
7
  6
CONTINUOUS
 10
96.0366156239
 20
110.8956696006
 11
91.7939926006
 21
108.4462046774
  0
LINE
  5
27E
100
AcDbEntity
  8
0
100
AcDbLine
 62
7
  6
CONTINUOUS
 10
83.3644236687
 20
102.8037559438
 11
92.4657468395
 21
108.0583759606
  0
LINE
  5
27F
100
AcDbEntity
  8
0
100
AcDbLine
 62
7
  6
CONTINUOUS
 10
109.860501235
 20
118.1011821458
 11
116.0758355482
 21
121.6895856648
  0
LINE
  5
280
100
AcDbEntity
  8
0
100
AcDbLine
 62
7
  6
CONTINUOUS
 10
110.0111452308
 20
122.3930989819
 11
109.091910812
 21
121.8635635354
  0
LINE
  5
281
100
AcDbEntity
  8
0
100
AcDbLine
 62
7
  6
CONTINUOUS
 10
64.2197278507
 20
131.4302034529
 11
64.2411979143
 21
131.1302547616
  0
LINE
  5
282
100
AcDbEntity
  8
0
100
AcDbLine
 62
7
  6
CONTINUOUS
 10
67.3985975675
 20
135.4309627426
 11
67.3985975675
 21
137.7171300044
  0
LINE
  5
283
100
AcDbEntity
  8
0
100
AcDbLine
 62
7
  6
CONTINUOUS
 10
68.7421060453
 20
136.2066330938
 11
68.7421060453
 21
136.9414725708
  0
LINE
  5
284
100
AcDbEntity
  8
0
100
AcDbLine
 62
7
  6
CONTINUOUS
 10
71.0049313537
 20
123.7960645258
 11
71.0049313537
 21
125.3473923106
  0
LINE
  5
285
100
AcDbEntity
  8
0
100
AcDbLine
 62
7
  6
CONTINUOUS
 10
71.6412205908
 20
140.1665949276
 11
71.6412205908
 21
138.8015822827
  0
LINE
  5
286
100
AcDbEntity
  8
0
100
AcDbLine
 62
7
  6
CONTINUOUS
 10
67.5492062357
 20
146.9079562909
 11
67.5511412259
 21
148.916196746
  0
LINE
  5
287
100
AcDbEntity
  8
0
100
AcDbLine
 62
7
  6
CONTINUOUS
 10
68.3977461298
 20
145.357818958
 11
68.399683282
 21
147.3683033562
  0
LINE
  5
288
100
AcDbEntity
  8
0
100
AcDbLine
 62
7
  6
CONTINUOUS
 10
71.5443844067
 20
143.5411476004
 11
71.5456815959
 21
144.8874427488
  0
LINE
  5
289
100
AcDbEntity
  8
0
100
AcDbLine
 62
7
  6
CONTINUOUS
 10
110.9827256512
 20
120.1703591675
 11
113.0425998109
 21
121.5257370793
  0
LINE
  5
28A
100
AcDbEntity
  8
0
100
AcDbLine
 62
7
  6
CONTINUOUS
 10
114.8365923927
 20
118.5246053148
 11
112.3617441098
 21
117.0957595215
  0
LINE
  5
28B
100
AcDbEntity
  8
0
100
AcDbLine
 62
7
  6
CONTINUOUS
 10
82.4250265577
 20
86.8297945203
 11
32.3616580173
 21
115.7332399403
  0
LINE
  5
28C
100
AcDbEntity
  8
0
100
AcDbLine
 62
7
  6
CONTINUOUS
 10
72.4624907598
 20
142.8999137122
 11
72.4636188255
 21
144.0706830469
  0
LINE
  5
28D
100
AcDbEntity
  8
0
100
AcDbLine
 62
7
  6
CONTINUOUS
 10
52.0649627827
 20
57.1954735894
 11
52.7388262749
 21
58.2856784316
  0
LINE
  5
28E
100
AcDbEntity
  8
0
100
AcDbLine
 62
7
  6
CONTINUOUS
 10
54.1425853013
 20
56.9297597618
 11
53.7172100799
 21
56.2415697478
  0
LINE
  5
28F
100
AcDbEntity
  8
0
100
AcDbLine
 62
7
  6
CONTINUOUS
 10
112.5483905198
 20
114.1175105846
 11
113.992541264
 21
115.0677482537
  0
LINE
  5
290
100
AcDbEntity
  8
0
100
AcDbLine
 62
7
  6
CONTINUOUS
 10
112.8078507013
 20
109.9773987553
 11
114.4156351523
 21
111.0353058715
  0
LINE
  5
291
100
AcDbEntity
  8
0
100
AcDbLine
 62
7
  6
CONTINUOUS
 10
114.5628852829
 20
73.6630479444
 11
113.3961748442
 21
74.3366332917
  0
LINE
  5
292
100
AcDbEntity
  8
0
100
AcDbLine
 62
7
  6
CONTINUOUS
 10
117.2852459493
 20
73.7242908565
 11
114.5628735075
 21
75.2960177614
  0
LINE
  5
293
100
AcDbEntity
  8
0
100
AcDbLine
 62
7
  6
CONTINUOUS
 10
76.7355699858
 20
124.2043420979
 11
76.7570400494
 21
123.9043934065
  0
LINE
  5
294
100
AcDbEntity
  8
0
100
AcDbLine
 62
7
  6
CONTINUOUS
 10
74.738700389
 20
144.3976383376
 11
74.5978171997
 21
146.6456601923
  0
LINE
  5
295
100
AcDbEntity
  8
0
100
AcDbLine
 62
7
  6
CONTINUOUS
 10
77.8480258573
 20
142.1579220284
 11
77.9961757126
 21
139.7939486253
  0
LINE
  5
296
100
AcDbEntity
  8
0
100
AcDbLine
 62
7
  6
CONTINUOUS
 10
82.4250269001
 20
48.4443193615
 11
82.3753216601
 21
50.0592089793
  0
LINE
  5
297
100
AcDbEntity
  8
0
100
AcDbLine
 62
7
  6
CONTINUOUS
 10
79.27804095
 20
130.8586853285
 11
79.27804095
 21
127.8479393893
  0
LINE
  5
298
100
AcDbEntity
  8
0
100
AcDbLine
 62
7
  6
CONTINUOUS
 10
79.9144397026
 20
128.2051013876
 11
79.9144397026
 21
130.4912686494
  0
LINE
  5
299
100
AcDbEntity
  8
0
100
AcDbLine
 62
7
  6
CONTINUOUS
 10
81.2579481804
 20
128.9807717388
 11
81.2579481804
 21
129.7156112158
  0
LINE
  5
29A
100
AcDbEntity
  8
0
100
AcDbLine
 62
7
  6
CONTINUOUS
 10
59.9529794341
 20
56.9182851933
 11
58.004684474
 21
53.7662512515
  0
LINE
  5
29B
100
AcDbEntity
  8
0
100
AcDbLine
 62
7
  6
CONTINUOUS
 10
112.9649964928
 20
107.469880467
 11
114.4746007198
 21
108.463185915
  0
LINE
  5
29C
100
AcDbEntity
  8
0
100
AcDbLine
 62
7
  6
CONTINUOUS
 10
68.8698997853
 20
79.0037851443
 11
82.4250265577
 21
86.8297945202
  0
LINE
  5
29D
100
AcDbEntity
  8
0
100
AcDbLine
 62
7
  6
CONTINUOUS
 10
113.8713952094
 20
102.9443013648
 11
113.2703569501
 21
102.5973546195
  0
LINE
  5
29E
100
AcDbEntity
  8
0
100
AcDbLine
 62
7
  6
CONTINUOUS
 10
83.5207734888
 20
116.5702031708
 11
83.5207734888
 21
118.1215309556
  0
LINE
  5
29F
100
AcDbEntity
  8
0
100
AcDbLine
 62
7
  6
CONTINUOUS
 10
84.1570627259
 20
132.9407335726
 11
84.1570627259
 21
131.5757209277
  0
LINE
  5
2A0
100
AcDbEntity
  8
0
100
AcDbLine
 62
7
  6
CONTINUOUS
 10
64.5808049178
 20
49.9696122344
 11
65.25466841
 21
51.0598170766
  0
LINE
  5
2A1
100
AcDbEntity
  8
0
100
AcDbLine
 62
7
  6
CONTINUOUS
 10
113.3961748442
 20
100.491236863
 11
114.3607412632
 21
101.1259125361
  0
LINE
  5
2A2
100
AcDbEntity
  8
0
100
AcDbLine
 62
7
  6
CONTINUOUS
 10
117.2852459493
 20
102.8734271482
 11
115.8687030513
 21
102.0555906065
  0
LINE
  5
2A3
100
AcDbEntity
  8
0
100
AcDbLine
 62
7
  6
CONTINUOUS
 10
113.9948893513
 20
100.97375022
 11
113.3961748442
 21
100.6280843015
  0
LINE
  5
2A4
100
AcDbEntity
  8
0
100
AcDbLine
 62
7
  6
CONTINUOUS
 10
33.3010551284
 20
131.7072013638
 11
83.3644236688
 21
102.8037559438
  0
LINE
  5
2A5
100
AcDbEntity
  8
0
100
AcDbLine
 62
7
  6
CONTINUOUS
 10
89.2514121209
 20
116.9784807429
 11
89.2728821845
 21
116.6785320515
  0
LINE
  5
2A6
100
AcDbEntity
  8
0
100
AcDbLine
 62
7
  6
CONTINUOUS
 10
91.7938830851
 20
123.6328239734
 11
91.7938830851
 21
120.6220780343
  0
LINE
  5
2A7
100
AcDbEntity
  8
0
100
AcDbLine
 62
7
  6
CONTINUOUS
 10
92.4302818377
 20
120.9792400326
 11
92.4302818377
 21
123.2654072944
  0
LINE
  5
2A8
100
AcDbEntity
  8
0
100
AcDbLine
 62
7
  6
CONTINUOUS
 10
92.4657468395
 20
40.3308018035
 11
92.4657468395
 21
38.818970988
  0
LINE
  5
2A9
100
AcDbEntity
  8
0
100
AcDbLine
 62
7
  6
CONTINUOUS
 10
92.4657468395
 20
106.5465451794
 11
92.4657468395
 21
108.0583759606
  0
LINE
  5
2AA
100
AcDbEntity
  8
0
100
AcDbLine
 62
7
  6
CONTINUOUS
 10
66.6584274364
 20
49.7038984068
 11
66.233052215
 21
49.0157083928
  0
LINE
  5
2AB
100
AcDbEntity
  8
0
100
AcDbLine
 62
7
  6
CONTINUOUS
 10
65.5798373697
 20
47.0742784863
 11
66.0275481453
 21
47.7986039039
  0
LINE
  5
2AC
100
AcDbEntity
  8
0
100
AcDbLine
 62
7
  6
CONTINUOUS
 10
67.0365851648
 20
48.551798923
 11
66.7056445466
 21
48.0163892017
  0
LINE
  5
2AD
100
AcDbEntity
  8
0
100
AcDbLine
 62
7
  6
CONTINUOUS
 10
68.5990142324
 20
46.6832240946
 11
68.9299548506
 21
47.2186338159
  0
LINE
  5
2AE
100
AcDbEntity
  8
0
100
AcDbLine
 62
7
  6
CONTINUOUS
 10
68.6782657054
 20
45.932172754
 11
68.2305549298
 21
45.2078473364
  0
LINE
  5
2AF
100
AcDbEntity
  8
0
100
AcDbLine
 62
7
  6
CONTINUOUS
 10
68.2458565398
 20
64.3526185084
 11
68.3198437704
 21
64.3953273184
  0
LINE
  5
2B0
100
AcDbEntity
  8
0
100
AcDbLine
 62
7
  6
CONTINUOUS
 10
68.3190250571
 20
64.0682537516
 11
68.245831768
 21
64.0260032409
  0
LINE
  5
2B1
100
AcDbEntity
  8
0
100
AcDbLine
 62
7
  6
CONTINUOUS
 10
43.074132538
 20
136.5739926638
 11
42.4023782991
 21
136.9618213806
  0
LINE
  5
2B2
100
AcDbEntity
  8
0
100
AcDbLine
 62
7
  6
CONTINUOUS
 10
54.2464661953
 20
130.1237887424
 11
55.5899746731
 21
129.3481313088
  0
LINE
  5
2B3
100
AcDbEntity
  8
0
100
AcDbLine
 62
7
  6
CONTINUOUS
 10
66.7623083304
 20
122.8979273874
 11
68.1058168082
 21
122.1222699538
  0
LINE
  5
2B4
100
AcDbEntity
  8
0
100
AcDbLine
 62
7
  6
CONTINUOUS
 10
79.2781504655
 20
115.6720660324
 11
80.6216589433
 21
114.8964085988
  0
LINE
  5
2B5
100
AcDbEntity
  8
0
100
AcDbLine
 62
7
  6
CONTINUOUS
 10
91.7939926006
 20
108.4462046774
 11
92.4657468395
 21
108.0583759606
  0
LINE
  5
2B6
100
AcDbEntity
  8
0
100
AcDbLine
 62
7
  6
CONTINUOUS
 10
90.3638679924
 20
134.9320606734
 11
90.5120178477
 21
132.5680872703
  0
LINE
  5
2B7
100
AcDbEntity
  8
0
100
AcDbLine
 62
7
  6
CONTINUOUS
 10
93.7737903155
 20
121.7549103838
 11
93.7737903155
 21
122.4897498608
  0
LINE
  5
2B8
100
AcDbEntity
  8
0
100
AcDbLine
 62
7
  6
CONTINUOUS
 10
96.0366156239
 20
43.5528648311
 11
96.0366156239
 21
41.656264628
  0
LINE
  5
2B9
100
AcDbEntity
  8
0
100
AcDbLine
 62
7
  6
CONTINUOUS
 10
96.0366156239
 20
107.8147714942
 11
96.0366156239
 21
110.8956696006
  0
LINE
  5
2BA
100
AcDbEntity
  8
0
100
AcDbLine
 62
7
  6
CONTINUOUS
 10
96.672904861
 20
125.7148722176
 11
96.672904861
 21
124.3498595727
  0
LINE
  5
2BB
100
AcDbEntity
  8
0
100
AcDbLine
 62
7
  6
CONTINUOUS
 10
47.9531543139
 20
138.656040908
 11
47.3167555613
 21
139.023457587
  0
LINE
  5
2BC
100
AcDbEntity
  8
0
100
AcDbLine
 62
7
  6
CONTINUOUS
 10
57.852690466
 20
132.9406703447
 11
58.4890892186
 21
132.5732536656
  0
LINE
  5
2BD
100
AcDbEntity
  8
0
100
AcDbLine
 62
7
  6
CONTINUOUS
 10
59.8325976964
 20
131.797596232
 11
60.468996449
 21
131.430179553
  0
LINE
  5
2BE
100
AcDbEntity
  8
0
100
AcDbLine
 62
7
  6
CONTINUOUS
 10
70.3685326011
 20
125.7148089897
 11
71.0049313537
 21
125.3473923106
  0
LINE
  5
2BF
100
AcDbEntity
  8
0
100
AcDbLine
 62
7
  6
CONTINUOUS
 10
72.3484398315
 20
124.571734877
 11
72.9848385841
 21
124.2043181979
  0
LINE
  5
2C0
100
AcDbEntity
  8
0
100
AcDbLine
 62
7
  6
CONTINUOUS
 10
82.8843747362
 20
118.4889476347
 11
83.5207734888
 21
118.1215309556
  0
LINE
  5
2C1
100
AcDbEntity
  8
0
100
AcDbLine
 62
7
  6
CONTINUOUS
 10
84.8642819666
 20
117.345873522
 11
85.5006807192
 21
116.9784568429
  0
LINE
  5
2C2
100
AcDbEntity
  8
0
100
AcDbLine
 62
7
  6
CONTINUOUS
 10
95.4002168713
 20
111.2630862797
 11
96.0366156239
 21
110.8956696006
  0
LINE
  5
2C3
100
AcDbEntity
  8
0
100
AcDbLine
 62
7
  6
CONTINUOUS
 10
101.0321468392
 20
127.853118161
 11
101.0308599453
 21
126.5175081369
  0
LINE
  5
2C4
100
AcDbEntity
  8
0
100
AcDbLine
 62
7
  6
CONTINUOUS
 10
101.9490733607
 20
125.9873893673
 11
101.9489662985
 21
125.8762742487
  0
LINE
  5
2C5
100
AcDbEntity
  8
0
100
AcDbLine
 62
7
  6
CONTINUOUS
 10
94.8806930572
 20
113.4409341789
 11
89.2728821845
 21
116.6785320515
  0
LINE
  5
2C6
100
AcDbEntity
  8
0
100
AcDbLine
 62
7
  6
CONTINUOUS
 10
82.3648509221
 20
120.6667955339
 11
76.7570400494
 21
123.9043934065
  0
LINE
  5
2C7
100
AcDbEntity
  8
0
100
AcDbLine
 62
7
  6
CONTINUOUS
 10
69.849008787
 20
127.8926568889
 11
64.2411979143
 21
131.1302547616
  0
LINE
  5
2C8
100
AcDbEntity
  8
0
100
AcDbLine
 62
7
  6
CONTINUOUS
 10
57.3331666519
 20
135.1185182439
 11
51.7253557792
 21
138.3561161166
  0
LINE
  5
2C9
100
AcDbEntity
  8
0
100
AcDbLine
 62
7
  6
CONTINUOUS
 10
113.2252347063
 20
103.3173538656
 11
113.8713952094
 21
102.9443013648
  0
LINE
  5
2CA
100
AcDbEntity
  8
0
100
AcDbLine
 62
7
  6
CONTINUOUS
 10
114.3884298653
 20
102.9102073948
 11
115.8687030513
 21
102.0555906065
  0
LINE
  5
2CB
100
AcDbEntity
  8
0
100
AcDbLine
 62
7
  6
CONTINUOUS
 10
104.3097252202
 20
116.4069626184
 11
104.3097252202
 21
113.3962166793
  0
LINE
  5
2CC
100
AcDbEntity
  8
0
100
AcDbLine
 62
7
  6
CONTINUOUS
 10
104.3097252202
 20
48.9274610067
 11
104.3097252202
 21
47.1675576458
  0
LINE
  5
2CD
100
AcDbEntity
  8
0
100
AcDbLine
 62
7
  6
CONTINUOUS
 10
104.9461239728
 20
49.0764295932
 11
104.9461239728
 21
46.8001409668
  0
LINE
  5
2CE
100
AcDbEntity
  8
0
100
AcDbLine
 62
7
  6
CONTINUOUS
 10
104.9461239728
 20
113.0288000002
 11
104.9461239728
 21
116.0395459394
  0
LINE
  5
2CF
100
AcDbEntity
  8
0
100
AcDbLine
 62
7
  6
CONTINUOUS
 10
104.1794332124
 20
126.7090772344
 11
104.1774982222
 21
124.7008367793
  0
LINE
  5
2D0
100
AcDbEntity
  8
0
100
AcDbLine
 62
7
  6
CONTINUOUS
 10
105.096732641
 20
125.2303722258
 11
105.0986676312
 21
127.2386126809
  0
LINE
  5
2D1
100
AcDbEntity
  8
0
100
AcDbLine
 62
7
  6
CONTINUOUS
 10
105.9452725351
 20
123.680234893
 11
105.9472096874
 21
125.6907192912
  0
LINE
  5
2D2
100
AcDbEntity
  8
0
100
AcDbLine
 62
7
  6
CONTINUOUS
 10
113.3961748442
 20
74.6224279949
 11
114.5628735075
 21
75.2960177614
  0
LINE
  5
2D3
100
AcDbEntity
  8
0
100
AcDbLine
 62
7
  6
CONTINUOUS
 10
114.5628852829
 20
73.6630479444
 11
113.3961748442
 21
72.9894513793
  0
LINE
  5
2D4
100
AcDbEntity
  8
0
100
AcDbLine
 62
7
  6
CONTINUOUS
 10
113.3961748442
 20
71.4789480099
 11
117.2852459493
 21
73.7242908565
  0
LINE
  5
2D5
100
AcDbEntity
  8
0
100
AcDbLine
 62
7
  6
CONTINUOUS
 10
104.3097252202
 20
113.3962166793
 11
104.9461239728
 21
113.0288000002
  0
LINE
  5
2D6
100
AcDbEntity
  8
0
100
AcDbLine
 62
7
  6
CONTINUOUS
 10
56.8626626628
 20
143.7999172467
 11
56.2262639102
 21
144.1673339258
  0
LINE
  5
2D7
100
AcDbEntity
  8
0
100
AcDbLine
 62
7
  6
CONTINUOUS
 10
66.7621988149
 20
138.0845466835
 11
67.3985975675
 21
137.7171300044
  0
LINE
  5
2D8
100
AcDbEntity
  8
0
100
AcDbLine
 62
7
  6
CONTINUOUS
 10
68.7421060453
 20
136.9414725708
 11
69.3785047979
 21
136.5740558917
  0
LINE
  5
2D9
100
AcDbEntity
  8
0
100
AcDbLine
 62
7
  6
CONTINUOUS
 10
79.27804095
 20
130.8586853285
 11
79.9144397026
 21
130.4912686494
  0
LINE
  5
2DA
100
AcDbEntity
  8
0
100
AcDbLine
 62
7
  6
CONTINUOUS
 10
81.2579481804
 20
129.7156112158
 11
81.894346933
 21
129.3481945367
  0
LINE
  5
2DB
100
AcDbEntity
  8
0
100
AcDbLine
 62
7
  6
CONTINUOUS
 10
91.7938830851
 20
123.6328239734
 11
92.4302818377
 21
123.2654072944
  0
LINE
  5
2DC
100
AcDbEntity
  8
0
100
AcDbLine
 62
7
  6
CONTINUOUS
 10
93.7737903155
 20
122.4897498608
 11
94.4101890681
 21
122.1223331817
  0
LINE
  5
2DD
100
AcDbEntity
  8
0
100
AcDbLine
 62
7
  6
CONTINUOUS
 10
104.3097252202
 20
116.4069626184
 11
104.9461239728
 21
116.0395459394
  0
LINE
  5
2DE
100
AcDbEntity
  8
0
100
AcDbLine
 62
7
  6
CONTINUOUS
 10
109.1887469961
 20
118.4890108626
 11
109.1887469961
 21
117.1239982177
  0
LINE
  5
2DF
100
AcDbEntity
  8
0
100
AcDbLine
 62
7
  6
CONTINUOUS
 10
109.1887469961
 20
50.0695452335
 11
109.1887469961
 21
49.24960589
  0
LINE
  5
2E0
100
AcDbEntity
  8
0
100
AcDbLine
 62
7
  6
CONTINUOUS
 10
109.860501235
 20
50.2267898525
 11
109.860501235
 21
48.8617771732
  0
LINE
  5
2E1
100
AcDbEntity
  8
0
100
AcDbLine
 62
7
  6
CONTINUOUS
 10
109.860501235
 20
116.7361695009
 11
109.860501235
 21
118.1011821458
  0
LINE
  5
2E2
100
AcDbEntity
  8
0
100
AcDbLine
 62
7
  6
CONTINUOUS
 10
113.3961748442
 20
100.6280843015
 11
113.3961748442
 21
71.4789480099
  0
LINE
  5
2E3
100
AcDbEntity
  8
0
100
AcDbLine
 62
7
  6
CONTINUOUS
 10
109.091910812
 20
121.8635635354
 11
109.0932080012
 21
123.2098586837
  0
LINE
  5
2E4
100
AcDbEntity
  8
0
100
AcDbLine
 62
7
  6
CONTINUOUS
 10
110.0100171651
 20
121.2223296471
 11
110.0111452308
 21
122.3930989819
  0
LINE
  5
2E5
100
AcDbEntity
  8
0
100
AcDbLine
 62
7
  6
CONTINUOUS
 10
82.3753216601
 20
50.0592089793
 11
70.9664770511
 21
43.4723487914
  0
LINE
  5
2E6
100
AcDbEntity
  8
0
100
AcDbLine
 62
7
  6
CONTINUOUS
 10
71.6412205908
 20
138.8015822827
 11
71.8025765417
 21
138.7084254885
  0
LINE
  5
2E7
100
AcDbEntity
  8
0
100
AcDbLine
 62
7
  6
CONTINUOUS
 10
84.1570627259
 20
131.5757209277
 11
84.3184186768
 21
131.4825641335
  0
LINE
  5
2E8
100
AcDbEntity
  8
0
100
AcDbLine
 62
7
  6
CONTINUOUS
 10
96.672904861
 20
124.3498595727
 11
96.8342608119
 21
124.2567027785
  0
LINE
  5
2E9
100
AcDbEntity
  8
0
100
AcDbLine
 62
7
  6
CONTINUOUS
 10
109.1887469961
 20
117.1239982177
 11
109.860501235
 21
116.7361695009
  0
LINE
  5
2EA
100
AcDbEntity
  8
0
100
AcDbLine
 62
7
  6
CONTINUOUS
 10
98.0164133388
 20
124.939214784
 11
96.672904861
 21
125.7148722176
  0
LINE
  5
2EB
100
AcDbEntity
  8
0
100
AcDbLine
 62
7
  6
CONTINUOUS
 10
85.5005712037
 20
132.165076139
 11
84.1570627259
 21
132.9407335726
  0
LINE
  5
2EC
100
AcDbEntity
  8
0
100
AcDbLine
 62
7
  6
CONTINUOUS
 10
72.9847290686
 20
139.390937494
 11
71.6412205908
 21
140.1665949276
  0
LINE
  5
2ED
100
AcDbEntity
  8
0
100
AcDbLine
 62
7
  6
CONTINUOUS
 10
60.4688869335
 20
146.616798849
 11
59.7971326946
 21
147.0046275658
  0
LINE
  5
2EE
100
AcDbEntity
  8
0
100
AcDbLine
 62
7
  6
CONTINUOUS
 10
109.1887469961
 20
118.4890108626
 11
109.860501235
 21
118.1011821458
  0
LINE
  5
2EF
100
AcDbEntity
  8
0
100
AcDbLine
 62
7
  6
CONTINUOUS
 10
73.958958124
 20
141.5455577441
 11
62.8573354392
 21
147.9549375901
  0
LINE
  5
2F0
100
AcDbEntity
  8
0
100
AcDbLine
 62
7
  6
CONTINUOUS
 10
75.3731775743
 20
140.7290762351
 11
86.4748002591
 21
134.3196963891
  0
LINE
  5
2F1
100
AcDbEntity
  8
0
100
AcDbLine
 62
7
  6
CONTINUOUS
 10
87.8890197094
 20
133.5032148801
 11
98.9906423942
 21
127.0938350341
  0
LINE
  5
2F2
100
AcDbEntity
  8
0
100
AcDbLine
 62
7
  6
CONTINUOUS
 10
100.4048618445
 20
126.2773535251
 11
111.5064845293
 21
119.8679736791
  0
LINE
  5
2F3
100
AcDbEntity
  8
0
100
AcDbLine
 62
7
  6
CONTINUOUS
 10
109.091910812
 20
121.8635635354
 11
105.9452725351
 21
123.680234893
  0
LINE
  5
2F4
100
AcDbEntity
  8
0
100
AcDbLine
 62
7
  6
CONTINUOUS
 10
104.1774982222
 20
124.7008367793
 11
101.0308599453
 21
126.5175081369
  0
LINE
  5
2F5
100
AcDbEntity
  8
0
100
AcDbLine
 62
7
  6
CONTINUOUS
 10
71.5443844067
 20
143.5411476004
 11
68.3977461298
 21
145.357818958
  0
LINE
  5
2F6
100
AcDbEntity
  8
0
100
AcDbLine
 62
7
  6
CONTINUOUS
 10
66.6299718169
 20
146.3784208443
 11
63.48333354
 21
148.195092202
  0
LINE
  5
2F7
100
AcDbEntity
  8
0
100
AcDbLine
 62
7
  6
CONTINUOUS
 10
104.8836294852
 20
124.345877211
 11
104.2232033967
 21
124.7271657651
  0
LINE
  5
2F8
100
AcDbEntity
  8
0
100
AcDbLine
 62
7
  6
CONTINUOUS
 10
67.3361030799
 20
146.0234612761
 11
66.6756769914
 21
146.4047498302
  0
LINE
  5
2F9
100
AcDbEntity
  8
0
100
AcDbLine
 62
7
  6
CONTINUOUS
 10
114.4156351523
 20
111.0353058715
 11
113.992541264
 21
115.0677482537
  0
LINE
  5
2FA
100
AcDbEntity
  8
0
100
AcDbLine
 62
7
  6
CONTINUOUS
 10
112.3617441098
 20
117.0957595215
 11
113.2703569501
 21
102.5973546195
  0
LINE
  5
2FB
100
AcDbEntity
  8
0
100
AcDbLine
 62
7
  6
CONTINUOUS
 10
112.2862267943
 20
122.7200542726
 11
112.145343605
 21
124.9680761272
  0
LINE
  5
2FC
100
AcDbEntity
  8
0
100
AcDbLine
 62
7
  6
CONTINUOUS
 10
113.8713952094
 20
102.9443013648
 11
113.9948893513
 21
100.97375022
  0
LINE
  5
2FD
100
AcDbEntity
  8
0
100
AcDbLine
 62
7
  6
CONTINUOUS
 10
113.812938639
 20
117.9336020723
 11
113.992541264
 21
115.0677482537
  0
LINE
  5
2FE
100
AcDbEntity
  8
0
100
AcDbLine
 62
7
  6
CONTINUOUS
 10
115.8687030513
 20
102.0555906065
 11
114.8365923927
 21
118.5246053148
  0
LINE
  5
2FF
100
AcDbEntity
  8
0
100
AcDbLine
 62
7
  6
CONTINUOUS
 10
114.4746007198
 20
108.463185915
 11
114.4156351523
 21
111.0353058715
  0
LINE
  5
300
100
AcDbEntity
  8
0
100
AcDbLine
 62
7
  6
CONTINUOUS
 10
117.2852459493
 20
114.4677614717
 11
117.2852459493
 21
102.8734271482
  0
LINE
  5
301
100
AcDbEntity
  8
0
100
AcDbLine
 62
7
  6
CONTINUOUS
 10
117.2852459493
 20
73.7242908565
 11
117.2852459493
 21
53.1484299448
  0
LINE
  5
302
100
AcDbEntity
  8
0
100
AcDbLine
 62
7
  6
CONTINUOUS
 10
114.3607412632
 20
101.1259125361
 11
114.4746007198
 21
108.463185915
  0
LINE
  5
303
100
AcDbEntity
  8
0
100
AcDbLine
 62
7
  6
CONTINUOUS
 10
76.433806407
 20
142.9744035374
 11
74.9094411341
 21
143.8544763282
  0
LINE
  5
304
100
AcDbEntity
  8
0
100
AcDbLine
 62
7
  6
CONTINUOUS
 10
77.8480258573
 20
142.1579220284
 11
88.9496485421
 21
135.7485421824
  0
LINE
  5
305
100
AcDbEntity
  8
0
100
AcDbLine
 62
7
  6
CONTINUOUS
 10
90.3638679924
 20
134.9320606734
 11
101.4654906772
 21
128.5226808274
  0
LINE
  5
306
100
AcDbEntity
  8
0
100
AcDbLine
 62
7
  6
CONTINUOUS
 10
112.4569675394
 20
122.1768922632
 11
113.9813328123
 21
121.2968194724
  0
LINE
  5
307
100
AcDbEntity
  8
0
100
AcDbLine
 62
7
  6
CONTINUOUS
 10
74.663442505
 20
145.5985010441
 11
103.2185104878
 21
129.1125978185
  0
LINE
  5
308
100
AcDbEntity
  8
0
100
AcDbLine
 62
7
  6
CONTINUOUS
 10
112.2109689103
 20
123.9209169791
 11
116.0758355482
 21
121.6895856648
  0
LINE
  5
309
100
AcDbEntity
  8
0
100
AcDbLine
 62
7
  6
CONTINUOUS
 10
116.0758355482
 20
121.6895856648
 11
117.2852459493
 21
114.4677614717
  0
LINE
  5
30A
100
AcDbEntity
  8
0
100
AcDbLine
 62
7
  6
CONTINUOUS
 10
104.3097252202
 20
47.1675576458
 11
96.0366156239
 21
42.391104105
  0
LINE
  5
30B
100
AcDbEntity
  8
0
100
AcDbLine
 62
7
  6
CONTINUOUS
 10
109.1887469961
 20
49.24960589
 11
104.9461239728
 21
46.8001409668
  0
LINE
  5
30C
100
AcDbEntity
  8
0
100
AcDbLine
 62
7
  6
CONTINUOUS
 10
96.0366156239
 20
41.656264628
 11
92.4657468395
 21
39.5946348804
  0
LINE
  5
30D
100
AcDbEntity
  8
0
100
AcDbLine
 62
7
  6
CONTINUOUS
 10
117.2852459493
 20
53.1484299448
 11
109.860501235
 21
48.8617771732
  0
LINE
  5
30E
100
AcDbEntity
  8
0
100
AcDbLine
 62
7
  6
CONTINUOUS
 10
92.4657468395
 20
38.818970988
 11
83.3644236661
 21
33.5643509697
  0
ARC
  5
30F
100
AcDbEntity
  8
0
100
AcDbCircle
 62
7
  6
CONTINUOUS
 10
142.1624766058
 20
91.2185151693
 40
122.7158975982
100
AcDbArc
 50
186.5720713057
 51
187.3798437673
  0
ARC
  5
310
100
AcDbEntity
  8
0
100
AcDbCircle
 62
7
  6
CONTINUOUS
 10
30.9548943347
 20
66.6875039197
 40
14.1529738973
100
AcDbArc
 50
14.7962092176
 51
16.3974062881
  0
ARC
  5
311
100
AcDbEntity
  8
0
100
AcDbCircle
 62
7
  6
CONTINUOUS
 10
43.4718118527
 20
59.4619294386
 40
14.1518609114
100
AcDbArc
 50
14.7961981738
 51
16.3963192067
  0
ARC
  5
312
100
AcDbEntity
  8
0
100
AcDbCircle
 62
7
  6
CONTINUOUS
 10
18.4805074826
 20
73.9246377712
 40
14.1100144726
100
AcDbArc
 50
14.794943191
 51
16.2835317976
  0
ARC
  5
313
100
AcDbEntity
  8
0
100
AcDbCircle
 62
7
  6
CONTINUOUS
 10
67.540997047
 20
60.1684331827
 40
10.8
100
AcDbArc
 50
264.4411474724
 51
267.164978664
  0
ARC
  5
314
100
AcDbEntity
  8
0
100
AcDbCircle
 62
7
  6
CONTINUOUS
 10
67.540997047
 20
60.1684331827
 40
10.8
100
AcDbArc
 50
161.7937800566
 51
205.4601239172
  0
ARC
  5
315
100
AcDbEntity
  8
0
100
AcDbCircle
 62
7
  6
CONTINUOUS
 10
55.0251549119
 20
67.3942945377
 40
10.8
100
AcDbArc
 50
264.4411474724
 51
267.164978664
  0
ARC
  5
316
100
AcDbEntity
  8
0
100
AcDbCircle
 62
7
  6
CONTINUOUS
 10
55.0251549119
 20
67.3942945377
 40
10.8
100
AcDbArc
 50
161.7937800566
 51
205.4601239172
  0
ARC
  5
317
100
AcDbEntity
  8
0
100
AcDbCircle
 62
7
  6
CONTINUOUS
 10
42.5093127768
 20
74.6201558927
 40
10.8
100
AcDbArc
 50
264.2442430345
 51
267.167636897
  0
ARC
  5
318
100
AcDbEntity
  8
0
100
AcDbCircle
 62
7
  6
CONTINUOUS
 10
42.5093127768
 20
74.6201558927
 40
10.8
100
AcDbArc
 50
161.8302329012
 51
205.4588294079
  0
ARC
  5
319
100
AcDbEntity
  8
0
100
AcDbCircle
 62
7
  6
CONTINUOUS
 10
29.9934706417
 20
81.8460172477
 40
10.8
100
AcDbArc
 50
264.4384140447
 51
267.1678616459
  0
ARC
  5
31A
100
AcDbEntity
  8
0
100
AcDbCircle
 62
7
  6
CONTINUOUS
 10
29.9934706417
 20
81.8460172477
 40
10.8
100
AcDbArc
 50
161.8382554065
 51
205.4619299311
  0
ARC
  5
31B
100
AcDbEntity
  8
0
100
AcDbCircle
 62
7
  6
CONTINUOUS
 10
66.9304134672
 20
57.2837768431
 40
7.8547213065
100
AcDbArc
 50
266.929451813
 51
273.3836038258
  0
ARC
  5
31C
100
AcDbEntity
  8
0
100
AcDbCircle
 62
7
  6
CONTINUOUS
 10
54.4145713321
 20
64.5096381981
 40
7.8547213065
100
AcDbArc
 50
266.929451813
 51
273.3836038258
  0
ARC
  5
31D
100
AcDbEntity
  8
0
100
AcDbCircle
 62
7
  6
CONTINUOUS
 10
29.3828896793
 20
78.9613306544
 40
7.8546909511
100
AcDbArc
 50
266.9293594715
 51
273.3835977914
  0
ARC
  5
31E
100
AcDbEntity
  8
0
100
AcDbCircle
 62
7
  6
CONTINUOUS
 10
41.8987323741
 20
71.7354629098
 40
7.8546845396
100
AcDbArc
 50
266.9293434031
 51
273.3835964666
  0
ARC
  5
31F
100
AcDbEntity
  8
0
100
AcDbCircle
 62
7
  6
CONTINUOUS
 10
42.1615904127
 20
67.1162078179
 40
3.2872474348
100
AcDbArc
 50
273.0615139117
 51
273.7641861076
  0
ARC
  5
320
100
AcDbEntity
  8
0
100
AcDbCircle
 62
7
  6
CONTINUOUS
 10
29.6523744052
 20
74.2551789588
 40
3.2001722222
100
AcDbArc
 50
273.5322902074
 51
274.8881161333
  0
ARC
  5
321
100
AcDbEntity
  8
0
100
AcDbCircle
 62
7
  6
CONTINUOUS
 10
54.6853104042
 20
59.7861256861
 40
3.1828014251
100
AcDbArc
 50
273.5475453039
 51
275.4460294753
  0
ARC
  5
322
100
AcDbEntity
  8
0
100
AcDbCircle
 62
7
  6
CONTINUOUS
 10
67.2013202612
 20
52.5581758333
 40
3.1806996459
100
AcDbArc
 50
273.5490809689
 51
275.5123234682
  0
ARC
  5
323
100
AcDbEntity
  8
0
100
AcDbCircle
 62
7
  6
CONTINUOUS
 10
96.1361421053
 20
77.322860981
 40
3.0073813258
100
AcDbArc
 50
167.2675954091
 51
167.9361761828
  0
ARC
  5
324
100
AcDbEntity
  8
0
100
AcDbCircle
 62
7
  6
CONTINUOUS
 10
88.2854750068
 20
48.867576315
 40
3.0073813249
100
AcDbArc
 50
167.267595409
 51
167.9361761829
  0
ARC
  5
325
100
AcDbEntity
  8
0
100
AcDbCircle
 62
7
  6
CONTINUOUS
 10
75.2071817742
 20
55.5265728591
 40
3.007381325
100
AcDbArc
 50
167.2675954091
 51
167.9361761829
  0
ARC
  5
326
100
AcDbEntity
  8
0
100
AcDbCircle
 62
7
  6
CONTINUOUS
 10
85.9222738569
 20
89.9060990712
 40
2.9736404337
100
AcDbArc
 50
167.4165992729
 51
168.8606015262
  0
ARC
  5
327
100
AcDbEntity
  8
0
100
AcDbCircle
 62
7
  6
CONTINUOUS
 10
111.9403383872
 20
60.6704835276
 40
2.9736404338
100
AcDbArc
 50
167.4165992729
 51
168.8606015262
  0
ARC
  5
328
100
AcDbEntity
  8
0
100
AcDbCircle
 62
7
  6
CONTINUOUS
 10
24.5140025649
 20
80.2338362675
 40
2.7903740231
100
AcDbArc
 50
212.3981900741
 51
218.0091402668
  0
ARC
  5
329
100
AcDbEntity
  8
0
100
AcDbCircle
 62
7
  6
CONTINUOUS
 10
37.0298447
 20
73.0079749125
 40
2.7903740231
100
AcDbArc
 50
212.3981900741
 51
218.0091402668
  0
ARC
  5
32A
100
AcDbEntity
  8
0
100
AcDbCircle
 62
7
  6
CONTINUOUS
 10
49.5456868351
 20
65.7821135575
 40
2.7903740231
100
AcDbArc
 50
212.3981900741
 51
218.0091402668
  0
ARC
  5
32B
100
AcDbEntity
  8
0
100
AcDbCircle
 62
7
  6
CONTINUOUS
 10
62.0615289702
 20
58.5562522025
 40
2.7903740231
100
AcDbArc
 50
212.3981900741
 51
218.0091402668
  0
ARC
  5
32C
100
AcDbEntity
  8
0
100
AcDbCircle
 62
7
  6
CONTINUOUS
 10
24.4060288296
 20
80.1526590987
 40
2.6553135084
100
AcDbArc
 50
218.0636961041
 51
218.8026206674
  0
ARC
  5
32D
100
AcDbEntity
  8
0
100
AcDbCircle
 62
7
  6
CONTINUOUS
 10
49.4377130999
 20
65.7009363887
 40
2.6553135084
100
AcDbArc
 50
218.0636961041
 51
218.8026206674
  0
ARC
  5
32E
100
AcDbEntity
  8
0
100
AcDbCircle
 62
7
  6
CONTINUOUS
 10
61.953555235
 20
58.4750750337
 40
2.6553135084
100
AcDbArc
 50
218.0636961041
 51
218.8026206674
  0
ARC
  5
32F
100
AcDbEntity
  8
0
100
AcDbCircle
 62
7
  6
CONTINUOUS
 10
36.9218709642
 20
72.9267977433
 40
2.6553135078
100
AcDbArc
 50
218.0636961041
 51
218.8026206675
  0
ARC
  5
330
100
AcDbEntity
  8
0
100
AcDbCircle
 62
7
  6
CONTINUOUS
 10
84.0242426517
 20
92.0498614411
 40
0.3762168466
100
AcDbArc
 50
60.1198284973
 51
73.0585605042
  0
ARC
  5
331
100
AcDbEntity
  8
0
100
AcDbCircle
 62
7
  6
CONTINUOUS
 10
110.0423071819
 20
62.8142458976
 40
0.3762168466
100
AcDbArc
 50
60.1198284972
 51
73.0585605043
  0
ARC
  5
332
100
AcDbEntity
  8
0
100
AcDbCircle
 62
7
  6
CONTINUOUS
 10
50.4359784719
 20
162.0473191457
 40
45.4492004465
100
AcDbArc
 50
317.182143751
 51
317.8978856166
  0
ARC
  5
333
100
AcDbEntity
  8
0
100
AcDbCircle
 62
7
  6
CONTINUOUS
 10
62.951820608
 20
154.8214577898
 40
45.4492004451
100
AcDbArc
 50
317.182143751
 51
317.8978856167
  0
ARC
  5
334
100
AcDbEntity
  8
0
100
AcDbCircle
 62
7
  6
CONTINUOUS
 10
37.9201363384
 20
169.2731804992
 40
45.4492004442
100
AcDbArc
 50
317.182143751
 51
317.8978856167
  0
ARC
  5
335
100
AcDbEntity
  8
0
100
AcDbCircle
 62
7
  6
CONTINUOUS
 10
58.9730492139
 20
132.0243069249
 40
18.947453893
100
AcDbArc
 50
56.9049568734
 51
59.9885237672
  0
ARC
  5
336
100
AcDbEntity
  8
0
100
AcDbCircle
 62
7
  6
CONTINUOUS
 10
96.5205756192
 20
110.3467228598
 40
18.947453893
100
AcDbArc
 50
56.9049568734
 51
59.9885237672
  0
ARC
  5
337
100
AcDbEntity
  8
0
100
AcDbCircle
 62
7
  6
CONTINUOUS
 10
59.8468799238
 20
133.5554238111
 40
17.1845566532
100
AcDbArc
 50
59.9580098327
 51
63.3637504977
  0
ARC
  5
338
100
AcDbEntity
  8
0
100
AcDbCircle
 62
7
  6
CONTINUOUS
 10
97.3944063291
 20
111.877839746
 40
17.1845566533
100
AcDbArc
 50
59.9580098327
 51
63.3637504977
  0
ARC
  5
339
100
AcDbEntity
  8
0
100
AcDbCircle
 62
7
  6
CONTINUOUS
 10
109.9264999899
 20
109.4517572864
 40
3.0073813241
100
AcDbArc
 50
167.2675954089
 51
167.936176183
  0
ARC
  5
33A
100
AcDbEntity
  8
0
100
AcDbCircle
 62
7
  6
CONTINUOUS
 10
270.4456746512
 20
63.7192412657
 40
202.1269451765
100
AcDbArc
 50
179.9994347163
 51
180.3867851046
  0
ARC
  5
33B
100
AcDbEntity
  8
0
100
AcDbCircle
 62
7
  6
CONTINUOUS
 10
156.6429414587
 20
92.4778704835
 40
137.2535870499
100
AcDbArc
 50
183.0380585885
 51
183.2261440153
  0
SPLINE
  5
33C
100
AcDbEntity
  8
0
100
AcDbSpline
 62
7
  6
CONTINUOUS
 70
0
 71
3
 72
10
 73
6
 74
0
 42
0.0000001
 43
0.0000001
 44
0.0000000001
 40
0.0
 40
0.0
 40
0.0
 40
0.0
 40
0.2377269935
 40
0.480155826
 40
1.0
 40
1.0
 40
1.0
 40
1.0
 10
65.9713334139
 20
146.5522384748
 30
0.0
 10
65.990526593
 20
146.5648667375
 30
0.0
 10
66.0320821088
 20
146.5864112657
 30
0.0
 10
66.1256446319
 20
146.6126387997
 30
0.0
 10
66.2012825417
 20
146.6109748162
 30
0.0
 10
66.2508453613
 20
146.6027532815
 30
0.0
  0
SPLINE
  5
33D
100
AcDbEntity
  8
0
100
AcDbSpline
 62
7
  6
CONTINUOUS
 70
0
 71
3
 72
11
 73
7
 74
0
 42
0.0000001
 43
0.0000001
 44
0.0000000001
 40
0.0
 40
0.0
 40
0.0
 40
0.0
 40
0.2633585915
 40
0.5238963552
 40
0.7722222125
 40
1.0
 40
1.0
 40
1.0
 40
1.0
 10
75.9596278607
 20
142.6975228291
 30
0.0
 10
75.9307570581
 20
142.7512162775
 30
0.0
 10
75.8665812375
 20
142.8545363476
 30
0.0
 10
75.7543024319
 20
142.9942084077
 30
0.0
 10
75.6309803871
 20
143.1126613764
 30
0.0
 10
75.5407364224
 20
143.1769581857
 30
0.0
 10
75.4950734057
 20
143.2033211443
 30
0.0
  0
SPLINE
  5
33E
100
AcDbEntity
  8
0
100
AcDbSpline
 62
7
  6
CONTINUOUS
 70
0
 71
3
 72
15
 73
11
 74
0
 42
0.0000001
 43
0.0000001
 44
0.0000000001
 40
0.0
 40
0.0
 40
0.0
 40
0.0
 40
0.1150668215
 40
0.2395364111
 40
0.3704470826
 40
0.504408603
 40
0.6377614601
 40
0.7668912397
 40
0.8885429246
 40
1.0
 40
1.0
 40
1.0
 40
1.0
 10
75.4950734057
 20
143.2033211443
 30
0.0
 10
75.4465398414
 20
143.2313413768
 30
0.0
 10
75.3502026924
 20
143.2979810169
 30
0.0
 10
75.21598017
 20
143.4191354527
 30
0.0
 10
75.0903171719
 20
143.5616587921
 30
0.0
 10
74.9779377949
 20
143.7201616911
 30
0.0
 10
74.8830673319
 20
143.8887354565
 30
0.0
 10
74.8092212502
 20
144.0610717456
 30
0.0
 10
74.7591977145
 20
144.2306903302
 30
0.0
 10
74.7420956573
 20
144.3434612758
 30
0.0
 10
74.738700389
 20
144.3976383376
 30
0.0
  0
SPLINE
  5
33F
100
AcDbEntity
  8
0
100
AcDbSpline
 62
7
  6
CONTINUOUS
 70
0
 71
3
 72
11
 73
7
 74
0
 42
0.0000001
 43
0.0000001
 44
0.0000000001
 40
0.0
 40
0.0
 40
0.0
 40
0.0
 40
0.2477591268
 40
0.5048210172
 40
0.7593465271
 40
1.0
 40
1.0
 40
1.0
 40
1.0
 10
70.5955357175
 20
144.1014159323
 30
0.0
 10
70.6564938065
 20
144.043212532
 30
0.0
 10
70.7701586978
 20
143.9132618065
 30
0.0
 10
70.9089344481
 20
143.694301323
 30
0.0
 10
71.0126414593
 20
143.4593391491
 30
0.0
 10
71.055581452
 20
143.2954174313
 30
0.0
 10
71.0685901343
 20
143.2145923873
 30
0.0
  0
SPLINE
  5
340
100
AcDbEntity
  8
0
100
AcDbSpline
 62
7
  6
CONTINUOUS
 70
0
 71
3
 72
11
 73
7
 74
0
 42
0.0000001
 43
0.0000001
 44
0.0000000001
 40
0.0
 40
0.0
 40
0.0
 40
0.0
 40
0.284013927
 40
0.5437279993
 40
0.7806129563
 40
1.0
 40
1.0
 40
1.0
 40
1.0
 10
64.4014404626
 20
147.5544493055
 30
0.0
 10
64.4013997289
 20
147.5121736158
 30
0.0
 10
64.3960011025
 20
147.4310736077
 30
0.0
 10
64.3693363788
 20
147.3173383506
 30
0.0
 10
64.3246805808
 20
147.2196964382
 30
0.0
 10
64.2820711461
 20
147.165681405
 30
0.0
 10
64.2584906061
 20
147.1430900614
 30
0.0
  0
SPLINE
  5
341
100
AcDbEntity
  8
0
100
AcDbSpline
 62
7
  6
CONTINUOUS
 70
0
 71
3
 72
9
 73
5
 74
0
 42
0.0000001
 43
0.0000001
 44
0.0000000001
 40
0.0
 40
0.0
 40
0.0
 40
0.0
 40
0.5246514138
 40
1.0
 40
1.0
 40
1.0
 40
1.0
 10
72.6044905447
 20
142.3246328677
 30
0.0
 10
72.5599313416
 20
142.4189769178
 30
0.0
 10
72.4910052622
 20
142.6068886532
 30
0.0
 10
72.4624002446
 20
142.8059719866
 30
0.0
 10
72.4624913292
 20
142.9005046193
 30
0.0
  0
SPLINE
  5
342
100
AcDbEntity
  8
0
100
AcDbSpline
 62
7
  6
CONTINUOUS
 70
0
 71
3
 72
9
 73
5
 74
0
 42
0.0000001
 43
0.0000001
 44
0.0000000001
 40
0.0
 40
0.0
 40
0.0
 40
0.0
 40
0.4883740468
 40
1.0
 40
1.0
 40
1.0
 40
1.0
 10
68.399683282
 20
147.3683033562
 30
0.0
 10
68.9468203219
 20
147.0121718557
 30
0.0
 10
70.0319638048
 20
146.2279560566
 30
0.0
 10
71.0454563576
 20
145.3538243365
 30
0.0
 10
71.5456815959
 20
144.8874427488
 30
0.0
  0
SPLINE
  5
343
100
AcDbEntity
  8
0
100
AcDbSpline
 62
7
  6
CONTINUOUS
 70
0
 71
3
 72
11
 73
7
 74
0
 42
0.0000001
 43
0.0000001
 44
0.0000000001
 40
0.0
 40
0.0
 40
0.0
 40
0.0
 40
0.2760764525
 40
0.5316668439
 40
0.7708691935
 40
1.0
 40
1.0
 40
1.0
 40
1.0
 10
65.794469867
 20
146.2598577201
 30
0.0
 10
65.8007793505
 20
146.2914746088
 30
0.0
 10
65.8172857952
 20
146.351643446
 30
0.0
 10
65.8558743373
 20
146.433543027
 30
0.0
 10
65.9067927561
 20
146.5018017923
 30
0.0
 10
65.9489799704
 20
146.5375308979
 30
0.0
 10
65.9713334139
 20
146.5522384748
 30
0.0
  0
SPLINE
  5
344
100
AcDbEntity
  8
0
100
AcDbSpline
 62
7
  6
CONTINUOUS
 70
0
 71
3
 72
9
 73
5
 74
0
 42
0.0000001
 43
0.0000001
 44
0.0000000001
 40
0.0
 40
0.0
 40
0.0
 40
0.0
 40
0.4834134501
 40
1.0
 40
1.0
 40
1.0
 40
1.0
 10
63.4846204339
 20
149.530702226
 30
0.0
 10
64.0126777811
 20
149.4147032197
 30
0.0
 10
65.0883128416
 20
149.094811465
 30
0.0
 10
66.1154078938
 20
148.6455483348
 30
0.0
 10
66.6319068071
 20
148.3866612994
 30
0.0
  0
SPLINE
  5
345
100
AcDbEntity
  8
0
100
AcDbSpline
 62
7
  6
CONTINUOUS
 70
0
 71
3
 72
10
 73
6
 74
0
 42
0.0000001
 43
0.0000001
 44
0.0000000001
 40
0.0
 40
0.0
 40
0.0
 40
0.0
 40
0.2377269935
 40
0.480155826
 40
1.0
 40
1.0
 40
1.0
 40
1.0
 10
103.5188598192
 20
124.8746544098
 30
0.0
 10
103.5380529983
 20
124.8872826725
 30
0.0
 10
103.5796085141
 20
124.9088272006
 30
0.0
 10
103.6731710372
 20
124.9350547347
 30
0.0
 10
103.748808947
 20
124.9333907511
 30
0.0
 10
103.7983717666
 20
124.9251692165
 30
0.0
  0
SPLINE
  5
346
100
AcDbEntity
  8
0
100
AcDbSpline
 62
7
  6
CONTINUOUS
 70
0
 71
3
 72
11
 73
7
 74
0
 42
0.0000001
 43
0.0000001
 44
0.0000000001
 40
0.0
 40
0.0
 40
0.0
 40
0.0
 40
0.2633585915
 40
0.5238963552
 40
0.7722222125
 40
1.0
 40
1.0
 40
1.0
 40
1.0
 10
113.5071542661
 20
121.0199387641
 30
0.0
 10
113.4782834634
 20
121.0736322125
 30
0.0
 10
113.4141076428
 20
121.1769522825
 30
0.0
 10
113.3018288372
 20
121.3166243426
 30
0.0
 10
113.1785067924
 20
121.4350773114
 30
0.0
 10
113.0882628277
 20
121.4993741207
 30
0.0
 10
113.042599811
 20
121.5257370793
 30
0.0
  0
SPLINE
  5
347
100
AcDbEntity
  8
0
100
AcDbSpline
 62
7
  6
CONTINUOUS
 70
0
 71
3
 72
15
 73
11
 74
0
 42
0.0000001
 43
0.0000001
 44
0.0000000001
 40
0.0
 40
0.0
 40
0.0
 40
0.0
 40
0.1150668215
 40
0.2395364111
 40
0.3704470826
 40
0.504408603
 40
0.6377614601
 40
0.7668912397
 40
0.8885429246
 40
1.0
 40
1.0
 40
1.0
 40
1.0
 10
113.042599811
 20
121.5257370793
 30
0.0
 10
112.9940662467
 20
121.5537573118
 30
0.0
 10
112.8977290977
 20
121.6203969518
 30
0.0
 10
112.7635065753
 20
121.7415513877
 30
0.0
 10
112.6378435772
 20
121.8840747271
 30
0.0
 10
112.5254642002
 20
122.042577626
 30
0.0
 10
112.4305937372
 20
122.2111513915
 30
0.0
 10
112.3567476555
 20
122.3834876806
 30
0.0
 10
112.3067241198
 20
122.5531062651
 30
0.0
 10
112.2896220626
 20
122.6658772108
 30
0.0
 10
112.2862267943
 20
122.7200542726
 30
0.0
  0
SPLINE
  5
348
100
AcDbEntity
  8
0
100
AcDbSpline
 62
7
  6
CONTINUOUS
 70
0
 71
3
 72
11
 73
7
 74
0
 42
0.0000001
 43
0.0000001
 44
0.0000000001
 40
0.0
 40
0.0
 40
0.0
 40
0.0
 40
0.2477591268
 40
0.5048210172
 40
0.7593465271
 40
1.0
 40
1.0
 40
1.0
 40
1.0
 10
108.1430621228
 20
122.4238318673
 30
0.0
 10
108.2040202118
 20
122.365628467
 30
0.0
 10
108.3176851031
 20
122.2356777415
 30
0.0
 10
108.4564608534
 20
122.016717258
 30
0.0
 10
108.5601678646
 20
121.7817550841
 30
0.0
 10
108.6031078573
 20
121.6178333663
 30
0.0
 10
108.6161165397
 20
121.5370083223
 30
0.0
  0
SPLINE
  5
349
100
AcDbEntity
  8
0
100
AcDbSpline
 62
7
  6
CONTINUOUS
 70
0
 71
3
 72
11
 73
7
 74
0
 42
0.0000001
 43
0.0000001
 44
0.0000000001
 40
0.0
 40
0.0
 40
0.0
 40
0.0
 40
0.284013927
 40
0.5437279993
 40
0.7806129563
 40
1.0
 40
1.0
 40
1.0
 40
1.0
 10
101.9489668679
 20
125.8768652404
 30
0.0
 10
101.9489261342
 20
125.8345895508
 30
0.0
 10
101.9435275078
 20
125.7534895427
 30
0.0
 10
101.9168627841
 20
125.6397542855
 30
0.0
 10
101.8722069861
 20
125.5421123732
 30
0.0
 10
101.8295975514
 20
125.4880973399
 30
0.0
 10
101.8060170114
 20
125.4655059964
 30
0.0
  0
SPLINE
  5
34A
100
AcDbEntity
  8
0
100
AcDbSpline
 62
7
  6
CONTINUOUS
 70
0
 71
3
 72
9
 73
5
 74
0
 42
0.0000001
 43
0.0000001
 44
0.0000000001
 40
0.0
 40
0.0
 40
0.0
 40
0.0
 40
0.5246514138
 40
1.0
 40
1.0
 40
1.0
 40
1.0
 10
110.15201695
 20
120.6470488026
 30
0.0
 10
110.1074577469
 20
120.7413928528
 30
0.0
 10
110.0385316675
 20
120.9293045882
 30
0.0
 10
110.0099266499
 20
121.1283879216
 30
0.0
 10
110.0100177345
 20
121.2229205543
 30
0.0
  0
SPLINE
  5
34B
100
AcDbEntity
  8
0
100
AcDbSpline
 62
7
  6
CONTINUOUS
 70
0
 71
3
 72
9
 73
5
 74
0
 42
0.0000001
 43
0.0000001
 44
0.0000000001
 40
0.0
 40
0.0
 40
0.0
 40
0.0
 40
0.4883740468
 40
1.0
 40
1.0
 40
1.0
 40
1.0
 10
105.9472096874
 20
125.6907192912
 30
0.0
 10
106.4943467272
 20
125.3345877907
 30
0.0
 10
107.5794902101
 20
124.5503719915
 30
0.0
 10
108.5929827629
 20
123.6762402715
 30
0.0
 10
109.0932080012
 20
123.2098586837
 30
0.0
  0
SPLINE
  5
34C
100
AcDbEntity
  8
0
100
AcDbSpline
 62
7
  6
CONTINUOUS
 70
0
 71
3
 72
11
 73
7
 74
0
 42
0.0000001
 43
0.0000001
 44
0.0000000001
 40
0.0
 40
0.0
 40
0.0
 40
0.0
 40
0.2760764525
 40
0.5316668439
 40
0.7708691935
 40
1.0
 40
1.0
 40
1.0
 40
1.0
 10
103.3419962723
 20
124.5822736551
 30
0.0
 10
103.3483057558
 20
124.6138905438
 30
0.0
 10
103.3648122005
 20
124.674059381
 30
0.0
 10
103.4034007426
 20
124.755958962
 30
0.0
 10
103.4543191614
 20
124.8242177273
 30
0.0
 10
103.4965063757
 20
124.8599468329
 30
0.0
 10
103.5188598192
 20
124.8746544098
 30
0.0
  0
SPLINE
  5
34D
100
AcDbEntity
  8
0
100
AcDbSpline
 62
7
  6
CONTINUOUS
 70
0
 71
3
 72
9
 73
5
 74
0
 42
0.0000001
 43
0.0000001
 44
0.0000000001
 40
0.0
 40
0.0
 40
0.0
 40
0.0
 40
0.4834134501
 40
1.0
 40
1.0
 40
1.0
 40
1.0
 10
101.0321468392
 20
127.853118161
 30
0.0
 10
101.5602041864
 20
127.7371191547
 30
0.0
 10
102.6358392469
 20
127.4172273999
 30
0.0
 10
103.6629342991
 20
126.9679642698
 30
0.0
 10
104.1794332124
 20
126.7090772344
 30
0.0
  0
SPLINE
  5
34E
100
AcDbEntity
  8
0
100
AcDbSpline
 62
7
  6
CONTINUOUS
 70
0
 71
3
 72
11
 73
7
 74
0
 42
0.0000001
 43
0.0000001
 44
0.0000000001
 40
0.0
 40
0.0
 40
0.0
 40
0.0
 40
0.2153548135
 40
0.4594148915
 40
0.7246608433
 40
1.0
 40
1.0
 40
1.0
 40
1.0
 10
68.9299548506
 20
47.2186338159
 30
0.0
 10
68.9499447631
 20
47.1263511766
 30
0.0
 10
68.9624463362
 20
46.9227628003
 30
0.0
 10
68.9141245332
 20
46.6070544148
 30
0.0
 10
68.8040228277
 20
46.2795365338
 30
0.0
 10
68.6944048393
 20
46.0681917925
 30
0.0
 10
68.6309314632
 20
45.9655018817
 30
0.0
  0
SPLINE
  5
34F
100
AcDbEntity
  8
0
100
AcDbSpline
 62
7
  6
CONTINUOUS
 70
0
 71
3
 72
11
 73
7
 74
0
 42
0.0000001
 43
0.0000001
 44
0.0000000001
 40
0.0
 40
0.0
 40
0.0
 40
0.0
 40
0.2742864894
 40
0.5372267572
 40
0.7809505438
 40
1.0
 40
1.0
 40
1.0
 40
1.0
 10
68.2305549298
 20
45.2078473364
 30
0.0
 10
68.0339376853
 20
44.889751647
 30
0.0
 10
67.6081299375
 20
44.2907372251
 30
0.0
 10
66.8767686516
 20
43.5119825826
 30
0.0
 10
66.0948307755
 20
42.8991941503
 30
0.0
 10
65.5307237927
 20
42.6044183316
 30
0.0
 10
65.2510106055
 20
42.499772809
 30
0.0
  0
SPLINE
  5
350
100
AcDbEntity
  8
0
100
AcDbSpline
 62
7
  6
CONTINUOUS
 70
0
 71
3
 72
9
 73
5
 74
0
 42
0.0000001
 43
0.0000001
 44
0.0000000001
 40
0.0
 40
0.0
 40
0.0
 40
0.0
 40
0.2561148433
 40
1.0
 40
1.0
 40
1.0
 40
1.0
 10
65.2510106055
 20
42.499772809
 30
0.0
 10
65.2188137501
 20
42.4877274106
 30
0.0
 10
65.0924313268
 20
42.4425204687
 30
0.0
 10
64.9633316427
 20
42.4047985718
 30
0.0
 10
64.8661924934
 20
42.3817077989
 30
0.0
  0
SPLINE
  5
351
100
AcDbEntity
  8
0
100
AcDbSpline
 62
7
  6
CONTINUOUS
 70
0
 71
3
 72
9
 73
5
 74
0
 42
0.0000001
 43
0.0000001
 44
0.0000000001
 40
0.0
 40
0.0
 40
0.0
 40
0.0
 40
0.2421400468
 40
1.0
 40
1.0
 40
1.0
 40
1.0
 10
17.7510373221
 20
77.006179513
 30
0.0
 10
17.7394740393
 20
77.003968851
 30
0.0
 10
17.6919341204
 20
76.9937300221
 30
0.0
 10
17.6453481198
 20
76.9792212253
 30
0.0
 10
17.6108374798
 20
76.9663102003
 30
0.0
  0
SPLINE
  5
352
100
AcDbEntity
  8
0
100
AcDbSpline
 62
7
  6
CONTINUOUS
 70
0
 71
3
 72
11
 73
7
 74
0
 42
0.0000001
 43
0.0000001
 44
0.0000000001
 40
0.0
 40
0.0
 40
0.0
 40
0.0
 40
0.2190403723
 40
0.4627717166
 40
0.7257253415
 40
1.0
 40
1.0
 40
1.0
 40
1.0
 10
17.6108374798
 20
76.9663102003
 30
0.0
 10
17.5337197526
 20
76.9374591299
 30
0.0
 10
17.3781901065
 20
76.856182447
 30
0.0
 10
17.1625869566
 20
76.6872352608
 30
0.0
 10
16.9609470157
 20
76.4725095703
 30
0.0
 10
16.8435423922
 20
76.3073551135
 30
0.0
 10
16.7893345447
 20
76.2196553663
 30
0.0
  0
SPLINE
  5
353
100
AcDbEntity
  8
0
100
AcDbSpline
 62
7
  6
CONTINUOUS
 70
0
 71
3
 72
11
 73
7
 74
0
 42
0.0000001
 43
0.0000001
 44
0.0000000001
 40
0.0
 40
0.0
 40
0.0
 40
0.0
 40
0.2735537146
 40
0.5378109399
 40
0.7824075933
 40
1.0
 40
1.0
 40
1.0
 40
1.0
 10
16.294289527
 20
75.5286590764
 30
0.0
 10
16.0719634747
 20
75.1689705911
 30
0.0
 10
15.6857140041
 20
74.4288909635
 30
0.0
 10
15.2895915948
 20
73.2810444911
 30
0.0
 10
15.1015436019
 20
72.1685675622
 30
0.0
 10
15.1257541913
 20
71.4466967145
 30
0.0
 10
15.1839386213
 20
71.1154182209
 30
0.0
  0
SPLINE
  5
354
100
AcDbEntity
  8
0
100
AcDbSpline
 62
7
  6
CONTINUOUS
 70
0
 71
3
 72
15
 73
11
 74
0
 42
0.0000001
 43
0.0000001
 44
0.0000000001
 40
0.0
 40
0.0
 40
0.0
 40
0.0
 40
0.1456924132
 40
0.2896368599
 40
0.4292357855
 40
0.562148933
 40
0.6864724452
 40
0.8009343918
 40
0.9051778836
 40
1.0
 40
1.0
 40
1.0
 40
1.0
 10
23.2156014032
 20
86.2236780861
 30
0.0
 10
23.0125638292
 20
85.8980563996
 30
0.0
 10
22.6398840243
 20
85.2308189253
 30
0.0
 10
22.1855036429
 20
84.1937056619
 30
0.0
 10
21.84782919
 20
83.1479708515
 30
0.0
 10
21.6361291507
 20
82.1220727926
 30
0.0
 10
21.5562837561
 20
81.1435535911
 30
0.0
 10
21.6110267166
 20
80.238024024
 30
0.0
 10
21.8000266914
 20
79.4296491512
 30
0.0
 10
22.0240801153
 20
78.9495854667
 30
0.0
 10
22.157964625
 20
78.7387535224
 30
0.0
  0
SPLINE
  5
355
100
AcDbEntity
  8
0
100
AcDbSpline
 62
7
  6
CONTINUOUS
 70
0
 71
3
 72
15
 73
11
 74
0
 42
0.0000001
 43
0.0000001
 44
0.0000000001
 40
0.0
 40
0.0
 40
0.0
 40
0.0
 40
0.1456924128
 40
0.2896368594
 40
0.4292357852
 40
0.5621489329
 40
0.6864724454
 40
0.8009343921
 40
0.9051778838
 40
1.0
 40
1.0
 40
1.0
 40
1.0
 10
35.7314436422
 20
78.9978168976
 30
0.0
 10
35.5284060583
 20
78.6721952074
 30
0.0
 10
35.1557262347
 20
78.0049577235
 30
0.0
 10
34.7013458283
 20
76.9678444414
 30
0.0
 10
34.3636713539
 20
75.9221096082
 30
0.0
 10
34.1519712976
 20
74.8962115245
 30
0.0
 10
34.0721258911
 20
73.9176922977
 30
0.0
 10
34.1268688453
 20
73.0121627067
 30
0.0
 10
34.3158688196
 20
72.2037878129
 30
0.0
 10
34.5399222474
 20
71.7237241163
 30
0.0
 10
34.6738067601
 20
71.5128921674
 30
0.0
  0
SPLINE
  5
356
100
AcDbEntity
  8
0
100
AcDbSpline
 62
7
  6
CONTINUOUS
 70
0
 71
3
 72
15
 73
11
 74
0
 42
0.0000001
 43
0.0000001
 44
0.0000000001
 40
0.0
 40
0.0
 40
0.0
 40
0.0
 40
0.1456924336
 40
0.289636884
 40
0.4292358025
 40
0.5621489377
 40
0.6864724383
 40
0.8009343786
 40
0.9051778726
 40
1.0
 40
1.0
 40
1.0
 40
1.0
 10
48.2472809869
 20
71.77194786
 30
0.0
 10
48.0442438539
 20
71.4463263414
 30
0.0
 10
47.6715648964
 20
70.7790893034
 30
0.0
 10
47.2171856432
 20
69.7419768826
 30
0.0
 10
46.8795121608
 20
68.6962430966
 30
0.0
 10
46.6678128903
 20
67.6703461617
 30
0.0
 10
46.5879680318
 20
66.6918281009
 30
0.0
 10
46.6427112752
 20
65.7862996133
 30
0.0
 10
46.8317112742
 20
64.977925687
 30
0.0
 10
47.0557645198
 20
64.4978625452
 30
0.0
 10
47.1896488952
 20
64.2870308124
 30
0.0
  0
SPLINE
  5
357
100
AcDbEntity
  8
0
100
AcDbSpline
 62
7
  6
CONTINUOUS
 70
0
 71
3
 72
15
 73
11
 74
0
 42
0.0000001
 43
0.0000001
 44
0.0000000001
 40
0.0
 40
0.0
 40
0.0
 40
0.0
 40
0.1456924336
 40
0.289636884
 40
0.4292358025
 40
0.5621489377
 40
0.6864724383
 40
0.8009343786
 40
0.9051778726
 40
1.0
 40
1.0
 40
1.0
 40
1.0
 10
60.763123122
 20
64.546086505
 30
0.0
 10
60.560085989
 20
64.2204649864
 30
0.0
 10
60.1874070315
 20
63.5532279484
 30
0.0
 10
59.7330277783
 20
62.5161155276
 30
0.0
 10
59.3953542959
 20
61.4703817416
 30
0.0
 10
59.1836550254
 20
60.4444848067
 30
0.0
 10
59.1038101669
 20
59.4659667459
 30
0.0
 10
59.1585534103
 20
58.5604382583
 30
0.0
 10
59.3475534093
 20
57.752064332
 30
0.0
 10
59.5716066549
 20
57.2720011902
 30
0.0
 10
59.7054910303
 20
57.0611694574
 30
0.0
  0
SPLINE
  5
358
100
AcDbEntity
  8
0
100
AcDbSpline
 62
7
  6
CONTINUOUS
 70
0
 71
3
 72
11
 73
7
 74
0
 42
0.0000001
 43
0.0000001
 44
0.0000000001
 40
0.0
 40
0.0
 40
0.0
 40
0.0
 40
0.2742746585
 40
0.5372282834
 40
0.7809596277
 40
1.0
 40
1.0
 40
1.0
 40
1.0
 10
66.0748823874
 20
47.7652747762
 30
0.0
 10
66.129090235
 20
47.8529745234
 30
0.0
 10
66.2464948585
 20
48.0181289803
 30
0.0
 10
66.4481347994
 20
48.2328546707
 30
0.0
 10
66.6637379492
 20
48.4018018569
 30
0.0
 10
66.8192675953
 20
48.4830785398
 30
0.0
 10
66.8963853225
 20
48.5119296102
 30
0.0
  0
SPLINE
  5
359
100
AcDbEntity
  8
0
100
AcDbSpline
 62
7
  6
CONTINUOUS
 70
0
 71
3
 72
9
 73
5
 74
0
 42
0.0000001
 43
0.0000001
 44
0.0000000001
 40
0.0
 40
0.0
 40
0.0
 40
0.0
 40
0.2581794708
 40
1.0
 40
1.0
 40
1.0
 40
1.0
 10
66.8963853225
 20
48.5119296102
 30
0.0
 10
66.9081416946
 20
48.5163278716
 30
0.0
 10
66.9539956309
 20
48.532487846
 30
0.0
 10
67.0011608926
 20
48.5450265301
 30
0.0
 10
67.0365851648
 20
48.551798923
 30
0.0
  0
SPLINE
  5
35A
100
AcDbEntity
  8
0
100
AcDbSpline
 62
7
  6
CONTINUOUS
 70
0
 71
3
 72
11
 73
7
 74
0
 42
0.0000001
 43
0.0000001
 44
0.0000000001
 40
0.0
 40
0.0
 40
0.0
 40
0.0
 40
0.2175924067
 40
0.4621890601
 40
0.7264462854
 40
1.0
 40
1.0
 40
1.0
 40
1.0
 10
64.469486464
 20
42.6610376308
 30
0.0
 10
64.411302034
 20
42.9923161244
 30
0.0
 10
64.3870914447
 20
43.7141869721
 30
0.0
 10
64.5751394376
 20
44.8266639011
 30
0.0
 10
64.9712618468
 20
45.9745103734
 30
0.0
 10
65.3575113174
 20
46.7145900011
 30
0.0
 10
65.5798373697
 20
47.0742784863
 30
0.0
  0
SPLINE
  5
35B
100
AcDbEntity
  8
0
100
AcDbSpline
 62
7
  6
CONTINUOUS
 70
0
 71
3
 72
9
 73
5
 74
0
 42
0.0000001
 43
0.0000001
 44
0.0000000001
 40
0.0
 40
0.0
 40
0.0
 40
0.0
 40
0.2536295994
 40
1.0
 40
1.0
 40
1.0
 40
1.0
 10
18.8065312449
 20
107.9072305643
 30
0.0
 10
18.7192591805
 20
106.674264324
 30
0.0
 10
18.41438674
 20
101.8103117285
 30
0.0
 10
18.2684891108
 20
96.9361513288
 30
0.0
 10
18.2564752299
 20
93.2987727385
 30
0.0
  0
SPLINE
  5
35C
100
AcDbEntity
  8
0
100
AcDbSpline
 62
7
  6
CONTINUOUS
 70
0
 71
3
 72
11
 73
7
 74
0
 42
0.0000001
 43
0.0000001
 44
0.0000000001
 40
0.0
 40
0.0
 40
0.0
 40
0.0
 40
0.2370390416
 40
0.4999910056
 40
0.7629486854
 40
1.0
 40
1.0
 40
1.0
 40
1.0
 10
18.1824879994
 20
93.2560639284
 30
0.0
 10
18.1624267951
 20
93.2444836847
 30
0.0
 10
18.1244987889
 20
93.2124428808
 30
0.0
 10
18.0799995638
 20
93.1519326976
 30
0.0
 10
18.0498423563
 20
93.08314039
 30
0.0
 10
18.0410548461
 20
93.0342722977
 30
0.0
 10
18.0410548461
 20
93.0111074639
 30
0.0
  0
SPLINE
  5
35D
100
AcDbEntity
  8
0
100
AcDbSpline
 62
7
  6
CONTINUOUS
 70
0
 71
3
 72
9
 73
5
 74
0
 42
0.0000001
 43
0.0000001
 44
0.0000000001
 40
0.0
 40
0.0
 40
0.0
 40
0.0
 40
0.5500406387
 40
1.0
 40
1.0
 40
1.0
 40
1.0
 10
18.0410548461
 20
93.0111074639
 30
0.0
 10
18.0410548461
 20
92.9920384641
 30
0.0
 10
18.0458146618
 20
92.956616495
 30
0.0
 10
18.0689585835
 20
92.927333797
 30
0.0
 10
18.0824680871
 20
92.919534249
 30
0.0
  0
SPLINE
  5
35E
100
AcDbEntity
  8
0
100
AcDbSpline
 62
7
  6
CONTINUOUS
 70
0
 71
3
 72
9
 73
5
 74
0
 42
0.0000001
 43
0.0000001
 44
0.0000000001
 40
0.0
 40
0.0
 40
0.0
 40
0.0
 40
0.2520500838
 40
1.0
 40
1.0
 40
1.0
 40
1.0
 10
19.3996381442
 20
90.5961946565
 30
0.0
 10
19.4064795029
 20
90.1428974088
 30
0.0
 10
19.4419437153
 20
88.344593466
 30
0.0
 10
19.5109555349
 20
86.5469351733
 30
0.0
 10
19.5822574065
 20
85.2035289182
 30
0.0
  0
SPLINE
  5
35F
100
AcDbEntity
  8
0
100
AcDbSpline
 62
7
  6
CONTINUOUS
 70
0
 71
3
 72
12
 73
8
 74
0
 42
0.0000001
 43
0.0000001
 44
0.0000000001
 40
0.0
 40
0.0
 40
0.0
 40
0.0
 40
0.1012486428
 40
0.2057747895
 40
0.4341151882
 40
0.6987147516
 40
1.0
 40
1.0
 40
1.0
 40
1.0
 10
85.6705498886
 20
92.861707193
 30
0.0
 10
85.6217826523
 20
92.8898884619
 30
0.0
 10
85.5157394387
 20
92.9359469132
 30
0.0
 10
85.2769500127
 20
92.9818522054
 30
0.0
 10
84.9392003393
 20
92.9419425398
 30
0.0
 10
84.5311622532
 20
92.7619289348
 30
0.0
 10
84.2756262515
 20
92.5740093624
 30
0.0
 10
84.1494501185
 20
92.4636884708
 30
0.0
  0
SPLINE
  5
360
100
AcDbEntity
  8
0
100
AcDbSpline
 62
7
  6
CONTINUOUS
 70
0
 71
3
 72
9
 73
5
 74
0
 42
0.0000001
 43
0.0000001
 44
0.0000000001
 40
0.0
 40
0.0
 40
0.0
 40
0.0
 40
0.4931783157
 40
1.0
 40
1.0
 40
1.0
 40
1.0
 10
84.1494501185
 20
92.4636884708
 30
0.0
 10
83.9105415131
 20
92.2548010232
 30
0.0
 10
83.4917718162
 20
91.7546218253
 30
0.0
 10
83.2062876214
 20
91.1695699198
 30
0.0
 10
83.1045362361
 20
90.8597196231
 30
0.0
  0
SPLINE
  5
361
100
AcDbEntity
  8
0
100
AcDbSpline
 62
7
  6
CONTINUOUS
 70
0
 71
3
 72
9
 73
5
 74
0
 42
0.0000001
 43
0.0000001
 44
0.0000000001
 40
0.0
 40
0.0
 40
0.0
 40
0.0
 40
0.2537976197
 40
1.0
 40
1.0
 40
1.0
 40
1.0
 10
83.1045362361
 20
90.8597196231
 30
0.0
 10
83.09616105
 20
90.8342157552
 30
0.0
 10
83.064333544
 20
90.7333475003
 30
0.0
 10
83.0372502336
 20
90.6309679652
 30
0.0
 10
83.0200605053
 20
90.5539378554
 30
0.0
  0
SPLINE
  5
362
100
AcDbEntity
  8
0
100
AcDbSpline
 62
7
  6
CONTINUOUS
 70
0
 71
3
 72
9
 73
5
 74
0
 42
0.0000001
 43
0.0000001
 44
0.0000000001
 40
0.0
 40
0.0
 40
0.0
 40
0.0
 40
0.2603819996
 40
1.0
 40
1.0
 40
1.0
 40
1.0
 10
83.0046566677
 20
90.480596561
 30
0.0
 10
82.9964603287
 20
90.4389568977
 30
0.0
 10
82.9684770152
 20
90.2783983638
 30
0.0
 10
82.954605524
 20
90.1151720269
 30
0.0
 10
82.954605524
 20
89.9946244796
 30
0.0
  0
SPLINE
  5
363
100
AcDbEntity
  8
0
100
AcDbSpline
 62
7
  6
CONTINUOUS
 70
0
 71
3
 72
9
 73
5
 74
0
 42
0.0000001
 43
0.0000001
 44
0.0000000001
 40
0.0
 40
0.0
 40
0.0
 40
0.0
 40
0.25607925
 40
1.0
 40
1.0
 40
1.0
 40
1.0
 10
33.3010551283
 20
131.7072013638
 30
0.0
 10
33.1459232552
 20
130.3497409044
 30
0.0
 10
32.6103974691
 20
125.0411721244
 30
0.0
 10
32.3616600175
 20
119.7023860351
 30
0.0
 10
32.3616580173
 20
115.7332399403
 30
0.0
  0
SPLINE
  5
364
100
AcDbEntity
  8
0
100
AcDbSpline
 62
7
  6
CONTINUOUS
 70
0
 71
3
 72
9
 73
5
 74
0
 42
0.0000001
 43
0.0000001
 44
0.0000000001
 40
0.0
 40
0.0
 40
0.0
 40
0.0
 40
0.7469330866
 40
1.0
 40
1.0
 40
1.0
 40
1.0
 10
94.3675663557
 20
79.7566912381
 30
0.0
 10
94.3463005686
 20
79.7689487382
 30
0.0
 10
94.3159634883
 20
79.7823919675
 30
0.0
 10
94.2843927169
 20
79.791538939
 30
0.0
 10
94.276333458
 20
79.7935901703
 30
0.0
  0
SPLINE
  5
365
100
AcDbEntity
  8
0
100
AcDbSpline
 62
7
  6
CONTINUOUS
 70
0
 71
3
 72
9
 73
5
 74
0
 42
0.0000001
 43
0.0000001
 44
0.0000000001
 40
0.0
 40
0.0
 40
0.0
 40
0.0
 40
0.5500306149
 40
1.0
 40
1.0
 40
1.0
 40
1.0
 10
68.245831768
 20
64.0260032409
 30
0.0
 10
68.2293199507
 20
64.0164718655
 30
0.0
 10
68.1962683702
 20
64.0028882385
 30
0.0
 10
68.1593440862
 20
64.0082904798
 30
0.0
 10
68.1458366198
 20
64.0160888334
 30
0.0
  0
SPLINE
  5
366
100
AcDbEntity
  8
0
100
AcDbSpline
 62
7
  6
CONTINUOUS
 70
0
 71
3
 72
13
 73
9
 74
0
 42
0.0000001
 43
0.0000001
 44
0.0000000001
 40
0.0
 40
0.0
 40
0.0
 40
0.0
 40
0.2108024261
 40
0.3263874811
 40
0.4488667787
 40
0.5780318753
 40
0.7134223668
 40
1.0
 40
1.0
 40
1.0
 40
1.0
 10
109.860501235
 20
50.2267898525
 30
0.0
 10
108.4237982256
 20
50.1577064017
 30
0.0
 10
106.2096352273
 20
49.7034158362
 30
0.0
 10
103.352697904
 20
48.594302477
 30
0.0
 10
101.1172768037
 20
47.451752944
 30
0.0
 10
98.8832313866
 20
46.037462369
 30
0.0
 10
95.8808385304
 20
43.7678576262
 30
0.0
 10
93.7900840151
 20
41.7694514059
 30
0.0
 10
92.4657468395
 20
40.3308018035
 30
0.0
  0
SPLINE
  5
367
100
AcDbEntity
  8
0
100
AcDbSpline
 62
7
  6
CONTINUOUS
 70
0
 71
3
 72
11
 73
7
 74
0
 42
0.0000001
 43
0.0000001
 44
0.0000000001
 40
0.0
 40
0.0
 40
0.0
 40
0.0
 40
0.2896423581
 40
0.5491120121
 40
0.7822364467
 40
1.0
 40
1.0
 40
1.0
 40
1.0
 10
72.2065408035
 20
55.6222597795
 30
0.0
 10
72.2065408035
 20
55.508280529
 30
0.0
 10
72.2238655953
 20
55.2914652444
 30
0.0
 10
72.3116187742
 20
54.993568319
 30
0.0
 10
72.4594387599
 20
54.7517833059
 30
0.0
 10
72.5983675813
 20
54.6351516956
 30
0.0
 10
72.6725637064
 20
54.5922757585
 30
0.0
  0
SPLINE
  5
368
100
AcDbEntity
  8
0
100
AcDbSpline
 62
7
  6
CONTINUOUS
 70
0
 71
3
 72
11
 73
7
 74
0
 42
0.0000001
 43
0.0000001
 44
0.0000000001
 40
0.0
 40
0.0
 40
0.0
 40
0.0
 40
0.2896423581
 40
0.5491120121
 40
0.7822364467
 40
1.0
 40
1.0
 40
1.0
 40
1.0
 10
85.2848340362
 20
48.9632632354
 30
0.0
 10
85.2848340362
 20
48.849283985
 30
0.0
 10
85.302158828
 20
48.6324687003
 30
0.0
 10
85.389912007
 20
48.3345717749
 30
0.0
 10
85.5377319926
 20
48.0927867618
 30
0.0
 10
85.676660814
 20
47.9761551515
 30
0.0
 10
85.7508569391
 20
47.9332792145
 30
0.0
  0
SPLINE
  5
369
100
AcDbEntity
  8
0
100
AcDbSpline
 62
7
  6
CONTINUOUS
 70
0
 71
3
 72
11
 73
7
 74
0
 42
0.0000001
 43
0.0000001
 44
0.0000000001
 40
0.0
 40
0.0
 40
0.0
 40
0.0
 40
0.2896423581
 40
0.5491120121
 40
0.7822364467
 40
1.0
 40
1.0
 40
1.0
 40
1.0
 10
108.9726700542
 20
60.759008936
 30
0.0
 10
108.9726700542
 20
60.6450296855
 30
0.0
 10
108.9899948459
 20
60.4282144009
 30
0.0
 10
109.0777480249
 20
60.1303174755
 30
0.0
 10
109.2255680105
 20
59.8885324624
 30
0.0
 10
109.3644968319
 20
59.7719008521
 30
0.0
 10
109.4386929571
 20
59.729024915
 30
0.0
  0
SPLINE
  5
36A
100
AcDbEntity
  8
0
100
AcDbSpline
 62
7
  6
CONTINUOUS
 70
0
 71
3
 72
11
 73
7
 74
0
 42
0.0000001
 43
0.0000001
 44
0.0000000001
 40
0.0
 40
0.0
 40
0.0
 40
0.0
 40
0.2896423581
 40
0.5491120121
 40
0.7822364467
 40
1.0
 40
1.0
 40
1.0
 40
1.0
 10
106.9258590202
 20
109.5474442066
 30
0.0
 10
106.9258590202
 20
109.4334649561
 30
0.0
 10
106.943183812
 20
109.2166496715
 30
0.0
 10
107.0309369909
 20
108.9187527461
 30
0.0
 10
107.1787569766
 20
108.676967733
 30
0.0
 10
107.317685798
 20
108.5603361227
 30
0.0
 10
107.3918819231
 20
108.5174601857
 30
0.0
  0
SPLINE
  5
36B
100
AcDbEntity
  8
0
100
AcDbSpline
 62
7
  6
CONTINUOUS
 70
0
 71
3
 72
11
 73
7
 74
0
 42
0.0000001
 43
0.0000001
 44
0.0000000001
 40
0.0
 40
0.0
 40
0.0
 40
0.0
 40
0.2896423581
 40
0.5491120121
 40
0.7822364467
 40
1.0
 40
1.0
 40
1.0
 40
1.0
 10
93.1355011339
 20
77.4185479016
 30
0.0
 10
93.1355011339
 20
77.3045686511
 30
0.0
 10
93.1528259256
 20
77.0877533665
 30
0.0
 10
93.2405791046
 20
76.789856441
 30
0.0
 10
93.3883990902
 20
76.548071428
 30
0.0
 10
93.5273279117
 20
76.4314398177
 30
0.0
 10
93.6015240368
 20
76.3885638806
 30
0.0
  0
SPLINE
  5
36C
100
AcDbEntity
  8
0
100
AcDbSpline
 62
7
  6
CONTINUOUS
 70
0
 71
3
 72
11
 73
7
 74
0
 42
0.0000001
 43
0.0000001
 44
0.0000000001
 40
0.0
 40
0.0
 40
0.0
 40
0.0
 40
0.2896423581
 40
0.5491120121
 40
0.7822364467
 40
1.0
 40
1.0
 40
1.0
 40
1.0
 10
82.954605524
 20
89.9946244796
 30
0.0
 10
82.954605524
 20
89.8806452291
 30
0.0
 10
82.9719303158
 20
89.6638299445
 30
0.0
 10
83.0596834947
 20
89.3659330191
 30
0.0
 10
83.2075034804
 20
89.124148006
 30
0.0
 10
83.3464323018
 20
89.0075163957
 30
0.0
 10
83.4206284269
 20
88.9646404586
 30
0.0
  0
SPLINE
  5
36D
100
AcDbEntity
  8
0
100
AcDbSpline
 62
7
  6
CONTINUOUS
 70
0
 71
3
 72
12
 73
8
 74
0
 42
0.0000001
 43
0.0000001
 44
0.0000000001
 40
0.0
 40
0.0
 40
0.0
 40
0.0
 40
0.1006725534
 40
0.2047440716
 40
0.4327969723
 40
0.6979248095
 40
1.0
 40
1.0
 40
1.0
 40
1.0
 10
95.8514454985
 20
80.285630615
 30
0.0
 10
95.8015877497
 20
80.3144420616
 30
0.0
 10
95.6929293597
 20
80.3612995282
 30
0.0
 10
95.4477435373
 20
80.4065928161
 30
0.0
 10
95.1009265421
 20
80.3611800915
 30
0.0
 10
94.6835842644
 20
80.1696944611
 30
0.0
 10
94.4232277504
 20
79.9719667028
 30
0.0
 10
94.2949746265
 20
79.8561843301
 30
0.0
  0
SPLINE
  5
36E
100
AcDbEntity
  8
0
100
AcDbSpline
 62
7
  6
CONTINUOUS
 70
0
 71
3
 72
9
 73
5
 74
0
 42
0.0000001
 43
0.0000001
 44
0.0000000001
 40
0.0
 40
0.0
 40
0.0
 40
0.0
 40
0.4937512735
 40
1.0
 40
1.0
 40
1.0
 40
1.0
 10
94.2949746265
 20
79.8561843301
 30
0.0
 10
94.0688170864
 20
79.6520173221
 30
0.0
 10
93.6710462384
 20
79.1702366995
 30
0.0
 10
93.3960029429
 20
78.6104643199
 30
0.0
 10
93.2957562923
 20
78.3145913123
 30
0.0
  0
SPLINE
  5
36F
100
AcDbEntity
  8
0
100
AcDbSpline
 62
7
  6
CONTINUOUS
 70
0
 71
3
 72
9
 73
5
 74
0
 42
0.0000001
 43
0.0000001
 44
0.0000000001
 40
0.0
 40
0.0
 40
0.0
 40
0.0
 40
0.2539857408
 40
1.0
 40
1.0
 40
1.0
 40
1.0
 10
93.2957562923
 20
78.3145913123
 30
0.0
 10
93.2864675315
 20
78.2871759962
 30
0.0
 10
93.2512395443
 20
78.1787872628
 30
0.0
 10
93.2214495626
 20
78.0686126099
 30
0.0
 10
93.2027121353
 20
77.985681507
 30
0.0
  0
SPLINE
  5
370
100
AcDbEntity
  8
0
100
AcDbSpline
 62
7
  6
CONTINUOUS
 70
0
 71
3
 72
9
 73
5
 74
0
 42
0.0000001
 43
0.0000001
 44
0.0000000001
 40
0.0
 40
0.0
 40
0.0
 40
0.0
 40
0.2610863087
 40
1.0
 40
1.0
 40
1.0
 40
1.0
 10
93.1951776122
 20
77.9514071521
 30
0.0
 10
93.1854156998
 20
77.9057281242
 30
0.0
 10
93.1521556089
 20
77.7299509063
 30
0.0
 10
93.1355011339
 20
77.5507456031
 30
0.0
 10
93.1355011339
 20
77.4185479016
 30
0.0
  0
SPLINE
  5
371
100
AcDbEntity
  8
0
100
AcDbSpline
 62
7
  6
CONTINUOUS
 70
0
 71
3
 72
10
 73
6
 74
0
 42
0.0000001
 43
0.0000001
 44
0.0000000001
 40
0.0
 40
0.0
 40
0.0
 40
0.0
 40
0.2493336263
 40
0.6248232733
 40
1.0
 40
1.0
 40
1.0
 40
1.0
 10
18.2599665403
 20
91.2582040223
 30
0.0
 10
18.259199493
 20
91.3717720483
 30
0.0
 10
18.2558743896
 20
91.6563625871
 30
0.0
 10
18.2575222184
 20
92.1118675128
 30
0.0
 10
18.2553609441
 20
92.4537891633
 30
0.0
 10
18.2553609441
 20
92.6246808826
 30
0.0
  0
LINE
  5
372
100
AcDbEntity
  8
0
100
AcDbLine
 62
7
  6
CONTINUOUS
 10
18.2553609441
 20
92.6246808826
 11
18.2554304449
 21
92.8196834011
  0
SPLINE
  5
373
100
AcDbEntity
  8
0
100
AcDbSpline
 62
7
  6
CONTINUOUS
 70
0
 71
3
 72
9
 73
5
 74
0
 42
0.0000001
 43
0.0000001
 44
0.0000000001
 40
0.0
 40
0.0
 40
0.0
 40
0.0
 40
0.7469330866
 40
1.0
 40
1.0
 40
1.0
 40
1.0
 10
108.157924242
 20
111.8855875432
 30
0.0
 10
108.1366584549
 20
111.8978450432
 30
0.0
 10
108.1063213746
 20
111.9112882725
 30
0.0
 10
108.0747506032
 20
111.920435244
 30
0.0
 10
108.0666913443
 20
111.9224864753
 30
0.0
  0
SPLINE
  5
374
100
AcDbEntity
  8
0
100
AcDbSpline
 62
7
  6
CONTINUOUS
 70
0
 71
3
 72
10
 73
6
 74
0
 42
0.0000001
 43
0.0000001
 44
0.0000000001
 40
0.0
 40
0.0
 40
0.0
 40
0.0
 40
0.5698356149
 40
0.8040816355
 40
1.0
 40
1.0
 40
1.0
 40
1.0
 10
24.7763114496
 20
85.2735206094
 30
0.0
 10
24.2212079804
 20
85.5940024965
 30
0.0
 10
23.4441996357
 20
86.0577810218
 30
0.0
 10
22.5031878926
 20
86.6742481998
 30
0.0
 10
22.1081525005
 20
86.9540307255
 30
0.0
 10
21.9322250147
 20
87.0867544015
 30
0.0
  0
SPLINE
  5
375
100
AcDbEntity
  8
0
100
AcDbSpline
 62
7
  6
CONTINUOUS
 70
0
 71
3
 72
19
 73
15
 74
0
 42
0.0000001
 43
0.0000001
 44
0.0000000001
 40
0.0
 40
0.0
 40
0.0
 40
0.0
 40
0.0471293032
 40
0.093312953
 40
0.1396733357
 40
0.1873949123
 40
0.2374884729
 40
0.2907035126
 40
0.3475171532
 40
0.4081550614
 40
0.5405818801
 40
0.6861672962
 40
0.8409755987
 40
1.0
 40
1.0
 40
1.0
 40
1.0
 10
29.8464782716
 20
71.120332277
 30
0.0
 10
29.6336514248
 20
71.1567978557
 30
0.0
 10
29.2175714952
 20
71.2674903135
 30
0.0
 10
28.6394518744
 20
71.5513263026
 30
0.0
 10
28.1274240587
 20
71.9467197129
 30
0.0
 10
27.6895043018
 20
72.4463214235
 30
0.0
 10
27.3309028084
 20
73.0419389289
 30
0.0
 10
27.055668754
 20
73.7248704558
 30
0.0
 10
26.8660643277
 20
74.4857510021
 30
0.0
 10
26.7260471076
 20
75.6243525199
 30
0.0
 10
26.7909667764
 20
77.1852940872
 30
0.0
 10
27.2075177983
 20
79.1316348536
 30
0.0
 10
27.9424356763
 20
81.1110118452
 30
0.0
 10
28.6198523432
 20
82.3848375829
 30
0.0
 10
29.0033222662
 20
83.0043468563
 30
0.0
  0
SPLINE
  5
376
100
AcDbEntity
  8
0
100
AcDbSpline
 62
7
  6
CONTINUOUS
 70
0
 71
3
 72
9
 73
5
 74
0
 42
0.0000001
 43
0.0000001
 44
0.0000000001
 40
0.0
 40
0.0
 40
0.0
 40
0.0
 40
0.5238473758
 40
1.0
 40
1.0
 40
1.0
 40
1.0
 10
29.0033222662
 20
83.0043468563
 30
0.0
 10
28.2553013099
 20
83.3816989548
 30
0.0
 10
26.8356641105
 20
84.1186252764
 30
0.0
 10
25.4358214516
 20
84.8927609461
 30
0.0
 10
24.7763114496
 20
85.2735206094
 30
0.0
  0
SPLINE
  5
377
100
AcDbEntity
  8
0
100
AcDbSpline
 62
7
  6
CONTINUOUS
 70
0
 71
3
 72
12
 73
8
 74
0
 42
0.0000001
 43
0.0000001
 44
0.0000000001
 40
0.0
 40
0.0
 40
0.0
 40
0.0
 40
0.1006725534
 40
0.2047440716
 40
0.4327969723
 40
0.6979248095
 40
1.0
 40
1.0
 40
1.0
 40
1.0
 10
109.6418033848
 20
112.41452692
 30
0.0
 10
109.591945636
 20
112.4433383666
 30
0.0
 10
109.4832872461
 20
112.4901958333
 30
0.0
 10
109.2381014236
 20
112.5354891212
 30
0.0
 10
108.8912844284
 20
112.4900763966
 30
0.0
 10
108.4739421508
 20
112.2985907661
 30
0.0
 10
108.2135856368
 20
112.1008630078
 30
0.0
 10
108.0853325128
 20
111.9850806351
 30
0.0
  0
SPLINE
  5
378
100
AcDbEntity
  8
0
100
AcDbSpline
 62
7
  6
CONTINUOUS
 70
0
 71
3
 72
9
 73
5
 74
0
 42
0.0000001
 43
0.0000001
 44
0.0000000001
 40
0.0
 40
0.0
 40
0.0
 40
0.0
 40
0.4937512735
 40
1.0
 40
1.0
 40
1.0
 40
1.0
 10
108.0853325128
 20
111.9850806351
 30
0.0
 10
107.8591749728
 20
111.7809136271
 30
0.0
 10
107.4614041247
 20
111.2991330045
 30
0.0
 10
107.1863608292
 20
110.7393606249
 30
0.0
 10
107.0861141786
 20
110.4434876173
 30
0.0
  0
SPLINE
  5
379
100
AcDbEntity
  8
0
100
AcDbSpline
 62
7
  6
CONTINUOUS
 70
0
 71
3
 72
9
 73
5
 74
0
 42
0.0000001
 43
0.0000001
 44
0.0000000001
 40
0.0
 40
0.0
 40
0.0
 40
0.0
 40
0.2539857408
 40
1.0
 40
1.0
 40
1.0
 40
1.0
 10
107.0861141786
 20
110.4434876173
 30
0.0
 10
107.0768254178
 20
110.4160723013
 30
0.0
 10
107.0415974306
 20
110.3076835678
 30
0.0
 10
107.0118074489
 20
110.1975089149
 30
0.0
 10
106.9930700216
 20
110.1145778121
 30
0.0
  0
SPLINE
  5
37A
100
AcDbEntity
  8
0
100
AcDbSpline
 62
7
  6
CONTINUOUS
 70
0
 71
3
 72
9
 73
5
 74
0
 42
0.0000001
 43
0.0000001
 44
0.0000000001
 40
0.0
 40
0.0
 40
0.0
 40
0.0
 40
0.2610863087
 40
1.0
 40
1.0
 40
1.0
 40
1.0
 10
106.9855354986
 20
110.0803034572
 30
0.0
 10
106.9757735862
 20
110.0346244293
 30
0.0
 10
106.9425134952
 20
109.8588472113
 30
0.0
 10
106.9258590202
 20
109.6796419081
 30
0.0
 10
106.9258590202
 20
109.5474442066
 30
0.0
  0
SPLINE
  5
37B
100
AcDbEntity
  8
0
100
AcDbSpline
 62
7
  6
CONTINUOUS
 70
0
 71
3
 72
10
 73
6
 74
0
 42
0.0000001
 43
0.0000001
 44
0.0000000001
 40
0.0
 40
0.0
 40
0.0
 40
0.0
 40
0.5698355984
 40
0.804081642
 40
1.0
 40
1.0
 40
1.0
 40
1.0
 10
37.2921535847
 20
78.0476592544
 30
0.0
 10
36.7370501314
 20
78.3681411323
 30
0.0
 10
35.9600417781
 20
78.8319196568
 30
0.0
 10
35.0190300234
 20
79.4483868193
 30
0.0
 10
34.6239946298
 20
79.7281693749
 30
0.0
 10
34.4480671498
 20
79.8608930465
 30
0.0
  0
SPLINE
  5
37C
100
AcDbEntity
  8
0
100
AcDbSpline
 62
7
  6
CONTINUOUS
 70
0
 71
3
 72
12
 73
8
 74
0
 42
0.0000001
 43
0.0000001
 44
0.0000000001
 40
0.0
 40
0.0
 40
0.0
 40
0.0
 40
0.1012486428
 40
0.2057747895
 40
0.4341151882
 40
0.6987147516
 40
1.0
 40
1.0
 40
1.0
 40
1.0
 10
111.6886144188
 20
63.6260916494
 30
0.0
 10
111.6398471824
 20
63.6542729183
 30
0.0
 10
111.5338039689
 20
63.7003313696
 30
0.0
 10
111.2950145429
 20
63.7462366618
 30
0.0
 10
110.9572648694
 20
63.7063269962
 30
0.0
 10
110.5492267834
 20
63.5263133912
 30
0.0
 10
110.2936907817
 20
63.3383938188
 30
0.0
 10
110.1675146487
 20
63.2280729272
 30
0.0
  0
SPLINE
  5
37D
100
AcDbEntity
  8
0
100
AcDbSpline
 62
7
  6
CONTINUOUS
 70
0
 71
3
 72
9
 73
5
 74
0
 42
0.0000001
 43
0.0000001
 44
0.0000000001
 40
0.0
 40
0.0
 40
0.0
 40
0.0
 40
0.4931783157
 40
1.0
 40
1.0
 40
1.0
 40
1.0
 10
110.1675146487
 20
63.2280729272
 30
0.0
 10
109.9286060433
 20
63.0191854796
 30
0.0
 10
109.5098363464
 20
62.5190062817
 30
0.0
 10
109.2243521516
 20
61.9339543762
 30
0.0
 10
109.1226007663
 20
61.6241040795
 30
0.0
  0
SPLINE
  5
37E
100
AcDbEntity
  8
0
100
AcDbSpline
 62
7
  6
CONTINUOUS
 70
0
 71
3
 72
9
 73
5
 74
0
 42
0.0000001
 43
0.0000001
 44
0.0000000001
 40
0.0
 40
0.0
 40
0.0
 40
0.0
 40
0.2537976197
 40
1.0
 40
1.0
 40
1.0
 40
1.0
 10
109.1226007663
 20
61.6241040795
 30
0.0
 10
109.1142255802
 20
61.5986002116
 30
0.0
 10
109.0823980742
 20
61.4977319568
 30
0.0
 10
109.0553147638
 20
61.3953524216
 30
0.0
 10
109.0381250354
 20
61.3183223118
 30
0.0
  0
SPLINE
  5
37F
100
AcDbEntity
  8
0
100
AcDbSpline
 62
7
  6
CONTINUOUS
 70
0
 71
3
 72
9
 73
5
 74
0
 42
0.0000001
 43
0.0000001
 44
0.0000000001
 40
0.0
 40
0.0
 40
0.0
 40
0.0
 40
0.2603819996
 40
1.0
 40
1.0
 40
1.0
 40
1.0
 10
109.0227211978
 20
61.2449810174
 30
0.0
 10
109.0145248588
 20
61.2033413541
 30
0.0
 10
108.9865415454
 20
61.0427828202
 30
0.0
 10
108.9726700542
 20
60.8795564833
 30
0.0
 10
108.9726700542
 20
60.759008936
 30
0.0
  0
SPLINE
  5
380
100
AcDbEntity
  8
0
100
AcDbSpline
 62
7
  6
CONTINUOUS
 70
0
 71
3
 72
19
 73
15
 74
0
 42
0.0000001
 43
0.0000001
 44
0.0000000001
 40
0.0
 40
0.0
 40
0.0
 40
0.0
 40
0.0470958628
 40
0.0932022437
 40
0.1395086276
 40
0.1871804599
 40
0.2372135686
 40
0.290374612
 40
0.347146642
 40
0.4077556334
 40
0.540174452
 40
0.6858335896
 40
0.8407872395
 40
1.0
 40
1.0
 40
1.0
 40
1.0
 10
42.3623204067
 20
63.894470922
 30
0.0
 10
42.1496445952
 20
63.9309106224
 30
0.0
 10
41.7340098897
 20
64.0413095246
 30
0.0
 10
41.1565900411
 20
64.3248211195
 30
0.0
 10
40.6449541268
 20
64.7193377366
 30
0.0
 10
40.2073041711
 20
65.218160574
 30
0.0
 10
39.8483867734
 20
65.8126852239
 30
0.0
 10
39.5727900324
 20
66.4947139445
 30
0.0
 10
39.3827432761
 20
67.254896246
 30
0.0
 10
39.2420613415
 20
68.3930599288
 30
0.0
 10
39.3062226629
 20
69.954201571
 30
0.0
 10
39.7219107982
 20
71.9017379055
 30
0.0
 10
40.4572116571
 20
73.8830018486
 30
0.0
 10
41.1352403159
 20
75.1582425123
 30
0.0
 10
41.5191644013
 20
75.7784855013
 30
0.0
  0
SPLINE
  5
381
100
AcDbEntity
  8
0
100
AcDbSpline
 62
7
  6
CONTINUOUS
 70
0
 71
3
 72
9
 73
5
 74
0
 42
0.0000001
 43
0.0000001
 44
0.0000000001
 40
0.0
 40
0.0
 40
0.0
 40
0.0
 40
0.5238474158
 40
1.0
 40
1.0
 40
1.0
 40
1.0
 10
41.5191644013
 20
75.7784855013
 30
0.0
 10
40.7711433878
 20
76.1558376287
 30
0.0
 10
39.351506181
 20
76.8927639367
 30
0.0
 10
37.9516635313
 20
77.6668996231
 30
0.0
 10
37.2921535847
 20
78.0476592544
 30
0.0
  0
SPLINE
  5
382
100
AcDbEntity
  8
0
100
AcDbSpline
 62
7
  6
CONTINUOUS
 70
0
 71
3
 72
9
 73
5
 74
0
 42
0.0000001
 43
0.0000001
 44
0.0000000001
 40
0.0
 40
0.0
 40
0.0
 40
0.0
 40
0.7469330866
 40
1.0
 40
1.0
 40
1.0
 40
1.0
 10
86.5168992581
 20
51.301406572
 30
0.0
 10
86.495633471
 20
51.3136640721
 30
0.0
 10
86.4652963907
 20
51.3271073013
 30
0.0
 10
86.4337256192
 20
51.3362542728
 30
0.0
 10
86.4256663604
 20
51.3383055041
 30
0.0
  0
SPLINE
  5
383
100
AcDbEntity
  8
0
100
AcDbSpline
 62
7
  6
CONTINUOUS
 70
0
 71
3
 72
10
 73
6
 74
0
 42
0.0000001
 43
0.0000001
 44
0.0000000001
 40
0.0
 40
0.0
 40
0.0
 40
0.0
 40
0.569836534
 40
0.8040814274
 40
1.0
 40
1.0
 40
1.0
 40
1.0
 10
49.8079957198
 20
70.8217978994
 30
0.0
 10
49.252891363
 20
71.142280299
 30
0.0
 10
48.4758833122
 20
71.6060588928
 30
0.0
 10
47.5348721101
 20
72.2225268085
 30
0.0
 10
47.1398369552
 20
72.5023078764
 30
0.0
 10
46.9639092849
 20
72.6350316915
 30
0.0
  0
SPLINE
  5
384
100
AcDbEntity
  8
0
100
AcDbSpline
 62
7
  6
CONTINUOUS
 70
0
 71
3
 72
12
 73
8
 74
0
 42
0.0000001
 43
0.0000001
 44
0.0000000001
 40
0.0
 40
0.0
 40
0.0
 40
0.0
 40
0.1006725534
 40
0.2047440716
 40
0.4327969723
 40
0.6979248095
 40
1.0
 40
1.0
 40
1.0
 40
1.0
 10
88.0007784008
 20
51.8303459488
 30
0.0
 10
87.950920652
 20
51.8591573954
 30
0.0
 10
87.8422622621
 20
51.9060148621
 30
0.0
 10
87.5970764397
 20
51.95130815
 30
0.0
 10
87.2502594444
 20
51.9058954254
 30
0.0
 10
86.8329171668
 20
51.714409795
 30
0.0
 10
86.5725606528
 20
51.5166820366
 30
0.0
 10
86.4443075289
 20
51.400899664
 30
0.0
  0
SPLINE
  5
385
100
AcDbEntity
  8
0
100
AcDbSpline
 62
7
  6
CONTINUOUS
 70
0
 71
3
 72
9
 73
5
 74
0
 42
0.0000001
 43
0.0000001
 44
0.0000000001
 40
0.0
 40
0.0
 40
0.0
 40
0.0
 40
0.4937512735
 40
1.0
 40
1.0
 40
1.0
 40
1.0
 10
86.4443075289
 20
51.400899664
 30
0.0
 10
86.2181499888
 20
51.1967326559
 30
0.0
 10
85.8203791407
 20
50.7149520334
 30
0.0
 10
85.5453358453
 20
50.1551796537
 30
0.0
 10
85.4450891947
 20
49.8593066461
 30
0.0
  0
SPLINE
  5
386
100
AcDbEntity
  8
0
100
AcDbSpline
 62
7
  6
CONTINUOUS
 70
0
 71
3
 72
9
 73
5
 74
0
 42
0.0000001
 43
0.0000001
 44
0.0000000001
 40
0.0
 40
0.0
 40
0.0
 40
0.0
 40
0.2539857408
 40
1.0
 40
1.0
 40
1.0
 40
1.0
 10
85.4450891947
 20
49.8593066461
 30
0.0
 10
85.4358004338
 20
49.8318913301
 30
0.0
 10
85.4005724467
 20
49.7235025966
 30
0.0
 10
85.370782465
 20
49.6133279438
 30
0.0
 10
85.3520450376
 20
49.5303968409
 30
0.0
  0
SPLINE
  5
387
100
AcDbEntity
  8
0
100
AcDbSpline
 62
7
  6
CONTINUOUS
 70
0
 71
3
 72
9
 73
5
 74
0
 42
0.0000001
 43
0.0000001
 44
0.0000000001
 40
0.0
 40
0.0
 40
0.0
 40
0.0
 40
0.2610863087
 40
1.0
 40
1.0
 40
1.0
 40
1.0
 10
85.3445105146
 20
49.496122486
 30
0.0
 10
85.3347486022
 20
49.4504434581
 30
0.0
 10
85.3014885113
 20
49.2746662401
 30
0.0
 10
85.2848340362
 20
49.0954609369
 30
0.0
 10
85.2848340362
 20
48.9632632354
 30
0.0
  0
SPLINE
  5
388
100
AcDbEntity
  8
0
100
AcDbSpline
 62
7
  6
CONTINUOUS
 70
0
 71
3
 72
19
 73
15
 74
0
 42
0.0000001
 43
0.0000001
 44
0.0000000001
 40
0.0
 40
0.0
 40
0.0
 40
0.0
 40
0.0471236154
 40
0.0933070151
 40
0.1396679633
 40
0.1873880209
 40
0.2374819886
 40
0.2906974963
 40
0.3475142568
 40
0.4081591623
 40
0.5405927884
 40
0.6861710343
 40
0.8409851188
 40
1.0
 40
1.0
 40
1.0
 40
1.0
 10
54.8781625418
 20
56.668609567
 30
0.0
 10
54.6653612817
 20
56.7050707617
 30
0.0
 10
54.2493126902
 20
56.8157634626
 30
0.0
 10
53.6711871165
 20
57.0995333267
 30
0.0
 10
53.159164767
 20
57.4949264272
 30
0.0
 10
52.7212123904
 20
57.9944978234
 30
0.0
 10
52.3626401185
 20
58.5901287849
 30
0.0
 10
52.0873148355
 20
59.2730413324
 30
0.0
 10
51.89772991
 20
60.0339851864
 30
0.0
 10
51.7578896918
 20
61.1726892334
 30
0.0
 10
51.8228761411
 20
62.7336214267
 30
0.0
 10
52.2389055474
 20
64.6801189184
 30
0.0
 10
52.9742855654
 20
66.6592912697
 30
0.0
 10
53.6515593932
 20
67.9331516744
 30
0.0
 10
54.0350065364
 20
68.5526241463
 30
0.0
  0
SPLINE
  5
389
100
AcDbEntity
  8
0
100
AcDbSpline
 62
7
  6
CONTINUOUS
 70
0
 71
3
 72
9
 73
5
 74
0
 42
0.0000001
 43
0.0000001
 44
0.0000000001
 40
0.0
 40
0.0
 40
0.0
 40
0.0
 40
0.5238656528
 40
1.0
 40
1.0
 40
1.0
 40
1.0
 10
54.0350065364
 20
68.5526241463
 30
0.0
 10
53.2869595723
 20
68.9299893649
 30
0.0
 10
51.8673426369
 20
69.6669535875
 30
0.0
 10
50.4674803267
 20
70.4410528977
 30
0.0
 10
49.8079957198
 20
70.8217978994
 30
0.0
  0
SPLINE
  5
38A
100
AcDbEntity
  8
0
100
AcDbSpline
 62
7
  6
CONTINUOUS
 70
0
 71
3
 72
10
 73
6
 74
0
 42
0.0000001
 43
0.0000001
 44
0.0000000001
 40
0.0
 40
0.0
 40
0.0
 40
0.0
 40
0.569836534
 40
0.8040814274
 40
1.0
 40
1.0
 40
1.0
 40
1.0
 10
62.3238378549
 20
63.5959365444
 30
0.0
 10
61.7687334981
 20
63.9164189439
 30
0.0
 10
60.9917254473
 20
64.3801975377
 30
0.0
 10
60.0507142452
 20
64.9966654535
 30
0.0
 10
59.6556790903
 20
65.2764465213
 30
0.0
 10
59.4797514201
 20
65.4091703365
 30
0.0
  0
SPLINE
  5
38B
100
AcDbEntity
  8
0
100
AcDbSpline
 62
7
  6
CONTINUOUS
 70
0
 71
3
 72
19
 73
15
 74
0
 42
0.0000001
 43
0.0000001
 44
0.0000000001
 40
0.0
 40
0.0
 40
0.0
 40
0.0
 40
0.0471236154
 40
0.0933070151
 40
0.1396679633
 40
0.1873880209
 40
0.2374819886
 40
0.2906974963
 40
0.3475142568
 40
0.4081591623
 40
0.5405927884
 40
0.6861710343
 40
0.8409851188
 40
1.0
 40
1.0
 40
1.0
 40
1.0
 10
67.3940046769
 20
49.442748212
 30
0.0
 10
67.1812034168
 20
49.4792094067
 30
0.0
 10
66.7651548253
 20
49.5899021076
 30
0.0
 10
66.1870292516
 20
49.8736719717
 30
0.0
 10
65.6750069021
 20
50.2690650722
 30
0.0
 10
65.2370545255
 20
50.7686364684
 30
0.0
 10
64.8784822536
 20
51.3642674299
 30
0.0
 10
64.6031569706
 20
52.0471799774
 30
0.0
 10
64.4135720451
 20
52.8081238314
 30
0.0
 10
64.2737318269
 20
53.9468278784
 30
0.0
 10
64.3387182762
 20
55.5077600717
 30
0.0
 10
64.7547476825
 20
57.4542575634
 30
0.0
 10
65.4901277005
 20
59.4334299147
 30
0.0
 10
66.1674015283
 20
60.7072903194
 30
0.0
 10
66.5508486715
 20
61.3267627912
 30
0.0
  0
SPLINE
  5
38C
100
AcDbEntity
  8
0
100
AcDbSpline
 62
7
  6
CONTINUOUS
 70
0
 71
3
 72
9
 73
5
 74
0
 42
0.0000001
 43
0.0000001
 44
0.0000000001
 40
0.0
 40
0.0
 40
0.0
 40
0.0
 40
0.5238656528
 40
1.0
 40
1.0
 40
1.0
 40
1.0
 10
66.5508486715
 20
61.3267627912
 30
0.0
 10
65.8028017074
 20
61.7041280099
 30
0.0
 10
64.383184772
 20
62.4410922325
 30
0.0
 10
62.9833224618
 20
63.2151915427
 30
0.0
 10
62.3238378549
 20
63.5959365444
 30
0.0
  0
SPLINE
  5
38D
100
AcDbEntity
  8
0
100
AcDbSpline
 62
7
  6
CONTINUOUS
 70
0
 71
3
 72
12
 73
8
 74
0
 42
0.0000001
 43
0.0000001
 44
0.0000000001
 40
0.0
 40
0.0
 40
0.0
 40
0.0
 40
0.1006725534
 40
0.2047440716
 40
0.4327969723
 40
0.6979248095
 40
1.0
 40
1.0
 40
1.0
 40
1.0
 10
74.9224851681
 20
58.4893424929
 30
0.0
 10
74.8726274193
 20
58.5181539395
 30
0.0
 10
74.7639690294
 20
58.5650114062
 30
0.0
 10
74.518783207
 20
58.610304694
 30
0.0
 10
74.1719662117
 20
58.5648919694
 30
0.0
 10
73.7546239341
 20
58.373406339
 30
0.0
 10
73.4942674201
 20
58.1756785807
 30
0.0
 10
73.3660142961
 20
58.059896208
 30
0.0
  0
SPLINE
  5
38E
100
AcDbEntity
  8
0
100
AcDbSpline
 62
7
  6
CONTINUOUS
 70
0
 71
3
 72
9
 73
5
 74
0
 42
0.0000001
 43
0.0000001
 44
0.0000000001
 40
0.0
 40
0.0
 40
0.0
 40
0.0
 40
0.4937512735
 40
1.0
 40
1.0
 40
1.0
 40
1.0
 10
73.3660142961
 20
58.059896208
 30
0.0
 10
73.1398567561
 20
57.8557292
 30
0.0
 10
72.742085908
 20
57.3739485774
 30
0.0
 10
72.4670426126
 20
56.8141761978
 30
0.0
 10
72.366795962
 20
56.5183031902
 30
0.0
  0
SPLINE
  5
38F
100
AcDbEntity
  8
0
100
AcDbSpline
 62
7
  6
CONTINUOUS
 70
0
 71
3
 72
9
 73
5
 74
0
 42
0.0000001
 43
0.0000001
 44
0.0000000001
 40
0.0
 40
0.0
 40
0.0
 40
0.0
 40
0.2539857408
 40
1.0
 40
1.0
 40
1.0
 40
1.0
 10
72.366795962
 20
56.5183031902
 30
0.0
 10
72.3575072011
 20
56.4908878741
 30
0.0
 10
72.3222792139
 20
56.3824991407
 30
0.0
 10
72.2924892323
 20
56.2723244878
 30
0.0
 10
72.2737518049
 20
56.1893933849
 30
0.0
  0
SPLINE
  5
390
100
AcDbEntity
  8
0
100
AcDbSpline
 62
7
  6
CONTINUOUS
 70
0
 71
3
 72
9
 73
5
 74
0
 42
0.0000001
 43
0.0000001
 44
0.0000000001
 40
0.0
 40
0.0
 40
0.0
 40
0.0
 40
0.2610863087
 40
1.0
 40
1.0
 40
1.0
 40
1.0
 10
72.2662172819
 20
56.15511903
 30
0.0
 10
72.2564553695
 20
56.1094400021
 30
0.0
 10
72.2231952785
 20
55.9336627842
 30
0.0
 10
72.2065408035
 20
55.754457481
 30
0.0
 10
72.2065408035
 20
55.6222597795
 30
0.0
  0
SPLINE
  5
391
100
AcDbEntity
  8
0
100
AcDbSpline
 62
7
  6
CONTINUOUS
 70
0
 71
3
 72
9
 73
5
 74
0
 42
0.0000001
 43
0.0000001
 44
0.0000000001
 40
0.0
 40
0.0
 40
0.0
 40
0.0
 40
0.7469330866
 40
1.0
 40
1.0
 40
1.0
 40
1.0
 10
73.4386060253
 20
57.960403116
 30
0.0
 10
73.4173402382
 20
57.9726606161
 30
0.0
 10
73.3870031579
 20
57.9861038454
 30
0.0
 10
73.3554323865
 20
57.9952508169
 30
0.0
 10
73.3473731276
 20
57.9973020482
 30
0.0
  0
SPLINE
  5
392
100
AcDbEntity
  8
0
100
AcDbSpline
 62
7
  6
CONTINUOUS
 70
0
 71
3
 72
9
 73
5
 74
0
 42
0.0000001
 43
0.0000001
 44
0.0000000001
 40
0.0
 40
0.0
 40
0.0
 40
0.0
 40
0.4716994273
 40
1.0
 40
1.0
 40
1.0
 40
1.0
 10
75.4232263894
 20
46.1274039338
 30
0.0
 10
75.5737839181
 20
46.1047847679
 30
0.0
 10
75.887358742
 20
46.0174709172
 30
0.0
 10
76.1787711479
 20
45.875350147
 30
0.0
 10
76.3264430964
 20
45.7900936365
 30
0.0
  0
SPLINE
  5
393
100
AcDbEntity
  8
0
100
AcDbSpline
 62
7
  6
CONTINUOUS
 70
0
 71
3
 72
11
 73
7
 74
0
 42
0.0000001
 43
0.0000001
 44
0.0000000001
 40
0.0
 40
0.0
 40
0.0
 40
0.0
 40
0.2278062334
 40
0.4645436377
 40
0.720182159
 40
1.0
 40
1.0
 40
1.0
 40
1.0
 10
74.878819567
 20
103.1792920987
 30
0.0
 10
75.0083999009
 20
103.2541315264
 30
0.0
 10
75.2986341479
 20
103.3657793739
 30
0.0
 10
75.7772016433
 20
103.3947706663
 30
0.0
 10
76.2783786828
 20
103.288490357
 30
0.0
 10
76.6000579173
 20
103.1393523057
 30
0.0
 10
76.759238231
 20
103.0474515878
 30
0.0
  0
SPLINE
  5
394
100
AcDbEntity
  8
0
100
AcDbSpline
 62
7
  6
CONTINUOUS
 70
0
 71
3
 72
11
 73
7
 74
0
 42
0.0000001
 43
0.0000001
 44
0.0000000001
 40
0.0
 40
0.0
 40
0.0
 40
0.0
 40
0.2278062288
 40
0.4645436243
 40
0.7201821088
 40
1.0
 40
1.0
 40
1.0
 40
1.0
 10
62.3629774739
 20
110.4051534601
 30
0.0
 10
62.4925578046
 20
110.4799928826
 30
0.0
 10
62.7827920507
 20
110.5916406909
 30
0.0
 10
63.2613594894
 20
110.6206320302
 30
0.0
 10
63.7625365572
 20
110.5143518214
 30
0.0
 10
64.0842157561
 20
110.3652136758
 30
0.0
 10
64.2433960959
 20
110.2733129428
 30
0.0
  0
SPLINE
  5
395
100
AcDbEntity
  8
0
100
AcDbSpline
 62
7
  6
CONTINUOUS
 70
0
 71
3
 72
11
 73
7
 74
0
 42
0.0000001
 43
0.0000001
 44
0.0000000001
 40
0.0
 40
0.0
 40
0.0
 40
0.0
 40
0.2278061772
 40
0.4645435354
 40
0.7201820196
 40
1.0
 40
1.0
 40
1.0
 40
1.0
 10
49.8471353734
 20
117.6310148162
 30
0.0
 10
49.9767156752
 20
117.7058542171
 30
0.0
 10
50.266949854
 20
117.8175020158
 30
0.0
 10
50.7455172198
 20
117.8464933929
 30
0.0
 10
51.2466943399
 20
117.7402132722
 30
0.0
 10
51.5683735723
 20
117.5910750589
 30
0.0
 10
51.7275539608
 20
117.4991742978
 30
0.0
  0
SPLINE
  5
396
100
AcDbEntity
  8
0
100
AcDbSpline
 62
7
  6
CONTINUOUS
 70
0
 71
3
 72
11
 73
7
 74
0
 42
0.0000001
 43
0.0000001
 44
0.0000000001
 40
0.0
 40
0.0
 40
0.0
 40
0.0
 40
0.2278065443
 40
0.4645439012
 40
0.7201821501
 40
1.0
 40
1.0
 40
1.0
 40
1.0
 10
37.3312931419
 20
124.8568761428
 30
0.0
 10
37.4608736593
 20
124.9317156719
 30
0.0
 10
37.7511081817
 20
125.0433633057
 30
0.0
 10
38.2296756266
 20
125.072354912
 30
0.0
 10
38.7308525205
 20
124.9660745608
 30
0.0
 10
39.0525315011
 20
124.816936377
 30
0.0
 10
39.2117118257
 20
124.7250356528
 30
0.0
  0
SPLINE
  5
397
100
AcDbEntity
  8
0
100
AcDbSpline
 62
7
  6
CONTINUOUS
 70
0
 71
3
 72
9
 73
5
 74
0
 42
0.0000001
 43
0.0000001
 44
0.0000000001
 40
0.0
 40
0.0
 40
0.0
 40
0.0
 40
0.511647806
 40
1.0
 40
1.0
 40
1.0
 40
1.0
 10
57.789968225
 20
55.5258338794
 30
0.0
 10
57.8791054194
 20
55.3385169345
 30
0.0
 10
58.0783497824
 20
54.9835602881
 30
0.0
 10
58.3306920983
 20
54.6635916351
 30
0.0
 10
58.4661207835
 20
54.5191523154
 30
0.0
  0
SPLINE
  5
398
100
AcDbEntity
  8
0
100
AcDbSpline
 62
7
  6
CONTINUOUS
 70
0
 71
3
 72
9
 73
5
 74
0
 42
0.0000001
 43
0.0000001
 44
0.0000000001
 40
0.0
 40
0.0
 40
0.0
 40
0.0
 40
0.511647806
 40
1.0
 40
1.0
 40
1.0
 40
1.0
 10
45.2741260899
 20
62.7516952344
 30
0.0
 10
45.3632632843
 20
62.5643782895
 30
0.0
 10
45.5625076473
 20
62.2094216431
 30
0.0
 10
45.8148499632
 20
61.8894529901
 30
0.0
 10
45.9502786484
 20
61.7450136704
 30
0.0
  0
SPLINE
  5
399
100
AcDbEntity
  8
0
100
AcDbSpline
 62
7
  6
CONTINUOUS
 70
0
 71
3
 72
9
 73
5
 74
0
 42
0.0000001
 43
0.0000001
 44
0.0000000001
 40
0.0
 40
0.0
 40
0.0
 40
0.0
 40
0.2595081624
 40
1.0
 40
1.0
 40
1.0
 40
1.0
 10
32.7580375858
 20
69.9776222932
 30
0.0
 10
32.8032358472
 20
69.8827237541
 30
0.0
 10
32.9898602668
 20
69.523227195
 30
0.0
 10
33.2292547882
 20
69.1901483094
 30
0.0
 10
33.434296602
 20
68.9712482933
 30
0.0
  0
SPLINE
  5
39A
100
AcDbEntity
  8
0
100
AcDbSpline
 62
7
  6
CONTINUOUS
 70
0
 71
3
 72
9
 73
5
 74
0
 42
0.0000001
 43
0.0000001
 44
0.0000000001
 40
0.0
 40
0.0
 40
0.0
 40
0.0
 40
0.2595033385
 40
1.0
 40
1.0
 40
1.0
 40
1.0
 10
20.2424836412
 20
77.2029986548
 30
0.0
 10
20.2877276157
 20
77.1080037633
 30
0.0
 10
20.4745264811
 20
76.7481322315
 30
0.0
 10
20.7141810596
 20
76.4146752997
 30
0.0
 10
20.919604303
 20
76.1957054013
 30
0.0
  0
SPLINE
  5
39B
100
AcDbEntity
  8
0
100
AcDbSpline
 62
7
  6
CONTINUOUS
 70
0
 71
3
 72
9
 73
5
 74
0
 42
0.0000001
 43
0.0000001
 44
0.0000000001
 40
0.0
 40
0.0
 40
0.0
 40
0.0
 40
0.2549230298
 40
1.0
 40
1.0
 40
1.0
 40
1.0
 10
83.0109337365
 20
90.555838554
 30
0.0
 10
83.01817241
 20
90.5472479079
 30
0.0
 10
83.0479061444
 20
90.5147054051
 30
0.0
 10
83.0832883167
 20
90.4872784409
 30
0.0
 10
83.1117347451
 20
90.4708820529
 30
0.0
  0
SPLINE
  5
39C
100
AcDbEntity
  8
0
100
AcDbSpline
 62
7
  6
CONTINUOUS
 70
0
 71
3
 72
9
 73
5
 74
0
 42
0.0000001
 43
0.0000001
 44
0.0000000001
 40
0.0
 40
0.0
 40
0.0
 40
0.0
 40
0.2560647513
 40
1.0
 40
1.0
 40
1.0
 40
1.0
 10
93.2119893395
 20
78.0308146127
 30
0.0
 10
93.2193978911
 20
78.0213256942
 30
0.0
 10
93.2499309031
 20
77.9855565943
 30
0.0
 10
93.2873270304
 20
77.9555709802
 30
0.0
 10
93.3176288667
 20
77.9381051438
 30
0.0
  0
SPLINE
  5
39D
100
AcDbEntity
  8
0
100
AcDbSpline
 62
7
  6
CONTINUOUS
 70
0
 71
3
 72
9
 73
5
 74
0
 42
0.0000001
 43
0.0000001
 44
0.0000000001
 40
0.0
 40
0.0
 40
0.0
 40
0.0
 40
0.2560647513
 40
1.0
 40
1.0
 40
1.0
 40
1.0
 10
107.0023472259
 20
110.1597109178
 30
0.0
 10
107.0097557774
 20
110.1502219992
 30
0.0
 10
107.0402887894
 20
110.1144528993
 30
0.0
 10
107.0776849167
 20
110.0844672853
 30
0.0
 10
107.107986753
 20
110.0670014488
 30
0.0
  0
SPLINE
  5
39E
100
AcDbEntity
  8
0
100
AcDbSpline
 62
7
  6
CONTINUOUS
 70
0
 71
3
 72
9
 73
5
 74
0
 42
0.0000001
 43
0.0000001
 44
0.0000000001
 40
0.0
 40
0.0
 40
0.0
 40
0.0
 40
0.2549230298
 40
1.0
 40
1.0
 40
1.0
 40
1.0
 10
109.0289982667
 20
61.3202230104
 30
0.0
 10
109.0362369402
 20
61.3116323643
 30
0.0
 10
109.0659706746
 20
61.2790898615
 30
0.0
 10
109.1013528469
 20
61.2516628973
 30
0.0
 10
109.1297992753
 20
61.2352665093
 30
0.0
  0
SPLINE
  5
39F
100
AcDbEntity
  8
0
100
AcDbSpline
 62
7
  6
CONTINUOUS
 70
0
 71
3
 72
9
 73
5
 74
0
 42
0.0000001
 43
0.0000001
 44
0.0000000001
 40
0.0
 40
0.0
 40
0.0
 40
0.0
 40
0.2560647513
 40
1.0
 40
1.0
 40
1.0
 40
1.0
 10
85.3613222419
 20
49.5755299466
 30
0.0
 10
85.3687307934
 20
49.5660410281
 30
0.0
 10
85.3992638054
 20
49.5302719282
 30
0.0
 10
85.4366599327
 20
49.5002863141
 30
0.0
 10
85.466961769
 20
49.4828204776
 30
0.0
  0
SPLINE
  5
3A0
100
AcDbEntity
  8
0
100
AcDbSpline
 62
7
  6
CONTINUOUS
 70
0
 71
3
 72
9
 73
5
 74
0
 42
0.0000001
 43
0.0000001
 44
0.0000000001
 40
0.0
 40
0.0
 40
0.0
 40
0.0
 40
0.2560647513
 40
1.0
 40
1.0
 40
1.0
 40
1.0
 10
72.2830290092
 20
56.2345264906
 30
0.0
 10
72.2904375607
 20
56.2250375721
 30
0.0
 10
72.3209705727
 20
56.1892684722
 30
0.0
 10
72.3583667
 20
56.1592828581
 30
0.0
 10
72.3886685363
 20
56.1418170217
 30
0.0
  0
SPLINE
  5
3A1
100
AcDbEntity
  8
0
100
AcDbSpline
 62
7
  6
CONTINUOUS
 70
0
 71
3
 72
18
 73
14
 74
0
 42
0.0000001
 43
0.0000001
 44
0.0000000001
 40
0.0
 40
0.0
 40
0.0
 40
0.0
 40
0.1326194548
 40
0.2787161366
 40
0.4299853142
 40
0.5770543497
 40
0.7111288074
 40
0.7712238259
 40
0.82598023
 40
0.8753800768
 40
0.9199340519
 40
0.9608436445
 40
1.0
 40
1.0
 40
1.0
 40
1.0
 10
76.3264430964
 20
45.7900936365
 30
0.0
 10
76.5943558983
 20
45.6354176075
 30
0.0
 10
77.1170634803
 20
45.2392778308
 30
0.0
 10
77.7977329623
 20
44.4971832265
 30
0.0
 10
78.3736076839
 20
43.6299638038
 30
0.0
 10
78.7991337774
 20
42.7113158065
 30
0.0
 10
79.0106397316
 20
41.9382209878
 30
0.0
 10
79.069307712
 20
41.3592599617
 30
0.0
 10
79.0584655022
 20
40.9749812194
 30
0.0
 10
78.994314157
 20
40.6322984306
 30
0.0
 10
78.8764470303
 20
40.3379254045
 30
0.0
 10
78.7054668966
 20
40.0988951865
 30
0.0
 10
78.5564818128
 20
39.9813077768
 30
0.0
 10
78.4773886285
 20
39.935623551
 30
0.0
  0
SPLINE
  5
3A2
100
AcDbEntity
  8
0
100
AcDbSpline
 62
7
  6
CONTINUOUS
 70
0
 71
3
 72
16
 73
12
 74
0
 42
0.0000001
 43
0.0000001
 44
0.0000000001
 40
0.0
 40
0.0
 40
0.0
 40
0.0
 40
0.1536792511
 40
0.3048031719
 40
0.4492089916
 40
0.5834207682
 40
0.7050259956
 40
0.8133133776
 40
0.909975159
 40
0.9554534954
 40
1.0
 40
1.0
 40
1.0
 40
1.0
 10
57.3331666519
 20
135.1185182439
 30
0.0
 10
57.7559804404
 20
135.0978223437
 30
0.0
 10
58.597873907
 20
135.1068715566
 30
0.0
 10
59.8277248827
 20
135.2675959442
 30
0.0
 10
60.9761226446
 20
135.5690323174
 30
0.0
 10
61.9959721911
 20
135.998938674
 30
0.0
 10
62.8463869549
 20
136.5416980292
 30
0.0
 10
63.493132829
 20
137.1783265653
 30
0.0
 10
63.8429984324
 20
137.7866112396
 30
0.0
 10
63.9793989208
 20
138.2848069176
 30
0.0
 10
64.0018835965
 20
138.5333582942
 30
0.0
 10
64.0018818096
 20
138.6560646849
 30
0.0
  0
SPLINE
  5
3A3
100
AcDbEntity
  8
0
100
AcDbSpline
 62
7
  6
CONTINUOUS
 70
0
 71
3
 72
16
 73
12
 74
0
 42
0.0000001
 43
0.0000001
 44
0.0000000001
 40
0.0
 40
0.0
 40
0.0
 40
0.0
 40
0.1536792511
 40
0.3048031719
 40
0.4492089916
 40
0.5834207682
 40
0.7050259956
 40
0.8133133776
 40
0.909975159
 40
0.9554534954
 40
1.0
 40
1.0
 40
1.0
 40
1.0
 10
69.849008787
 20
127.8926568889
 30
0.0
 10
70.2718225755
 20
127.8719609887
 30
0.0
 10
71.1137160421
 20
127.8810102016
 30
0.0
 10
72.3435670178
 20
128.0417345892
 30
0.0
 10
73.4919647797
 20
128.3431709624
 30
0.0
 10
74.5118143262
 20
128.773077319
 30
0.0
 10
75.36222909
 20
129.3158366742
 30
0.0
 10
76.0089749641
 20
129.9524652103
 30
0.0
 10
76.3588405675
 20
130.5607498846
 30
0.0
 10
76.4952410559
 20
131.0589455626
 30
0.0
 10
76.5177257316
 20
131.3074969392
 30
0.0
 10
76.5177239447
 20
131.4302033298
 30
0.0
  0
SPLINE
  5
3A4
100
AcDbEntity
  8
0
100
AcDbSpline
 62
7
  6
CONTINUOUS
 70
0
 71
3
 72
16
 73
12
 74
0
 42
0.0000001
 43
0.0000001
 44
0.0000000001
 40
0.0
 40
0.0
 40
0.0
 40
0.0
 40
0.1536792511
 40
0.3048031719
 40
0.4492089916
 40
0.5834207682
 40
0.7050259956
 40
0.8133133776
 40
0.909975159
 40
0.9554534954
 40
1.0
 40
1.0
 40
1.0
 40
1.0
 10
82.3648509221
 20
120.6667955339
 30
0.0
 10
82.7876647106
 20
120.6460996337
 30
0.0
 10
83.6295581772
 20
120.6551488466
 30
0.0
 10
84.8594091529
 20
120.8158732342
 30
0.0
 10
86.0078069148
 20
121.1173096074
 30
0.0
 10
87.0276564613
 20
121.547215964
 30
0.0
 10
87.8780712251
 20
122.0899753192
 30
0.0
 10
88.5248170992
 20
122.7266038553
 30
0.0
 10
88.8746827026
 20
123.3348885296
 30
0.0
 10
89.011083191
 20
123.8330842076
 30
0.0
 10
89.0335678667
 20
124.0816355842
 30
0.0
 10
89.0335660798
 20
124.2043419748
 30
0.0
  0
SPLINE
  5
3A5
100
AcDbEntity
  8
0
100
AcDbSpline
 62
7
  6
CONTINUOUS
 70
0
 71
3
 72
16
 73
12
 74
0
 42
0.0000001
 43
0.0000001
 44
0.0000000001
 40
0.0
 40
0.0
 40
0.0
 40
0.0
 40
0.1536792511
 40
0.3048031719
 40
0.4492089916
 40
0.5834207682
 40
0.7050259956
 40
0.8133133776
 40
0.909975159
 40
0.9554534954
 40
1.0
 40
1.0
 40
1.0
 40
1.0
 10
94.8806930572
 20
113.4409341789
 30
0.0
 10
95.3035068457
 20
113.4202382787
 30
0.0
 10
96.1454003123
 20
113.4292874916
 30
0.0
 10
97.375251288
 20
113.5900118792
 30
0.0
 10
98.5236490499
 20
113.8914482524
 30
0.0
 10
99.5434985964
 20
114.321354609
 30
0.0
 10
100.3939133602
 20
114.8641139642
 30
0.0
 10
101.0406592343
 20
115.5007425003
 30
0.0
 10
101.3905248377
 20
116.1090271746
 30
0.0
 10
101.5269253261
 20
116.6072228526
 30
0.0
 10
101.5494100018
 20
116.8557742292
 30
0.0
 10
101.5494082149
 20
116.9784806198
 30
0.0
  0
SPLINE
  5
3A6
100
AcDbEntity
  8
0
100
AcDbSpline
 62
7
  6
CONTINUOUS
 70
0
 71
3
 72
17
 73
13
 74
0
 42
0.0000001
 43
0.0000001
 44
0.0000000001
 40
0.0
 40
0.0
 40
0.0
 40
0.0
 40
0.1253695404
 40
0.2630008634
 40
0.4068834829
 40
0.5495991152
 40
0.6838468073
 40
0.8039285348
 40
0.857961113
 40
0.9081022182
 40
0.9550598039
 40
1.0
 40
1.0
 40
1.0
 40
1.0
 10
39.2117118257
 20
124.7250356528
 30
0.0
 10
39.4772246141
 20
124.5717452409
 30
0.0
 10
39.987251352
 20
124.1667207475
 30
0.0
 10
40.6164769287
 20
123.3882132591
 30
0.0
 10
41.1091641017
 20
122.4685874321
 30
0.0
 10
41.4279378273
 20
121.4839971444
 30
0.0
 10
41.5504737258
 20
120.5148488072
 30
0.0
 10
41.4777116797
 20
119.7547540565
 30
0.0
 10
41.303634838
 20
119.2323649758
 30
0.0
 10
41.126909254
 20
118.9052644069
 30
0.0
 10
40.9024935889
 20
118.6368173285
 30
0.0
 10
40.7209981208
 20
118.5001277202
 30
0.0
 10
40.6258315101
 20
118.4451623468
 30
0.0
  0
SPLINE
  5
3A7
100
AcDbEntity
  8
0
100
AcDbSpline
 62
7
  6
CONTINUOUS
 70
0
 71
3
 72
17
 73
13
 74
0
 42
0.0000001
 43
0.0000001
 44
0.0000000001
 40
0.0
 40
0.0
 40
0.0
 40
0.0
 40
0.1253695776
 40
0.2630014051
 40
0.4068843888
 40
0.5495999775
 40
0.6838474815
 40
0.8039288791
 40
0.8579613624
 40
0.9081023823
 40
0.9550598839
 40
1.0
 40
1.0
 40
1.0
 40
1.0
 10
51.7275539608
 20
117.4991742978
 30
0.0
 10
51.9930668248
 20
117.3458838422
 30
0.0
 10
52.5030942941
 20
116.9408581332
 30
0.0
 10
53.1323212874
 20
116.1623489483
 30
0.0
 10
53.625008644
 20
115.2427208423
 30
0.0
 10
53.9437811236
 20
114.2581298401
 30
0.0
 10
54.06631598
 20
113.2889827944
 30
0.0
 10
53.9935532844
 20
112.5288896095
 30
0.0
 10
53.8194761074
 20
112.0065019775
 30
0.0
 10
53.6427507031
 20
111.6794020787
 30
0.0
 10
53.418335345
 20
111.4109555296
 30
0.0
 10
53.2368400977
 20
111.2742663192
 30
0.0
 10
53.141673654
 20
111.2193010502
 30
0.0
  0
SPLINE
  5
3A8
100
AcDbEntity
  8
0
100
AcDbSpline
 62
7
  6
CONTINUOUS
 70
0
 71
3
 72
17
 73
13
 74
0
 42
0.0000001
 43
0.0000001
 44
0.0000000001
 40
0.0
 40
0.0
 40
0.0
 40
0.0
 40
0.1253696124
 40
0.2630014619
 40
0.4068844498
 40
0.5496000629
 40
0.6838475238
 40
0.8039288349
 40
0.8579613021
 40
0.9081023185
 40
0.955059835
 40
1.0
 40
1.0
 40
1.0
 40
1.0
 10
64.2433960959
 20
110.2733129428
 30
0.0
 10
64.5089090331
 20
110.1200224449
 30
0.0
 10
65.0189365237
 20
109.714996552
 30
0.0
 10
65.648163768
 20
108.9364873693
 30
0.0
 10
66.1408508463
 20
108.0168589722
 30
0.0
 10
66.4596234575
 20
107.0322680585
 30
0.0
 10
66.5821580304
 20
106.0631212279
 30
0.0
 10
66.5093953939
 20
105.3030284236
 30
0.0
 10
66.3353183961
 20
104.7806410167
 30
0.0
 10
66.1585931304
 20
104.4535410465
 30
0.0
 10
65.9341776446
 20
104.1850944194
 30
0.0
 10
65.7526823502
 20
104.0484050121
 30
0.0
 10
65.6575158077
 20
103.9934396753
 30
0.0
  0
SPLINE
  5
3A9
100
AcDbEntity
  8
0
100
AcDbSpline
 62
7
  6
CONTINUOUS
 70
0
 71
3
 72
17
 73
13
 74
0
 42
0.0000001
 43
0.0000001
 44
0.0000000001
 40
0.0
 40
0.0
 40
0.0
 40
0.0
 40
0.1253696384
 40
0.2630014995
 40
0.406884467
 40
0.5496000709
 40
0.6838475366
 40
0.8039288373
 40
0.8579613085
 40
0.9081023186
 40
0.9550598273
 40
1.0
 40
1.0
 40
1.0
 40
1.0
 10
76.759238231
 20
103.0474515878
 30
0.0
 10
77.0247512224
 20
102.8941610586
 30
0.0
 10
77.5347787009
 20
102.4891350161
 30
0.0
 10
78.1640061256
 20
101.7106259287
 30
0.0
 10
78.6566929609
 20
100.7909974458
 30
0.0
 10
78.9754656372
 20
99.8064066368
 30
0.0
 10
79.0980001757
 20
98.8372598307
 30
0.0
 10
79.0252374975
 20
98.0771670382
 30
0.0
 10
78.851160507
 20
97.554779671
 30
0.0
 10
78.6744353096
 20
97.2276796861
 30
0.0
 10
78.450019778
 20
96.959233125
 30
0.0
 10
78.2685245281
 20
96.8225436645
 30
0.0
 10
78.1733579708
 20
96.7675783166
 30
0.0
  0
SPLINE
  5
3AA
100
AcDbEntity
  8
0
100
AcDbSpline
 62
7
  6
CONTINUOUS
 70
0
 71
3
 72
11
 73
7
 74
0
 42
0.0000001
 43
0.0000001
 44
0.0000000001
 40
0.0
 40
0.0
 40
0.0
 40
0.0
 40
0.2893975675
 40
0.5491290883
 40
0.7823145228
 40
1.0
 40
1.0
 40
1.0
 40
1.0
 10
73.6560963099
 20
57.4797664304
 30
0.0
 10
73.6560963099
 20
57.5329104498
 30
0.0
 10
73.6479287689
 20
57.6340753619
 30
0.0
 10
73.6071090322
 20
57.7731489409
 30
0.0
 10
73.5380504796
 20
57.8859845831
 30
0.0
 10
73.4732397435
 20
57.9404404031
 30
0.0
 10
73.4386060253
 20
57.960403116
 30
0.0
  0
SPLINE
  5
3AB
100
AcDbEntity
  8
0
100
AcDbSpline
 62
7
  6
CONTINUOUS
 70
0
 71
3
 72
15
 73
11
 74
0
 42
0.0000001
 43
0.0000001
 44
0.0000000001
 40
0.0
 40
0.0
 40
0.0
 40
0.0
 40
0.1207551358
 40
0.2526273017
 40
0.3909225319
 40
0.5302568209
 40
0.6650348277
 40
0.7902697751
 40
0.9023348529
 40
1.0
 40
1.0
 40
1.0
 40
1.0
 10
74.5046209145
 20
57.9696594151
 30
0.0
 10
74.5046209145
 20
57.8099481698
 30
0.0
 10
74.4673939937
 20
57.4754585793
 30
0.0
 10
74.3241019834
 20
56.9767039335
 30
0.0
 10
74.0985653311
 20
56.4821911857
 30
0.0
 10
73.8041301563
 20
56.0209012578
 30
0.0
 10
73.4577841502
 20
55.6195346081
 30
0.0
 10
73.0791355456
 20
55.3012249694
 30
0.0
 10
72.6895585712
 20
55.0840742153
 30
0.0
 10
72.416905265
 20
55.0115993045
 30
0.0
 10
72.2881843442
 20
55.0008097074
 30
0.0
  0
SPLINE
  5
3AC
100
AcDbEntity
  8
0
100
AcDbSpline
 62
7
  6
CONTINUOUS
 70
0
 71
3
 72
10
 73
6
 74
0
 42
0.0000001
 43
0.0000001
 44
0.0000000001
 40
0.0
 40
0.0
 40
0.0
 40
0.0
 40
0.4754831218
 40
0.7333910931
 40
1.0
 40
1.0
 40
1.0
 40
1.0
 10
25.6636653998
 20
86.6101192118
 30
0.0
 10
26.3483356053
 20
86.2148336269
 30
0.0
 10
27.3250284076
 20
85.4628906752
 30
0.0
 10
28.488081584
 20
84.2739074006
 30
0.0
 10
29.0419947312
 20
83.5983162341
 30
0.0
 10
29.3088843541
 20
83.244372858
 30
0.0
  0
SPLINE
  5
3AD
100
AcDbEntity
  8
0
100
AcDbSpline
 62
7
  6
CONTINUOUS
 70
0
 71
3
 72
10
 73
6
 74
0
 42
0.0000001
 43
0.0000001
 44
0.0000000001
 40
0.0
 40
0.0
 40
0.0
 40
0.0
 40
0.5095243296
 40
0.7596111065
 40
1.0
 40
1.0
 40
1.0
 40
1.0
 10
29.3088843541
 20
83.244372858
 30
0.0
 10
29.926348039
 20
82.4255055714
 30
0.0
 10
30.7361265055
 20
81.1158414664
 30
0.0
 10
31.5646298356
 20
79.2798649076
 30
0.0
 10
31.8888676083
 20
78.3454112637
 30
0.0
 10
32.024511745
 20
77.8809563829
 30
0.0
  0
SPLINE
  5
3AE
100
AcDbEntity
  8
0
100
AcDbSpline
 62
7
  6
CONTINUOUS
 70
0
 71
3
 72
15
 73
11
 74
0
 42
0.0000001
 43
0.0000001
 44
0.0000000001
 40
0.0
 40
0.0
 40
0.0
 40
0.0
 40
0.1228179678
 40
0.2572393976
 40
0.3977751475
 40
0.5383563829
 40
0.6731013206
 40
0.79692432
 40
0.9062475735
 40
1.0
 40
1.0
 40
1.0
 40
1.0
 10
76.7577263802
 20
40.1602762668
 30
0.0
 10
76.5370803216
 20
40.2876634463
 30
0.0
 10
76.100719217
 20
40.5999425019
 30
0.0
 10
75.5054159144
 20
41.1746252038
 30
0.0
 10
74.9664075283
 20
41.850379016
 30
0.0
 10
74.5161080511
 20
42.5889661711
 30
0.0
 10
74.1812222098
 20
43.3491579392
 30
0.0
 10
73.9817772118
 20
44.0896512245
 30
0.0
 10
73.9292419712
 20
44.7701085764
 30
0.0
 10
74.0031455141
 20
45.1925856895
 30
0.0
 10
74.0713905696
 20
45.3747027039
 30
0.0
  0
SPLINE
  5
3AF
100
AcDbEntity
  8
0
100
AcDbSpline
 62
7
  6
CONTINUOUS
 70
0
 71
3
 72
10
 73
6
 74
0
 42
0.0000001
 43
0.0000001
 44
0.0000000001
 40
0.0
 40
0.0
 40
0.0
 40
0.0
 40
0.2305005797
 40
0.4761552356
 40
1.0
 40
1.0
 40
1.0
 40
1.0
 10
63.2111918051
 20
64.9325351468
 30
0.0
 10
63.5441497257
 20
64.7403061505
 30
0.0
 10
64.2062156388
 20
64.2974234769
 30
0.0
 10
65.4840211356
 20
63.2220392595
 30
0.0
 10
66.3399272077
 20
62.253187107
 30
0.0
 10
66.865292918
 20
61.5550261395
 30
0.0
  0
SPLINE
  5
3B0
100
AcDbEntity
  8
0
100
AcDbSpline
 62
7
  6
CONTINUOUS
 70
0
 71
3
 72
11
 73
7
 74
0
 42
0.0000001
 43
0.0000001
 44
0.0000000001
 40
0.0
 40
0.0
 40
0.0
 40
0.0
 40
0.2561850309
 40
0.5120045007
 40
0.7617489342
 40
1.0
 40
1.0
 40
1.0
 40
1.0
 10
66.865292918
 20
61.5550261395
 30
0.0
 10
67.1935436326
 20
61.1188122182
 30
0.0
 10
67.8065509994
 20
60.2138281668
 30
0.0
 10
68.5884347014
 20
58.788732065
 30
0.0
 10
69.2199694553
 20
57.3325286256
 30
0.0
 10
69.540679023
 20
56.3410879749
 30
0.0
 10
69.6702439525
 20
55.8501930267
 30
0.0
  0
SPLINE
  5
3B1
100
AcDbEntity
  8
0
100
AcDbSpline
 62
7
  6
CONTINUOUS
 70
0
 71
3
 72
13
 73
9
 74
0
 42
0.0000001
 43
0.0000001
 44
0.0000000001
 40
0.0
 40
0.0
 40
0.0
 40
0.0
 40
0.2851437447
 40
0.423313101
 40
0.5556928839
 40
0.6805386274
 40
0.796605908
 40
1.0
 40
1.0
 40
1.0
 40
1.0
 10
34.4480671498
 20
79.8608930465
 30
0.0
 10
33.9288380025
 20
79.0220599268
 30
0.0
 10
33.2655545853
 20
77.7043039614
 30
0.0
 10
32.6489340334
 20
75.8809647068
 30
0.0
 10
32.3414974098
 20
74.5455462464
 30
0.0
 10
32.1923435516
 20
73.2587358145
 30
0.0
 10
32.207362109
 20
71.7212737186
 30
0.0
 10
32.4554492112
 20
70.6129386485
 30
0.0
 10
32.7580375858
 20
69.9776222932
 30
0.0
  0
SPLINE
  5
3B2
100
AcDbEntity
  8
0
100
AcDbSpline
 62
7
  6
CONTINUOUS
 70
0
 71
3
 72
17
 73
13
 74
0
 42
0.0000001
 43
0.0000001
 44
0.0000000001
 40
0.0
 40
0.0
 40
0.0
 40
0.0
 40
0.0428576877
 40
0.0874849505
 40
0.1353173333
 40
0.1872806034
 40
0.3045412648
 40
0.4382087218
 40
0.5825511809
 40
0.7297102049
 40
0.8713097134
 40
1.0
 40
1.0
 40
1.0
 40
1.0
 10
72.6725637064
 20
54.5922757585
 30
0.0
 10
72.7280186163
 20
54.5602298637
 30
0.0
 10
72.8503021141
 20
54.5094329427
 30
0.0
 10
73.0521273465
 20
54.4798334132
 30
0.0
 10
73.2688784415
 20
54.4958078666
 30
0.0
 10
73.5838195005
 20
54.5795558392
 30
0.0
 10
73.9864230777
 20
54.7997055999
 30
0.0
 10
74.4312332441
 20
55.1936336865
 30
0.0
 10
74.8244273594
 20
55.6969106451
 30
0.0
 10
75.1338870417
 20
56.268882298
 30
0.0
 10
75.3347008129
 20
56.8626458389
 30
0.0
 10
75.388508071
 20
57.2670383491
 30
0.0
 10
75.388508071
 20
57.4593584719
 30
0.0
  0
SPLINE
  5
3B3
100
AcDbEntity
  8
0
100
AcDbSpline
 62
7
  6
CONTINUOUS
 70
0
 71
3
 72
9
 73
5
 74
0
 42
0.0000001
 43
0.0000001
 44
0.0000000001
 40
0.0
 40
0.0
 40
0.0
 40
0.0
 40
0.2430512638
 40
1.0
 40
1.0
 40
1.0
 40
1.0
 10
83.3644236661
 20
33.5643509697
 30
0.0
 10
83.2066909487
 20
34.7624368001
 30
0.0
 10
82.6454916057
 20
39.7031647769
 30
0.0
 10
82.425302918
 20
44.6808530737
 30
0.0
 10
82.4250269001
 20
48.4443193615
 30
0.0
  0
SPLINE
  5
3B4
100
AcDbEntity
  8
0
100
AcDbSpline
 62
7
  6
CONTINUOUS
 70
0
 71
3
 72
9
 73
5
 74
0
 42
0.0000001
 43
0.0000001
 44
0.0000000001
 40
0.0
 40
0.0
 40
0.0
 40
0.0
 40
0.2330036301
 40
1.0
 40
1.0
 40
1.0
 40
1.0
 10
109.1342563024
 20
112.4511740638
 30
0.0
 10
109.1494330948
 20
112.4099819228
 30
0.0
 10
109.2048404617
 20
112.2296142414
 30
0.0
 10
109.2239391312
 20
112.0393498312
 30
0.0
 10
109.2239391312
 20
111.8948438422
 30
0.0
  0
SPLINE
  5
3B5
100
AcDbEntity
  8
0
100
AcDbSpline
 62
7
  6
CONTINUOUS
 70
0
 71
3
 72
9
 73
5
 74
0
 42
0.0000001
 43
0.0000001
 44
0.0000000001
 40
0.0
 40
0.0
 40
0.0
 40
0.0
 40
0.2330036301
 40
1.0
 40
1.0
 40
1.0
 40
1.0
 10
74.4149380857
 20
58.5259896367
 30
0.0
 10
74.4301148781
 20
58.4847974957
 30
0.0
 10
74.485522245
 20
58.3044298143
 30
0.0
 10
74.5046209145
 20
58.114165404
 30
0.0
 10
74.5046209145
 20
57.9696594151
 30
0.0
  0
SPLINE
  5
3B6
100
AcDbEntity
  8
0
100
AcDbSpline
 62
7
  6
CONTINUOUS
 70
0
 71
3
 72
9
 73
5
 74
0
 42
0.0000001
 43
0.0000001
 44
0.0000000001
 40
0.0
 40
0.0
 40
0.0
 40
0.0
 40
0.2439112253
 40
1.0
 40
1.0
 40
1.0
 40
1.0
 10
82.4250265577
 20
86.8297945202
 30
0.0
 10
82.4250272135
 20
88.1311815394
 30
0.0
 10
82.5068189022
 20
93.4665131952
 30
0.0
 10
82.9063833501
 20
98.7957361302
 30
0.0
 10
83.3644236687
 20
102.8037559438
 30
0.0
  0
SPLINE
  5
3B7
100
AcDbEntity
  8
0
100
AcDbSpline
 62
7
  6
CONTINUOUS
 70
0
 71
3
 72
9
 73
5
 74
0
 42
0.0000001
 43
0.0000001
 44
0.0000000001
 40
0.0
 40
0.0
 40
0.0
 40
0.0
 40
0.2463911051
 40
1.0
 40
1.0
 40
1.0
 40
1.0
 10
70.9664770511
 20
43.4723487914
 30
0.0
 10
70.8583940066
 20
44.163536614
 30
0.0
 10
70.4451373822
 20
46.9727159045
 30
0.0
 10
70.1321143271
 20
49.7964909003
 30
0.0
 10
69.9488211721
 20
51.9283756273
 30
0.0
  0
SPLINE
  5
3B8
100
AcDbEntity
  8
0
100
AcDbSpline
 62
7
  6
CONTINUOUS
 70
0
 71
3
 72
16
 73
12
 74
0
 42
0.0000001
 43
0.0000001
 44
0.0000000001
 40
0.0
 40
0.0
 40
0.0
 40
0.0
 40
0.0428755151
 40
0.0875161207
 40
0.1869217599
 40
0.3042393126
 40
0.437962533
 40
0.5823660413
 40
0.7295547149
 40
0.8712848126
 40
1.0
 40
1.0
 40
1.0
 40
1.0
 10
109.1297992753
 20
61.2352665093
 30
0.0
 10
109.1569269638
 20
61.2196302367
 30
0.0
 10
109.2166871787
 20
61.1947806148
 30
0.0
 10
109.3529229408
 20
61.1747448496
 30
0.0
 10
109.5452730992
 20
61.212329432
 30
0.0
 10
109.7718441646
 20
61.3366237072
 30
0.0
 10
109.9896495923
 20
61.5292677014
 30
0.0
 10
110.1817196859
 20
61.7752915833
 30
0.0
 10
110.3331254606
 20
62.0549047302
 30
0.0
 10
110.4312215726
 20
62.345210816
 30
0.0
 10
110.4575807524
 20
62.5429288254
 30
0.0
 10
110.4575807524
 20
62.6369277946
 30
0.0
  0
SPLINE
  5
3B9
100
AcDbEntity
  8
0
100
AcDbSpline
 62
7
  6
CONTINUOUS
 70
0
 71
3
 72
11
 73
7
 74
0
 42
0.0000001
 43
0.0000001
 44
0.0000000001
 40
0.0
 40
0.0
 40
0.0
 40
0.0
 40
0.2062790682
 40
0.4354584921
 40
0.699050431
 40
1.0
 40
1.0
 40
1.0
 40
1.0
 10
78.4773886285
 20
39.935623551
 30
0.0
 10
78.3697328098
 20
39.8734415468
 30
0.0
 10
78.1144077737
 20
39.7875678119
 30
0.0
 10
77.6874288398
 20
39.793347152
 30
0.0
 10
77.2222165649
 20
39.9196185761
 30
0.0
 10
76.9148080477
 20
40.0695871755
 30
0.0
 10
76.7577263802
 20
40.1602762668
 30
0.0
  0
SPLINE
  5
3BA
100
AcDbEntity
  8
0
100
AcDbSpline
 62
7
  6
CONTINUOUS
 70
0
 71
3
 72
9
 73
5
 74
0
 42
0.0000001
 43
0.0000001
 44
0.0000000001
 40
0.0
 40
0.0
 40
0.0
 40
0.0
 40
0.2475359387
 40
1.0
 40
1.0
 40
1.0
 40
1.0
 10
69.6702439525
 20
55.8501930266
 30
0.0
 10
69.6399944801
 20
56.3868358574
 30
0.0
 10
69.5305636256
 20
58.5554801039
 30
0.0
 10
69.4717050554
 20
60.7266427278
 30
0.0
 10
69.4544428708
 20
62.3604373117
 30
0.0
  0
SPLINE
  5
3BB
100
AcDbEntity
  8
0
100
AcDbSpline
 62
7
  6
CONTINUOUS
 70
0
 71
3
 72
11
 73
7
 74
0
 42
0.0000001
 43
0.0000001
 44
0.0000000001
 40
0.0
 40
0.0
 40
0.0
 40
0.0
 40
0.2896423581
 40
0.5491120121
 40
0.7822364467
 40
1.0
 40
1.0
 40
1.0
 40
1.0
 10
75.388508071
 20
57.4593584719
 30
0.0
 10
75.388508071
 20
57.5733377224
 30
0.0
 10
75.3711832792
 20
57.7901530071
 30
0.0
 10
75.2834301003
 20
58.0880499325
 30
0.0
 10
75.1356101146
 20
58.3298349456
 30
0.0
 10
74.9966812932
 20
58.4464665559
 30
0.0
 10
74.9224851681
 20
58.4893424929
 30
0.0
  0
SPLINE
  5
3BC
100
AcDbEntity
  8
0
100
AcDbSpline
 62
7
  6
CONTINUOUS
 70
0
 71
3
 72
17
 73
13
 74
0
 42
0.0000001
 43
0.0000001
 44
0.0000000001
 40
0.0
 40
0.0
 40
0.0
 40
0.0
 40
0.0428576877
 40
0.0874849505
 40
0.1353173333
 40
0.1872806034
 40
0.3045412648
 40
0.4382087218
 40
0.5825511809
 40
0.7297102049
 40
0.8713097134
 40
1.0
 40
1.0
 40
1.0
 40
1.0
 10
109.4386929571
 20
59.729024915
 30
0.0
 10
109.494147867
 20
59.6969790202
 30
0.0
 10
109.6164313647
 20
59.6461820993
 30
0.0
 10
109.8182565972
 20
59.6165825697
 30
0.0
 10
110.0350076922
 20
59.6325570231
 30
0.0
 10
110.3499487511
 20
59.7163049957
 30
0.0
 10
110.7525523284
 20
59.9364547564
 30
0.0
 10
111.1973624948
 20
60.330382843
 30
0.0
 10
111.59055661
 20
60.8336598016
 30
0.0
 10
111.9000162924
 20
61.4056314545
 30
0.0
 10
112.1008300636
 20
61.9993949954
 30
0.0
 10
112.1546373216
 20
62.4037875056
 30
0.0
 10
112.1546373216
 20
62.5961076284
 30
0.0
  0
SPLINE
  5
3BD
100
AcDbEntity
  8
0
100
AcDbSpline
 62
7
  6
CONTINUOUS
 70
0
 71
3
 72
13
 73
9
 74
0
 42
0.0000001
 43
0.0000001
 44
0.0000000001
 40
0.0
 40
0.0
 40
0.0
 40
0.0
 40
0.2111618171
 40
0.3269277136
 40
0.4495307122
 40
0.5787269465
 40
0.7140289105
 40
1.0
 40
1.0
 40
1.0
 40
1.0
 10
92.4657468395
 20
106.5465451794
 30
0.0
 10
93.9128161708
 20
106.6454913474
 30
0.0
 10
96.1359005767
 20
107.1430209595
 30
0.0
 10
98.9991470816
 20
108.3039491538
 30
0.0
 10
101.2359340818
 20
109.4849753277
 30
0.0
 10
103.4680416363
 20
110.9357122619
 30
0.0
 10
106.4617549985
 20
113.2504430088
 30
0.0
 10
108.543504723
 20
115.2787693953
 30
0.0
 10
109.860501235
 20
116.7361695009
 30
0.0
  0
SPLINE
  5
3BE
100
AcDbEntity
  8
0
100
AcDbSpline
 62
7
  6
CONTINUOUS
 70
0
 71
3
 72
9
 73
5
 74
0
 42
0.0000001
 43
0.0000001
 44
0.0000000001
 40
0.0
 40
0.0
 40
0.0
 40
0.0
 40
0.2330036301
 40
1.0
 40
1.0
 40
1.0
 40
1.0
 10
111.1810673363
 20
63.6627387932
 30
0.0
 10
111.1962441287
 20
63.6215466522
 30
0.0
 10
111.2516514957
 20
63.4411789708
 30
0.0
 10
111.2707501652
 20
63.2509145605
 30
0.0
 10
111.2707501652
 20
63.1064085716
 30
0.0
  0
SPLINE
  5
3BF
100
AcDbEntity
  8
0
100
AcDbSpline
 62
7
  6
CONTINUOUS
 70
0
 71
3
 72
11
 73
7
 74
0
 42
0.0000001
 43
0.0000001
 44
0.0000000001
 40
0.0
 40
0.0
 40
0.0
 40
0.0
 40
0.2896423581
 40
0.5491120121
 40
0.7822364467
 40
1.0
 40
1.0
 40
1.0
 40
1.0
 10
88.4668013037
 20
50.8003619279
 30
0.0
 10
88.4668013037
 20
50.9143411784
 30
0.0
 10
88.4494765119
 20
51.131156463
 30
0.0
 10
88.361723333
 20
51.4290533884
 30
0.0
 10
88.2139033474
 20
51.6708384015
 30
0.0
 10
88.0749745259
 20
51.7874700118
 30
0.0
 10
88.0007784008
 20
51.8303459488
 30
0.0
  0
SPLINE
  5
3C0
100
AcDbEntity
  8
0
100
AcDbSpline
 62
7
  6
CONTINUOUS
 70
0
 71
3
 72
16
 73
12
 74
0
 42
0.0000001
 43
0.0000001
 44
0.0000000001
 40
0.0
 40
0.0
 40
0.0
 40
0.0
 40
0.0428755151
 40
0.0875161207
 40
0.1869217599
 40
0.3042393126
 40
0.437962533
 40
0.5823660413
 40
0.7295547149
 40
0.8712848126
 40
1.0
 40
1.0
 40
1.0
 40
1.0
 10
85.466961769
 20
49.4828204776
 30
0.0
 10
85.4928563807
 20
49.4678949447
 30
0.0
 10
85.5499002223
 20
49.4441748511
 30
0.0
 10
85.6799434497
 20
49.4250498025
 30
0.0
 10
85.8635504191
 20
49.4609259948
 30
0.0
 10
86.0798227997
 20
49.5795705302
 30
0.0
 10
86.2877279807
 20
49.7634579792
 30
0.0
 10
86.4710676155
 20
49.9982989574
 30
0.0
 10
86.6155913095
 20
50.2652024158
 30
0.0
 10
86.7092285073
 20
50.5423127704
 30
0.0
 10
86.7343895426
 20
50.7310435976
 30
0.0
 10
86.7343895426
 20
50.8207698864
 30
0.0
  0
SPLINE
  5
3C1
100
AcDbEntity
  8
0
100
AcDbSpline
 62
7
  6
CONTINUOUS
 70
0
 71
3
 72
12
 73
8
 74
0
 42
0.0000001
 43
0.0000001
 44
0.0000000001
 40
0.0
 40
0.0
 40
0.0
 40
0.0
 40
0.1081615763
 40
0.2183679313
 40
0.4513498098
 40
0.7104416234
 40
1.0
 40
1.0
 40
1.0
 40
1.0
 10
101.5494082149
 20
116.9784806198
 30
0.0
 10
101.5494065197
 20
117.0948938608
 30
0.0
 10
101.5292240403
 20
117.3304163424
 30
0.0
 10
101.4067785423
 20
117.8025193456
 30
0.0
 10
101.0928367062
 20
118.3815194476
 30
0.0
 10
100.507833389
 20
118.9958309321
 30
0.0
 10
100.01825224
 20
119.3330663415
 30
0.0
 10
99.7483549068
 20
119.4888881143
 30
0.0
  0
SPLINE
  5
3C2
100
AcDbEntity
  8
0
100
AcDbSpline
 62
7
  6
CONTINUOUS
 70
0
 71
3
 72
11
 73
7
 74
0
 42
0.0000001
 43
0.0000001
 44
0.0000000001
 40
0.0
 40
0.0
 40
0.0
 40
0.0
 40
0.2594538811
 40
0.5026716335
 40
0.7443720467
 40
1.0
 40
1.0
 40
1.0
 40
1.0
 10
44.6136125466
 20
65.4024923407
 30
0.0
 10
44.5101985854
 20
65.1767063921
 30
0.0
 10
44.2617285121
 20
64.7580158809
 30
0.0
 10
43.7394768791
 20
64.259072516
 30
0.0
 10
43.0962532165
 20
63.9377489103
 30
0.0
 10
42.6215506386
 20
63.8521192626
 30
0.0
 10
42.377398836
 20
63.8360519646
 30
0.0
  0
SPLINE
  5
3C3
100
AcDbEntity
  8
0
100
AcDbSpline
 62
7
  6
CONTINUOUS
 70
0
 71
3
 72
9
 73
5
 74
0
 42
0.0000001
 43
0.0000001
 44
0.0000000001
 40
0.0
 40
0.0
 40
0.0
 40
0.0
 40
0.2455968702
 40
1.0
 40
1.0
 40
1.0
 40
1.0
 10
42.3371559697
 20
63.8336520404
 30
0.0
 10
42.3075992262
 20
63.8320707314
 30
0.0
 10
42.1871699472
 20
63.827244186
 30
0.0
 10
42.0665003864
 20
63.8287917208
 30
0.0
 10
41.9756899181
 20
63.8332467164
 30
0.0
  0
SPLINE
  5
3C4
100
AcDbEntity
  8
0
100
AcDbSpline
 62
7
  6
CONTINUOUS
 70
0
 71
3
 72
11
 73
7
 74
0
 42
0.0000001
 43
0.0000001
 44
0.0000000001
 40
0.0
 40
0.0
 40
0.0
 40
0.0
 40
0.2896423581
 40
0.5491120121
 40
0.7822364467
 40
1.0
 40
1.0
 40
1.0
 40
1.0
 10
112.1546373216
 20
62.5961076284
 30
0.0
 10
112.1546373216
 20
62.7100868789
 30
0.0
 10
112.1373125299
 20
62.9269021636
 30
0.0
 10
112.0495593509
 20
63.224799089
 30
0.0
 10
111.9017393653
 20
63.4665841021
 30
0.0
 10
111.7628105439
 20
63.5832157124
 30
0.0
 10
111.6886144188
 20
63.6260916494
 30
0.0
  0
SPLINE
  5
3C5
100
AcDbEntity
  8
0
100
AcDbSpline
 62
7
  6
CONTINUOUS
 70
0
 71
3
 72
12
 73
8
 74
0
 42
0.0000001
 43
0.0000001
 44
0.0000000001
 40
0.0
 40
0.0
 40
0.0
 40
0.0
 40
0.1081615763
 40
0.2183679313
 40
0.4513498098
 40
0.7104416234
 40
1.0
 40
1.0
 40
1.0
 40
1.0
 10
89.0335660798
 20
124.2043419748
 30
0.0
 10
89.0335643846
 20
124.3207552158
 30
0.0
 10
89.0133819052
 20
124.5562776974
 30
0.0
 10
88.8909364072
 20
125.0283807006
 30
0.0
 10
88.5769945711
 20
125.6073808026
 30
0.0
 10
87.9919912539
 20
126.2216922871
 30
0.0
 10
87.5024101049
 20
126.5589276965
 30
0.0
 10
87.2325127717
 20
126.7147494694
 30
0.0
  0
SPLINE
  5
3C6
100
AcDbEntity
  8
0
100
AcDbSpline
 62
7
  6
CONTINUOUS
 70
0
 71
3
 72
12
 73
8
 74
0
 42
0.0000001
 43
0.0000001
 44
0.0000000001
 40
0.0
 40
0.0
 40
0.0
 40
0.0
 40
0.1081615763
 40
0.2183679313
 40
0.4513498098
 40
0.7104416234
 40
1.0
 40
1.0
 40
1.0
 40
1.0
 10
76.5177239447
 20
131.4302033298
 30
0.0
 10
76.5177222495
 20
131.5466165708
 30
0.0
 10
76.4975397701
 20
131.7821390524
 30
0.0
 10
76.3750942721
 20
132.2542420556
 30
0.0
 10
76.061152436
 20
132.8332421576
 30
0.0
 10
75.4761491188
 20
133.4475536421
 30
0.0
 10
74.9865679698
 20
133.7847890515
 30
0.0
 10
74.7166706366
 20
133.9406108244
 30
0.0
  0
SPLINE
  5
3C7
100
AcDbEntity
  8
0
100
AcDbSpline
 62
7
  6
CONTINUOUS
 70
0
 71
3
 72
11
 73
7
 74
0
 42
0.0000001
 43
0.0000001
 44
0.0000000001
 40
0.0
 40
0.0
 40
0.0
 40
0.0
 40
0.2896423581
 40
0.5491120121
 40
0.7822364467
 40
1.0
 40
1.0
 40
1.0
 40
1.0
 10
110.1078262877
 20
111.384542899
 30
0.0
 10
110.1078262877
 20
111.4985221495
 30
0.0
 10
110.0905014959
 20
111.7153374342
 30
0.0
 10
110.0027483169
 20
112.0132343596
 30
0.0
 10
109.8549283313
 20
112.2550193727
 30
0.0
 10
109.7159995099
 20
112.371650983
 30
0.0
 10
109.6418033848
 20
112.41452692
 30
0.0
  0
SPLINE
  5
3C8
100
AcDbEntity
  8
0
100
AcDbSpline
 62
7
  6
CONTINUOUS
 70
0
 71
3
 72
10
 73
6
 74
0
 42
0.0000001
 43
0.0000001
 44
0.0000000001
 40
0.0
 40
0.0
 40
0.0
 40
0.0
 40
0.2305041158
 40
0.4761656518
 40
1.0
 40
1.0
 40
1.0
 40
1.0
 10
38.1795075349
 20
79.3842578568
 30
0.0
 10
38.5125694499
 20
79.1919688207
 30
0.0
 10
39.1748251814
 20
78.7489136454
 30
0.0
 10
40.4530162827
 20
77.6732138422
 30
0.0
 10
41.3090316183
 20
76.7039428623
 30
0.0
 10
41.8344803033
 20
76.0055413297
 30
0.0
  0
SPLINE
  5
3C9
100
AcDbEntity
  8
0
100
AcDbSpline
 62
7
  6
CONTINUOUS
 70
0
 71
3
 72
10
 73
6
 74
0
 42
0.0000001
 43
0.0000001
 44
0.0000000001
 40
0.0
 40
0.0
 40
0.0
 40
0.0
 40
0.5095460611
 40
0.7595968221
 40
1.0
 40
1.0
 40
1.0
 40
1.0
 10
41.8344803033
 20
76.0055413297
 30
0.0
 10
42.4464889988
 20
75.1920883263
 30
0.0
 10
43.2498950752
 20
73.8922265006
 30
0.0
 10
44.0734966041
 20
72.0705404344
 30
0.0
 10
44.3966676803
 20
71.1436107364
 30
0.0
 10
44.5322208546
 20
70.6828605632
 30
0.0
  0
SPLINE
  5
3CA
100
AcDbEntity
  8
0
100
AcDbSpline
 62
7
  6
CONTINUOUS
 70
0
 71
3
 72
13
 73
9
 74
0
 42
0.0000001
 43
0.0000001
 44
0.0000000001
 40
0.0
 40
0.0
 40
0.0
 40
0.0
 40
0.2851582869
 40
0.4233276654
 40
0.5556708653
 40
0.6805032828
 40
0.7965609743
 40
1.0
 40
1.0
 40
1.0
 40
1.0
 10
46.9639092849
 20
72.6350316915
 30
0.0
 10
46.4446490726
 20
71.7961483852
 30
0.0
 10
45.7814839595
 20
70.4782927181
 30
0.0
 10
45.1645202491
 20
68.655110607
 30
0.0
 10
44.857634484
 20
67.3197337008
 30
0.0
 10
44.7081614906
 20
66.0331775539
 30
0.0
 10
44.7232634512
 20
64.4955742205
 30
0.0
 10
44.9716841833
 20
63.3872603794
 30
0.0
 10
45.2741260899
 20
62.7516952344
 30
0.0
  0
SPLINE
  5
3CB
100
AcDbEntity
  8
0
100
AcDbSpline
 62
7
  6
CONTINUOUS
 70
0
 71
3
 72
17
 73
13
 74
0
 42
0.0000001
 43
0.0000001
 44
0.0000000001
 40
0.0
 40
0.0
 40
0.0
 40
0.0
 40
0.0428576877
 40
0.0874849505
 40
0.1353173333
 40
0.1872806034
 40
0.3045412648
 40
0.4382087218
 40
0.5825511809
 40
0.7297102049
 40
0.8713097134
 40
1.0
 40
1.0
 40
1.0
 40
1.0
 10
93.6015240368
 20
76.3885638806
 30
0.0
 10
93.6569789467
 20
76.3565179858
 30
0.0
 10
93.7792624445
 20
76.3057210648
 30
0.0
 10
93.9810876769
 20
76.2761215353
 30
0.0
 10
94.1978387719
 20
76.2920959887
 30
0.0
 10
94.5127798308
 20
76.3758439613
 30
0.0
 10
94.9153834081
 20
76.595993722
 30
0.0
 10
95.3601935745
 20
76.9899218086
 30
0.0
 10
95.7533876897
 20
77.4931987672
 30
0.0
 10
96.0628473721
 20
78.0651704201
 30
0.0
 10
96.2636611433
 20
78.658933961
 30
0.0
 10
96.3174684013
 20
79.0633264712
 30
0.0
 10
96.3174684013
 20
79.255646594
 30
0.0
  0
SPLINE
  5
3CC
100
AcDbEntity
  8
0
100
AcDbSpline
 62
7
  6
CONTINUOUS
 70
0
 71
3
 72
12
 73
8
 74
0
 42
0.0000001
 43
0.0000001
 44
0.0000000001
 40
0.0
 40
0.0
 40
0.0
 40
0.0
 40
0.1081615763
 40
0.2183679313
 40
0.4513498098
 40
0.7104416234
 40
1.0
 40
1.0
 40
1.0
 40
1.0
 10
64.0018818096
 20
138.6560646849
 30
0.0
 10
64.0018801144
 20
138.7724779258
 30
0.0
 10
63.981697635
 20
139.0080004075
 30
0.0
 10
63.859252137
 20
139.4801034106
 30
0.0
 10
63.5453103009
 20
140.0591035126
 30
0.0
 10
62.9603069837
 20
140.6734149972
 30
0.0
 10
62.4707258347
 20
141.0106504065
 30
0.0
 10
62.2008285015
 20
141.1664721794
 30
0.0
  0
SPLINE
  5
3CD
100
AcDbEntity
  8
0
100
AcDbSpline
 62
7
  6
CONTINUOUS
 70
0
 71
3
 72
11
 73
7
 74
0
 42
0.0000001
 43
0.0000001
 44
0.0000000001
 40
0.0
 40
0.0
 40
0.0
 40
0.0
 40
0.2243283007
 40
0.4594199052
 40
0.7162548856
 40
1.0
 40
1.0
 40
1.0
 40
1.0
 10
78.1733579708
 20
96.7675783166
 30
0.0
 10
78.0479991682
 20
96.6951748339
 30
0.0
 10
77.7649319432
 20
96.5883983256
 30
0.0
 10
77.2968424142
 20
96.5670040236
 30
0.0
 10
76.8038888582
 20
96.6782839684
 30
0.0
 10
76.4858041495
 20
96.8276603996
 30
0.0
 10
76.3272261475
 20
96.9192133805
 30
0.0
  0
SPLINE
  5
3CE
100
AcDbEntity
  8
0
100
AcDbSpline
 62
7
  6
CONTINUOUS
 70
0
 71
3
 72
11
 73
7
 74
0
 42
0.0000001
 43
0.0000001
 44
0.0000000001
 40
0.0
 40
0.0
 40
0.0
 40
0.0
 40
0.2896423581
 40
0.5491120121
 40
0.7822364467
 40
1.0
 40
1.0
 40
1.0
 40
1.0
 10
96.3174684013
 20
79.255646594
 30
0.0
 10
96.3174684013
 20
79.3696258445
 30
0.0
 10
96.3001436096
 20
79.5864411292
 30
0.0
 10
96.2123904306
 20
79.8843380546
 30
0.0
 10
96.064570445
 20
80.1261230677
 30
0.0
 10
95.9256416236
 20
80.242754678
 30
0.0
 10
95.8514454985
 20
80.285630615
 30
0.0
  0
SPLINE
  5
3CF
100
AcDbEntity
  8
0
100
AcDbSpline
 62
7
  6
CONTINUOUS
 70
0
 71
3
 72
16
 73
12
 74
0
 42
0.0000001
 43
0.0000001
 44
0.0000000001
 40
0.0
 40
0.0
 40
0.0
 40
0.0
 40
0.0428755151
 40
0.0875161207
 40
0.1869217599
 40
0.3042393126
 40
0.437962533
 40
0.5823660413
 40
0.7295547149
 40
0.8712848126
 40
1.0
 40
1.0
 40
1.0
 40
1.0
 10
83.1117347451
 20
90.4708820529
 30
0.0
 10
83.1388624336
 20
90.4552457803
 30
0.0
 10
83.1986226486
 20
90.4303961584
 30
0.0
 10
83.3348584106
 20
90.4103603932
 30
0.0
 10
83.527208569
 20
90.4479449756
 30
0.0
 10
83.7537796344
 20
90.5722392508
 30
0.0
 10
83.9715850622
 20
90.764883245
 30
0.0
 10
84.1636551557
 20
91.0109071269
 30
0.0
 10
84.3150609304
 20
91.2905202738
 30
0.0
 10
84.4131570424
 20
91.5808263595
 30
0.0
 10
84.4395162222
 20
91.778544369
 30
0.0
 10
84.4395162222
 20
91.8725433382
 30
0.0
  0
SPLINE
  5
3D0
100
AcDbEntity
  8
0
100
AcDbSpline
 62
7
  6
CONTINUOUS
 70
0
 71
3
 72
17
 73
13
 74
0
 42
0.0000001
 43
0.0000001
 44
0.0000000001
 40
0.0
 40
0.0
 40
0.0
 40
0.0
 40
0.0428576877
 40
0.0874849505
 40
0.1353173333
 40
0.1872806034
 40
0.3045412648
 40
0.4382087218
 40
0.5825511809
 40
0.7297102049
 40
0.8713097134
 40
1.0
 40
1.0
 40
1.0
 40
1.0
 10
85.7508569391
 20
47.9332792145
 30
0.0
 10
85.806311849
 20
47.9012333196
 30
0.0
 10
85.9285953468
 20
47.8504363987
 30
0.0
 10
86.1304205792
 20
47.8208368692
 30
0.0
 10
86.3471716743
 20
47.8368113225
 30
0.0
 10
86.6621127332
 20
47.9205592951
 30
0.0
 10
87.0647163105
 20
48.1407090559
 30
0.0
 10
87.5095264769
 20
48.5346371424
 30
0.0
 10
87.9027205921
 20
49.0379141011
 30
0.0
 10
88.2121802745
 20
49.609885754
 30
0.0
 10
88.4129940456
 20
50.2036492949
 30
0.0
 10
88.4668013037
 20
50.608041805
 30
0.0
 10
88.4668013037
 20
50.8003619279
 30
0.0
  0
SPLINE
  5
3D1
100
AcDbEntity
  8
0
100
AcDbSpline
 62
7
  6
CONTINUOUS
 70
0
 71
3
 72
11
 73
7
 74
0
 42
0.0000001
 43
0.0000001
 44
0.0000000001
 40
0.0
 40
0.0
 40
0.0
 40
0.0
 40
0.2896423581
 40
0.5491120121
 40
0.7822364467
 40
1.0
 40
1.0
 40
1.0
 40
1.0
 10
86.1365727915
 20
91.831723172
 30
0.0
 10
86.1365727915
 20
91.9457024225
 30
0.0
 10
86.1192479997
 20
92.1625177072
 30
0.0
 10
86.0314948208
 20
92.4604146326
 30
0.0
 10
85.8836748351
 20
92.7021996457
 30
0.0
 10
85.7447460137
 20
92.818831256
 30
0.0
 10
85.6705498886
 20
92.861707193
 30
0.0
  0
SPLINE
  5
3D2
100
AcDbEntity
  8
0
100
AcDbSpline
 62
7
  6
CONTINUOUS
 70
0
 71
3
 72
11
 73
7
 74
0
 42
0.0000001
 43
0.0000001
 44
0.0000000001
 40
0.0
 40
0.0
 40
0.0
 40
0.0
 40
0.2243283134
 40
0.459419901
 40
0.7162548257
 40
1.0
 40
1.0
 40
1.0
 40
1.0
 10
65.6575158077
 20
103.9934396753
 30
0.0
 10
65.5321569977
 20
103.9210361917
 30
0.0
 10
65.2490897718
 20
103.8142597072
 30
0.0
 10
64.7810002951
 20
103.7928653617
 30
0.0
 10
64.2880467359
 20
103.9041452623
 30
0.0
 10
63.9699620463
 20
104.0535217362
 30
0.0
 10
63.8113840124
 20
104.1450747356
 30
0.0
  0
SPLINE
  5
3D3
100
AcDbEntity
  8
0
100
AcDbSpline
 62
7
  6
CONTINUOUS
 70
0
 71
3
 72
9
 73
5
 74
0
 42
0.0000001
 43
0.0000001
 44
0.0000000001
 40
0.0
 40
0.0
 40
0.0
 40
0.0
 40
0.2330036301
 40
1.0
 40
1.0
 40
1.0
 40
1.0
 10
87.4932313184
 20
51.8669930926
 30
0.0
 10
87.5084081108
 20
51.8258009516
 30
0.0
 10
87.5638154778
 20
51.6454332702
 30
0.0
 10
87.5829141473
 20
51.45516886
 30
0.0
 10
87.5829141473
 20
51.310662871
 30
0.0
  0
SPLINE
  5
3D4
100
AcDbEntity
  8
0
100
AcDbSpline
 62
7
  6
CONTINUOUS
 70
0
 71
3
 72
11
 73
7
 74
0
 42
0.0000001
 43
0.0000001
 44
0.0000000001
 40
0.0
 40
0.0
 40
0.0
 40
0.0
 40
0.2243281484
 40
0.4594196224
 40
0.7162546118
 40
1.0
 40
1.0
 40
1.0
 40
1.0
 10
53.141673654
 20
111.2193010502
 30
0.0
 10
53.0163149306
 20
111.1468976304
 30
0.0
 10
52.7332479346
 20
111.0401210853
 30
0.0
 10
52.2651585888
 20
111.0187266953
 30
0.0
 10
51.7722049068
 20
111.1300065049
 30
0.0
 10
51.4541200303
 20
111.2793830225
 30
0.0
 10
51.2955418773
 20
111.3709360906
 30
0.0
  0
SPLINE
  5
3D5
100
AcDbEntity
  8
0
100
AcDbSpline
 62
7
  6
CONTINUOUS
 70
0
 71
3
 72
11
 73
7
 74
0
 42
0.0000001
 43
0.0000001
 44
0.0000000001
 40
0.0
 40
0.0
 40
0.0
 40
0.0
 40
0.2243282632
 40
0.4594197152
 40
0.7162547086
 40
1.0
 40
1.0
 40
1.0
 40
1.0
 10
40.6258315101
 20
118.4451623468
 30
0.0
 10
40.5004727297
 20
118.3727588838
 30
0.0
 10
40.2174056011
 20
118.2659825408
 30
0.0
 10
39.7493162344
 20
118.2445879833
 30
0.0
 10
39.2563626543
 20
118.3558679639
 30
0.0
 10
38.9382778376
 20
118.5052444107
 30
0.0
 10
38.7796997422
 20
118.5967974456
 30
0.0
  0
SPLINE
  5
3D6
100
AcDbEntity
  8
0
100
AcDbSpline
 62
7
  6
CONTINUOUS
 70
0
 71
3
 72
9
 73
5
 74
0
 42
0.0000001
 43
0.0000001
 44
0.0000000001
 40
0.0
 40
0.0
 40
0.0
 40
0.0
 40
0.2330036301
 40
1.0
 40
1.0
 40
1.0
 40
1.0
 10
85.1630028062
 20
92.8983543368
 30
0.0
 10
85.1781795986
 20
92.8571621958
 30
0.0
 10
85.2335869655
 20
92.6767945144
 30
0.0
 10
85.252685635
 20
92.4865301041
 30
0.0
 10
85.252685635
 20
92.3420241152
 30
0.0
  0
SPLINE
  5
3D7
100
AcDbEntity
  8
0
100
AcDbSpline
 62
7
  6
CONTINUOUS
 70
0
 71
3
 72
15
 73
11
 74
0
 42
0.0000001
 43
0.0000001
 44
0.0000000001
 40
0.0
 40
0.0
 40
0.0
 40
0.0
 40
0.1212684855
 40
0.2345982729
 40
0.3444802441
 40
0.4561285642
 40
0.5745116193
 40
0.7033888335
 40
0.8450081079
 40
1.0
 40
1.0
 40
1.0
 40
1.0
 10
57.2817104629
 20
63.5427307259
 30
0.0
 10
57.3719172124
 20
63.8160716018
 30
0.0
 10
57.5991427815
 20
64.3302931463
 30
0.0
 10
58.1046371487
 20
64.9841673281
 30
0.0
 10
58.7497134786
 20
65.4659730184
 30
0.0
 10
59.5132472049
 20
65.7558815139
 30
0.0
 10
60.3687459817
 20
65.8454162825
 30
0.0
 10
61.2916704021
 20
65.7354510749
 30
0.0
 10
62.2594411481
 20
65.4306371368
 30
0.0
 10
62.8925909757
 20
65.1164752602
 30
0.0
 10
63.2111918051
 20
64.9325351468
 30
0.0
  0
SPLINE
  5
3D8
100
AcDbEntity
  8
0
100
AcDbSpline
 62
7
  6
CONTINUOUS
 70
0
 71
3
 72
9
 73
5
 74
0
 42
0.0000001
 43
0.0000001
 44
0.0000000001
 40
0.0
 40
0.0
 40
0.0
 40
0.0
 40
0.2330036301
 40
1.0
 40
1.0
 40
1.0
 40
1.0
 10
95.3438984161
 20
80.3222777588
 30
0.0
 10
95.3590752084
 20
80.2810856178
 30
0.0
 10
95.4144825754
 20
80.1007179364
 30
0.0
 10
95.4335812449
 20
79.9104535261
 30
0.0
 10
95.4335812449
 20
79.7659475372
 30
0.0
  0
SPLINE
  5
3D9
100
AcDbEntity
  8
0
100
AcDbSpline
 62
7
  6
CONTINUOUS
 70
0
 71
3
 72
11
 73
7
 74
0
 42
0.0000001
 43
0.0000001
 44
0.0000000001
 40
0.0
 40
0.0
 40
0.0
 40
0.0
 40
0.258736269
 40
0.5027259639
 40
0.7452030667
 40
1.0
 40
1.0
 40
1.0
 40
1.0
 10
57.0939988982
 20
58.1015861379
 30
0.0
 10
56.9921171799
 20
57.8926330568
 30
0.0
 10
56.7508995619
 20
57.5049607414
 30
0.0
 10
56.2578692498
 20
57.0399974997
 30
0.0
 10
55.6580319857
 20
56.7315762932
 30
0.0
 10
55.2152764858
 20
56.6394449761
 30
0.0
 10
54.9873839873
 20
56.6176912995
 30
0.0
  0
SPLINE
  5
3DA
100
AcDbEntity
  8
0
100
AcDbSpline
 62
7
  6
CONTINUOUS
 70
0
 71
3
 72
9
 73
5
 74
0
 42
0.0000001
 43
0.0000001
 44
0.0000000001
 40
0.0
 40
0.0
 40
0.0
 40
0.0
 40
0.2452438084
 40
1.0
 40
1.0
 40
1.0
 40
1.0
 10
54.8822519483
 20
56.6094231599
 30
0.0
 10
54.8503173837
 20
56.6074397
 30
0.0
 10
54.7199865344
 20
56.6012746125
 30
0.0
 10
54.5893225616
 20
56.6026654719
 30
0.0
 10
54.4909724685
 20
56.6075315646
 30
0.0
  0
LINE
  5
3DB
100
AcDbEntity
  8
0
100
AcDbLine
 62
7
  6
CONTINUOUS
 10
68.3187294846
 20
63.7212354626
 11
68.3190250571
 21
64.0682537516
  0
SPLINE
  5
3DC
100
AcDbEntity
  8
0
100
AcDbSpline
 62
7
  6
CONTINUOUS
 70
0
 71
3
 72
16
 73
12
 74
0
 42
0.0000001
 43
0.0000001
 44
0.0000000001
 40
0.0
 40
0.0
 40
0.0
 40
0.0
 40
0.0428755151
 40
0.0875161207
 40
0.1869217599
 40
0.3042393126
 40
0.437962533
 40
0.5823660413
 40
0.7295547149
 40
0.8712848126
 40
1.0
 40
1.0
 40
1.0
 40
1.0
 10
107.107986753
 20
110.0670014488
 30
0.0
 10
107.1338813647
 20
110.0520759159
 30
0.0
 10
107.1909252063
 20
110.0283558222
 30
0.0
 10
107.3209684336
 20
110.0092307737
 30
0.0
 10
107.5045754031
 20
110.045106966
 30
0.0
 10
107.7208477836
 20
110.1637515014
 30
0.0
 10
107.9287529647
 20
110.3476389504
 30
0.0
 10
108.1120925994
 20
110.5824799285
 30
0.0
 10
108.2566162935
 20
110.8493833869
 30
0.0
 10
108.3502534913
 20
111.1264937415
 30
0.0
 10
108.3754145266
 20
111.3152245687
 30
0.0
 10
108.3754145266
 20
111.4049508575
 30
0.0
  0
SPLINE
  5
3DD
100
AcDbEntity
  8
0
100
AcDbSpline
 62
7
  6
CONTINUOUS
 70
0
 71
3
 72
15
 73
11
 74
0
 42
0.0000001
 43
0.0000001
 44
0.0000000001
 40
0.0
 40
0.0
 40
0.0
 40
0.0
 40
0.1212693246
 40
0.2346002227
 40
0.3444814871
 40
0.456129947
 40
0.5745126685
 40
0.7033896151
 40
0.8450080588
 40
1.0
 40
1.0
 40
1.0
 40
1.0
 10
44.7658681895
 20
70.7685921698
 30
0.0
 10
44.856075492
 20
71.041934959
 30
0.0
 10
45.0833046818
 20
71.5561596843
 30
0.0
 10
45.5888009962
 20
72.2100374679
 30
0.0
 10
46.233884948
 20
72.6918335581
 30
0.0
 10
46.9974119141
 20
72.9817519735
 30
0.0
 10
47.8529121904
 20
73.0712799257
 30
0.0
 10
48.7758304429
 20
72.9613033506
 30
0.0
 10
49.7436027459
 20
72.6565034418
 30
0.0
 10
50.3767487411
 20
72.3423366726
 30
0.0
 10
50.69534967
 20
72.1583965018
 30
0.0
  0
SPLINE
  5
3DE
100
AcDbEntity
  8
0
100
AcDbSpline
 62
7
  6
CONTINUOUS
 70
0
 71
3
 72
10
 73
6
 74
0
 42
0.0000001
 43
0.0000001
 44
0.0000000001
 40
0.0
 40
0.0
 40
0.0
 40
0.0
 40
0.2293131084
 40
0.4752874087
 40
1.0
 40
1.0
 40
1.0
 40
1.0
 10
62.2008285015
 20
141.1664721794
 30
0.0
 10
61.9363907128
 20
141.319141954
 30
0.0
 10
61.3629411053
 20
141.5929090556
 30
0.0
 10
60.0957243698
 20
142.0090112166
 30
0.0
 10
59.0699839507
 20
142.1594526803
 30
0.0
 10
58.372131849
 20
142.193611163
 30
0.0
  0
SPLINE
  5
3DF
100
AcDbEntity
  8
0
100
AcDbSpline
 62
7
  6
CONTINUOUS
 70
0
 71
3
 72
16
 73
12
 74
0
 42
0.0000001
 43
0.0000001
 44
0.0000000001
 40
0.0
 40
0.0
 40
0.0
 40
0.0
 40
0.1536739197
 40
0.3047868916
 40
0.4491885506
 40
0.583395406
 40
0.704998209
 40
0.8132861638
 40
0.9099389536
 40
0.9554310841
 40
1.0
 40
1.0
 40
1.0
 40
1.0
 10
58.372131849
 20
142.193611163
 30
0.0
 10
57.9493319133
 20
142.2143063851
 30
0.0
 10
57.1074812235
 20
142.2052655795
 30
0.0
 10
55.877685799
 20
142.0445454288
 30
0.0
 10
54.729328421
 20
141.7431577149
 30
0.0
 10
53.7095071153
 20
141.3132755024
 30
0.0
 10
52.8590547932
 20
140.7705876643
 30
0.0
 10
52.2123624254
 20
140.1339747607
 30
0.0
 10
51.8622908577
 20
139.5257795
 30
0.0
 10
51.725945896
 20
139.0274793701
 30
0.0
 10
51.7034665106
 20
138.7788331967
 30
0.0
 10
51.7034411889
 20
138.6560648385
 30
0.0
  0
SPLINE
  5
3E0
100
AcDbEntity
  8
0
100
AcDbSpline
 62
7
  6
CONTINUOUS
 70
0
 71
3
 72
10
 73
6
 74
0
 42
0.0000001
 43
0.0000001
 44
0.0000000001
 40
0.0
 40
0.0
 40
0.0
 40
0.0
 40
0.2293131084
 40
0.4752874087
 40
1.0
 40
1.0
 40
1.0
 40
1.0
 10
74.7166706366
 20
133.9406108244
 30
0.0
 10
74.4522328479
 20
134.093280599
 30
0.0
 10
73.8787832404
 20
134.3670477006
 30
0.0
 10
72.6115665049
 20
134.7831498616
 30
0.0
 10
71.5858260858
 20
134.9335913253
 30
0.0
 10
70.8879739841
 20
134.9677498079
 30
0.0
  0
SPLINE
  5
3E1
100
AcDbEntity
  8
0
100
AcDbSpline
 62
7
  6
CONTINUOUS
 70
0
 71
3
 72
16
 73
12
 74
0
 42
0.0000001
 43
0.0000001
 44
0.0000000001
 40
0.0
 40
0.0
 40
0.0
 40
0.0
 40
0.1536739197
 40
0.3047868916
 40
0.4491885506
 40
0.583395406
 40
0.704998209
 40
0.8132861638
 40
0.9099389536
 40
0.9554310841
 40
1.0
 40
1.0
 40
1.0
 40
1.0
 10
70.8879739841
 20
134.9677498079
 30
0.0
 10
70.4651740484
 20
134.9884450301
 30
0.0
 10
69.6233233586
 20
134.9794042245
 30
0.0
 10
68.3935279341
 20
134.8186840738
 30
0.0
 10
67.2451705561
 20
134.5172963599
 30
0.0
 10
66.2253492504
 20
134.0874141474
 30
0.0
 10
65.3748969283
 20
133.5447263093
 30
0.0
 10
64.7282045605
 20
132.9081134057
 30
0.0
 10
64.3781329928
 20
132.299918145
 30
0.0
 10
64.2417880311
 20
131.8016180151
 30
0.0
 10
64.2193086457
 20
131.5529718417
 30
0.0
 10
64.219283324
 20
131.4302034834
 30
0.0
  0
SPLINE
  5
3E2
100
AcDbEntity
  8
0
100
AcDbSpline
 62
7
  6
CONTINUOUS
 70
0
 71
3
 72
10
 73
6
 74
0
 42
0.0000001
 43
0.0000001
 44
0.0000000001
 40
0.0
 40
0.0
 40
0.0
 40
0.0
 40
0.2305014902
 40
0.4761563029
 40
1.0
 40
1.0
 40
1.0
 40
1.0
 10
50.69534967
 20
72.1583965018
 30
0.0
 10
51.0283017318
 20
71.9661708881
 30
0.0
 10
51.6903557109
 20
71.5232980872
 30
0.0
 10
52.968135175
 20
70.4479389643
 30
0.0
 10
53.8240285707
 20
69.4791154462
 30
0.0
 10
54.3493866002
 20
68.7809744876
 30
0.0
  0
SPLINE
  5
3E3
100
AcDbEntity
  8
0
100
AcDbSpline
 62
7
  6
CONTINUOUS
 70
0
 71
3
 72
10
 73
6
 74
0
 42
0.0000001
 43
0.0000001
 44
0.0000000001
 40
0.0
 40
0.0
 40
0.0
 40
0.0
 40
0.5095409344
 40
0.7595954323
 40
1.0
 40
1.0
 40
1.0
 40
1.0
 10
54.3493866002
 20
68.7809744876
 30
0.0
 10
54.9616605139
 20
67.9673322225
 30
0.0
 10
55.7653541401
 20
66.6670775396
 30
0.0
 10
56.5892826512
 20
64.8448486911
 30
0.0
 10
56.9125584746
 20
63.9176149678
 30
0.0
 10
57.0481464516
 20
63.4567143033
 30
0.0
  0
SPLINE
  5
3E4
100
AcDbEntity
  8
0
100
AcDbSpline
 62
7
  6
CONTINUOUS
 70
0
 71
3
 72
15
 73
11
 74
0
 42
0.0000001
 43
0.0000001
 44
0.0000000001
 40
0.0
 40
0.0
 40
0.0
 40
0.0
 40
0.1213304357
 40
0.234695736
 40
0.3445816166
 40
0.4562115688
 40
0.5745653841
 40
0.7034144283
 40
0.8450155348
 40
1.0
 40
1.0
 40
1.0
 40
1.0
 10
32.2478793895
 20
77.9879249015
 30
0.0
 10
32.3377958194
 20
78.2618065308
 30
0.0
 10
32.5645258423
 20
78.7770871753
 30
0.0
 10
33.0695859265
 20
79.4326032435
 30
0.0
 10
33.714599712
 20
79.9158949366
 30
0.0
 10
34.4784532136
 20
80.2069457382
 30
0.0
 10
35.3345412104
 20
80.2972447611
 30
0.0
 10
36.2582408179
 20
80.1876275312
 30
0.0
 10
37.226893662
 20
79.8827693467
 30
0.0
 10
37.8606168379
 20
79.5683653215
 30
0.0
 10
38.1795075349
 20
79.3842578568
 30
0.0
  0
SPLINE
  5
3E5
100
AcDbEntity
  8
0
100
AcDbSpline
 62
7
  6
CONTINUOUS
 70
0
 71
3
 72
13
 73
9
 74
0
 42
0.0000001
 43
0.0000001
 44
0.0000000001
 40
0.0
 40
0.0
 40
0.0
 40
0.0
 40
0.2851582869
 40
0.4233276654
 40
0.5556708653
 40
0.6805032828
 40
0.7965609743
 40
1.0
 40
1.0
 40
1.0
 40
1.0
 10
59.47975142
 20
65.4091703365
 30
0.0
 10
58.9604912077
 20
64.5702870302
 30
0.0
 10
58.2973260946
 20
63.2524313631
 30
0.0
 10
57.6803623842
 20
61.429249252
 30
0.0
 10
57.3734766191
 20
60.0938723457
 30
0.0
 10
57.2240036257
 20
58.8073161988
 30
0.0
 10
57.2391055863
 20
57.2697128655
 30
0.0
 10
57.4875263184
 20
56.1613990244
 30
0.0
 10
57.789968225
 20
55.5258338794
 30
0.0
  0
SPLINE
  5
3E6
100
AcDbEntity
  8
0
100
AcDbSpline
 62
7
  6
CONTINUOUS
 70
0
 71
3
 72
16
 73
12
 74
0
 42
0.0000001
 43
0.0000001
 44
0.0000000001
 40
0.0
 40
0.0
 40
0.0
 40
0.0
 40
0.0428755151
 40
0.0875161207
 40
0.1869217599
 40
0.3042393126
 40
0.437962533
 40
0.5823660413
 40
0.7295547149
 40
0.8712848126
 40
1.0
 40
1.0
 40
1.0
 40
1.0
 10
93.3176288667
 20
77.9381051438
 30
0.0
 10
93.3435234784
 20
77.9231796109
 30
0.0
 10
93.4005673199
 20
77.8994595172
 30
0.0
 10
93.5306105473
 20
77.8803344686
 30
0.0
 10
93.7142175167
 20
77.916210661
 30
0.0
 10
93.9304898973
 20
78.0348551964
 30
0.0
 10
94.1383950784
 20
78.2187426454
 30
0.0
 10
94.3217347131
 20
78.4535836235
 30
0.0
 10
94.4662584072
 20
78.7204870819
 30
0.0
 10
94.5598956049
 20
78.9975974365
 30
0.0
 10
94.5850566403
 20
79.1863282637
 30
0.0
 10
94.5850566403
 20
79.2760545525
 30
0.0
  0
SPLINE
  5
3E7
100
AcDbEntity
  8
0
100
AcDbSpline
 62
7
  6
CONTINUOUS
 70
0
 71
3
 72
10
 73
6
 74
0
 42
0.0000001
 43
0.0000001
 44
0.0000000001
 40
0.0
 40
0.0
 40
0.0
 40
0.0
 40
0.2293131084
 40
0.4752874087
 40
1.0
 40
1.0
 40
1.0
 40
1.0
 10
87.2325127717
 20
126.7147494694
 30
0.0
 10
86.968074983
 20
126.867419244
 30
0.0
 10
86.3946253755
 20
127.1411863456
 30
0.0
 10
85.12740864
 20
127.5572885066
 30
0.0
 10
84.1016682209
 20
127.7077299703
 30
0.0
 10
83.4038161192
 20
127.7418884529
 30
0.0
  0
SPLINE
  5
3E8
100
AcDbEntity
  8
0
100
AcDbSpline
 62
7
  6
CONTINUOUS
 70
0
 71
3
 72
16
 73
12
 74
0
 42
0.0000001
 43
0.0000001
 44
0.0000000001
 40
0.0
 40
0.0
 40
0.0
 40
0.0
 40
0.1536739197
 40
0.3047868916
 40
0.4491885506
 40
0.583395406
 40
0.704998209
 40
0.8132861638
 40
0.9099389536
 40
0.9554310841
 40
1.0
 40
1.0
 40
1.0
 40
1.0
 10
83.4038161192
 20
127.7418884529
 30
0.0
 10
82.9810161835
 20
127.7625836751
 30
0.0
 10
82.1391654937
 20
127.7535428695
 30
0.0
 10
80.9093700692
 20
127.5928227187
 30
0.0
 10
79.7610126912
 20
127.2914350049
 30
0.0
 10
78.7411913855
 20
126.8615527924
 30
0.0
 10
77.8907390634
 20
126.3188649543
 30
0.0
 10
77.2440466956
 20
125.6822520507
 30
0.0
 10
76.8939751279
 20
125.07405679
 30
0.0
 10
76.7576301662
 20
124.5757566601
 30
0.0
 10
76.7351507808
 20
124.3271104866
 30
0.0
 10
76.7351254591
 20
124.2043421284
 30
0.0
  0
SPLINE
  5
3E9
100
AcDbEntity
  8
0
100
AcDbSpline
 62
7
  6
CONTINUOUS
 70
0
 71
3
 72
17
 73
13
 74
0
 42
0.0000001
 43
0.0000001
 44
0.0000000001
 40
0.0
 40
0.0
 40
0.0
 40
0.0
 40
0.0428576877
 40
0.0874849505
 40
0.1353173333
 40
0.1872806034
 40
0.3045412648
 40
0.4382087218
 40
0.5825511809
 40
0.7297102049
 40
0.8713097134
 40
1.0
 40
1.0
 40
1.0
 40
1.0
 10
83.4206284269
 20
88.9646404586
 30
0.0
 10
83.4760833368
 20
88.9325945638
 30
0.0
 10
83.5983668346
 20
88.8817976428
 30
0.0
 10
83.800192067
 20
88.8521981133
 30
0.0
 10
84.016943162
 20
88.8681725667
 30
0.0
 10
84.331884221
 20
88.9519205393
 30
0.0
 10
84.7344877982
 20
89.1720703
 30
0.0
 10
85.1792979646
 20
89.5659983866
 30
0.0
 10
85.5724920799
 20
90.0692753452
 30
0.0
 10
85.8819517622
 20
90.6412469981
 30
0.0
 10
86.0827655334
 20
91.235010539
 30
0.0
 10
86.1365727915
 20
91.6394030492
 30
0.0
 10
86.1365727915
 20
91.831723172
 30
0.0
  0
SPLINE
  5
3EA
100
AcDbEntity
  8
0
100
AcDbSpline
 62
7
  6
CONTINUOUS
 70
0
 71
3
 72
10
 73
6
 74
0
 42
0.0000001
 43
0.0000001
 44
0.0000000001
 40
0.0
 40
0.0
 40
0.0
 40
0.0
 40
0.2293131084
 40
0.4752874087
 40
1.0
 40
1.0
 40
1.0
 40
1.0
 10
99.7483549068
 20
119.4888881143
 30
0.0
 10
99.4839171181
 20
119.641557889
 30
0.0
 10
98.9104675106
 20
119.9153249906
 30
0.0
 10
97.6432507751
 20
120.3314271516
 30
0.0
 10
96.617510356
 20
120.4818686153
 30
0.0
 10
95.9196582543
 20
120.5160270979
 30
0.0
  0
SPLINE
  5
3EB
100
AcDbEntity
  8
0
100
AcDbSpline
 62
7
  6
CONTINUOUS
 70
0
 71
3
 72
16
 73
12
 74
0
 42
0.0000001
 43
0.0000001
 44
0.0000000001
 40
0.0
 40
0.0
 40
0.0
 40
0.0
 40
0.1536739197
 40
0.3047868916
 40
0.4491885506
 40
0.583395406
 40
0.704998209
 40
0.8132861638
 40
0.9099389536
 40
0.9554310841
 40
1.0
 40
1.0
 40
1.0
 40
1.0
 10
95.9196582543
 20
120.5160270979
 30
0.0
 10
95.4968583186
 20
120.5367223201
 30
0.0
 10
94.6550076288
 20
120.5276815145
 30
0.0
 10
93.4252122043
 20
120.3669613637
 30
0.0
 10
92.2768548263
 20
120.0655736499
 30
0.0
 10
91.2570335206
 20
119.6356914374
 30
0.0
 10
90.4065811985
 20
119.0930035992
 30
0.0
 10
89.7598888307
 20
118.4563906957
 30
0.0
 10
89.409817263
 20
117.848195435
 30
0.0
 10
89.2734723013
 20
117.3498953051
 30
0.0
 10
89.2509929159
 20
117.1012491316
 30
0.0
 10
89.2509675942
 20
116.9784807734
 30
0.0
  0
SPLINE
  5
3EC
100
AcDbEntity
  8
0
100
AcDbSpline
 62
7
  6
CONTINUOUS
 70
0
 71
3
 72
13
 73
9
 74
0
 42
0.0000001
 43
0.0000001
 44
0.0000000001
 40
0.0
 40
0.0
 40
0.0
 40
0.0
 40
0.2849504934
 40
0.4230692828
 40
0.5554275807
 40
0.680298403
 40
0.796419666
 40
1.0
 40
1.0
 40
1.0
 40
1.0
 10
21.9322250147
 20
87.0867544015
 30
0.0
 10
21.4133213426
 20
86.2484470985
 30
0.0
 10
20.7502640531
 20
84.9314464561
 30
0.0
 10
20.1338390996
 20
83.1089163148
 30
0.0
 10
19.8259779735
 20
81.7736984956
 30
0.0
 10
19.6765072627
 20
80.4866473465
 30
0.0
 10
19.6913674528
 20
78.9481851115
 30
0.0
 10
19.9396037411
 20
77.8389295947
 30
0.0
 10
20.2424836412
 20
77.2029986548
 30
0.0
  0
SPLINE
  5
3ED
100
AcDbEntity
  8
0
100
AcDbSpline
 62
7
  6
CONTINUOUS
 70
0
 71
3
 72
16
 73
12
 74
0
 42
0.0000001
 43
0.0000001
 44
0.0000000001
 40
0.0
 40
0.0
 40
0.0
 40
0.0
 40
0.1213935061
 40
0.234789614
 40
0.344676738
 40
0.4562878134
 40
0.5746013102
 40
0.7034279432
 40
0.7725769196
 40
0.8449946569
 40
1.0
 40
1.0
 40
1.0
 40
1.0
 10
19.7315652526
 20
85.2123527096
 30
0.0
 10
19.8214650977
 20
85.4865056706
 30
0.0
 10
20.0482151535
 20
86.002248187
 30
0.0
 10
20.5534579168
 20
86.6582922016
 30
0.0
 10
21.1987395064
 20
87.1418040061
 30
0.0
 10
21.9627967203
 20
87.4327046123
 30
0.0
 10
22.8188890583
 20
87.5234159044
 30
0.0
 10
23.5708274728
 20
87.4336173971
 30
0.0
 10
24.1932011262
 20
87.2713108904
 30
0.0
 10
24.8588773997
 20
87.0372737697
 30
0.0
 10
25.3446180755
 20
86.7943171033
 30
0.0
 10
25.6636653998
 20
86.6101192118
 30
0.0
  0
SPLINE
  5
3EE
100
AcDbEntity
  8
0
100
AcDbSpline
 62
7
  6
CONTINUOUS
 70
0
 71
3
 72
10
 73
6
 74
0
 42
0.0000001
 43
0.0000001
 44
0.0000000001
 40
0.0
 40
0.0
 40
0.0
 40
0.0
 40
0.2675880295
 40
0.5240810373
 40
1.0
 40
1.0
 40
1.0
 40
1.0
 10
104.3097252202
 20
113.3962166793
 30
0.0
 10
103.6448736106
 20
112.8419814638
 30
0.0
 10
102.3044980021
 20
111.8006025832
 30
0.0
 10
99.6065982546
 20
110.0140424958
 30
0.0
 10
97.4724336547
 20
108.9454590925
 30
0.0
 10
96.0304470383
 20
108.4063946078
 30
0.0
  0
SPLINE
  5
3EF
100
AcDbEntity
  8
0
100
AcDbSpline
 62
7
  6
CONTINUOUS
 70
0
 71
3
 72
9
 73
5
 74
0
 42
0.0000001
 43
0.0000001
 44
0.0000000001
 40
0.0
 40
0.0
 40
0.0
 40
0.0
 40
0.477252017
 40
1.0
 40
1.0
 40
1.0
 40
1.0
 10
68.1044233865
 20
64.1076620439
 30
0.0
 10
68.1044233865
 20
64.139103673
 30
0.0
 10
68.1199571102
 20
64.2048576643
 30
0.0
 10
68.1533118586
 20
64.2627561131
 30
0.0
 10
68.1748903436
 20
64.2895965453
 30
0.0
  0
SPLINE
  5
3F0
100
AcDbEntity
  8
0
100
AcDbSpline
 62
7
  6
CONTINUOUS
 70
0
 71
3
 72
9
 73
5
 74
0
 42
0.0000001
 43
0.0000001
 44
0.0000000001
 40
0.0
 40
0.0
 40
0.0
 40
0.0
 40
0.2669338339
 40
1.0
 40
1.0
 40
1.0
 40
1.0
 10
68.1748903436
 20
64.2895965453
 30
0.0
 10
68.1801972011
 20
64.2961974882
 30
0.0
 10
68.2010542774
 20
64.3200796569
 30
0.0
 10
68.2257120647
 20
64.340990197
 30
0.0
 10
68.2458565398
 20
64.3526185084
 30
0.0
  0
SPLINE
  5
3F1
100
AcDbEntity
  8
0
100
AcDbSpline
 62
7
  6
CONTINUOUS
 70
0
 71
3
 72
9
 73
5
 74
0
 42
0.0000001
 43
0.0000001
 44
0.0000000001
 40
0.0
 40
0.0
 40
0.0
 40
0.0
 40
0.449960041
 40
1.0
 40
1.0
 40
1.0
 40
1.0
 10
68.1458366198
 20
64.0160888334
 30
0.0
 10
68.1323271015
 20
64.0238883717
 30
0.0
 10
68.1091835229
 20
64.0531712881
 30
0.0
 10
68.1044233865
 20
64.0885930869
 30
0.0
 10
68.1044233865
 20
64.1076620439
 30
0.0
  0
SPLINE
  5
3F2
100
AcDbEntity
  8
0
100
AcDbSpline
 62
7
  6
CONTINUOUS
 70
0
 71
3
 72
9
 73
5
 74
0
 42
0.0000001
 43
0.0000001
 44
0.0000000001
 40
0.0
 40
0.0
 40
0.0
 40
0.0
 40
0.2597542842
 40
1.0
 40
1.0
 40
1.0
 40
1.0
 10
96.0366156239
 20
107.8147714942
 30
0.0
 10
95.7353670384
 20
107.7130863881
 30
0.0
 10
94.5667784615
 20
107.3489680604
 30
0.0
 10
93.3610803059
 20
107.0988317964
 30
0.0
 10
92.4609020324
 20
106.9955483597
 30
0.0
  0
SPLINE
  5
3F3
100
AcDbEntity
  8
0
100
AcDbSpline
 62
7
  6
CONTINUOUS
 70
0
 71
3
 72
9
 73
5
 74
0
 42
0.0000001
 43
0.0000001
 44
0.0000000001
 40
0.0
 40
0.0
 40
0.0
 40
0.0
 40
0.2559398333
 40
1.0
 40
1.0
 40
1.0
 40
1.0
 10
109.1887469961
 20
117.1239982177
 30
0.0
 10
108.8513073347
 20
116.7505844739
 30
0.0
 10
107.5089585603
 20
115.3135131298
 30
0.0
 10
106.0699917553
 20
113.965681394
 30
0.0
 10
104.9461239728
 20
113.0288000002
 30
0.0
  0
SPLINE
  5
3F4
100
AcDbEntity
  8
0
100
AcDbSpline
 62
7
  6
CONTINUOUS
 70
0
 71
3
 72
17
 73
13
 74
0
 42
0.0000001
 43
0.0000001
 44
0.0000000001
 40
0.0
 40
0.0
 40
0.0
 40
0.0
 40
0.1251696138
 40
0.2627031148
 40
0.4060968854
 40
0.5478406652
 40
0.6810061185
 40
0.8006480113
 40
0.8549643003
 40
0.9057893115
 40
0.9537905711
 40
1.0
 40
1.0
 40
1.0
 40
1.0
 10
38.7796997422
 20
118.5967974456
 30
0.0
 10
38.5134739081
 20
118.7504995254
 30
0.0
 10
37.9995171424
 20
119.1525014336
 30
0.0
 10
37.3546432984
 20
119.9205594401
 30
0.0
 10
36.840842467
 20
120.8292348674
 30
0.0
 10
36.5031806198
 20
121.8059856522
 30
0.0
 10
36.3709372053
 20
122.7727037603
 30
0.0
 10
36.4466040629
 20
123.5336219847
 30
0.0
 10
36.6279356928
 20
124.0575234728
 30
0.0
 10
36.8123477314
 20
124.3879019659
 30
0.0
 10
37.0456295635
 20
124.6603838431
 30
0.0
 10
37.2330185094
 20
124.8001174002
 30
0.0
 10
37.3312931419
 20
124.8568761428
 30
0.0
  0
SPLINE
  5
3F5
100
AcDbEntity
  8
0
100
AcDbSpline
 62
7
  6
CONTINUOUS
 70
0
 71
3
 72
17
 73
13
 74
0
 42
0.0000001
 43
0.0000001
 44
0.0000000001
 40
0.0
 40
0.0
 40
0.0
 40
0.0
 40
0.1251696779
 40
0.2627034054
 40
0.4060973481
 40
0.5478411533
 40
0.6810065128
 40
0.8006482523
 40
0.8549644982
 40
0.9057894776
 40
0.9537906837
 40
1.0
 40
1.0
 40
1.0
 40
1.0
 10
51.2955418773
 20
111.3709360906
 30
0.0
 10
51.0293159029
 20
111.5246382513
 30
0.0
 10
50.5153586802
 20
111.9266407675
 30
0.0
 10
49.8704841656
 20
112.6946997239
 30
0.0
 10
49.3566832573
 20
113.6033763735
 30
0.0
 10
49.0190220617
 20
114.5801276412
 30
0.0
 10
48.8867791416
 20
115.5468453277
 30
0.0
 10
48.9624468204
 20
116.307762706
 30
0.0
 10
49.1437782644
 20
116.8316636704
 30
0.0
 10
49.3281905304
 20
117.16204171
 30
0.0
 10
49.5614723673
 20
117.4345229199
 30
0.0
 10
49.7488609777
 20
117.5742562134
 30
0.0
 10
49.8471353734
 20
117.6310148162
 30
0.0
  0
SPLINE
  5
3F6
100
AcDbEntity
  8
0
100
AcDbSpline
 62
7
  6
CONTINUOUS
 70
0
 71
3
 72
17
 73
13
 74
0
 42
0.0000001
 43
0.0000001
 44
0.0000000001
 40
0.0
 40
0.0
 40
0.0
 40
0.0
 40
0.125169705
 40
0.2627034475
 40
0.4060973788
 40
0.5478411851
 40
0.681006534
 40
0.8006482452
 40
0.8549644871
 40
0.9057894615
 40
0.9537906669
 40
1.0
 40
1.0
 40
1.0
 40
1.0
 10
63.8113840124
 20
104.1450747356
 30
0.0
 10
63.5451579815
 20
104.298776929
 30
0.0
 10
63.0312007115
 20
104.7007795504
 30
0.0
 10
62.3863261341
 20
105.4688385442
 30
0.0
 10
61.8725252887
 20
106.3775152438
 30
0.0
 10
61.5348641696
 20
107.3542664716
 30
0.0
 10
61.4026212607
 20
108.3209840675
 30
0.0
 10
61.478289003
 20
109.0819013234
 30
0.0
 10
61.6596203647
 20
109.6058022082
 30
0.0
 10
61.8440325576
 20
109.9361802672
 30
0.0
 10
62.0773144467
 20
110.2086614608
 30
0.0
 10
62.2647030445
 20
110.348394834
 30
0.0
 10
62.3629774739
 20
110.4051534601
 30
0.0
  0
SPLINE
  5
3F7
100
AcDbEntity
  8
0
100
AcDbSpline
 62
7
  6
CONTINUOUS
 70
0
 71
3
 72
17
 73
13
 74
0
 42
0.0000001
 43
0.0000001
 44
0.0000000001
 40
0.0
 40
0.0
 40
0.0
 40
0.0
 40
0.1251697326
 40
0.2627034843
 40
0.406097394
 40
0.547841193
 40
0.6810065474
 40
0.8006482495
 40
0.8549644951
 40
0.9057894637
 40
0.9537906611
 40
1.0
 40
1.0
 40
1.0
 40
1.0
 10
76.3272261475
 20
96.9192133805
 30
0.0
 10
76.0610000593
 20
97.072915607
 30
0.0
 10
75.5470427559
 20
97.4749183288
 30
0.0
 10
74.9021681327
 20
98.2429773213
 30
0.0
 10
74.3883673645
 20
99.151654008
 30
0.0
 10
74.0507063011
 20
100.1284051808
 30
0.0
 10
73.9184633768
 20
101.0951227467
 30
0.0
 10
73.9941311765
 20
101.8560399933
 30
0.0
 10
74.1754625181
 20
102.3799408455
 30
0.0
 10
74.3598746508
 20
102.7103189139
 30
0.0
 10
74.5931565758
 20
102.982800043
 30
0.0
 10
74.7805451269
 20
103.1225334638
 30
0.0
 10
74.878819567
 20
103.1792920987
 30
0.0
  0
SPLINE
  5
3F8
100
AcDbEntity
  8
0
100
AcDbSpline
 62
7
  6
CONTINUOUS
 70
0
 71
3
 72
11
 73
7
 74
0
 42
0.0000001
 43
0.0000001
 44
0.0000000001
 40
0.0
 40
0.0
 40
0.0
 40
0.0
 40
0.2893975675
 40
0.5491290883
 40
0.7823145228
 40
1.0
 40
1.0
 40
1.0
 40
1.0
 10
84.4395162222
 20
91.8725433382
 30
0.0
 10
84.4395162222
 20
91.9282180252
 30
0.0
 10
84.4309597507
 20
92.0342003141
 30
0.0
 10
84.388196217
 20
92.1798964444
 30
0.0
 10
84.315849162
 20
92.2981052125
 30
0.0
 10
84.2479522003
 20
92.3551541668
 30
0.0
 10
84.2116692575
 20
92.3760674851
 30
0.0
  0
SPLINE
  5
3F9
100
AcDbEntity
  8
0
100
AcDbSpline
 62
7
  6
CONTINUOUS
 70
0
 71
3
 72
15
 73
11
 74
0
 42
0.0000001
 43
0.0000001
 44
0.0000000001
 40
0.0
 40
0.0
 40
0.0
 40
0.0
 40
0.1207551358
 40
0.2526273017
 40
0.3909225319
 40
0.5302568209
 40
0.6650348277
 40
0.7902697751
 40
0.9023348529
 40
1.0
 40
1.0
 40
1.0
 40
1.0
 10
85.252685635
 20
92.3420241152
 30
0.0
 10
85.252685635
 20
92.1823128699
 30
0.0
 10
85.2154587142
 20
91.8478232794
 30
0.0
 10
85.0721667039
 20
91.3490686336
 30
0.0
 10
84.8466300516
 20
90.8545558858
 30
0.0
 10
84.5521948768
 20
90.3932659579
 30
0.0
 10
84.2058488707
 20
89.9918993082
 30
0.0
 10
83.8272002661
 20
89.6735896695
 30
0.0
 10
83.4376232917
 20
89.4564389154
 30
0.0
 10
83.1649699855
 20
89.3839640046
 30
0.0
 10
83.0362490647
 20
89.3731744075
 30
0.0
  0
SPLINE
  5
3FA
100
AcDbEntity
  8
0
100
AcDbSpline
 62
7
  6
CONTINUOUS
 70
0
 71
3
 72
17
 73
13
 74
0
 42
0.0000001
 43
0.0000001
 44
0.0000000001
 40
0.0
 40
0.0
 40
0.0
 40
0.0
 40
0.0428576877
 40
0.0874849505
 40
0.1353173333
 40
0.1872806034
 40
0.3045412648
 40
0.4382087218
 40
0.5825511809
 40
0.7297102049
 40
0.8713097134
 40
1.0
 40
1.0
 40
1.0
 40
1.0
 10
107.3918819231
 20
108.5174601857
 30
0.0
 10
107.447336833
 20
108.4854142908
 30
0.0
 10
107.5696203308
 20
108.4346173699
 30
0.0
 10
107.7714455632
 20
108.4050178404
 30
0.0
 10
107.9881966582
 20
108.4209922937
 30
0.0
 10
108.3031377172
 20
108.5047402663
 30
0.0
 10
108.7057412944
 20
108.724890027
 30
0.0
 10
109.1505514608
 20
109.1188181136
 30
0.0
 10
109.5437455761
 20
109.6220950722
 30
0.0
 10
109.8532052584
 20
110.1940667251
 30
0.0
 10
110.0540190296
 20
110.787830266
 30
0.0
 10
110.1078262877
 20
111.1922227762
 30
0.0
 10
110.1078262877
 20
111.384542899
 30
0.0
  0
SPLINE
  5
3FB
100
AcDbEntity
  8
0
100
AcDbSpline
 62
7
  6
CONTINUOUS
 70
0
 71
3
 72
11
 73
7
 74
0
 42
0.0000001
 43
0.0000001
 44
0.0000000001
 40
0.0
 40
0.0
 40
0.0
 40
0.0
 40
0.2893975675
 40
0.5491290883
 40
0.7823145228
 40
1.0
 40
1.0
 40
1.0
 40
1.0
 10
94.5850566403
 20
79.2760545525
 30
0.0
 10
94.5850566403
 20
79.3291985719
 30
0.0
 10
94.5768890993
 20
79.430363484
 30
0.0
 10
94.5360693625
 20
79.569437063
 30
0.0
 10
94.46701081
 20
79.6822727052
 30
0.0
 10
94.4022000739
 20
79.7367285252
 30
0.0
 10
94.3675663557
 20
79.7566912381
 30
0.0
  0
SPLINE
  5
3FC
100
AcDbEntity
  8
0
100
AcDbSpline
 62
7
  6
CONTINUOUS
 70
0
 71
3
 72
15
 73
11
 74
0
 42
0.0000001
 43
0.0000001
 44
0.0000000001
 40
0.0
 40
0.0
 40
0.0
 40
0.0
 40
0.1207551358
 40
0.2526273017
 40
0.3909225319
 40
0.5302568209
 40
0.6650348277
 40
0.7902697751
 40
0.9023348529
 40
1.0
 40
1.0
 40
1.0
 40
1.0
 10
95.4335812449
 20
79.7659475372
 30
0.0
 10
95.4335812449
 20
79.6062362919
 30
0.0
 10
95.3963543241
 20
79.2717467014
 30
0.0
 10
95.2530623138
 20
78.7729920556
 30
0.0
 10
95.0275256615
 20
78.2784793078
 30
0.0
 10
94.7330904867
 20
77.8171893799
 30
0.0
 10
94.3867444805
 20
77.4158227302
 30
0.0
 10
94.008095876
 20
77.0975130915
 30
0.0
 10
93.6185189015
 20
76.8803623374
 30
0.0
 10
93.3458655953
 20
76.8078874266
 30
0.0
 10
93.2171446746
 20
76.7970978295
 30
0.0
  0
SPLINE
  5
3FD
100
AcDbEntity
  8
0
100
AcDbSpline
 62
7
  6
CONTINUOUS
 70
0
 71
3
 72
11
 73
7
 74
0
 42
0.0000001
 43
0.0000001
 44
0.0000000001
 40
0.0
 40
0.0
 40
0.0
 40
0.0
 40
0.2893975675
 40
0.5491290883
 40
0.7823145228
 40
1.0
 40
1.0
 40
1.0
 40
1.0
 10
108.3754145266
 20
111.4049508575
 30
0.0
 10
108.3754145266
 20
111.4580948769
 30
0.0
 10
108.3672469856
 20
111.559259789
 30
0.0
 10
108.3264272489
 20
111.698333368
 30
0.0
 10
108.2573686963
 20
111.8111690102
 30
0.0
 10
108.1925579602
 20
111.8656248303
 30
0.0
 10
108.157924242
 20
111.8855875432
 30
0.0
  0
SPLINE
  5
3FE
100
AcDbEntity
  8
0
100
AcDbSpline
 62
7
  6
CONTINUOUS
 70
0
 71
3
 72
15
 73
11
 74
0
 42
0.0000001
 43
0.0000001
 44
0.0000000001
 40
0.0
 40
0.0
 40
0.0
 40
0.0
 40
0.1207551358
 40
0.2526273017
 40
0.3909225319
 40
0.5302568209
 40
0.6650348277
 40
0.7902697751
 40
0.9023348529
 40
1.0
 40
1.0
 40
1.0
 40
1.0
 10
109.2239391312
 20
111.8948438422
 30
0.0
 10
109.2239391312
 20
111.7351325969
 30
0.0
 10
109.1867122104
 20
111.4006430065
 30
0.0
 10
109.0434202001
 20
110.9018883606
 30
0.0
 10
108.8178835478
 20
110.4073756128
 30
0.0
 10
108.523448373
 20
109.946085685
 30
0.0
 10
108.1771023669
 20
109.5447190352
 30
0.0
 10
107.7984537623
 20
109.2264093965
 30
0.0
 10
107.4088767879
 20
109.0092586424
 30
0.0
 10
107.1362234817
 20
108.9367837317
 30
0.0
 10
107.0075025609
 20
108.9259941345
 30
0.0
  0
SPLINE
  5
3FF
100
AcDbEntity
  8
0
100
AcDbSpline
 62
7
  6
CONTINUOUS
 70
0
 71
3
 72
11
 73
7
 74
0
 42
0.0000001
 43
0.0000001
 44
0.0000000001
 40
0.0
 40
0.0
 40
0.0
 40
0.0
 40
0.2583397631
 40
0.5020341176
 40
0.7445877796
 40
1.0
 40
1.0
 40
1.0
 40
1.0
 10
32.058891154
 20
72.546337612
 30
0.0
 10
31.9558310672
 20
72.3361687778
 30
0.0
 10
31.7115941624
 20
71.9464377391
 30
0.0
 10
31.2117488453
 20
71.4809143374
 30
0.0
 10
30.6036880889
 20
71.1750027116
 30
0.0
 10
30.1556440513
 20
71.0863793951
 30
0.0
 10
29.9250619338
 20
71.0666457908
 30
0.0
  0
SPLINE
  5
400
100
AcDbEntity
  8
0
100
AcDbSpline
 62
7
  6
CONTINUOUS
 70
0
 71
3
 72
9
 73
5
 74
0
 42
0.0000001
 43
0.0000001
 44
0.0000000001
 40
0.0
 40
0.0
 40
0.0
 40
0.0
 40
0.2452592981
 40
1.0
 40
1.0
 40
1.0
 40
1.0
 10
29.849540373
 20
71.0610863125
 30
0.0
 10
29.8177306927
 20
71.0591208673
 30
0.0
 10
29.6879187266
 20
71.0530152682
 30
0.0
 10
29.5577781356
 20
71.0544077935
 30
0.0
 10
29.4598223666
 20
71.0592455792
 30
0.0
  0
SPLINE
  5
401
100
AcDbEntity
  8
0
100
AcDbSpline
 62
7
  6
CONTINUOUS
 70
0
 71
3
 72
11
 73
7
 74
0
 42
0.0000001
 43
0.0000001
 44
0.0000000001
 40
0.0
 40
0.0
 40
0.0
 40
0.0
 40
0.2893975675
 40
0.5491290883
 40
0.7823145228
 40
1.0
 40
1.0
 40
1.0
 40
1.0
 10
110.4575807524
 20
62.6369277946
 30
0.0
 10
110.4575807524
 20
62.6926024816
 30
0.0
 10
110.4490242809
 20
62.7985847705
 30
0.0
 10
110.4062607472
 20
62.9442809008
 30
0.0
 10
110.3339136921
 20
63.0624896689
 30
0.0
 10
110.2660167305
 20
63.1195386232
 30
0.0
 10
110.2297337876
 20
63.1404519415
 30
0.0
  0
SPLINE
  5
402
100
AcDbEntity
  8
0
100
AcDbSpline
 62
7
  6
CONTINUOUS
 70
0
 71
3
 72
15
 73
11
 74
0
 42
0.0000001
 43
0.0000001
 44
0.0000000001
 40
0.0
 40
0.0
 40
0.0
 40
0.0
 40
0.1207551358
 40
0.2526273017
 40
0.3909225319
 40
0.5302568209
 40
0.6650348277
 40
0.7902697751
 40
0.9023348529
 40
1.0
 40
1.0
 40
1.0
 40
1.0
 10
111.2707501652
 20
63.1064085716
 30
0.0
 10
111.2707501652
 20
62.9466973263
 30
0.0
 10
111.2335232444
 20
62.6122077358
 30
0.0
 10
111.0902312341
 20
62.11345309
 30
0.0
 10
110.8646945818
 20
61.6189403422
 30
0.0
 10
110.570259407
 20
61.1576504143
 30
0.0
 10
110.2239134008
 20
60.7562837646
 30
0.0
 10
109.8452647963
 20
60.4379741259
 30
0.0
 10
109.4556878218
 20
60.2208233718
 30
0.0
 10
109.1830345156
 20
60.1483484611
 30
0.0
 10
109.0543135949
 20
60.1375588639
 30
0.0
  0
SPLINE
  5
403
100
AcDbEntity
  8
0
100
AcDbSpline
 62
7
  6
CONTINUOUS
 70
0
 71
3
 72
16
 73
12
 74
0
 42
0.0000001
 43
0.0000001
 44
0.0000000001
 40
0.0
 40
0.0
 40
0.0
 40
0.0
 40
0.0428755151
 40
0.0875161207
 40
0.1869217599
 40
0.3042393126
 40
0.437962533
 40
0.5823660413
 40
0.7295547149
 40
0.8712848126
 40
1.0
 40
1.0
 40
1.0
 40
1.0
 10
72.3886685363
 20
56.1418170217
 30
0.0
 10
72.414563148
 20
56.1268914888
 30
0.0
 10
72.4716069896
 20
56.1031713951
 30
0.0
 10
72.601650217
 20
56.0840463465
 30
0.0
 10
72.7852571864
 20
56.1199225389
 30
0.0
 10
73.0015295669
 20
56.2385670743
 30
0.0
 10
73.209434748
 20
56.4224545233
 30
0.0
 10
73.3927743827
 20
56.6572955014
 30
0.0
 10
73.5372980768
 20
56.9241989598
 30
0.0
 10
73.6309352746
 20
57.2013093144
 30
0.0
 10
73.6560963099
 20
57.3900401416
 30
0.0
 10
73.6560963099
 20
57.4797664304
 30
0.0
  0
SPLINE
  5
404
100
AcDbEntity
  8
0
100
AcDbSpline
 62
7
  6
CONTINUOUS
 70
0
 71
3
 72
9
 73
5
 74
0
 42
0.0000001
 43
0.0000001
 44
0.0000000001
 40
0.0
 40
0.0
 40
0.0
 40
0.0
 40
0.246372157
 40
1.0
 40
1.0
 40
1.0
 40
1.0
 10
68.3198437704
 20
64.3953273184
 30
0.0
 10
68.3238094847
 20
65.5960054963
 30
0.0
 10
68.3827924059
 20
70.469231734
 30
0.0
 10
68.6105814996
 20
75.3401764722
 30
0.0
 10
68.8698997853
 20
79.0037851443
 30
0.0
  0
SPLINE
  5
405
100
AcDbEntity
  8
0
100
AcDbSpline
 62
7
  6
CONTINUOUS
 70
0
 71
3
 72
11
 73
7
 74
0
 42
0.0000001
 43
0.0000001
 44
0.0000000001
 40
0.0
 40
0.0
 40
0.0
 40
0.0
 40
0.2893975675
 40
0.5491290883
 40
0.7823145228
 40
1.0
 40
1.0
 40
1.0
 40
1.0
 10
86.7343895426
 20
50.8207698864
 30
0.0
 10
86.7343895426
 20
50.8739139057
 30
0.0
 10
86.7262220016
 20
50.9750788179
 30
0.0
 10
86.6854022649
 20
51.1141523968
 30
0.0
 10
86.6163437123
 20
51.2269880391
 30
0.0
 10
86.5515329763
 20
51.2814438591
 30
0.0
 10
86.5168992581
 20
51.301406572
 30
0.0
  0
SPLINE
  5
406
100
AcDbEntity
  8
0
100
AcDbSpline
 62
7
  6
CONTINUOUS
 70
0
 71
3
 72
15
 73
11
 74
0
 42
0.0000001
 43
0.0000001
 44
0.0000000001
 40
0.0
 40
0.0
 40
0.0
 40
0.0
 40
0.1207551358
 40
0.2526273017
 40
0.3909225319
 40
0.5302568209
 40
0.6650348277
 40
0.7902697751
 40
0.9023348529
 40
1.0
 40
1.0
 40
1.0
 40
1.0
 10
87.5829141473
 20
51.310662871
 30
0.0
 10
87.5829141473
 20
51.1509516258
 30
0.0
 10
87.5456872265
 20
50.8164620353
 30
0.0
 10
87.4023952161
 20
50.3177073895
 30
0.0
 10
87.1768585638
 20
49.8231946417
 30
0.0
 10
86.882423389
 20
49.3619047138
 30
0.0
 10
86.5360773829
 20
48.960538064
 30
0.0
 10
86.1574287783
 20
48.6422284253
 30
0.0
 10
85.7678518039
 20
48.4250776712
 30
0.0
 10
85.4951984977
 20
48.3526027605
 30
0.0
 10
85.3664775769
 20
48.3418131633
 30
0.0
  0
SPLINE
  5
407
100
AcDbEntity
  8
0
100
AcDbSpline
 62
7
  6
CONTINUOUS
 70
0
 71
3
 72
11
 73
7
 74
0
 42
0.0000001
 43
0.0000001
 44
0.0000000001
 40
0.0
 40
0.0
 40
0.0
 40
0.0
 40
0.2899310476
 40
0.4260522997
 40
0.5554012902
 40
1.0
 40
1.0
 40
1.0
 40
1.0
 10
69.6702439525
 20
55.8501930266
 30
0.0
 10
69.5727999042
 20
55.4743187995
 30
0.0
 10
69.4654005193
 20
54.9113782775
 30
0.0
 10
69.4157873826
 20
54.1676913577
 30
0.0
 10
69.4348557133
 20
53.2196213821
 30
0.0
 10
69.6271635549
 20
52.4294640145
 30
0.0
 10
69.9488211721
 20
51.9283756273
 30
0.0
  0
SPLINE
  5
408
100
AcDbEntity
  8
0
100
AcDbSpline
 62
7
  6
CONTINUOUS
 70
0
 71
3
 72
15
 73
11
 74
0
 42
0.0000001
 43
0.0000001
 44
0.0000000001
 40
0.0
 40
0.0
 40
0.0
 40
0.0
 40
0.1440808829
 40
0.2787788936
 40
0.4052408158
 40
0.5254600177
 40
0.6420351907
 40
0.7579507637
 40
0.8763169624
 40
1.0
 40
1.0
 40
1.0
 40
1.0
 10
69.9488211721
 20
51.9283756272
 30
0.0
 10
69.9145255189
 20
51.7489216544
 30
0.0
 10
69.82992738
 20
51.4047457257
 30
0.0
 10
69.6458433863
 20
50.9233940751
 30
0.0
 10
69.4090518669
 20
50.499531583
 30
0.0
 10
69.1206847599
 20
50.1374343248
 30
0.0
 10
68.7821860068
 20
49.8412476247
 30
0.0
 10
68.3963536492
 20
49.6144478598
 30
0.0
 10
67.9669636759
 20
49.4600482555
 30
0.0
 10
67.6629668649
 20
49.4072702171
 30
0.0
 10
67.5068577768
 20
49.392185141
 30
0.0
  0
SPLINE
  5
409
100
AcDbEntity
  8
0
100
AcDbSpline
 62
7
  6
CONTINUOUS
 70
0
 71
3
 72
9
 73
5
 74
0
 42
0.0000001
 43
0.0000001
 44
0.0000000001
 40
0.0
 40
0.0
 40
0.0
 40
0.0
 40
0.2452423265
 40
1.0
 40
1.0
 40
1.0
 40
1.0
 10
67.3982168409
 20
49.3835763351
 30
0.0
 10
67.3662722592
 20
49.3815911457
 30
0.0
 10
67.2358996415
 20
49.3754201233
 30
0.0
 10
67.1051934733
 20
49.376809681
 30
0.0
 10
67.0068115209
 20
49.3816771435
 30
0.0
  0
ELLIPSE
  5
40A
100
AcDbEntity
  8
0
100
AcDbEllipse
 62
7
  6
CONTINUOUS
 10
71.4958504565
 20
134.3866694598
 30
0.0
 11
-10.6181495476
 21
16.2036140087
 31
0.0
 40
0.535815383
 41
-1.113506146
 42
-0.5154849293
  0
ELLIPSE
  5
40B
100
AcDbEntity
  8
0
100
AcDbEllipse
 62
7
  6
CONTINUOUS
 10
68.4321231539
 20
145.3906881066
 30
0.0
 11
-0.7717439985
 21
1.3464672017
 31
0.0
 40
0.5779938537
 41
5.5329750649
 42
7.0716647293
  0
ELLIPSE
  5
40C
100
AcDbEntity
  8
0
100
AcDbEllipse
 62
7
  6
CONTINUOUS
 10
109.0433768619
 20
112.7090853947
 30
0.0
 11
-10.6181495476
 21
16.2036140087
 31
0.0
 40
0.535815383
 41
-1.113506146
 42
-0.5154849293
  0
ELLIPSE
  5
40D
100
AcDbEntity
  8
0
100
AcDbEllipse
 62
7
  6
CONTINUOUS
 10
105.9796495592
 20
123.7131040415
 30
0.0
 11
-0.7717439985
 21
1.3464672017
 31
0.0
 40
0.5779938537
 41
5.5329750649
 42
7.0716647293
  0
ENDSEC
  0
SECTION
  2
OBJECTS
  0
DICTIONARY
  5
C
100
AcDbDictionary
280
0
281
1
  3
ACAD_GROUP
350
D
  3
ACAD_MLINESTYLE
350
17
  3
ACAD_LAYOUT
350
1A
  3
ACAD_PLOTSETTINGS
350
19
  3
ACAD_PLOTSTYLENAME
350
E
  0
DICTIONARY
  5
D
102
{ACAD_REACTORS
330
C
102
}
100
AcDbDictionary
280
0
281
1
  0
ACDBDICTIONARYWDFLT
  5
E
102
{ACAD_REACTORS
330
C
102
}
100
AcDbDictionary
281
1
  3
Normal
350
F
100
AcDbDictionaryWithDefault
340
F
  0
DICTIONARY
  5
17
102
{ACAD_REACTORS
330
C
102
}
100
AcDbDictionary
280
0
281
1
  3
Standard
350
18
  0
DICTIONARY
  5
19
102
{ACAD_REACTORS
330
C
102
}
100
AcDbDictionary
281
1
  0
DICTIONARY
  5
1A
102
{ACAD_REACTORS
330
C
102
}
100
AcDbDictionary
281
1
  3
Model
350
40E
  3
Layout1
350
40F
  0
ACDBPLACEHOLDER
  5
F
102
{ACAD_REACTORS
330
E
102
}
  0
MLINESTYLE
  5
18
102
{ACAD_REACTORS
330
17
102
}
100
AcDbMlineStyle
  2
STANDARD
 70
0
  3

 62
256
 51
90.0
 52
90.0
 71
2
 49
0.5
 62
256
  6
BYLAYER
 49
-0.5
 62
256
  6
BYLAYER
  0
LAYOUT
  5
40E
102
{ACAD_REACTORS
330
1A
102
}
100
AcDbPlotSettings
  1

  2
none_device
  4

  6

 40
0.0
 41
0.0
 42
0.0
 43
0.0
 44
210.0
 45
297.0
 46
0.0
 47
0.0
 48
0.0
 49
0.0
140
0.0
141
0.0
142
1.0
143
1.0
 70
1024
 72
1
 73
0
 74
0
  7

 75
0
147
1.0
148
0.0
149
0.0
100
AcDbLayout
  1
Model
 70
0
 71
0
 10
0.0
 20
0.0
 11
210.0
 21
297.0
 12
0.0
 22
0.0
 32
0.0
 14
0.0
 24
0.0
 34
0.0
 15
0.0
 25
0.0
 35
0.0
146
0.0
 13
0.0
 23
0.0
 33
0.0
 16
1.0
 26
0.0
 36
0.0
 17
0.0
 27
1.0
 37
0.0
 76
0
330
210
345
0
346
0
  0
LAYOUT
  5
40F
102
{ACAD_REACTORS
330
1A
102
}
100
AcDbPlotSettings
  1

  2
none_device
  4

  6

 40
0.0
 41
0.0
 42
0.0
 43
0.0
 44
210.0
 45
297.0
 46
0.0
 47
0.0
 48
0.0
 49
0.0
140
0.0
141
0.0
142
1.0
143
1.0
 70
0
 72
1
 73
0
 74
0
  7

 75
0
147
1.0
148
0.0
149
0.0
100
AcDbLayout
  1
Layout1
 70
0
 71
1
 10
0.0
 20
0.0
 11
210.0
 21
297.0
 12
0.0
 22
0.0
 32
0.0
 14
0.0
 24
0.0
 34
0.0
 15
0.0
 25
0.0
 35
0.0
146
0.0
 13
0.0
 23
0.0
 33
0.0
 16
1.0
 26
0.0
 36
0.0
 17
0.0
 27
1.0
 37
0.0
 76
0
330
211
345
0
346
0
  0
ENDSEC
  0
EOF
