999
DXF file: C:\Users\sesa63760\Documents\7-Dev\_Creo\CAD\MCADFD0000998_3D-CAD\drw0001_1.dxf
999
Pro/ENGINEER 2019471 by Parametric Technology Corporation
  0
SECTION
  2
HEADER
  9
$ACADVER
  1
AC1024
  9
$DWGCODEPAGE
  3
ANSI_1252
  9
$EXTMAX
 10
82.3822149483
 20
116.5119897125
 30
0.0
  9
$EXTMIN
 10
0.0
 20
0.0
 30
0.0
  9
$LIMMIN
 10
0.0
 20
0.0
  9
$LIMMAX
 10
82.3822149483
 20
116.5119897125
  9
$VIEWCTR
 10
41.1911074741
 20
58.2559948563
  9
$VIEWSIZE
 40
116.5119897125
  9
$CLAYER
  8
0
  9
$LTSCALE
 40
7.5948556257
  9
$CELTYPE
  6
BYLAYER
  9
$DIMSCALE
 40
1.0
  9
$DIMASZ
 40
0.9807406541
  9
$DIMEXO
 40
1.0
  9
$DIMDLI
 40
5.2473547959
  9
$DIMEXE
 40
1.0
  9
$DIMCEN
 40
1.2427945569
  9
$DIMLFAC
 40
1.0
  9
$DIMBLK
  1
_FILLED
  9
$DIMALT
 70
0
  9
$DIMALTF
 40
0.0393700787
  9
$DIMTXT
 40
1.3730369158
  9
$DIMTOL
 70
1
  9
$DIMLIM
 70
0
  9
$DIMTFAC
 40
1.0
  9
$DIMTP
 40
0.01
  9
$DIMTM
 40
0.01
  9
$DIMGAP
 40
0.625
  9
$DIMDSEP
 70
46
  9
$AUNITS
 70
0
  9
$PDMODE
 70
3
  9
$PDSIZE
 40
0.3125
  9
$HANDSEED
  5
34A
  9
$TILEMODE
 70
1
  9
$MEASUREMENT
 70
1
  9
$INSUNITS
 70
4
  0
ENDSEC
  0
SECTION
  2
CLASSES
  0
CLASS
  1
ACDBDICTIONARYWDFLT
  2
AcDbDictionaryWithDefault
  3
AutoCAD 2000
 90
0
 91
1
280
0
281
0
  0
CLASS
  1
ACDBPLACEHOLDER
  2
AcDbPlaceHolder
  3
AutoCAD 2000
 90
0
 91
1
280
0
281
0
  0
CLASS
  1
LAYOUT
  2
AcDbLayout
  3
AutoCAD 2000
 90
0
 91
0
280
0
281
0
  0
ENDSEC
  0
SECTION
  2
TABLES
  0
TABLE
  2
VPORT
  5
8
100
AcDbSymbolTable
 70
2
  0
VPORT
  5
1F4
100
AcDbSymbolTableRecord
100
AcDbViewportTableRecord
  2
*ACTIVE
 70
0
 10
0.0
 20
0.0
 11
1.0
 21
1.0
 12
41.1911074741
 22
58.2559948563
 13
0.0
 23
0.0
 14
1.0
 24
1.0
 15
0.0
 25
0.0
 16
0.0
 26
0.0
 36
1.0
 17
0.0
 27
0.0
 37
0.0
 40
116.5119897125
 41
0.7070707071
 42
50.0
 43
0.0
 44
0.0
 50
0.0
 51
0.0
 71
0
 72
100
 73
1
 74
1
 75
0
 76
0
 77
0
 78
0
  0
ENDTAB
  0
TABLE
  2
LTYPE
  5
5
100
AcDbSymbolTable
 70
6
  0
LTYPE
  5
14
100
AcDbSymbolTableRecord
100
AcDbLinetypeTableRecord
  2
BYBLOCK
 70
0
  3

 72
65
 73
0
 40
0.0
  0
LTYPE
  5
15
100
AcDbSymbolTableRecord
100
AcDbLinetypeTableRecord
  2
BYLAYER
 70
0
  3

 72
65
 73
0
 40
0.0
  0
LTYPE
  5
16
100
AcDbSymbolTableRecord
100
AcDbLinetypeTableRecord
  2
CONTINUOUS
 70
64
  3
Solid line
 72
65
 73
0
 40
0.0
  0
LTYPE
  5
1F5
100
AcDbSymbolTableRecord
100
AcDbLinetypeTableRecord
  2
CENTER
 70
64
  3
____ _ ____ _ ____ _ ____ _ ____ _ ____ _ ____
 72
65
 73
4
 40
0.6
 49
0.375
 74
0
 49
-0.075
 74
0
 49
0.075
 74
0
 49
-0.075
 74
0
  0
LTYPE
  5
1F6
100
AcDbSymbolTableRecord
100
AcDbLinetypeTableRecord
  2
HIDDEN
 70
64
  3
- - - - - - - - - - - - - - - - - - - -
 72
65
 73
2
 40
0.2
 49
0.1
 74
0
 49
-0.1
 74
0
  0
LTYPE
  5
1F7
100
AcDbSymbolTableRecord
100
AcDbLinetypeTableRecord
  2
PHANTOM
 70
64
  3
_____ _ _ _____ _ _ _____ _ _ _____
 72
65
 73
6
 40
0.8
 49
0.45
 74
0
 49
-0.05
 74
0
 49
0.1
 74
0
 49
-0.05
 74
0
 49
0.1
 74
0
 49
-0.05
 74
0
  0
LTYPE
  5
1F8
100
AcDbSymbolTableRecord
100
AcDbLinetypeTableRecord
  2
DOT
 70
64
  3
. . . . . . . . . . . . . . . . . . . .
 72
65
 73
2
 40
0.2
 49
0.1
 74
0
 49
-0.1
 74
0
  0
LTYPE
  5
1F9
100
AcDbSymbolTableRecord
100
AcDbLinetypeTableRecord
  2
DASHED
 70
64
  3
- - - - - - - - - - - - - - - - - - - -
 72
65
 73
2
 40
0.2
 49
0.1
 74
0
 49
-0.1
 74
0
  0
ENDTAB
  0
TABLE
  2
LAYER
  5
2
100
AcDbSymbolTable
 70
36
  0
LAYER
  5
10
100
AcDbSymbolTableRecord
100
AcDbLayerTableRecord
  2
0
 70
0
 62
7
  6
CONTINUOUS
370
-3
390
F
  0
LAYER
  5
1FA
100
AcDbSymbolTableRecord
100
AcDbLayerTableRecord
  2
DEFAULT_1
 70
0
 62
7
  6
CENTER
370
-3
390
F
  0
LAYER
  5
1FB
100
AcDbSymbolTableRecord
100
AcDbLayerTableRecord
  2
DEFAULT_2
 70
0
 62
8
  6
HIDDEN
370
-3
390
F
  0
LAYER
  5
1FC
100
AcDbSymbolTableRecord
100
AcDbLayerTableRecord
  2
DEFAULT_3
 70
0
 62
7
  6
PHANTOM
370
-3
390
F
  0
LAYER
  5
1FD
100
AcDbSymbolTableRecord
100
AcDbLayerTableRecord
  2
00_COMPONENTS
 70
0
 62
7
  6
CONTINUOUS
370
-3
390
F
  0
LAYER
  5
1FE
100
AcDbSymbolTableRecord
100
AcDbLayerTableRecord
  2
01_1_DEFAULT_DATUMS
 70
0
 62
7
  6
CONTINUOUS
370
-3
390
F
  0
LAYER
  5
1FF
100
AcDbSymbolTableRecord
100
AcDbLayerTableRecord
  2
01_PLANES
 70
0
 62
7
  6
CONTINUOUS
370
-3
390
F
  0
LAYER
  5
200
100
AcDbSymbolTableRecord
100
AcDbLayerTableRecord
  2
02_COORD_SYS
 70
0
 62
7
  6
CONTINUOUS
370
-3
390
F
  0
LAYER
  5
201
100
AcDbSymbolTableRecord
100
AcDbLayerTableRecord
  2
03_AXES
 70
0
 62
7
  6
CONTINUOUS
370
-3
390
F
  0
LAYER
  5
202
100
AcDbSymbolTableRecord
100
AcDbLayerTableRecord
  2
04_POINTS
 70
0
 62
7
  6
CONTINUOUS
370
-3
390
F
  0
LAYER
  5
203
100
AcDbSymbolTableRecord
100
AcDbLayerTableRecord
  2
05_CURVES
 70
0
 62
7
  6
CONTINUOUS
370
-3
390
F
  0
LAYER
  5
204
100
AcDbSymbolTableRecord
100
AcDbLayerTableRecord
  2
06_SURFS
 70
0
 62
7
  6
CONTINUOUS
370
-3
390
F
  0
LAYER
  5
205
100
AcDbSymbolTableRecord
100
AcDbLayerTableRecord
  2
07_COSMETICS
 70
0
 62
7
  6
CONTINUOUS
370
-3
390
F
  0
LAYER
  5
206
100
AcDbSymbolTableRecord
100
AcDbLayerTableRecord
  2
10_NOTES
 70
0
 62
7
  6
CONTINUOUS
370
-3
390
F
  0
LAYER
  5
207
100
AcDbSymbolTableRecord
100
AcDbLayerTableRecord
  2
11_NOTES_PUB
 70
0
 62
7
  6
CONTINUOUS
370
-3
390
F
  0
LAYER
  5
208
100
AcDbSymbolTableRecord
100
AcDbLayerTableRecord
  2
13_REF_GTOL
 70
0
 62
7
  6
CONTINUOUS
370
-3
390
F
  0
LAYER
  5
209
100
AcDbSymbolTableRecord
100
AcDbLayerTableRecord
  2
16_MISC
 70
0
 62
7
  6
CONTINUOUS
370
-3
390
F
  0
LAYER
  5
20A
100
AcDbSymbolTableRecord
100
AcDbLayerTableRecord
  2
17_NO_PRINT
 70
0
 62
7
  6
CONTINUOUS
370
-3
390
F
  0
LAYER
  5
20B
100
AcDbSymbolTableRecord
100
AcDbLayerTableRecord
  2
18_DATUM_CAMS_JOINTS
 70
0
 62
7
  6
CONTINUOUS
370
-3
390
F
  0
LAYER
  5
20C
100
AcDbSymbolTableRecord
100
AcDbLayerTableRecord
  2
19_DATUM_FUNCTIONAL
 70
0
 62
7
  6
CONTINUOUS
370
-3
390
F
  0
LAYER
  5
20D
100
AcDbSymbolTableRecord
100
AcDbLayerTableRecord
  2
20_DATUM_KINEMATIC_SCHEME
 70
0
 62
7
  6
CONTINUOUS
370
-3
390
F
  0
ENDTAB
  0
TABLE
  2
STYLE
  5
3
100
AcDbSymbolTable
 70
1
  0
STYLE
  5
11
100
AcDbSymbolTableRecord
100
AcDbTextStyleTableRecord
  2
STANDARD
 70
0
 40
0.0
 41
0.8
 50
0.0
 71
0
 42
0.2
  3
txt
  4

  0
STYLE
  5
20E
100
AcDbSymbolTableRecord
100
AcDbTextStyleTableRecord
  2
TEXTSTYLE_1
 70
0
 40
0.0
 41
0.8
 50
0.0
 71
0
 42
0.2
  3
gdt
  4

  0
ENDTAB
  0
TABLE
  2
VIEW
  5
6
100
AcDbSymbolTable
 70
0
  0
ENDTAB
  0
TABLE
  2
UCS
  5
7
100
AcDbSymbolTable
 70
0
  0
ENDTAB
  0
TABLE
  2
APPID
  5
9
100
AcDbSymbolTable
 70
1
  0
APPID
  5
20F
100
AcDbSymbolTableRecord
100
AcDbRegAppTableRecord
  2
ACAD
 70
0
  0
ENDTAB
  0
TABLE
  2
BLOCK_RECORD
  5
1
100
AcDbSymbolTable
 70
0
  0
BLOCK_RECORD
  5
210
100
AcDbSymbolTableRecord
100
AcDbBlockTableRecord
  2
*Model_Space
  0
BLOCK_RECORD
  5
211
100
AcDbSymbolTableRecord
100
AcDbBlockTableRecord
  2
*Paper_Space
  0
BLOCK_RECORD
  5
212
100
AcDbSymbolTableRecord
100
AcDbBlockTableRecord
  2
_FILLED
  0
ENDTAB
  0
TABLE
  2
DIMSTYLE
  5
A
100
AcDbSymbolTable
 70
1
100
AcDbDimStyleTable
 71
0
  0
DIMSTYLE
105
213
100
AcDbSymbolTableRecord
100
AcDbDimStyleTableRecord
  2
STANDARD
 70
0
  3

  4

 40
1.0
 41
0.9807406541
 42
1.0
 43
0.38
 44
1.0
 45
0.0
 46
0.0
 47
0.01
 48
0.01
140
1.3730369158
141
0.09
142
0.0
143
25.4
144
1.0
145
0.0
146
1.0
147
0.625
 71
1
 72
0
 73
0
 74
0
 75
0
 76
0
 77
1
 78
8
 79
2
170
0
171
1
172
0
173
0
174
0
175
0
176
0
177
0
178
0
270
2
179
2
271
2
272
2
273
2
274
2
275
0
280
0
281
0
282
0
283
1
284
8
285
0
286
0
287
3
288
0
340
11
278
46
341
212
342
212
343
212
344
212
  0
ENDTAB
  0
ENDSEC
  0
SECTION
  2
BLOCKS
  0
BLOCK
  5
20
100
AcDbEntity
  8
0
100
AcDbBlockBegin
  2
*Model_Space
 70
0
 10
0.0
 20
0.0
 30
0.0
  3
*Model_Space
  1

  0
ENDBLK
  5
21
100
AcDbEntity
  8
0
100
AcDbBlockEnd
  0
BLOCK
  5
1C
100
AcDbEntity
  8
0
100
AcDbBlockBegin
  2
*Paper_Space
 70
0
 10
0.0
 20
0.0
 30
0.0
  3
*Paper_Space
  1

  0
ENDBLK
  5
1D
100
AcDbEntity
  8
0
100
AcDbBlockEnd
  0
BLOCK
  5
214
100
AcDbEntity
  8
0
100
AcDbBlockBegin
  2
_FILLED
 70
64
 10
0.0
 20
0.0
  3
_FILLED
  1

  0
SOLID
  5
215
100
AcDbEntity
  8
0
  6
BYBLOCK
 62
0
100
AcDbTrace
 10
0.0
 20
0.0
 11
-1.0
 21
0.25
 12
-1.0
 22
-0.25
 13
-1.0
 23
-0.25
  0
ENDBLK
  5
216
100
AcDbEntity
  8
0
  6
BYBLOCK
 62
0
100
AcDbBlockEnd
  0
ENDSEC
  0
SECTION
  2
ENTITIES
  0
LINE
  5
217
100
AcDbEntity
  8
0
100
AcDbLine
 62
7
  6
CONTINUOUS
 10
21.5148097156
 20
19.1706852821
 11
9.7767882781
 21
25.9474818071
  0
LINE
  5
218
100
AcDbEntity
  8
0
100
AcDbLine
 62
7
  6
CONTINUOUS
 10
21.3594245469
 20
19.4187536831
 11
9.6214031095
 21
26.1955502082
  0
LINE
  5
219
100
AcDbEntity
  8
0
100
AcDbLine
 62
7
  6
CONTINUOUS
 10
40.183678258
 20
10.3744877761
 11
27.6678361229
 21
17.6003491311
  0
LINE
  5
21A
100
AcDbEntity
  8
0
100
AcDbLine
 62
7
  6
CONTINUOUS
 10
27.785731643
 20
20.2824855978
 11
25.039399081
 21
21.8680455716
  0
LINE
  5
21B
100
AcDbEntity
  8
0
100
AcDbLine
 62
7
  6
CONTINUOUS
 10
10.7020886229
 20
30.6031339038
 11
22.4401100603
 21
23.8263373787
  0
LINE
  5
21C
100
AcDbEntity
  8
0
100
AcDbLine
 62
7
  6
CONTINUOUS
 10
11.146123141
 20
31.3300051262
 11
22.8841445785
 21
24.5532086011
  0
LINE
  5
21D
100
AcDbEntity
  8
0
100
AcDbLine
 62
7
  6
CONTINUOUS
 10
22.8841445785
 20
24.5532086011
 11
22.9319531659
 21
24.5206514073
  0
LINE
  5
21E
100
AcDbEntity
  8
0
100
AcDbLine
 62
7
  6
CONTINUOUS
 10
25.5136168891
 20
22.7625629381
 11
25.5614254766
 21
22.7300057442
  0
LINE
  5
21F
100
AcDbEntity
  8
0
100
AcDbLine
 62
7
  6
CONTINUOUS
 10
23.5635771148
 20
24.7788719666
 11
25.4759206135
 21
23.4765842117
  0
LINE
  5
220
100
AcDbEntity
  8
0
100
AcDbLine
 62
7
  6
CONTINUOUS
 10
25.8041438013
 20
24.013875751
 11
23.8059691933
 21
25.1674963004
  0
LINE
  5
221
100
AcDbEntity
  8
0
100
AcDbLine
 62
7
  6
CONTINUOUS
 10
12.1537788653
 20
32.092960031
 11
23.8918003027
 21
25.3161635059
  0
LINE
  5
222
100
AcDbEntity
  8
0
100
AcDbLine
 62
7
  6
CONTINUOUS
 10
57.8510185875
 20
104.2659186045
 11
54.1639136918
 21
102.1371803072
  0
LINE
  5
223
100
AcDbEntity
  8
0
100
AcDbLine
 62
7
  6
CONTINUOUS
 10
36.7691592963
 20
92.094374122
 11
27.6678361255
 21
86.8397541052
  0
LINE
  5
224
100
AcDbEntity
  8
0
100
AcDbLine
 62
7
  6
CONTINUOUS
 10
37.4409135352
 20
91.7065454052
 11
41.6835365585
 21
94.1560103284
  0
LINE
  5
225
100
AcDbEntity
  8
0
100
AcDbLine
 62
7
  6
CONTINUOUS
 10
50.5930449074
 20
99.2998866672
 11
54.8356679307
 21
101.7493515905
  0
LINE
  5
226
100
AcDbEntity
  8
0
100
AcDbLine
 62
7
  6
CONTINUOUS
 10
57.2241164364
 20
103.0874903315
 11
57.8502314426
 21
103.4489758411
  0
LINE
  5
227
100
AcDbEntity
  8
0
100
AcDbLine
 62
7
  6
CONTINUOUS
 10
42.3199353111
 20
93.7885936494
 11
51.22944366
 21
98.9324699882
  0
LINE
  5
228
100
AcDbEntity
  8
0
100
AcDbLine
 62
7
  6
CONTINUOUS
 10
60.904193274
 20
106.421850445
 11
57.8514014311
 21
104.6632549674
  0
LINE
  5
229
100
AcDbEntity
  8
0
100
AcDbLine
 62
7
  6
CONTINUOUS
 10
21.2377730113
 20
31.1297526161
 11
16.7933264113
 21
33.6956970076
  0
LINE
  5
22A
100
AcDbEntity
  8
0
100
AcDbLine
 62
7
  6
CONTINUOUS
 10
58.568517726
 20
102.9128840521
 11
58.0815485302
 21
102.5924628804
  0
LINE
  5
22B
100
AcDbEntity
  8
0
100
AcDbLine
 62
7
  6
CONTINUOUS
 10
58.7682739382
 20
102.7414670624
 11
58.3267099325
 21
102.4509220808
  0
LINE
  5
22C
100
AcDbEntity
  8
0
100
AcDbLine
 62
7
  6
CONTINUOUS
 10
61.9179222231
 20
104.0487494874
 11
60.9986878043
 21
103.5192140409
  0
LINE
  5
22D
100
AcDbEntity
  8
0
100
AcDbLine
 62
7
  6
CONTINUOUS
 10
61.9159872329
 20
102.0405090323
 11
60.9967528141
 21
101.5109735858
  0
LINE
  5
22E
100
AcDbEntity
  8
0
100
AcDbLine
 62
7
  6
CONTINUOUS
 10
62.7664642792
 20
102.5008560976
 11
63.685698698
 21
103.0303915442
  0
LINE
  5
22F
100
AcDbEntity
  8
0
100
AcDbLine
 62
7
  6
CONTINUOUS
 10
37.820873236
 20
26.0762427138
 11
39.2442814921
 21
25.2544561653
  0
LINE
  5
230
100
AcDbEntity
  8
0
100
AcDbLine
 62
7
  6
CONTINUOUS
 10
62.7658423956
 20
101.8554306393
 11
61.7028840771
 21
101.1560140175
  0
LINE
  5
231
100
AcDbEntity
  8
0
100
AcDbLine
 62
7
  6
CONTINUOUS
 10
62.7652747433
 20
101.2662894831
 11
61.6498493745
 21
100.5323500333
  0
LINE
  5
232
100
AcDbEntity
  8
0
100
AcDbLine
 62
7
  6
CONTINUOUS
 10
65.9124625931
 20
100.0199954902
 11
68.9645981969
 21
101.7782129337
  0
LINE
  5
233
100
AcDbEntity
  8
0
100
AcDbLine
 62
7
  6
CONTINUOUS
 10
66.8303998227
 20
99.2032357883
 11
65.9111654039
 21
98.6737003418
  0
LINE
  5
234
100
AcDbEntity
  8
0
100
AcDbLine
 62
7
  6
CONTINUOUS
 10
25.1415296556
 20
39.1648900869
 11
12.6256875205
 21
46.3907514419
  0
LINE
  5
235
100
AcDbEntity
  8
0
100
AcDbLine
 62
7
  6
CONTINUOUS
 10
12.4492583074
 20
48.0521029758
 11
24.9651004425
 21
40.8262416207
  0
LINE
  5
236
100
AcDbEntity
  8
0
100
AcDbLine
 62
7
  6
CONTINUOUS
 10
12.5492636112
 20
48.3886135612
 11
25.0651057463
 21
41.1627522061
  0
LINE
  5
237
100
AcDbEntity
  8
0
100
AcDbLine
 62
7
  6
CONTINUOUS
 10
25.1390983809
 20
41.2054641356
 11
12.6232562458
 21
48.4313254906
  0
LINE
  5
238
100
AcDbEntity
  8
0
100
AcDbLine
 62
7
  6
CONTINUOUS
 10
69.1054813862
 20
99.530191079
 11
66.8292719468
 21
98.0326634226
  0
LINE
  5
239
100
AcDbEntity
  8
0
100
AcDbLine
 62
7
  6
CONTINUOUS
 10
52.2194714632
 20
88.0732230861
 11
61.1289798121
 21
93.2170994249
  0
LINE
  5
23A
100
AcDbEntity
  8
0
100
AcDbLine
 62
7
  6
CONTINUOUS
 10
68.3257391212
 20
96.6781104855
 11
70.8005874042
 21
98.1069562788
  0
LINE
  5
23B
100
AcDbEntity
  8
0
100
AcDbLine
 62
7
  6
CONTINUOUS
 10
48.6132471925
 20
85.2563414838
 11
52.8558702158
 21
87.705806407
  0
LINE
  5
23C
100
AcDbEntity
  8
0
100
AcDbLine
 62
7
  6
CONTINUOUS
 10
61.7653785647
 20
92.8496827458
 11
66.008001588
 21
95.299147669
  0
LINE
  5
23D
100
AcDbEntity
  8
0
100
AcDbLine
 62
7
  6
CONTINUOUS
 10
72.8950901401
 20
98.4997224712
 11
66.6797558269
 21
94.9113189522
  0
LINE
  5
23E
100
AcDbEntity
  8
0
100
AcDbLine
 62
7
  6
CONTINUOUS
 10
49.2850014314
 20
84.868512767
 11
40.1836782606
 21
79.6138927502
  0
LINE
  5
23F
100
AcDbEntity
  8
0
100
AcDbLine
 62
7
  6
CONTINUOUS
 10
26.2736974627
 20
39.1705741181
 11
25.1425875877
 21
39.1648953982
  0
LINE
  5
240
100
AcDbEntity
  8
0
100
AcDbLine
 62
7
  6
CONTINUOUS
 10
61.7653785647
 20
23.6102777732
 11
61.1289798121
 21
23.9776944523
  0
LINE
  5
241
100
AcDbEntity
  8
0
100
AcDbLine
 62
7
  6
CONTINUOUS
 10
69.8618543964
 20
98.3358738895
 11
67.8019802367
 21
96.9804959776
  0
LINE
  5
242
100
AcDbEntity
  8
0
100
AcDbLine
 62
7
  6
CONTINUOUS
 10
26.7284390145
 20
70.8657926817
 11
13.1733122421
 21
63.0397833057
  0
LINE
  5
243
100
AcDbEntity
  8
0
100
AcDbLine
 62
7
  6
CONTINUOUS
 10
69.1809987016
 20
93.9058963279
 11
71.6558469846
 21
95.3347421212
  0
LINE
  5
244
100
AcDbEntity
  8
0
100
AcDbLine
 62
7
  6
CONTINUOUS
 10
66.6797558269
 20
25.6719139797
 11
66.008001588
 21
26.0597426964
  0
LINE
  5
245
100
AcDbEntity
  8
0
100
AcDbLine
 62
7
  6
CONTINUOUS
 10
11.146123141
 20
31.3300051262
 11
10.7020886228
 21
30.6031339037
  0
LINE
  5
246
100
AcDbEntity
  8
0
100
AcDbLine
 62
7
  6
CONTINUOUS
 10
70.8117958559
 20
91.8778850602
 11
69.3676451116
 21
90.927647391
  0
LINE
  5
247
100
AcDbEntity
  8
0
100
AcDbLine
 62
7
  6
CONTINUOUS
 10
16.7933264113
 20
33.6956970076
 11
14.8598457153
 21
30.5306469509
  0
LINE
  5
248
100
AcDbEntity
  8
0
100
AcDbLine
 62
7
  6
CONTINUOUS
 10
71.2348897442
 20
87.8454426779
 11
69.6271052932
 21
86.7875355617
  0
LINE
  5
249
100
AcDbEntity
  8
0
100
AcDbLine
 62
7
  6
CONTINUOUS
 10
13.1733122421
 20
63.0397833057
 11
25.6891543772
 21
55.8139219507
  0
LINE
  5
24A
100
AcDbEntity
  8
0
100
AcDbLine
 62
7
  6
CONTINUOUS
 10
39.2442814923
 20
25.254456157
 11
39.194576252
 21
26.8693457857
  0
LINE
  5
24B
100
AcDbEntity
  8
0
100
AcDbLine
 62
7
  6
CONTINUOUS
 10
71.2938553117
 20
85.2733227214
 11
69.7842510847
 21
84.2800172735
  0
LINE
  5
24C
100
AcDbEntity
  8
0
100
AcDbLine
 62
7
  6
CONTINUOUS
 10
39.2442811496
 20
63.6399313267
 11
25.6891543772
 21
55.8139219507
  0
LINE
  5
24D
100
AcDbEntity
  8
0
100
AcDbLine
 62
7
  6
CONTINUOUS
 10
12.623256202
 20
48.4313267124
 11
12.5492488276
 21
48.3886037792
  0
LINE
  5
24E
100
AcDbEntity
  8
0
100
AcDbLine
 62
7
  6
CONTINUOUS
 10
70.0896121547
 20
79.407481649
 11
70.6906491886
 21
79.7544479481
  0
LINE
  5
24F
100
AcDbEntity
  8
0
100
AcDbLine
 62
7
  6
CONTINUOUS
 10
21.4359661591
 20
26.7340079339
 11
22.0634717967
 21
27.7612158899
  0
LINE
  5
250
100
AcDbEntity
  8
0
100
AcDbLine
 62
7
  6
CONTINUOUS
 10
71.1799958551
 20
77.9360493425
 11
70.2154294361
 21
77.3013736694
  0
LINE
  5
251
100
AcDbEntity
  8
0
100
AcDbLine
 62
7
  6
CONTINUOUS
 10
70.2154294361
 20
77.4382211079
 11
70.8141439432
 21
77.7838870264
  0
LINE
  5
252
100
AcDbEntity
  8
0
100
AcDbLine
 62
7
  6
CONTINUOUS
 10
72.6879576431
 20
78.8657274129
 11
74.1045005412
 21
79.6835639547
  0
LINE
  5
253
100
AcDbEntity
  8
0
100
AcDbLine
 62
7
  6
CONTINUOUS
 10
23.5066388524
 20
26.466629283
 11
23.0875020216
 21
25.78051483
  0
LINE
  5
254
100
AcDbEntity
  8
0
100
AcDbLine
 62
7
  6
CONTINUOUS
 10
22.4401100603
 20
23.8263373787
 11
22.8841445785
 21
24.5532086011
  0
LINE
  5
255
100
AcDbEntity
  8
0
100
AcDbLine
 62
7
  6
CONTINUOUS
 10
23.8918003027
 20
25.3161635059
 11
23.5635771148
 21
24.7788719666
  0
LINE
  5
256
100
AcDbEntity
  8
0
100
AcDbLine
 62
7
  6
CONTINUOUS
 10
25.4759206135
 20
23.4765842117
 11
25.8041438013
 21
24.013875751
  0
LINE
  5
257
100
AcDbEntity
  8
0
100
AcDbLine
 62
7
  6
CONTINUOUS
 10
39.2442811496
 20
63.6399313267
 11
26.7284390145
 21
70.8657926817
  0
LINE
  5
258
100
AcDbEntity
  8
0
100
AcDbLine
 62
7
  6
CONTINUOUS
 10
46.0706667128
 20
93.7886175493
 11
46.0921367764
 21
93.488668858
  0
LINE
  5
259
100
AcDbEntity
  8
0
100
AcDbLine
 62
7
  6
CONTINUOUS
 10
49.2850014314
 20
84.868512767
 11
49.2850014314
 21
83.3566819859
  0
LINE
  5
25A
100
AcDbEntity
  8
0
100
AcDbLine
 62
7
  6
CONTINUOUS
 10
49.2850014314
 20
15.6291077944
 11
49.2850014314
 21
17.1409386099
  0
LINE
  5
25B
100
AcDbEntity
  8
0
100
AcDbLine
 62
7
  6
CONTINUOUS
 10
25.5614254766
 20
22.7300057442
 11
25.1173909584
 21
22.0031345218
  0
LINE
  5
25C
100
AcDbEntity
  8
0
100
AcDbLine
 62
7
  6
CONTINUOUS
 10
25.1390983809
 20
41.2054641356
 11
25.0651057463
 21
41.1627522061
  0
LINE
  5
25D
100
AcDbEntity
  8
0
100
AcDbLine
 62
7
  6
CONTINUOUS
 10
25.0650916835
 20
40.8361431203
 11
25.1382116203
 21
40.8783512888
  0
LINE
  5
25E
100
AcDbEntity
  8
0
100
AcDbLine
 62
7
  6
CONTINUOUS
 10
70.2154294361
 20
50.9834884315
 11
70.7103868135
 21
50.6977164859
  0
LINE
  5
25F
100
AcDbEntity
  8
0
100
AcDbLine
 62
7
  6
CONTINUOUS
 10
70.2154294361
 20
51.1467700981
 11
71.3821398748
 21
50.4731847508
  0
LINE
  5
260
100
AcDbEntity
  8
0
100
AcDbLine
 62
7
  6
CONTINUOUS
 10
50.5930449074
 20
99.2998866672
 11
50.5930449074
 21
98.5650471902
  0
LINE
  5
261
100
AcDbEntity
  8
0
100
AcDbLine
 62
7
  6
CONTINUOUS
 10
52.8558702158
 20
87.705806407
 11
52.8558702158
 21
84.6249083007
  0
LINE
  5
262
100
AcDbEntity
  8
0
100
AcDbLine
 62
7
  6
CONTINUOUS
 10
52.8558702158
 20
18.4664014344
 11
52.8558702158
 21
20.3630016375
  0
LINE
  5
263
100
AcDbEntity
  8
0
100
AcDbLine
 62
7
  6
CONTINUOUS
 10
70.2154294361
 20
51.9632599697
 11
70.675019735
 21
51.6979078002
  0
LINE
  5
264
100
AcDbEntity
  8
0
100
AcDbLine
 62
7
  6
CONTINUOUS
 10
71.3821280994
 20
52.1061545678
 11
74.1045005412
 21
50.5344276629
  0
LINE
  5
265
100
AcDbEntity
  8
0
100
AcDbLine
 62
7
  6
CONTINUOUS
 10
54.1639136918
 20
102.1371803072
 11
54.1639136918
 21
101.3615164149
  0
LINE
  5
266
100
AcDbEntity
  8
0
100
AcDbLine
 62
7
  6
CONTINUOUS
 10
61.1289798121
 20
23.9776944523
 11
61.1289798121
 21
25.7375978132
  0
LINE
  5
267
100
AcDbEntity
  8
0
100
AcDbLine
 62
7
  6
CONTINUOUS
 10
61.1289798121
 20
90.2063534857
 11
61.1289798121
 21
93.2170994249
  0
LINE
  5
268
100
AcDbEntity
  8
0
100
AcDbLine
 62
7
  6
CONTINUOUS
 10
57.8514014311
 20
104.6632549674
 11
57.8501145372
 21
103.3276449434
  0
LINE
  5
269
100
AcDbEntity
  8
0
100
AcDbLine
 62
7
  6
CONTINUOUS
 10
58.7683279525
 20
102.7975261737
 11
58.7682210801
 21
102.6866080524
  0
LINE
  5
26A
100
AcDbEntity
  8
0
100
AcDbLine
 62
7
  6
CONTINUOUS
 10
60.9967528141
 20
101.5109735858
 11
60.9986878043
 21
103.5192140409
  0
LINE
  5
26B
100
AcDbEntity
  8
0
100
AcDbLine
 62
7
  6
CONTINUOUS
 10
27.6678361255
 20
86.8397541052
 11
40.1836782606
 21
79.6138927502
  0
LINE
  5
26C
100
AcDbEntity
  8
0
100
AcDbLine
 62
7
  6
CONTINUOUS
 10
61.7653785647
 20
92.8496827458
 11
61.7653785647
 21
89.8389368067
  0
LINE
  5
26D
100
AcDbEntity
  8
0
100
AcDbLine
 62
7
  6
CONTINUOUS
 10
61.7653785647
 20
23.6102777732
 11
61.7653785655
 21
25.8865663998
  0
LINE
  5
26E
100
AcDbEntity
  8
0
100
AcDbLine
 62
7
  6
CONTINUOUS
 10
61.9179222231
 20
104.0487494874
 11
61.9159872329
 21
102.0405090323
  0
LINE
  5
26F
100
AcDbEntity
  8
0
100
AcDbLine
 62
7
  6
CONTINUOUS
 10
62.7664642792
 20
102.5008560976
 11
62.764527127
 21
100.4903716994
  0
LINE
  5
270
100
AcDbEntity
  8
0
100
AcDbLine
 62
7
  6
CONTINUOUS
 10
71.3821280994
 20
52.1061545678
 11
70.2154294361
 21
51.4325648013
  0
LINE
  5
271
100
AcDbEntity
  8
0
100
AcDbLine
 62
7
  6
CONTINUOUS
 10
70.2154294361
 20
49.7995881858
 11
71.3821398748
 21
50.4731847508
  0
LINE
  5
272
100
AcDbEntity
  8
0
100
AcDbLine
 62
7
  6
CONTINUOUS
 10
74.1045005412
 20
50.5344276629
 11
70.2154294361
 21
48.2890848164
  0
LINE
  5
273
100
AcDbEntity
  8
0
100
AcDbLine
 62
7
  6
CONTINUOUS
 10
66.008001588
 20
26.0597426964
 11
66.008001588
 21
26.8796820399
  0
LINE
  5
274
100
AcDbEntity
  8
0
100
AcDbLine
 62
7
  6
CONTINUOUS
 10
66.008001588
 20
93.9341350241
 11
66.008001588
 21
95.299147669
  0
LINE
  5
275
100
AcDbEntity
  8
0
100
AcDbLine
 62
7
  6
CONTINUOUS
 10
66.6797558269
 20
94.9113189522
 11
66.6797558269
 21
93.5463063073
  0
LINE
  5
276
100
AcDbEntity
  8
0
100
AcDbLine
 62
7
  6
CONTINUOUS
 10
66.6797558269
 20
25.6719139797
 11
66.6797558269
 21
27.036926659
  0
LINE
  5
277
100
AcDbEntity
  8
0
100
AcDbLine
 62
7
  6
CONTINUOUS
 10
68.0233892881
 20
26.4476564896
 11
68.0233892881
 21
25.847247484
  0
LINE
  5
278
100
AcDbEntity
  8
0
100
AcDbLine
 62
7
  6
CONTINUOUS
 10
65.9111654039
 20
98.6737003418
 11
65.9124625931
 21
100.0199954902
  0
LINE
  5
279
100
AcDbEntity
  8
0
100
AcDbLine
 62
7
  6
CONTINUOUS
 10
66.8292719468
 20
98.0326634226
 11
66.8303998227
 21
99.2032357883
  0
LINE
  5
27A
100
AcDbEntity
  8
0
100
AcDbLine
 62
7
  6
CONTINUOUS
 10
27.785731643
 20
20.2824855978
 11
39.194576252
 21
26.8693457857
  0
LINE
  5
27B
100
AcDbEntity
  8
0
100
AcDbLine
 62
7
  6
CONTINUOUS
 10
49.2850014314
 20
84.868512767
 11
48.6132471925
 21
85.2563414838
  0
LINE
  5
27C
100
AcDbEntity
  8
0
100
AcDbLine
 62
7
  6
CONTINUOUS
 10
36.7691592963
 20
92.094374122
 11
37.4409135352
 21
91.7065454052
  0
LINE
  5
27D
100
AcDbEntity
  8
0
100
AcDbLine
 62
7
  6
CONTINUOUS
 10
69.1809987016
 20
93.9058963279
 11
70.0896121547
 21
79.407481649
  0
LINE
  5
27E
100
AcDbEntity
  8
0
100
AcDbLine
 62
7
  6
CONTINUOUS
 10
68.9645981969
 20
101.7782129337
 11
69.1054813862
 21
99.530191079
  0
LINE
  5
27F
100
AcDbEntity
  8
0
100
AcDbLine
 62
7
  6
CONTINUOUS
 10
70.6906491886
 20
79.7544479481
 11
70.8141439432
 21
77.7838870264
  0
LINE
  5
280
100
AcDbEntity
  8
0
100
AcDbLine
 62
7
  6
CONTINUOUS
 10
70.8117958559
 20
91.8778850601
 11
70.6321932309
 21
94.7437388788
  0
LINE
  5
281
100
AcDbEntity
  8
0
100
AcDbLine
 62
7
  6
CONTINUOUS
 10
71.2938553117
 20
85.2733227214
 11
71.2348897442
 21
87.8454426779
  0
LINE
  5
282
100
AcDbEntity
  8
0
100
AcDbLine
 62
7
  6
CONTINUOUS
 10
70.2154294361
 20
48.2890848164
 11
70.2154294361
 21
77.4382211079
  0
LINE
  5
283
100
AcDbEntity
  8
0
100
AcDbLine
 62
7
  6
CONTINUOUS
 10
70.3568319509
 20
27.7948621974
 11
70.3568319509
 21
27.1944531917
  0
LINE
  5
284
100
AcDbEntity
  8
0
100
AcDbLine
 62
7
  6
CONTINUOUS
 10
70.7103868135
 20
50.6977164859
 11
70.7103868135
 21
50.0853502551
  0
LINE
  5
285
100
AcDbEntity
  8
0
100
AcDbLine
 62
7
  6
CONTINUOUS
 10
71.1799958551
 20
77.9360493425
 11
71.2938553117
 21
85.2733227214
  0
LINE
  5
286
100
AcDbEntity
  8
0
100
AcDbLine
 62
7
  6
CONTINUOUS
 10
52.8558702158
 20
87.705806407
 11
52.2194714632
 21
88.0732230861
  0
LINE
  5
287
100
AcDbEntity
  8
0
100
AcDbLine
 62
7
  6
CONTINUOUS
 10
41.6835365585
 20
94.1560103284
 11
42.3199353111
 21
93.7885936494
  0
LINE
  5
288
100
AcDbEntity
  8
0
100
AcDbLine
 62
7
  6
CONTINUOUS
 10
71.2348897442
 20
87.8454426779
 11
70.8117958559
 21
91.8778850601
  0
LINE
  5
289
100
AcDbEntity
  8
0
100
AcDbLine
 62
7
  6
CONTINUOUS
 10
72.6879576431
 20
78.8657274129
 11
71.6558469846
 21
95.3347421212
  0
LINE
  5
28A
100
AcDbEntity
  8
0
100
AcDbLine
 62
7
  6
CONTINUOUS
 10
74.1045005412
 20
29.9585667513
 11
74.1045005412
 21
50.5344276629
  0
LINE
  5
28B
100
AcDbEntity
  8
0
100
AcDbLine
 62
7
  6
CONTINUOUS
 10
74.1045005412
 20
79.6835639547
 11
74.1045005412
 21
91.2778982781
  0
LINE
  5
28C
100
AcDbEntity
  8
0
100
AcDbLine
 62
7
  6
CONTINUOUS
 10
46.0921367764
 20
93.488668858
 11
51.6999476491
 21
90.2510709853
  0
LINE
  5
28D
100
AcDbEntity
  8
0
100
AcDbLine
 62
7
  6
CONTINUOUS
 10
70.6906491886
 20
79.7544479482
 11
70.0444890199
 21
80.1274951125
  0
LINE
  5
28E
100
AcDbEntity
  8
0
100
AcDbLine
 62
7
  6
CONTINUOUS
 10
71.2076844572
 20
79.7203442013
 11
72.6879576431
 21
78.8657274129
  0
LINE
  5
28F
100
AcDbEntity
  8
0
100
AcDbLine
 62
7
  6
CONTINUOUS
 10
61.1289798121
 20
90.2063534857
 11
61.7653785647
 21
89.8389368067
  0
LINE
  5
290
100
AcDbEntity
  8
0
100
AcDbLine
 62
7
  6
CONTINUOUS
 10
72.8950901401
 20
98.4997224712
 11
74.1045005412
 21
91.2778982781
  0
LINE
  5
291
100
AcDbEntity
  8
0
100
AcDbLine
 62
7
  6
CONTINUOUS
 10
52.8558702158
 20
19.2012409114
 11
61.1289798121
 21
23.9776944523
  0
LINE
  5
292
100
AcDbEntity
  8
0
100
AcDbLine
 62
7
  6
CONTINUOUS
 10
49.2850014314
 20
16.4047716868
 11
52.8558702158
 21
18.4664014344
  0
LINE
  5
293
100
AcDbEntity
  8
0
100
AcDbLine
 62
7
  6
CONTINUOUS
 10
61.7653785647
 20
23.6102777732
 11
66.008001588
 21
26.0597426964
  0
LINE
  5
294
100
AcDbEntity
  8
0
100
AcDbLine
 62
7
  6
CONTINUOUS
 10
40.183678258
 20
10.3744877761
 11
49.2850014314
 21
15.6291077944
  0
LINE
  5
295
100
AcDbEntity
  8
0
100
AcDbLine
 62
7
  6
CONTINUOUS
 10
66.6797558269
 20
25.6719139797
 11
74.1045005412
 21
29.9585667513
  0
LINE
  5
296
100
AcDbEntity
  8
0
100
AcDbLine
 62
7
  6
CONTINUOUS
 10
68.0233892881
 20
25.847247484
 11
70.3568319509
 21
27.1944531917
  0
LINE
  5
297
100
AcDbEntity
  8
0
100
AcDbLine
 62
7
  6
CONTINUOUS
 10
61.7653785647
 20
92.8496827458
 11
61.1289798121
 21
93.2170994249
  0
LINE
  5
298
100
AcDbEntity
  8
0
100
AcDbLine
 62
7
  6
CONTINUOUS
 10
50.5930449074
 20
99.2998866672
 11
51.22944366
 21
98.9324699882
  0
LINE
  5
299
100
AcDbEntity
  8
0
100
AcDbLine
 62
7
  6
CONTINUOUS
 10
66.008001588
 20
93.9341350241
 11
66.6797558269
 21
93.5463063073
  0
LINE
  5
29A
100
AcDbEntity
  8
0
100
AcDbLine
 62
7
  6
CONTINUOUS
 10
66.6797558269
 20
94.9113189522
 11
66.008001588
 21
95.299147669
  0
LINE
  5
29B
100
AcDbEntity
  8
0
100
AcDbLine
 62
7
  6
CONTINUOUS
 10
54.1639136918
 20
102.1371803072
 11
54.8356679307
 21
101.7493515905
  0
LINE
  5
29C
100
AcDbEntity
  8
0
100
AcDbLine
 62
7
  6
CONTINUOUS
 10
57.2241164364
 20
103.0874903315
 11
68.3257391212
 21
96.6781104855
  0
LINE
  5
29D
100
AcDbEntity
  8
0
100
AcDbLine
 62
7
  6
CONTINUOUS
 10
57.8501145372
 20
103.3276449434
 11
60.9967528141
 21
101.5109735857
  0
LINE
  5
29E
100
AcDbEntity
  8
0
100
AcDbLine
 62
7
  6
CONTINUOUS
 10
62.764527127
 20
100.4903716994
 11
65.9111654039
 21
98.6737003418
  0
LINE
  5
29F
100
AcDbEntity
  8
0
100
AcDbLine
 62
7
  6
CONTINUOUS
 10
61.0424579886
 20
101.5373025716
 11
61.7028840771
 21
101.1560140175
  0
LINE
  5
2A0
100
AcDbEntity
  8
0
100
AcDbLine
 62
7
  6
CONTINUOUS
 10
69.2693253774
 20
98.9910108222
 11
70.8005874042
 21
98.1069562788
  0
LINE
  5
2A1
100
AcDbEntity
  8
0
100
AcDbLine
 62
7
  6
CONTINUOUS
 10
69.0302235022
 20
100.7310537855
 11
72.8950901401
 21
98.4997224712
  0
ARC
  5
2A2
100
AcDbEntity
  8
0
100
AcDbCircle
 62
7
  6
CONTINUOUS
 10
215.2552171847
 20
47.7566361154
 40
202.6330752442
100
AcDbArc
 50
179.9998310507
 51
180.3862139255
  0
ARC
  5
2A3
100
AcDbEntity
  8
0
100
AcDbCircle
 62
7
  6
CONTINUOUS
 10
227.5263771741
 20
40.529950453
 40
202.3883931027
100
AcDbArc
 50
179.9995974865
 51
180.3864474897
  0
ARC
  5
2A4
100
AcDbEntity
  8
0
100
AcDbCircle
 62
7
  6
CONTINUOUS
 10
156.4591075737
 20
47.8651456713
 40
142.7086805635
100
AcDbArc
 50
180.8580205829
 51
183.2051234198
  0
ARC
  5
2A5
100
AcDbEntity
  8
0
100
AcDbCircle
 62
7
  6
CONTINUOUS
 10
167.7651954371
 20
40.602024696
 40
141.4987386863
100
AcDbArc
 50
180.5796339703
 51
183.2174479833
  0
ARC
  5
2A6
100
AcDbEntity
  8
0
100
AcDbCircle
 62
7
  6
CONTINUOUS
 10
136.4929001697
 20
46.346757702
 40
122.6792857212
100
AcDbArc
 50
186.5734243984
 51
187.4024372649
  0
ARC
  5
2A7
100
AcDbEntity
  8
0
100
AcDbCircle
 62
7
  6
CONTINUOUS
 10
148.0173357209
 20
39.0412251906
 40
121.6861903843
100
AcDbArc
 50
184.8568329088
 51
188.8678899739
  0
ARC
  5
2A8
100
AcDbEntity
  8
0
100
AcDbCircle
 62
7
  6
CONTINUOUS
 10
131.4852650794
 20
31.2504625519
 40
104.7109552603
100
AcDbArc
 50
185.8839276033
 51
187.4903921257
  0
ARC
  5
2A9
100
AcDbEntity
  8
0
100
AcDbCircle
 62
7
  6
CONTINUOUS
 10
53.3398302111
 20
87.1568596663
 40
18.9474538931
100
AcDbArc
 50
56.9049568734
 51
59.9885237671
  0
ARC
  5
2AA
100
AcDbEntity
  8
0
100
AcDbCircle
 62
7
  6
CONTINUOUS
 10
54.213660921
 20
88.6879765525
 40
17.1845566532
100
AcDbArc
 50
59.9580098327
 51
63.3637504977
  0
ARC
  5
2AB
100
AcDbEntity
  8
0
100
AcDbCircle
 62
7
  6
CONTINUOUS
 10
71.5496616221
 20
39.1633941817
 40
13.7751355511
100
AcDbArc
 50
252.637309615
 51
255.1678507022
  0
ARC
  5
2AC
100
AcDbEntity
  8
0
100
AcDbCircle
 62
7
  6
CONTINUOUS
 10
24.3602516389
 20
36.9785699891
 40
10.8
100
AcDbArc
 50
263.0238756701
 51
267.1684852826
  0
ARC
  5
2AD
100
AcDbEntity
  8
0
100
AcDbCircle
 62
7
  6
CONTINUOUS
 10
24.3602516389
 20
36.9785699891
 40
10.8
100
AcDbArc
 50
161.8303621457
 51
205.458684371
  0
ARC
  5
2AE
100
AcDbEntity
  8
0
100
AcDbCircle
 62
7
  6
CONTINUOUS
 10
23.7488227564
 20
34.090464892
 40
7.8513285213
100
AcDbArc
 50
267.2688862899
 51
273.3912471557
  0
ARC
  5
2AF
100
AcDbEntity
  8
0
100
AcDbCircle
 62
7
  6
CONTINUOUS
 10
66.7461173236
 20
86.2618143049
 40
3.0077527349
100
AcDbArc
 50
167.262222334
 51
167.9303211231
  0
ARC
  5
2B0
100
AcDbEntity
  8
0
100
AcDbCircle
 62
7
  6
CONTINUOUS
 10
52.9553552697
 20
54.1330068974
 40
3.0073389087
100
AcDbArc
 50
167.2682099869
 51
167.9368459929
  0
ARC
  5
2B1
100
AcDbEntity
  8
0
100
AcDbCircle
 62
7
  6
CONTINUOUS
 10
45.1046881716
 20
25.6777222313
 40
3.0073389082
100
AcDbArc
 50
167.2682099869
 51
167.936845993
  0
ARC
  5
2B2
100
AcDbEntity
  8
0
100
AcDbCircle
 62
7
  6
CONTINUOUS
 10
32.0263949389
 20
32.3367187754
 40
3.0073389083
100
AcDbArc
 50
167.2682099869
 51
167.9368459929
  0
ARC
  5
2B3
100
AcDbEntity
  8
0
100
AcDbCircle
 62
7
  6
CONTINUOUS
 10
42.7415631901
 20
66.7162284311
 40
2.9736759628
100
AcDbArc
 50
167.4166050741
 51
168.859481864
  0
ARC
  5
2B4
100
AcDbEntity
  8
0
100
AcDbCircle
 62
7
  6
CONTINUOUS
 10
68.7596277202
 20
37.4806128875
 40
2.9736759627
100
AcDbArc
 50
167.416605074
 51
168.859481864
  0
ARC
  5
2B5
100
AcDbEntity
  8
0
100
AcDbCircle
 62
7
  6
CONTINUOUS
 10
18.7497336148
 20
35.2662951379
 40
2.6254553474
100
AcDbArc
 50
219.1514529278
 51
219.4644954902
  0
ARC
  5
2B6
100
AcDbEntity
  8
0
100
AcDbCircle
 62
7
  6
CONTINUOUS
 10
40.8440923572
 20
68.8618427746
 40
0.3743228994
100
AcDbArc
 50
60.0581563464
 51
72.5223534537
  0
ARC
  5
2B7
100
AcDbEntity
  8
0
100
AcDbCircle
 62
7
  6
CONTINUOUS
 10
66.8621568873
 20
39.626227231
 40
0.3743228994
100
AcDbArc
 50
60.0581563465
 51
72.5223534538
  0
ARC
  5
2B8
100
AcDbEntity
  8
0
100
AcDbCircle
 62
7
  6
CONTINUOUS
 10
58.386858206
 20
102.5246704133
 40
0.3447563685
100
AcDbArc
 50
303.3801918395
 51
314.1442762846
  0
SPLINE
  5
2B9
100
AcDbEntity
  8
0
100
AcDbSpline
 62
7
  6
CONTINUOUS
 70
0
 71
3
 72
13
 73
9
 74
0
 42
0.0000001
 43
0.0000001
 44
0.0000000001
 40
0.0
 40
0.0
 40
0.0
 40
0.0
 40
0.1011910966
 40
0.2056580014
 40
0.4338698314
 40
0.5615991689
 40
0.6988829424
 40
1.0
 40
1.0
 40
1.0
 40
1.0
 10
42.4898044805
 20
69.6718439994
 30
0.0
 10
42.4410359371
 20
69.7000260236
 30
0.0
 10
42.3349814702
 20
69.7460865946
 30
0.0
 10
42.0962369474
 20
69.7919837275
 30
0.0
 10
41.8354546448
 20
69.7612578329
 30
0.0
 10
41.5757828027
 20
69.6711565652
 30
0.0
 10
41.2930904732
 20
69.5301028663
 30
0.0
 10
41.0948408531
 20
69.3841154775
 30
0.0
 10
40.9686621788
 20
69.2737880894
 30
0.0
  0
SPLINE
  5
2BA
100
AcDbEntity
  8
0
100
AcDbSpline
 62
7
  6
CONTINUOUS
 70
0
 71
3
 72
11
 73
7
 74
0
 42
0.0000001
 43
0.0000001
 44
0.0000000001
 40
0.0
 40
0.0
 40
0.0
 40
0.0
 40
0.2409479777
 40
0.4932407166
 40
0.7490175227
 40
1.0
 40
1.0
 40
1.0
 40
1.0
 10
40.9686621788
 20
69.2737880894
 30
0.0
 10
40.8516891152
 20
69.1715098505
 30
0.0
 10
40.628448357
 20
68.9431181674
 30
0.0
 10
40.3392243942
 20
68.5546749965
 30
0.0
 10
40.0980589195
 20
68.1272915151
 30
0.0
 10
39.9742884113
 20
67.8236301704
 30
0.0
 10
39.923790828
 20
67.6698564295
 30
0.0
  0
SPLINE
  5
2BB
100
AcDbEntity
  8
0
100
AcDbSpline
 62
7
  6
CONTINUOUS
 70
0
 71
3
 72
9
 73
5
 74
0
 42
0.0000001
 43
0.0000001
 44
0.0000000001
 40
0.0
 40
0.0
 40
0.0
 40
0.0
 40
0.2537976197
 40
1.0
 40
1.0
 40
1.0
 40
1.0
 10
39.923790828
 20
67.6698564295
 30
0.0
 10
39.9154156419
 20
67.6443525616
 30
0.0
 10
39.8835881359
 20
67.5434843068
 30
0.0
 10
39.8565048255
 20
67.4411047716
 30
0.0
 10
39.8393150972
 20
67.3640746619
 30
0.0
  0
SPLINE
  5
2BC
100
AcDbEntity
  8
0
100
AcDbSpline
 62
7
  6
CONTINUOUS
 70
0
 71
3
 72
9
 73
5
 74
0
 42
0.0000001
 43
0.0000001
 44
0.0000000001
 40
0.0
 40
0.0
 40
0.0
 40
0.0
 40
0.2603828752
 40
1.0
 40
1.0
 40
1.0
 40
1.0
 10
39.8239223685
 20
67.2907898011
 30
0.0
 10
39.8157242215
 20
67.2491452701
 30
0.0
 10
39.7877348055
 20
67.0885683808
 30
0.0
 10
39.7738601159
 20
66.9253228434
 30
0.0
 10
39.7738601159
 20
66.804761286
 30
0.0
  0
SPLINE
  5
2BD
100
AcDbEntity
  8
0
100
AcDbSpline
 62
7
  6
CONTINUOUS
 70
0
 71
3
 72
13
 73
9
 74
0
 42
0.0000001
 43
0.0000001
 44
0.0000000001
 40
0.0
 40
0.0
 40
0.0
 40
0.0
 40
0.1005832018
 40
0.2045622484
 40
0.3147895564
 40
0.4333036834
 40
0.6981947238
 40
1.0
 40
1.0
 40
1.0
 40
1.0
 10
52.6707000904
 20
57.0957674214
 30
0.0
 10
52.6208431386
 20
57.1245784074
 30
0.0
 10
52.5121916465
 20
57.1714445521
 30
0.0
 10
52.3336798829
 20
57.2043740413
 30
0.0
 10
52.1420719061
 20
57.2005585956
 30
0.0
 10
51.8637479837
 20
57.1449974068
 30
0.0
 10
51.5024387555
 20
56.979832254
 30
0.0
 10
51.2425066214
 20
56.7821227472
 30
0.0
 10
51.1142549832
 20
56.6663443958
 30
0.0
  0
SPLINE
  5
2BE
100
AcDbEntity
  8
0
100
AcDbSpline
 62
7
  6
CONTINUOUS
 70
0
 71
3
 72
11
 73
7
 74
0
 42
0.0000001
 43
0.0000001
 44
0.0000000001
 40
0.0
 40
0.0
 40
0.0
 40
0.0
 40
0.2416983193
 40
0.4938016395
 40
0.7490944218
 40
1.0
 40
1.0
 40
1.0
 40
1.0
 10
51.1142549832
 20
56.6663443958
 30
0.0
 10
51.0033230117
 20
56.5662012635
 30
0.0
 10
50.7916048962
 20
56.3446560326
 30
0.0
 10
50.5161473984
 20
55.9709013664
 30
0.0
 10
50.2850193574
 20
55.561702485
 30
0.0
 10
50.1647951364
 20
55.2716638652
 30
0.0
 10
50.1150108842
 20
55.1247281187
 30
0.0
  0
SPLINE
  5
2BF
100
AcDbEntity
  8
0
100
AcDbSpline
 62
7
  6
CONTINUOUS
 70
0
 71
3
 72
9
 73
5
 74
0
 42
0.0000001
 43
0.0000001
 44
0.0000000001
 40
0.0
 40
0.0
 40
0.0
 40
0.0
 40
0.2539861971
 40
1.0
 40
1.0
 40
1.0
 40
1.0
 10
50.1150108842
 20
55.1247281187
 30
0.0
 10
50.1057212242
 20
55.0973101489
 30
0.0
 10
50.0704900209
 20
54.9889110756
 30
0.0
 10
50.0406978709
 20
54.8787257418
 30
0.0
 10
50.0219595643
 20
54.79578661
 30
0.0
  0
SPLINE
  5
2C0
100
AcDbEntity
  8
0
100
AcDbSpline
 62
7
  6
CONTINUOUS
 70
0
 71
3
 72
9
 73
5
 74
0
 42
0.0000001
 43
0.0000001
 44
0.0000000001
 40
0.0
 40
0.0
 40
0.0
 40
0.0
 40
0.2610858127
 40
1.0
 40
1.0
 40
1.0
 40
1.0
 10
50.0144249093
 20
54.7615098227
 30
0.0
 10
50.0046641827
 20
54.7158337317
 30
0.0
 10
49.9714080832
 20
54.54006757
 30
0.0
 10
49.9547557258
 20
54.3608739199
 30
0.0
 10
49.9547557258
 20
54.228684708
 30
0.0
  0
SPLINE
  5
2C1
100
AcDbEntity
  8
0
100
AcDbSpline
 62
7
  6
CONTINUOUS
 70
0
 71
3
 72
9
 73
5
 74
0
 42
0.0000001
 43
0.0000001
 44
0.0000000001
 40
0.0
 40
0.0
 40
0.0
 40
0.0
 40
0.7469361094
 40
1.0
 40
1.0
 40
1.0
 40
1.0
 10
51.1868233445
 20
56.56683224
 30
0.0
 10
51.1655610409
 20
56.5790896459
 30
0.0
 10
51.1352287497
 20
56.5925330742
 30
0.0
 10
51.103662768
 20
56.6016813184
 30
0.0
 10
51.0956048138
 20
56.6037329264
 30
0.0
  0
SPLINE
  5
2C2
100
AcDbEntity
  8
0
100
AcDbSpline
 62
7
  6
CONTINUOUS
 70
0
 71
3
 72
13
 73
9
 74
0
 42
0.0000001
 43
0.0000001
 44
0.0000000001
 40
0.0
 40
0.0
 40
0.0
 40
0.0
 40
0.1005832018
 40
0.2045622484
 40
0.3147895564
 40
0.4333036834
 40
0.6981947238
 40
1.0
 40
1.0
 40
1.0
 40
1.0
 10
66.4610579767
 20
89.2246637265
 30
0.0
 10
66.4112010249
 20
89.2534747125
 30
0.0
 10
66.3025495328
 20
89.3003408572
 30
0.0
 10
66.1240377692
 20
89.3332703464
 30
0.0
 10
65.9324297924
 20
89.3294549007
 30
0.0
 10
65.65410587
 20
89.2738937118
 30
0.0
 10
65.2927966418
 20
89.1087285591
 30
0.0
 10
65.0328645077
 20
88.9110190523
 30
0.0
 10
64.9046128695
 20
88.7952407009
 30
0.0
  0
SPLINE
  5
2C3
100
AcDbEntity
  8
0
100
AcDbSpline
 62
7
  6
CONTINUOUS
 70
0
 71
3
 72
11
 73
7
 74
0
 42
0.0000001
 43
0.0000001
 44
0.0000000001
 40
0.0
 40
0.0
 40
0.0
 40
0.0
 40
0.2416983193
 40
0.4938016395
 40
0.7490944218
 40
1.0
 40
1.0
 40
1.0
 40
1.0
 10
64.9046128695
 20
88.7952407009
 30
0.0
 10
64.793680898
 20
88.6950975685
 30
0.0
 10
64.5819627825
 20
88.4735523377
 30
0.0
 10
64.3065052847
 20
88.0997976714
 30
0.0
 10
64.0753772437
 20
87.69059879
 30
0.0
 10
63.9551530228
 20
87.4005601702
 30
0.0
 10
63.9053687705
 20
87.2536244238
 30
0.0
  0
SPLINE
  5
2C4
100
AcDbEntity
  8
0
100
AcDbSpline
 62
7
  6
CONTINUOUS
 70
0
 71
3
 72
9
 73
5
 74
0
 42
0.0000001
 43
0.0000001
 44
0.0000000001
 40
0.0
 40
0.0
 40
0.0
 40
0.0
 40
0.2539817518
 40
1.0
 40
1.0
 40
1.0
 40
1.0
 10
63.9053687705
 20
87.2536244238
 30
0.0
 10
63.8960878711
 20
87.2262323103
 30
0.0
 10
63.8608880053
 20
87.1179339812
 30
0.0
 10
63.8311169877
 20
87.0078527145
 30
0.0
 10
63.8123872558
 20
86.9249918105
 30
0.0
  0
SPLINE
  5
2C5
100
AcDbEntity
  8
0
100
AcDbSpline
 62
7
  6
CONTINUOUS
 70
0
 71
3
 72
9
 73
5
 74
0
 42
0.0000001
 43
0.0000001
 44
0.0000000001
 40
0.0
 40
0.0
 40
0.0
 40
0.0
 40
0.2610906444
 40
1.0
 40
1.0
 40
1.0
 40
1.0
 10
63.8048538783
 20
86.8907386721
 30
0.0
 10
63.7950815966
 20
86.8450339713
 30
0.0
 10
63.7617866045
 20
86.6691601026
 30
0.0
 10
63.7451136121
 20
86.4898529296
 30
0.0
 10
63.7451136121
 20
86.3575810131
 30
0.0
  0
SPLINE
  5
2C6
100
AcDbEntity
  8
0
100
AcDbSpline
 62
7
  6
CONTINUOUS
 70
0
 71
3
 72
9
 73
5
 74
0
 42
0.0000001
 43
0.0000001
 44
0.0000000001
 40
0.0
 40
0.0
 40
0.0
 40
0.0
 40
0.7469361094
 40
1.0
 40
1.0
 40
1.0
 40
1.0
 10
64.9771812309
 20
88.695728545
 30
0.0
 10
64.9559189272
 20
88.7079859509
 30
0.0
 10
64.9255866361
 20
88.7214293793
 30
0.0
 10
64.8940206543
 20
88.7305776234
 30
0.0
 10
64.8859627001
 20
88.7326292314
 30
0.0
  0
SPLINE
  5
2C7
100
AcDbEntity
  8
0
100
AcDbSpline
 62
7
  6
CONTINUOUS
 70
0
 71
3
 72
13
 73
9
 74
0
 42
0.0000001
 43
0.0000001
 44
0.0000000001
 40
0.0
 40
0.0
 40
0.0
 40
0.0
 40
0.1011910966
 40
0.2056580014
 40
0.4338698314
 40
0.5615991689
 40
0.6988829424
 40
1.0
 40
1.0
 40
1.0
 40
1.0
 10
68.5078690106
 20
40.4362284558
 30
0.0
 10
68.4591004673
 20
40.46441048
 30
0.0
 10
68.3530460004
 20
40.510471051
 30
0.0
 10
68.1143014775
 20
40.5563681839
 30
0.0
 10
67.8535191749
 20
40.5256422893
 30
0.0
 10
67.5938473328
 20
40.4355410216
 30
0.0
 10
67.3111550034
 20
40.2944873227
 30
0.0
 10
67.1129053833
 20
40.1484999339
 30
0.0
 10
66.986726709
 20
40.0381725458
 30
0.0
  0
SPLINE
  5
2C8
100
AcDbEntity
  8
0
100
AcDbSpline
 62
7
  6
CONTINUOUS
 70
0
 71
3
 72
11
 73
7
 74
0
 42
0.0000001
 43
0.0000001
 44
0.0000000001
 40
0.0
 40
0.0
 40
0.0
 40
0.0
 40
0.2409479777
 40
0.4932407166
 40
0.7490175227
 40
1.0
 40
1.0
 40
1.0
 40
1.0
 10
66.986726709
 20
40.0381725458
 30
0.0
 10
66.8697536453
 20
39.9358943069
 30
0.0
 10
66.6465128871
 20
39.7075026238
 30
0.0
 10
66.3572889244
 20
39.3190594529
 30
0.0
 10
66.1161234497
 20
38.8916759715
 30
0.0
 10
65.9923529414
 20
38.5880146268
 30
0.0
 10
65.9418553581
 20
38.4342408859
 30
0.0
  0
SPLINE
  5
2C9
100
AcDbEntity
  8
0
100
AcDbSpline
 62
7
  6
CONTINUOUS
 70
0
 71
3
 72
9
 73
5
 74
0
 42
0.0000001
 43
0.0000001
 44
0.0000000001
 40
0.0
 40
0.0
 40
0.0
 40
0.0
 40
0.2537976197
 40
1.0
 40
1.0
 40
1.0
 40
1.0
 10
65.9418553581
 20
38.4342408859
 30
0.0
 10
65.9334801721
 20
38.408737018
 30
0.0
 10
65.9016526661
 20
38.3078687632
 30
0.0
 10
65.8745693557
 20
38.205489228
 30
0.0
 10
65.8573796273
 20
38.1284591183
 30
0.0
  0
SPLINE
  5
2CA
100
AcDbEntity
  8
0
100
AcDbSpline
 62
7
  6
CONTINUOUS
 70
0
 71
3
 72
9
 73
5
 74
0
 42
0.0000001
 43
0.0000001
 44
0.0000000001
 40
0.0
 40
0.0
 40
0.0
 40
0.0
 40
0.2603828752
 40
1.0
 40
1.0
 40
1.0
 40
1.0
 10
65.8419868987
 20
38.0551742575
 30
0.0
 10
65.8337887517
 20
38.0135297265
 30
0.0
 10
65.8057993357
 20
37.8529528372
 30
0.0
 10
65.7919246461
 20
37.6897072998
 30
0.0
 10
65.7919246461
 20
37.5691457424
 30
0.0
  0
SPLINE
  5
2CB
100
AcDbEntity
  8
0
100
AcDbSpline
 62
7
  6
CONTINUOUS
 70
0
 71
3
 72
13
 73
9
 74
0
 42
0.0000001
 43
0.0000001
 44
0.0000000001
 40
0.0
 40
0.0
 40
0.0
 40
0.0
 40
0.1005832018
 40
0.2045622484
 40
0.3147895564
 40
0.4333036834
 40
0.6981947238
 40
1.0
 40
1.0
 40
1.0
 40
1.0
 10
44.8200329927
 20
28.6404827553
 30
0.0
 10
44.7701760409
 20
28.6692937413
 30
0.0
 10
44.6615245489
 20
28.716159886
 30
0.0
 10
44.4830127853
 20
28.7490893752
 30
0.0
 10
44.2914048085
 20
28.7452739295
 30
0.0
 10
44.0130808861
 20
28.6897127406
 30
0.0
 10
43.6517716579
 20
28.5245475879
 30
0.0
 10
43.3918395238
 20
28.3268380811
 30
0.0
 10
43.2635878856
 20
28.2110597297
 30
0.0
  0
SPLINE
  5
2CC
100
AcDbEntity
  8
0
100
AcDbSpline
 62
7
  6
CONTINUOUS
 70
0
 71
3
 72
11
 73
7
 74
0
 42
0.0000001
 43
0.0000001
 44
0.0000000001
 40
0.0
 40
0.0
 40
0.0
 40
0.0
 40
0.2416983193
 40
0.4938016395
 40
0.7490944218
 40
1.0
 40
1.0
 40
1.0
 40
1.0
 10
43.2635878856
 20
28.2110597297
 30
0.0
 10
43.1526559141
 20
28.1109165973
 30
0.0
 10
42.9409377985
 20
27.8893713665
 30
0.0
 10
42.6654803008
 20
27.5156167002
 30
0.0
 10
42.4343522597
 20
27.1064178188
 30
0.0
 10
42.3141280388
 20
26.816379199
 30
0.0
 10
42.2643437866
 20
26.6694434526
 30
0.0
  0
SPLINE
  5
2CD
100
AcDbEntity
  8
0
100
AcDbSpline
 62
7
  6
CONTINUOUS
 70
0
 71
3
 72
9
 73
5
 74
0
 42
0.0000001
 43
0.0000001
 44
0.0000000001
 40
0.0
 40
0.0
 40
0.0
 40
0.0
 40
0.2539861971
 40
1.0
 40
1.0
 40
1.0
 40
1.0
 10
42.2643437866
 20
26.6694434526
 30
0.0
 10
42.2550541266
 20
26.6420254828
 30
0.0
 10
42.2198229232
 20
26.5336264095
 30
0.0
 10
42.1900307732
 20
26.4234410757
 30
0.0
 10
42.1712924667
 20
26.3405019439
 30
0.0
  0
SPLINE
  5
2CE
100
AcDbEntity
  8
0
100
AcDbSpline
 62
7
  6
CONTINUOUS
 70
0
 71
3
 72
9
 73
5
 74
0
 42
0.0000001
 43
0.0000001
 44
0.0000000001
 40
0.0
 40
0.0
 40
0.0
 40
0.0
 40
0.2610858127
 40
1.0
 40
1.0
 40
1.0
 40
1.0
 10
42.1637578116
 20
26.3062251566
 30
0.0
 10
42.1539970851
 20
26.2605490655
 30
0.0
 10
42.1207409856
 20
26.0847829039
 30
0.0
 10
42.1040886281
 20
25.9055892537
 30
0.0
 10
42.1040886281
 20
25.7734000419
 30
0.0
  0
SPLINE
  5
2CF
100
AcDbEntity
  8
0
100
AcDbSpline
 62
7
  6
CONTINUOUS
 70
0
 71
3
 72
9
 73
5
 74
0
 42
0.0000001
 43
0.0000001
 44
0.0000000001
 40
0.0
 40
0.0
 40
0.0
 40
0.0
 40
0.7469361094
 40
1.0
 40
1.0
 40
1.0
 40
1.0
 10
43.3361562469
 20
28.1115475738
 30
0.0
 10
43.3148939432
 20
28.1238049798
 30
0.0
 10
43.2845616521
 20
28.1372484081
 30
0.0
 10
43.2529956704
 20
28.1463966522
 30
0.0
 10
43.2449377162
 20
28.1484482602
 30
0.0
  0
SPLINE
  5
2D0
100
AcDbEntity
  8
0
100
AcDbSpline
 62
7
  6
CONTINUOUS
 70
0
 71
3
 72
13
 73
9
 74
0
 42
0.0000001
 43
0.0000001
 44
0.0000000001
 40
0.0
 40
0.0
 40
0.0
 40
0.0
 40
0.1005832018
 40
0.2045622484
 40
0.3147895564
 40
0.4333036834
 40
0.6981947238
 40
1.0
 40
1.0
 40
1.0
 40
1.0
 10
31.74173976
 20
35.2994792993
 30
0.0
 10
31.6918828082
 20
35.3282902853
 30
0.0
 10
31.5832313161
 20
35.37515643
 30
0.0
 10
31.4047195525
 20
35.4080859193
 30
0.0
 10
31.2131115758
 20
35.4042704735
 30
0.0
 10
30.9347876533
 20
35.3487092847
 30
0.0
 10
30.5734784251
 20
35.1835441319
 30
0.0
 10
30.313546291
 20
34.9858346251
 30
0.0
 10
30.1852946528
 20
34.8700562737
 30
0.0
  0
SPLINE
  5
2D1
100
AcDbEntity
  8
0
100
AcDbSpline
 62
7
  6
CONTINUOUS
 70
0
 71
3
 72
11
 73
7
 74
0
 42
0.0000001
 43
0.0000001
 44
0.0000000001
 40
0.0
 40
0.0
 40
0.0
 40
0.0
 40
0.2416983193
 40
0.4938016395
 40
0.7490944218
 40
1.0
 40
1.0
 40
1.0
 40
1.0
 10
30.1852946528
 20
34.8700562737
 30
0.0
 10
30.0743626813
 20
34.7699131414
 30
0.0
 10
29.8626445658
 20
34.5483679105
 30
0.0
 10
29.587187068
 20
34.1746132443
 30
0.0
 10
29.356059027
 20
33.7654143629
 30
0.0
 10
29.2358348061
 20
33.4753757431
 30
0.0
 10
29.1860505539
 20
33.3284399966
 30
0.0
  0
SPLINE
  5
2D2
100
AcDbEntity
  8
0
100
AcDbSpline
 62
7
  6
CONTINUOUS
 70
0
 71
3
 72
9
 73
5
 74
0
 42
0.0000001
 43
0.0000001
 44
0.0000000001
 40
0.0
 40
0.0
 40
0.0
 40
0.0
 40
0.2539861971
 40
1.0
 40
1.0
 40
1.0
 40
1.0
 10
29.1860505539
 20
33.3284399966
 30
0.0
 10
29.1767608939
 20
33.3010220268
 30
0.0
 10
29.1415296905
 20
33.1926229535
 30
0.0
 10
29.1117375405
 20
33.0824376197
 30
0.0
 10
29.0929992339
 20
32.9994984879
 30
0.0
  0
SPLINE
  5
2D3
100
AcDbEntity
  8
0
100
AcDbSpline
 62
7
  6
CONTINUOUS
 70
0
 71
3
 72
9
 73
5
 74
0
 42
0.0000001
 43
0.0000001
 44
0.0000000001
 40
0.0
 40
0.0
 40
0.0
 40
0.0
 40
0.2610858127
 40
1.0
 40
1.0
 40
1.0
 40
1.0
 10
29.0854645789
 20
32.9652217006
 30
0.0
 10
29.0757038524
 20
32.9195456096
 30
0.0
 10
29.0424477528
 20
32.7437794479
 30
0.0
 10
29.0257953954
 20
32.5645857978
 30
0.0
 10
29.0257953954
 20
32.4323965859
 30
0.0
  0
SPLINE
  5
2D4
100
AcDbEntity
  8
0
100
AcDbSpline
 62
7
  6
CONTINUOUS
 70
0
 71
3
 72
9
 73
5
 74
0
 42
0.0000001
 43
0.0000001
 44
0.0000000001
 40
0.0
 40
0.0
 40
0.0
 40
0.0
 40
0.7469361094
 40
1.0
 40
1.0
 40
1.0
 40
1.0
 10
30.2578630142
 20
34.7705441179
 30
0.0
 10
30.2366007105
 20
34.7828015238
 30
0.0
 10
30.2062684194
 20
34.7962449521
 30
0.0
 10
30.1747024376
 20
34.8053931963
 30
0.0
 10
30.1666444834
 20
34.8074448043
 30
0.0
  0
SPLINE
  5
2D5
100
AcDbEntity
  8
0
100
AcDbSpline
 62
7
  6
CONTINUOUS
 70
0
 71
3
 72
9
 73
5
 74
0
 42
0.0000001
 43
0.0000001
 44
0.0000000001
 40
0.0
 40
0.0
 40
0.0
 40
0.0
 40
0.4716694958
 40
1.0
 40
1.0
 40
1.0
 40
1.0
 10
32.2417068287
 20
22.9376562369
 30
0.0
 10
32.3923853871
 20
22.9150848435
 30
0.0
 10
32.7062391448
 20
22.8277732611
 30
0.0
 10
32.9978987694
 20
22.6855602582
 30
0.0
 10
33.1456976883
 20
22.6002304429
 30
0.0
  0
SPLINE
  5
2D6
100
AcDbEntity
  8
0
100
AcDbSpline
 62
7
  6
CONTINUOUS
 70
0
 71
3
 72
9
 73
5
 74
0
 42
0.0000001
 43
0.0000001
 44
0.0000000001
 40
0.0
 40
0.0
 40
0.0
 40
0.0
 40
0.5121034988
 40
1.0
 40
1.0
 40
1.0
 40
1.0
 10
14.6090659446
 20
32.3361716214
 30
0.0
 10
14.7020106408
 20
32.1408496804
 30
0.0
 10
14.9106280087
 20
31.7714611463
 30
0.0
 10
15.1771916986
 20
31.4407460524
 30
0.0
 10
15.3204147
 20
31.2925649015
 30
0.0
  0
SPLINE
  5
2D7
100
AcDbEntity
  8
0
100
AcDbSpline
 62
7
  6
CONTINUOUS
 70
0
 71
3
 72
11
 73
7
 74
0
 42
0.0000001
 43
0.0000001
 44
0.0000000001
 40
0.0
 40
0.0
 40
0.0
 40
0.0
 40
0.2278042756
 40
0.4645394962
 40
0.7201771499
 40
1.0
 40
1.0
 40
1.0
 40
1.0
 10
31.698067395
 20
79.9894256774
 30
0.0
 10
31.8276475605
 20
80.0642642166
 30
0.0
 10
32.1178794043
 20
80.1759104571
 30
0.0
 10
32.5964455106
 20
80.2049203306
 30
0.0
 10
33.0976246146
 20
80.0986264343
 30
0.0
 10
33.4193089194
 20
79.9494911847
 30
0.0
 10
33.5784928229
 20
79.8575883942
 30
0.0
  0
SPLINE
  5
2D8
100
AcDbEntity
  8
0
100
AcDbSpline
 62
7
  6
CONTINUOUS
 70
0
 71
3
 72
11
 73
7
 74
0
 42
0.0000001
 43
0.0000001
 44
0.0000000001
 40
0.0
 40
0.0
 40
0.0
 40
0.0
 40
0.2194451642
 40
0.4565504407
 40
0.7165104835
 40
1.0
 40
1.0
 40
1.0
 40
1.0
 10
58.6269698234
 20
102.2772772752
 30
0.0
 10
58.6502779798
 20
102.2998750107
 30
0.0
 10
58.6923378032
 20
102.3538207801
 30
0.0
 10
58.7364619469
 20
102.4510514915
 30
0.0
 10
58.7627385471
 20
102.5641197152
 30
0.0
 10
58.7681806711
 20
102.6446692313
 30
0.0
 10
58.7682210802
 20
102.6866080524
 30
0.0
  0
SPLINE
  5
2D9
100
AcDbEntity
  8
0
100
AcDbSpline
 62
7
  6
CONTINUOUS
 70
0
 71
3
 72
10
 73
6
 74
0
 42
0.0000001
 43
0.0000001
 44
0.0000000001
 40
0.0
 40
0.0
 40
0.0
 40
0.0
 40
0.5468997872
 40
0.7816184768
 40
1.0
 40
1.0
 40
1.0
 40
1.0
 10
25.0651063031
 20
40.8361503268
 30
0.0
 10
25.0485910027
 20
40.8266162229
 30
0.0
 10
25.0221815891
 20
40.8162176715
 30
0.0
 10
24.9868770657
 20
40.8168856808
 30
0.0
 10
24.9716856928
 20
40.8224182294
 30
0.0
 10
24.9650911606
 20
40.8262255538
 30
0.0
  0
SPLINE
  5
2DA
100
AcDbEntity
  8
0
100
AcDbSpline
 62
7
  6
CONTINUOUS
 70
0
 71
3
 72
15
 73
11
 74
0
 42
0.0000001
 43
0.0000001
 44
0.0000000001
 40
0.0
 40
0.0
 40
0.0
 40
0.0
 40
0.1023775958
 40
0.2111216692
 40
0.3266335791
 40
0.4490353688
 40
0.5781187263
 40
0.7134235394
 40
0.8543413041
 40
1.0
 40
1.0
 40
1.0
 40
1.0
 10
66.6797558269
 20
27.036926659
 30
0.0
 10
65.9815696558
 20
27.0033545778
 30
0.0
 10
64.545604279
 20
26.8248098951
 30
0.0
 10
62.3822636857
 20
26.262089387
 30
0.0
 10
60.1712238975
 20
25.4042834421
 30
0.0
 10
57.936715611
 20
24.2619211831
 30
0.0
 10
55.7025441161
 20
22.847646042
 30
0.0
 10
53.4926532502
 20
21.1772276169
 30
0.0
 10
51.3315703786
 20
19.2691334021
 30
0.0
 10
49.9585479807
 20
17.8726234808
 30
0.0
 10
49.2850014314
 20
17.1409386099
 30
0.0
  0
SPLINE
  5
2DB
100
AcDbEntity
  8
0
100
AcDbSpline
 62
7
  6
CONTINUOUS
 70
0
 71
3
 72
11
 73
7
 74
0
 42
0.0000001
 43
0.0000001
 44
0.0000000001
 40
0.0
 40
0.0
 40
0.0
 40
0.0
 40
0.2896423581
 40
0.5491120121
 40
0.7822364467
 40
1.0
 40
1.0
 40
1.0
 40
1.0
 10
29.0257953954
 20
32.4323965859
 30
0.0
 10
29.0257953954
 20
32.3184173354
 30
0.0
 10
29.0431201872
 20
32.1016020508
 30
0.0
 10
29.1308733661
 20
31.8037051254
 30
0.0
 10
29.2786933518
 20
31.5619201123
 30
0.0
 10
29.4176221732
 20
31.445288502
 30
0.0
 10
29.4918182983
 20
31.402412565
 30
0.0
  0
SPLINE
  5
2DC
100
AcDbEntity
  8
0
100
AcDbSpline
 62
7
  6
CONTINUOUS
 70
0
 71
3
 72
11
 73
7
 74
0
 42
0.0000001
 43
0.0000001
 44
0.0000000001
 40
0.0
 40
0.0
 40
0.0
 40
0.0
 40
0.2896423581
 40
0.5491120121
 40
0.7822364467
 40
1.0
 40
1.0
 40
1.0
 40
1.0
 10
42.1040886281
 20
25.7734000419
 30
0.0
 10
42.1040886281
 20
25.6594207914
 30
0.0
 10
42.1214134199
 20
25.4426055067
 30
0.0
 10
42.2091665989
 20
25.1447085813
 30
0.0
 10
42.3569865845
 20
24.9029235682
 30
0.0
 10
42.4959154059
 20
24.7862919579
 30
0.0
 10
42.570111531
 20
24.7434160209
 30
0.0
  0
SPLINE
  5
2DD
100
AcDbEntity
  8
0
100
AcDbSpline
 62
7
  6
CONTINUOUS
 70
0
 71
3
 72
11
 73
7
 74
0
 42
0.0000001
 43
0.0000001
 44
0.0000000001
 40
0.0
 40
0.0
 40
0.0
 40
0.0
 40
0.2896423581
 40
0.5491120121
 40
0.7822364467
 40
1.0
 40
1.0
 40
1.0
 40
1.0
 10
65.7919246461
 20
37.5691457424
 30
0.0
 10
65.7919246461
 20
37.455166492
 30
0.0
 10
65.8092494378
 20
37.2383512073
 30
0.0
 10
65.8970026168
 20
36.9404542819
 30
0.0
 10
66.0448226024
 20
36.6986692688
 30
0.0
 10
66.1837514238
 20
36.5820376585
 30
0.0
 10
66.2579475489
 20
36.5391617215
 30
0.0
  0
SPLINE
  5
2DE
100
AcDbEntity
  8
0
100
AcDbSpline
 62
7
  6
CONTINUOUS
 70
0
 71
3
 72
11
 73
7
 74
0
 42
0.0000001
 43
0.0000001
 44
0.0000000001
 40
0.0
 40
0.0
 40
0.0
 40
0.0
 40
0.2896423581
 40
0.5491120121
 40
0.7822364467
 40
1.0
 40
1.0
 40
1.0
 40
1.0
 10
63.7451136121
 20
86.3575810131
 30
0.0
 10
63.7451136121
 20
86.2436017626
 30
0.0
 10
63.7624384039
 20
86.0267864779
 30
0.0
 10
63.8501915828
 20
85.7288895525
 30
0.0
 10
63.9980115685
 20
85.4871045394
 30
0.0
 10
64.1369403899
 20
85.3704729291
 30
0.0
 10
64.211136515
 20
85.3275969921
 30
0.0
  0
SPLINE
  5
2DF
100
AcDbEntity
  8
0
100
AcDbSpline
 62
7
  6
CONTINUOUS
 70
0
 71
3
 72
11
 73
7
 74
0
 42
0.0000001
 43
0.0000001
 44
0.0000000001
 40
0.0
 40
0.0
 40
0.0
 40
0.0
 40
0.2896423581
 40
0.5491120121
 40
0.7822364467
 40
1.0
 40
1.0
 40
1.0
 40
1.0
 10
49.9547557258
 20
54.228684708
 30
0.0
 10
49.9547557258
 20
54.1147054575
 30
0.0
 10
49.9720805175
 20
53.8978901729
 30
0.0
 10
50.0598336965
 20
53.5999932475
 30
0.0
 10
50.2076536821
 20
53.3582082344
 30
0.0
 10
50.3465825035
 20
53.2415766241
 30
0.0
 10
50.4207786287
 20
53.1987006871
 30
0.0
  0
SPLINE
  5
2E0
100
AcDbEntity
  8
0
100
AcDbSpline
 62
7
  6
CONTINUOUS
 70
0
 71
3
 72
11
 73
7
 74
0
 42
0.0000001
 43
0.0000001
 44
0.0000000001
 40
0.0
 40
0.0
 40
0.0
 40
0.0
 40
0.2896423581
 40
0.5491120121
 40
0.7822364467
 40
1.0
 40
1.0
 40
1.0
 40
1.0
 10
39.7738601159
 20
66.804761286
 30
0.0
 10
39.7738601159
 20
66.6907820356
 30
0.0
 10
39.7911849077
 20
66.4739667509
 30
0.0
 10
39.8789380866
 20
66.1760698255
 30
0.0
 10
40.0267580723
 20
65.9342848124
 30
0.0
 10
40.1656868937
 20
65.8176532021
 30
0.0
 10
40.2398830188
 20
65.7747772651
 30
0.0
  0
SPLINE
  5
2E1
100
AcDbEntity
  8
0
100
AcDbSpline
 62
7
  6
CONTINUOUS
 70
0
 71
3
 72
9
 73
5
 74
0
 42
0.0000001
 43
0.0000001
 44
0.0000000001
 40
0.0
 40
0.0
 40
0.0
 40
0.0
 40
0.2536295988
 40
1.0
 40
1.0
 40
1.0
 40
1.0
 10
13.1733122421
 20
63.0397833057
 30
0.0
 10
13.0860401853
 20
61.8068171722
 30
0.0
 10
12.7811677698
 20
56.9428649865
 30
0.0
 10
12.6352701041
 20
52.0687049993
 30
0.0
 10
12.623256202
 20
48.4313267124
 30
0.0
  0
SPLINE
  5
2E2
100
AcDbEntity
  8
0
100
AcDbSpline
 62
7
  6
CONTINUOUS
 70
0
 71
3
 72
11
 73
7
 74
0
 42
0.0000001
 43
0.0000001
 44
0.0000000001
 40
0.0
 40
0.0
 40
0.0
 40
0.0
 40
0.2370453693
 40
0.4999999812
 40
0.762952392
 40
1.0
 40
1.0
 40
1.0
 40
1.0
 10
12.5492488276
 20
48.3886037792
 30
0.0
 10
12.5291890951
 20
48.377023503
 30
0.0
 10
12.4912665803
 20
48.3449806751
 30
0.0
 10
12.4467742068
 20
48.2844730814
 30
0.0
 10
12.4166216131
 20
48.2156860867
 30
0.0
 10
12.4078358433
 20
48.1668228001
 30
0.0
 10
12.4078358433
 20
48.1436602053
 30
0.0
  0
SPLINE
  5
2E3
100
AcDbEntity
  8
0
100
AcDbSpline
 62
7
  6
CONTINUOUS
 70
0
 71
3
 72
10
 73
6
 74
0
 42
0.0000001
 43
0.0000001
 44
0.0000000001
 40
0.0
 40
0.0
 40
0.0
 40
0.0
 40
0.5468988572
 40
0.7816176146
 40
1.0
 40
1.0
 40
1.0
 40
1.0
 10
12.4078358433
 20
48.1436602053
 30
0.0
 10
12.4078358433
 20
48.1245912411
 30
0.0
 10
12.4120360189
 20
48.0965214626
 30
0.0
 10
12.4302680547
 20
48.0662833163
 30
0.0
 10
12.4426547201
 20
48.0558940878
 30
0.0
 10
12.4492490387
 20
48.0520869123
 30
0.0
  0
LINE
  5
2E4
100
AcDbEntity
  8
0
100
AcDbLine
 62
7
  6
CONTINUOUS
 10
12.6222353084
 20
47.952228759
 11
12.6221419413
 21
47.757233624
  0
SPLINE
  5
2E5
100
AcDbEntity
  8
0
100
AcDbSpline
 62
7
  6
CONTINUOUS
 70
0
 71
3
 72
9
 73
5
 74
0
 42
0.0000001
 43
0.0000001
 44
0.0000000001
 40
0.0
 40
0.0
 40
0.0
 40
0.0
 40
0.5081146829
 40
1.0
 40
1.0
 40
1.0
 40
1.0
 10
27.6678361255
 20
86.8397541052
 30
0.0
 10
27.3599895614
 20
84.1459844116
 30
0.0
 10
26.8931525044
 20
78.8274749031
 30
0.0
 10
26.7284403372
 20
73.4904958155
 30
0.0
 10
26.7284390145
 20
70.8657926817
 30
0.0
  0
SPLINE
  5
2E6
100
AcDbEntity
  8
0
100
AcDbSpline
 62
7
  6
CONTINUOUS
 70
0
 71
3
 72
9
 73
5
 74
0
 42
0.0000001
 43
0.0000001
 44
0.0000000001
 40
0.0
 40
0.0
 40
0.0
 40
0.0
 40
0.2544301809
 40
1.0
 40
1.0
 40
1.0
 40
1.0
 10
39.8344882162
 20
67.3609432242
 30
0.0
 10
39.8414839984
 20
67.3529076183
 30
0.0
 10
39.8701942095
 20
67.3224064023
 30
0.0
 10
39.9039508687
 20
67.2966279339
 30
0.0
 10
39.930988518
 20
67.2810174306
 30
0.0
  0
SPLINE
  5
2E7
100
AcDbEntity
  8
0
100
AcDbSpline
 62
7
  6
CONTINUOUS
 70
0
 71
3
 72
18
 73
14
 74
0
 42
0.0000001
 43
0.0000001
 44
0.0000000001
 40
0.0
 40
0.0
 40
0.0
 40
0.0
 40
0.153606574
 40
0.304659026
 40
0.4489965541
 40
0.58314486
 40
0.7046925784
 40
0.7605246934
 40
0.8131253375
 40
0.862795294
 40
0.910017733
 40
0.9554745621
 40
1.0
 40
1.0
 40
1.0
 40
1.0
 10
51.6999476491
 20
90.2510709853
 30
0.0
 10
52.1227614376
 20
90.2303750851
 30
0.0
 10
52.9646603931
 20
90.2394269078
 30
0.0
 10
54.1944873695
 20
90.4001398845
 30
0.0
 10
55.342967102
 20
90.7016152318
 30
0.0
 10
56.3625432452
 20
91.1313915951
 30
0.0
 10
57.0912578747
 20
91.5963555907
 30
0.0
 10
57.5642014896
 20
92.0201849332
 30
0.0
 10
57.8521965847
 20
92.3487291831
 30
0.0
 10
58.0804236316
 20
92.6934005176
 30
0.0
 10
58.2457571912
 20
93.0510002257
 30
0.0
 10
58.3462151596
 20
93.4173703663
 30
0.0
 10
58.3686645937
 20
93.6659110356
 30
0.0
 10
58.3686628068
 20
93.7886174263
 30
0.0
  0
SPLINE
  5
2E8
100
AcDbEntity
  8
0
100
AcDbSpline
 62
7
  6
CONTINUOUS
 70
0
 71
3
 72
9
 73
5
 74
0
 42
0.0000001
 43
0.0000001
 44
0.0000000001
 40
0.0
 40
0.0
 40
0.0
 40
0.0
 40
0.2560844084
 40
1.0
 40
1.0
 40
1.0
 40
1.0
 10
50.0311226492
 20
54.841114496
 30
0.0
 10
50.0385373416
 20
54.8316073837
 30
0.0
 10
50.0690965454
 20
54.7957724337
 30
0.0
 10
50.1065379256
 20
54.7657301272
 30
0.0
 10
50.1368810616
 20
54.7482377548
 30
0.0
  0
SPLINE
  5
2E9
100
AcDbEntity
  8
0
100
AcDbSpline
 62
7
  6
CONTINUOUS
 70
0
 71
3
 72
10
 73
6
 74
0
 42
0.0000001
 43
0.0000001
 44
0.0000000001
 40
0.0
 40
0.0
 40
0.0
 40
0.0
 40
0.5234262697
 40
0.7720709891
 40
1.0
 40
1.0
 40
1.0
 40
1.0
 10
70.3253234789
 20
97.832092452
 30
0.0
 10
70.2679975543
 20
97.9382481367
 30
0.0
 10
70.1639869814
 20
98.0856613286
 30
0.0
 10
69.9973230282
 20
98.2455118709
 30
0.0
 10
69.9073522915
 20
98.3096061985
 30
0.0
 10
69.8618547817
 20
98.3358736032
 30
0.0
  0
SPLINE
  5
2EA
100
AcDbEntity
  8
0
100
AcDbSpline
 62
7
  6
CONTINUOUS
 70
0
 71
3
 72
13
 73
9
 74
0
 42
0.0000001
 43
0.0000001
 44
0.0000000001
 40
0.0
 40
0.0
 40
0.0
 40
0.0
 40
0.1150832672
 40
0.2397452365
 40
0.5044169954
 40
0.7666875154
 40
0.8885277793
 40
1.0
 40
1.0
 40
1.0
 40
1.0
 10
69.8618547817
 20
98.3358736032
 30
0.0
 10
69.8133522954
 20
98.3638758937
 30
0.0
 10
69.7170271686
 20
98.4305608537
 30
0.0
 10
69.5344096843
 20
98.5953384888
 30
0.0
 10
69.3372172971
 20
98.8468846693
 30
0.0
 10
69.1943599302
 20
99.1314236865
 30
0.0
 10
69.1260199914
 20
99.3632687367
 30
0.0
 10
69.1088688336
 20
99.4760487378
 30
0.0
 10
69.1054813862
 20
99.530191079
 30
0.0
  0
SPLINE
  5
2EB
100
AcDbEntity
  8
0
100
AcDbSpline
 62
7
  6
CONTINUOUS
 70
0
 71
3
 72
9
 73
5
 74
0
 42
0.0000001
 43
0.0000001
 44
0.0000000001
 40
0.0
 40
0.0
 40
0.0
 40
0.0
 40
0.516131647
 40
1.0
 40
1.0
 40
1.0
 40
1.0
 10
68.964598629
 20
101.7782060381
 30
0.0
 10
68.3192635921
 20
102.3591202167
 30
0.0
 10
67.0176649232
 20
103.429381276
 30
0.0
 10
65.6120047491
 20
104.3609380559
 30
0.0
 10
64.9070500218
 20
104.7679377129
 30
0.0
  0
SPLINE
  5
2EC
100
AcDbEntity
  8
0
100
AcDbSpline
 62
7
  6
CONTINUOUS
 70
0
 71
3
 72
9
 73
5
 74
0
 42
0.0000001
 43
0.0000001
 44
0.0000000001
 40
0.0
 40
0.0
 40
0.0
 40
0.0
 40
0.523198839
 40
1.0
 40
1.0
 40
1.0
 40
1.0
 10
64.9070500218
 20
104.7679377129
 30
0.0
 10
64.251204382
 20
105.146584653
 30
0.0
 10
62.954570968
 20
105.7994247961
 30
0.0
 10
61.5756557286
 20
106.2623425731
 30
0.0
 10
60.9041941215
 20
106.4218369223
 30
0.0
  0
SPLINE
  5
2ED
100
AcDbEntity
  8
0
100
AcDbSpline
 62
7
  6
CONTINUOUS
 70
0
 71
3
 72
9
 73
5
 74
0
 42
0.0000001
 43
0.0000001
 44
0.0000000001
 40
0.0
 40
0.0
 40
0.0
 40
0.0
 40
0.2555079164
 40
1.0
 40
1.0
 40
1.0
 40
1.0
 10
63.8256155168
 20
86.9647771613
 30
0.0
 10
63.832814961
 20
86.9558534624
 30
0.0
 10
63.8624568203
 20
86.9221416655
 30
0.0
 10
63.8983095782
 20
86.8938446735
 30
0.0
 10
63.9272425899
 20
86.8771406848
 30
0.0
  0
SPLINE
  5
2EE
100
AcDbEntity
  8
0
100
AcDbSpline
 62
7
  6
CONTINUOUS
 70
0
 71
3
 72
9
 73
5
 74
0
 42
0.0000001
 43
0.0000001
 44
0.0000000001
 40
0.0
 40
0.0
 40
0.0
 40
0.0
 40
0.2544301809
 40
1.0
 40
1.0
 40
1.0
 40
1.0
 10
65.8525527463
 20
38.1253276806
 30
0.0
 10
65.8595485286
 20
38.1172920747
 30
0.0
 10
65.8882587396
 20
38.0867908587
 30
0.0
 10
65.9220153989
 20
38.0610123904
 30
0.0
 10
65.9490530482
 20
38.045401887
 30
0.0
  0
SPLINE
  5
2EF
100
AcDbEntity
  8
0
100
AcDbSpline
 62
7
  6
CONTINUOUS
 70
0
 71
3
 72
9
 73
5
 74
0
 42
0.0000001
 43
0.0000001
 44
0.0000000001
 40
0.0
 40
0.0
 40
0.0
 40
0.0
 40
0.2560844084
 40
1.0
 40
1.0
 40
1.0
 40
1.0
 10
42.1804555515
 20
26.3858298298
 30
0.0
 10
42.187870244
 20
26.3763227176
 30
0.0
 10
42.2184294477
 20
26.3404877676
 30
0.0
 10
42.255870828
 20
26.3104454611
 30
0.0
 10
42.286213964
 20
26.2929530887
 30
0.0
  0
SPLINE
  5
2F0
100
AcDbEntity
  8
0
100
AcDbSpline
 62
7
  6
CONTINUOUS
 70
0
 71
3
 72
9
 73
5
 74
0
 42
0.0000001
 43
0.0000001
 44
0.0000000001
 40
0.0
 40
0.0
 40
0.0
 40
0.0
 40
0.2560844084
 40
1.0
 40
1.0
 40
1.0
 40
1.0
 10
29.1021623188
 20
33.0448263739
 30
0.0
 10
29.1095770112
 20
33.0353192616
 30
0.0
 10
29.140136215
 20
32.9994843116
 30
0.0
 10
29.1775775953
 20
32.9694420051
 30
0.0
 10
29.2079207312
 20
32.9519496327
 30
0.0
  0
SPLINE
  5
2F1
100
AcDbEntity
  8
0
100
AcDbSpline
 62
7
  6
CONTINUOUS
 70
0
 71
3
 72
11
 73
7
 74
0
 42
0.0000001
 43
0.0000001
 44
0.0000000001
 40
0.0
 40
0.0
 40
0.0
 40
0.0
 40
0.2433395081
 40
0.5001408532
 40
0.7568926838
 40
1.0
 40
1.0
 40
1.0
 40
1.0
 10
65.4340389455
 20
98.3551447736
 30
0.0
 10
65.4192014459
 20
98.4438726741
 30
0.0
 10
65.3693553421
 20
98.6232615725
 30
0.0
 10
65.2490924079
 20
98.8772246265
 30
0.0
 10
65.0895528157
 20
99.1084399772
 30
0.0
 10
64.9591855446
 20
99.2412523524
 30
0.0
 10
64.8897615371
 20
99.2983282857
 30
0.0
  0
SPLINE
  5
2F2
100
AcDbEntity
  8
0
100
AcDbSpline
 62
7
  6
CONTINUOUS
 70
0
 71
3
 72
10
 73
6
 74
0
 42
0.0000001
 43
0.0000001
 44
0.0000000001
 40
0.0
 40
0.0
 40
0.0
 40
0.0
 40
0.5309172697
 40
0.7694117086
 40
1.0
 40
1.0
 40
1.0
 40
1.0
 10
60.7080139833
 20
101.712608673
 30
0.0
 10
60.6438032187
 20
101.7339696085
 30
0.0
 10
60.5436279232
 20
101.7512958031
 30
0.0
 10
60.417298139
 20
101.7272493797
 30
0.0
 10
60.3626931059
 20
101.700903472
 30
0.0
 10
60.338135363
 20
101.6847562488
 30
0.0
  0
SPLINE
  5
2F3
100
AcDbEntity
  8
0
100
AcDbSpline
 62
7
  6
CONTINUOUS
 70
0
 71
3
 72
9
 73
5
 74
0
 42
0.0000001
 43
0.0000001
 44
0.0000000001
 40
0.0
 40
0.0
 40
0.0
 40
0.0
 40
0.256101316
 40
1.0
 40
1.0
 40
1.0
 40
1.0
 10
22.1457258113
 20
19.2684544729
 30
0.0
 10
22.1134779802
 20
19.2560424582
 30
0.0
 10
21.9868760146
 20
19.209386029
 30
0.0
 10
21.8575001487
 20
19.1701497801
 30
0.0
 10
21.7601060418
 20
19.1458933916
 30
0.0
  0
SPLINE
  5
2F4
100
AcDbEntity
  8
0
100
AcDbSpline
 62
7
  6
CONTINUOUS
 70
0
 71
3
 72
11
 73
7
 74
0
 42
0.0000001
 43
0.0000001
 44
0.0000000001
 40
0.0
 40
0.0
 40
0.0
 40
0.0
 40
0.2737683882
 40
0.536595568
 40
0.780531545
 40
1.0
 40
1.0
 40
1.0
 40
1.0
 10
25.1173909584
 20
22.0031345218
 30
0.0
 10
24.9222628175
 20
21.6837155927
 30
0.0
 10
24.498892384
 20
21.0815089248
 30
0.0
 10
23.7703561752
 20
20.2968195084
 30
0.0
 10
22.9897119978
 20
19.6767984485
 30
0.0
 10
22.4257625854
 20
19.3762391028
 30
0.0
 10
22.1457258113
 20
19.2684544729
 30
0.0
  0
SPLINE
  5
2F5
100
AcDbEntity
  8
0
100
AcDbSpline
 62
7
  6
CONTINUOUS
 70
0
 71
3
 72
11
 73
7
 74
0
 42
0.0000001
 43
0.0000001
 44
0.0000000001
 40
0.0
 40
0.0
 40
0.0
 40
0.0
 40
0.2148687895
 40
0.4586839526
 40
0.7240730392
 40
1.0
 40
1.0
 40
1.0
 40
1.0
 10
25.8041438013
 20
24.013875751
 30
0.0
 10
25.8249546204
 20
23.9222483026
 30
0.0
 10
25.8391006927
 20
23.7195813845
 30
0.0
 10
25.7929834341
 20
23.4046349361
 30
0.0
 10
25.6849102818
 20
23.0771639649
 30
0.0
 10
25.576518849
 20
22.8655315646
 30
0.0
 10
25.5136168891
 20
22.7625629381
 30
0.0
  0
SPLINE
  5
2F6
100
AcDbEntity
  8
0
100
AcDbSpline
 62
7
  6
CONTINUOUS
 70
0
 71
3
 72
9
 73
5
 74
0
 42
0.0000001
 43
0.0000001
 44
0.0000000001
 40
0.0
 40
0.0
 40
0.0
 40
0.0
 40
0.5259747221
 40
1.0
 40
1.0
 40
1.0
 40
1.0
 10
21.7601060418
 20
19.1458933916
 30
0.0
 10
21.717361193
 20
19.1352476175
 30
0.0
 10
21.6322833283
 20
19.1260480484
 30
0.0
 10
21.5491701647
 20
19.1507989945
 30
0.0
 10
21.5147687861
 20
19.1706136268
 30
0.0
  0
SPLINE
  5
2F7
100
AcDbEntity
  8
0
100
AcDbSpline
 62
7
  6
CONTINUOUS
 70
0
 71
3
 72
11
 73
7
 74
0
 42
0.0000001
 43
0.0000001
 44
0.0000000001
 40
0.0
 40
0.0
 40
0.0
 40
0.0
 40
0.2741242958
 40
0.538525619
 40
0.7828894981
 40
1.0
 40
1.0
 40
1.0
 40
1.0
 10
10.7020886228
 20
30.6031339037
 30
0.0
 10
10.4817579352
 20
30.2424591596
 30
0.0
 10
10.0997909943
 20
29.5013185243
 30
0.0
 10
9.7107439837
 20
28.3535099829
 30
0.0
 10
9.5304014582
 20
27.2435163061
 30
0.0
 10
9.5603329488
 20
26.5246762864
 30
0.0
 10
9.6214031095
 20
26.1955502082
 30
0.0
  0
SPLINE
  5
2F8
100
AcDbEntity
  8
0
100
AcDbSpline
 62
7
  6
CONTINUOUS
 70
0
 71
3
 72
11
 73
7
 74
0
 42
0.0000001
 43
0.0000001
 44
0.0000000001
 40
0.0
 40
0.0
 40
0.0
 40
0.0
 40
0.2194022078
 40
0.4633973802
 40
0.7263396469
 40
1.0
 40
1.0
 40
1.0
 40
1.0
 10
12.0132622619
 20
32.0514382886
 30
0.0
 10
11.9360761346
 20
32.0217297684
 30
0.0
 10
11.7806325244
 20
31.9387962003
 30
0.0
 10
11.5652735993
 20
31.7679432326
 30
0.0
 10
11.3644959854
 20
31.5514706608
 30
0.0
 10
11.2477096223
 20
31.3854807356
 30
0.0
 10
11.1939317285
 20
31.2974479323
 30
0.0
  0
SPLINE
  5
2F9
100
AcDbEntity
  8
0
100
AcDbSpline
 62
7
  6
CONTINUOUS
 70
0
 71
3
 72
9
 73
5
 74
0
 42
0.0000001
 43
0.0000001
 44
0.0000000001
 40
0.0
 40
0.0
 40
0.0
 40
0.0
 40
0.242139465
 40
1.0
 40
1.0
 40
1.0
 40
1.0
 10
12.1537788653
 20
32.092960031
 30
0.0
 10
12.1421806879
 20
32.0906080892
 30
0.0
 10
12.0945077507
 20
32.0797938714
 30
0.0
 10
12.047829614
 20
32.0647430743
 30
0.0
 10
12.0132622619
 20
32.0514382886
 30
0.0
  0
SPLINE
  5
2FA
100
AcDbEntity
  8
0
100
AcDbSpline
 62
7
  6
CONTINUOUS
 70
0
 71
3
 72
10
 73
6
 74
0
 42
0.0000001
 43
0.0000001
 44
0.0000000001
 40
0.0
 40
0.0
 40
0.0
 40
0.0
 40
0.5319766926
 40
0.7709810635
 40
1.0
 40
1.0
 40
1.0
 40
1.0
 10
9.6214031095
 20
26.1955502082
 30
0.0
 10
9.6311369559
 20
26.1430914841
 30
0.0
 10
9.6568119373
 20
26.0674867291
 30
0.0
 10
9.7191365062
 20
25.9878917922
 30
0.0
 10
9.756884845
 20
25.9589461881
 30
0.0
 10
9.7767775224
 20
25.9474627958
 30
0.0
  0
SPLINE
  5
2FB
100
AcDbEntity
  8
0
100
AcDbSpline
 62
7
  6
CONTINUOUS
 70
0
 71
3
 72
20
 73
16
 74
0
 42
0.0000001
 43
0.0000001
 44
0.0000000001
 40
0.0
 40
0.0
 40
0.0
 40
0.0
 40
0.0642305054
 40
0.1327574801
 40
0.2788039725
 40
0.4300218621
 40
0.5770408904
 40
0.6462305455
 40
0.7112239163
 40
0.7713003415
 40
0.8260391354
 40
0.8754215728
 40
0.9199595533
 40
0.9608555246
 40
1.0
 40
1.0
 40
1.0
 40
1.0
 10
33.1456976883
 20
22.6002304429
 30
0.0
 10
33.2754973264
 20
22.5252922823
 30
0.0
 10
33.534301597
 20
22.3536130967
 30
0.0
 10
34.0372008715
 20
21.9395570481
 30
0.0
 10
34.617236167
 20
21.3070076132
 30
0.0
 10
35.1926455769
 20
20.4403502975
 30
0.0
 10
35.555004015
 20
19.6587108464
 30
0.0
 10
35.7518656134
 20
19.0319514479
 30
0.0
 10
35.8462676453
 20
18.5877880939
 30
0.0
 10
35.8885334744
 20
18.1693803787
 30
0.0
 10
35.8777223311
 20
17.7851122606
 30
0.0
 10
35.8135644527
 20
17.4424288311
 30
0.0
 10
35.695704169
 20
17.1480588246
 30
0.0
 10
35.5247216776
 20
16.9090281262
 30
0.0
 10
35.3757323554
 20
16.7914409738
 30
0.0
 10
35.2966363397
 20
16.7457557089
 30
0.0
  0
SPLINE
  5
2FC
100
AcDbEntity
  8
0
100
AcDbSpline
 62
7
  6
CONTINUOUS
 70
0
 71
3
 72
18
 73
14
 74
0
 42
0.0000001
 43
0.0000001
 44
0.0000000001
 40
0.0
 40
0.0
 40
0.0
 40
0.0
 40
0.1253406536
 40
0.2629358441
 40
0.4067812601
 40
0.5494604952
 40
0.6836746874
 40
0.7458285016
 40
0.8039789846
 40
0.8579977352
 40
0.9081273165
 40
0.9550733685
 40
1.0
 40
1.0
 40
1.0
 40
1.0
 10
33.5784928229
 20
79.8575883942
 30
0.0
 10
33.8440108622
 20
79.7042949507
 30
0.0
 10
34.3540482274
 20
79.2992709857
 30
0.0
 10
34.9832525509
 20
78.5207865589
 30
0.0
 10
35.4759545871
 20
77.6010285087
 30
0.0
 10
35.79468345
 20
76.6169739289
 30
0.0
 10
35.8994873561
 20
75.7876490447
 30
0.0
 10
35.8706982871
 20
75.1643727844
 30
0.0
 10
35.7965222333
 20
74.7430918712
 30
0.0
 10
35.6703953764
 20
74.3649023949
 30
0.0
 10
35.4936856076
 20
74.0378122754
 30
0.0
 10
35.2692662009
 20
73.7693653533
 30
0.0
 10
35.0877767121
 20
73.6326783747
 30
0.0
 10
34.9926148167
 20
73.5777161892
 30
0.0
  0
SPLINE
  5
2FD
100
AcDbEntity
  8
0
100
AcDbSpline
 62
7
  6
CONTINUOUS
 70
0
 71
3
 72
20
 73
16
 74
0
 42
0.0000001
 43
0.0000001
 44
0.0000000001
 40
0.0
 40
0.0
 40
0.0
 40
0.0
 40
0.0470854025
 40
0.0931862447
 40
0.1394877749
 40
0.1871542617
 40
0.2371935369
 40
0.2903566317
 40
0.3471271612
 40
0.4077317934
 40
0.4721762798
 40
0.5402808692
 40
0.685915311
 40
0.8408329175
 40
1.0
 40
1.0
 40
1.0
 40
1.0
 10
24.2132592688
 20
26.2528850184
 30
0.0
 10
24.0005982183
 20
26.2893221897
 30
0.0
 10
23.5849283786
 20
26.3996261896
 30
0.0
 10
23.0076765408
 20
26.6834707884
 30
0.0
 10
22.4958341968
 20
27.0776878698
 30
0.0
 10
22.0578269782
 20
27.576370836
 30
0.0
 10
21.6993122514
 20
28.1712927424
 30
0.0
 10
21.4237156727
 20
28.8534567895
 30
0.0
 10
21.2337738
 20
29.6137511686
 30
0.0
 10
21.1312801835
 20
30.4423843307
 30
0.0
 10
21.1171458418
 20
31.3288924414
 30
0.0
 10
21.2185812005
 20
32.6011563249
 30
0.0
 10
21.5730941464
 20
34.2609901125
 30
0.0
 10
22.3082108954
 20
36.2415209317
 30
0.0
 10
22.986230704
 20
37.5167398508
 30
0.0
 10
23.3701032634
 20
38.1368995977
 30
0.0
  0
SPLINE
  5
2FE
100
AcDbEntity
  8
0
100
AcDbSpline
 62
7
  6
CONTINUOUS
 70
0
 71
3
 72
9
 73
5
 74
0
 42
0.0000001
 43
0.0000001
 44
0.0000000001
 40
0.0
 40
0.0
 40
0.0
 40
0.0
 40
0.4761531156
 40
1.0
 40
1.0
 40
1.0
 40
1.0
 10
19.1430924468
 20
40.4060733508
 30
0.0
 10
19.8026031271
 20
40.0253132959
 30
0.0
 10
21.2024463834
 20
39.2511787276
 30
0.0
 10
22.6220830114
 20
38.5142513409
 30
0.0
 10
23.3701032634
 20
38.1368995977
 30
0.0
  0
SPLINE
  5
2FF
100
AcDbEntity
  8
0
100
AcDbSpline
 62
7
  6
CONTINUOUS
 70
0
 71
3
 72
11
 73
7
 74
0
 42
0.0000001
 43
0.0000001
 44
0.0000000001
 40
0.0
 40
0.0
 40
0.0
 40
0.0
 40
0.1959125537
 40
0.4301512433
 40
0.6994955615
 40
1.0
 40
1.0
 40
1.0
 40
1.0
 10
16.2990060119
 20
42.2193071429
 30
0.0
 10
16.474934159
 20
42.0865829681
 30
0.0
 10
16.8699824081
 20
41.8068205649
 30
0.0
 10
17.5281761567
 20
41.3754787145
 30
0.0
 10
18.2978878614
 20
40.9002601412
 30
0.0
 10
18.8503472644
 20
40.5750860371
 30
0.0
 10
19.1430924468
 20
40.4060733508
 30
0.0
  0
SPLINE
  5
300
100
AcDbEntity
  8
0
100
AcDbSpline
 62
7
  6
CONTINUOUS
 70
0
 71
3
 72
15
 73
11
 74
0
 42
0.0000001
 43
0.0000001
 44
0.0000000001
 40
0.0
 40
0.0
 40
0.0
 40
0.0
 40
0.1207551358
 40
0.2526273017
 40
0.3909225319
 40
0.5302568209
 40
0.6650348277
 40
0.7902697751
 40
0.9023348529
 40
1.0
 40
1.0
 40
1.0
 40
1.0
 10
52.2528358368
 20
56.5760843436
 30
0.0
 10
52.2528358368
 20
56.4163730983
 30
0.0
 10
52.215608916
 20
56.0818835079
 30
0.0
 10
52.0723169057
 20
55.5831288621
 30
0.0
 10
51.8467802534
 20
55.0886161143
 30
0.0
 10
51.5523450786
 20
54.6273261864
 30
0.0
 10
51.2059990724
 20
54.2259595366
 30
0.0
 10
50.8273504679
 20
53.9076498979
 30
0.0
 10
50.4377734934
 20
53.6904991438
 30
0.0
 10
50.1651201872
 20
53.6180242331
 30
0.0
 10
50.0363992665
 20
53.6072346359
 30
0.0
  0
SPLINE
  5
301
100
AcDbEntity
  8
0
100
AcDbSpline
 62
7
  6
CONTINUOUS
 70
0
 71
3
 72
11
 73
7
 74
0
 42
0.0000001
 43
0.0000001
 44
0.0000000001
 40
0.0
 40
0.0
 40
0.0
 40
0.0
 40
0.2896423581
 40
0.5491120121
 40
0.7822364467
 40
1.0
 40
1.0
 40
1.0
 40
1.0
 10
68.9738919135
 20
39.4062444349
 30
0.0
 10
68.9738919135
 20
39.5202236854
 30
0.0
 10
68.9565671218
 20
39.73703897
 30
0.0
 10
68.8688139428
 20
40.0349358954
 30
0.0
 10
68.7209939572
 20
40.2767209085
 30
0.0
 10
68.5820651358
 20
40.3933525188
 30
0.0
 10
68.5078690106
 20
40.4362284558
 30
0.0
  0
SPLINE
  5
302
100
AcDbEntity
  8
0
100
AcDbSpline
 62
7
  6
CONTINUOUS
 70
0
 71
3
 72
11
 73
7
 74
0
 42
0.0000001
 43
0.0000001
 44
0.0000000001
 40
0.0
 40
0.0
 40
0.0
 40
0.0
 40
0.2896423581
 40
0.5491120121
 40
0.7822364467
 40
1.0
 40
1.0
 40
1.0
 40
1.0
 10
66.9270808796
 20
88.1946797055
 30
0.0
 10
66.9270808796
 20
88.308658956
 30
0.0
 10
66.9097560878
 20
88.5254742406
 30
0.0
 10
66.8220029088
 20
88.823371166
 30
0.0
 10
66.6741829232
 20
89.0651561791
 30
0.0
 10
66.5352541018
 20
89.1817877894
 30
0.0
 10
66.4610579767
 20
89.2246637265
 30
0.0
  0
SPLINE
  5
303
100
AcDbEntity
  8
0
100
AcDbSpline
 62
7
  6
CONTINUOUS
 70
0
 71
3
 72
11
 73
7
 74
0
 42
0.0000001
 43
0.0000001
 44
0.0000000001
 40
0.0
 40
0.0
 40
0.0
 40
0.0
 40
0.2896423581
 40
0.5491120121
 40
0.7822364467
 40
1.0
 40
1.0
 40
1.0
 40
1.0
 10
53.1367229932
 20
56.0657834005
 30
0.0
 10
53.1367229932
 20
56.1797626509
 30
0.0
 10
53.1193982015
 20
56.3965779356
 30
0.0
 10
53.0316450225
 20
56.694474861
 30
0.0
 10
52.8838250369
 20
56.9362598741
 30
0.0
 10
52.7448962155
 20
57.0528914844
 30
0.0
 10
52.6707000904
 20
57.0957674214
 30
0.0
  0
SPLINE
  5
304
100
AcDbEntity
  8
0
100
AcDbSpline
 62
7
  6
CONTINUOUS
 70
0
 71
3
 72
11
 73
7
 74
0
 42
0.0000001
 43
0.0000001
 44
0.0000000001
 40
0.0
 40
0.0
 40
0.0
 40
0.0
 40
0.2896423581
 40
0.5491120121
 40
0.7822364467
 40
1.0
 40
1.0
 40
1.0
 40
1.0
 10
42.9558273834
 20
68.6418599785
 30
0.0
 10
42.9558273834
 20
68.755839229
 30
0.0
 10
42.9385025916
 20
68.9726545136
 30
0.0
 10
42.8507494126
 20
69.270551439
 30
0.0
 10
42.702929427
 20
69.5123364521
 30
0.0
 10
42.5640006056
 20
69.6289680624
 30
0.0
 10
42.4898044805
 20
69.6718439994
 30
0.0
  0
SPLINE
  5
305
100
AcDbEntity
  8
0
100
AcDbSpline
 62
7
  6
CONTINUOUS
 70
0
 71
3
 72
17
 73
13
 74
0
 42
0.0000001
 43
0.0000001
 44
0.0000000001
 40
0.0
 40
0.0
 40
0.0
 40
0.0
 40
0.0428564749
 40
0.0874759937
 40
0.1353121277
 40
0.1872673656
 40
0.3045358732
 40
0.4381964188
 40
0.5825327914
 40
0.7296579449
 40
0.8713337596
 40
1.0
 40
1.0
 40
1.0
 40
1.0
 10
50.1368810616
 20
54.7482377548
 30
0.0
 10
50.1627745039
 20
54.7333105655
 30
0.0
 10
50.2198158603
 20
54.7095921476
 30
0.0
 10
50.3139953731
 20
54.6957174518
 30
0.0
 10
50.4151322136
 20
54.7032317794
 30
0.0
 10
50.5621186943
 20
54.742246898
 30
0.0
 10
50.7499742849
 20
54.8450382925
 30
0.0
 10
50.9575659391
 20
55.0288346558
 30
0.0
 10
51.1409993114
 20
55.2636959924
 30
0.0
 10
51.2854953702
 20
55.5305972895
 30
0.0
 10
51.3791408639
 20
55.8077198295
 30
0.0
 10
51.4043112322
 20
55.9964599007
 30
0.0
 10
51.4043112322
 20
56.086191359
 30
0.0
  0
SPLINE
  5
306
100
AcDbEntity
  8
0
100
AcDbSpline
 62
7
  6
CONTINUOUS
 70
0
 71
3
 72
11
 73
7
 74
0
 42
0.0000001
 43
0.0000001
 44
0.0000000001
 40
0.0
 40
0.0
 40
0.0
 40
0.0
 40
0.2893919158
 40
0.549129352
 40
0.7823176993
 40
1.0
 40
1.0
 40
1.0
 40
1.0
 10
65.1946691185
 20
88.215087664
 30
0.0
 10
65.1946691185
 20
88.2682303644
 30
0.0
 10
65.1864969673
 20
88.3693944449
 30
0.0
 10
65.1456761619
 20
88.5084674107
 30
0.0
 10
65.0766178807
 20
88.6213026494
 30
0.0
 10
65.0118129118
 20
88.6757638894
 30
0.0
 10
64.9771812309
 20
88.695728545
 30
0.0
  0
SPLINE
  5
307
100
AcDbEntity
  8
0
100
AcDbSpline
 62
7
  6
CONTINUOUS
 70
0
 71
3
 72
15
 73
11
 74
0
 42
0.0000001
 43
0.0000001
 44
0.0000000001
 40
0.0
 40
0.0
 40
0.0
 40
0.0
 40
0.1207551358
 40
0.2526273017
 40
0.3909225319
 40
0.5302568209
 40
0.6650348277
 40
0.7902697751
 40
0.9023348529
 40
1.0
 40
1.0
 40
1.0
 40
1.0
 10
66.0431937231
 20
88.7049806486
 30
0.0
 10
66.0431937231
 20
88.5452694034
 30
0.0
 10
66.0059668023
 20
88.2107798129
 30
0.0
 10
65.862674792
 20
87.7120251671
 30
0.0
 10
65.6371381397
 20
87.2175124193
 30
0.0
 10
65.3427029649
 20
86.7562224914
 30
0.0
 10
64.9963569588
 20
86.3548558417
 30
0.0
 10
64.6177083542
 20
86.036546203
 30
0.0
 10
64.2281313797
 20
85.8193954488
 30
0.0
 10
63.9554780736
 20
85.7469205381
 30
0.0
 10
63.8267571528
 20
85.7361309409
 30
0.0
  0
SPLINE
  5
308
100
AcDbEntity
  8
0
100
AcDbSpline
 62
7
  6
CONTINUOUS
 70
0
 71
3
 72
13
 73
9
 74
0
 42
0.0000001
 43
0.0000001
 44
0.0000000001
 40
0.0
 40
0.0
 40
0.0
 40
0.0
 40
0.1118709473
 40
0.2247363357
 40
0.3403140516
 40
0.4601289443
 40
0.7166243558
 40
1.0
 40
1.0
 40
1.0
 40
1.0
 10
34.9926148167
 20
73.5777161892
 30
0.0
 10
34.9300158048
 20
73.5415611873
 30
0.0
 10
34.7981795637
 20
73.4789113748
 30
0.0
 10
34.5861813568
 20
73.4172790026
 30
0.0
 10
34.3621410575
 20
73.3882799236
 30
0.0
 10
34.0433536854
 20
73.3937163833
 30
0.0
 10
33.6229928801
 20
73.4883921998
 30
0.0
 10
33.3050633398
 20
73.6377945512
 30
0.0
 10
33.1464807394
 20
73.729350187
 30
0.0
  0
SPLINE
  5
309
100
AcDbEntity
  8
0
100
AcDbSpline
 62
7
  6
CONTINUOUS
 70
0
 71
3
 72
11
 73
7
 74
0
 42
0.0000001
 43
0.0000001
 44
0.0000000001
 40
0.0
 40
0.0
 40
0.0
 40
0.0
 40
0.2895463391
 40
0.5491378616
 40
0.7822784713
 40
1.0
 40
1.0
 40
1.0
 40
1.0
 10
67.2768353443
 20
39.4470646011
 30
0.0
 10
67.2768353443
 20
39.5027686616
 30
0.0
 10
67.2683297158
 20
39.6087650546
 30
0.0
 10
67.225480075
 20
39.7544244406
 30
0.0
 10
67.1531933238
 20
39.8726444899
 30
0.0
 10
67.0852634644
 20
39.9296468046
 30
0.0
 10
67.0489891985
 20
39.9505901766
 30
0.0
  0
SPLINE
  5
30A
100
AcDbEntity
  8
0
100
AcDbSpline
 62
7
  6
CONTINUOUS
 70
0
 71
3
 72
15
 73
11
 74
0
 42
0.0000001
 43
0.0000001
 44
0.0000000001
 40
0.0
 40
0.0
 40
0.0
 40
0.0
 40
0.1207551358
 40
0.2526273017
 40
0.3909225319
 40
0.5302568209
 40
0.6650348277
 40
0.7902697751
 40
0.9023348529
 40
1.0
 40
1.0
 40
1.0
 40
1.0
 10
68.0900047571
 20
39.916545378
 30
0.0
 10
68.0900047571
 20
39.7568341327
 30
0.0
 10
68.0527778363
 20
39.4223445423
 30
0.0
 10
67.909485826
 20
38.9235898965
 30
0.0
 10
67.6839491736
 20
38.4290771487
 30
0.0
 10
67.3895139989
 20
37.9677872208
 30
0.0
 10
67.0431679927
 20
37.566420571
 30
0.0
 10
66.6645193882
 20
37.2481109323
 30
0.0
 10
66.2749424137
 20
37.0309601782
 30
0.0
 10
66.0022891075
 20
36.9584852675
 30
0.0
 10
65.8735681868
 20
36.9476956703
 30
0.0
  0
SPLINE
  5
30B
100
AcDbEntity
  8
0
100
AcDbSpline
 62
7
  6
CONTINUOUS
 70
0
 71
3
 72
14
 73
10
 74
0
 42
0.0000001
 43
0.0000001
 44
0.0000000001
 40
0.0
 40
0.0
 40
0.0
 40
0.0
 40
0.1080462869
 40
0.218135173
 40
0.3321090551
 40
0.4514848962
 40
0.5774317107
 40
0.7107502635
 40
1.0
 40
1.0
 40
1.0
 40
1.0
 10
58.3686628068
 20
93.7886174263
 30
0.0
 10
58.3686611116
 20
93.9050306672
 30
0.0
 10
58.3485086042
 20
94.1405387044
 30
0.0
 10
58.258176857
 20
94.4883557016
 30
0.0
 10
58.1092739897
 20
94.8286930822
 30
0.0
 10
57.9035540855
 20
95.1580748832
 30
0.0
 10
57.6432446894
 20
95.4736084462
 30
0.0
 10
57.2155171702
 20
95.88289272
 30
0.0
 10
56.8375068319
 20
96.1432031479
 30
0.0
 10
56.5676094987
 20
96.2990249208
 30
0.0
  0
SPLINE
  5
30C
100
AcDbEntity
  8
0
100
AcDbSpline
 62
7
  6
CONTINUOUS
 70
0
 71
3
 72
11
 73
7
 74
0
 42
0.0000001
 43
0.0000001
 44
0.0000000001
 40
0.0
 40
0.0
 40
0.0
 40
0.0
 40
0.2893919158
 40
0.549129352
 40
0.7823176993
 40
1.0
 40
1.0
 40
1.0
 40
1.0
 10
43.5536441345
 20
27.6309066928
 30
0.0
 10
43.5536441345
 20
27.6840493932
 30
0.0
 10
43.5454719833
 20
27.7852134737
 30
0.0
 10
43.504651178
 20
27.9242864395
 30
0.0
 10
43.4355928967
 20
28.0371216782
 30
0.0
 10
43.3707879279
 20
28.0915829182
 30
0.0
 10
43.3361562469
 20
28.1115475738
 30
0.0
  0
SPLINE
  5
30D
100
AcDbEntity
  8
0
100
AcDbSpline
 62
7
  6
CONTINUOUS
 70
0
 71
3
 72
15
 73
11
 74
0
 42
0.0000001
 43
0.0000001
 44
0.0000000001
 40
0.0
 40
0.0
 40
0.0
 40
0.0
 40
0.1207551358
 40
0.2526273017
 40
0.3909225319
 40
0.5302568209
 40
0.6650348277
 40
0.7902697751
 40
0.9023348529
 40
1.0
 40
1.0
 40
1.0
 40
1.0
 10
44.4021687392
 20
28.1207996775
 30
0.0
 10
44.4021687392
 20
27.9610884322
 30
0.0
 10
44.3649418184
 20
27.6265988417
 30
0.0
 10
44.221649808
 20
27.1278441959
 30
0.0
 10
43.9961131557
 20
26.6333314481
 30
0.0
 10
43.7016779809
 20
26.1720415202
 30
0.0
 10
43.3553319748
 20
25.7706748705
 30
0.0
 10
42.9766833702
 20
25.4523652318
 30
0.0
 10
42.5871063958
 20
25.2352144777
 30
0.0
 10
42.3144530896
 20
25.1627395669
 30
0.0
 10
42.1857321688
 20
25.1519499698
 30
0.0
  0
SPLINE
  5
30E
100
AcDbEntity
  8
0
100
AcDbSpline
 62
7
  6
CONTINUOUS
 70
0
 71
3
 72
17
 73
13
 74
0
 42
0.0000001
 43
0.0000001
 44
0.0000000001
 40
0.0
 40
0.0
 40
0.0
 40
0.0
 40
0.0428576877
 40
0.0874849505
 40
0.1353173333
 40
0.1872806034
 40
0.3045412648
 40
0.4382087218
 40
0.5825511809
 40
0.7297102049
 40
0.8713097134
 40
1.0
 40
1.0
 40
1.0
 40
1.0
 10
66.2579475489
 20
36.5391617215
 30
0.0
 10
66.3134024589
 20
36.5071158266
 30
0.0
 10
66.4356859566
 20
36.4563189057
 30
0.0
 10
66.6375111891
 20
36.4267193762
 30
0.0
 10
66.8542622841
 20
36.4426938295
 30
0.0
 10
67.169203343
 20
36.5264418021
 30
0.0
 10
67.5718069203
 20
36.7465915629
 30
0.0
 10
68.0166170867
 20
37.1405196494
 30
0.0
 10
68.4098112019
 20
37.6437966081
 30
0.0
 10
68.7192708843
 20
38.215768261
 30
0.0
 10
68.9200846555
 20
38.8095318019
 30
0.0
 10
68.9738919135
 20
39.213924312
 30
0.0
 10
68.9738919135
 20
39.4062444349
 30
0.0
  0
SPLINE
  5
30F
100
AcDbEntity
  8
0
100
AcDbSpline
 62
7
  6
CONTINUOUS
 70
0
 71
3
 72
11
 73
7
 74
0
 42
0.0000001
 43
0.0000001
 44
0.0000000001
 40
0.0
 40
0.0
 40
0.0
 40
0.0
 40
0.2893919158
 40
0.549129352
 40
0.7823176993
 40
1.0
 40
1.0
 40
1.0
 40
1.0
 10
30.4753509018
 20
34.2899032369
 30
0.0
 10
30.4753509018
 20
34.3430459373
 30
0.0
 10
30.4671787506
 20
34.4442100178
 30
0.0
 10
30.4263579453
 20
34.5832829836
 30
0.0
 10
30.357299664
 20
34.6961182222
 30
0.0
 10
30.2924946951
 20
34.7505794622
 30
0.0
 10
30.2578630142
 20
34.7705441179
 30
0.0
  0
SPLINE
  5
310
100
AcDbEntity
  8
0
100
AcDbSpline
 62
7
  6
CONTINUOUS
 70
0
 71
3
 72
15
 73
11
 74
0
 42
0.0000001
 43
0.0000001
 44
0.0000000001
 40
0.0
 40
0.0
 40
0.0
 40
0.0
 40
0.1207551358
 40
0.2526273017
 40
0.3909225319
 40
0.5302568209
 40
0.6650348277
 40
0.7902697751
 40
0.9023348529
 40
1.0
 40
1.0
 40
1.0
 40
1.0
 10
31.3238755064
 20
34.7797962215
 30
0.0
 10
31.3238755064
 20
34.6200849762
 30
0.0
 10
31.2866485856
 20
34.2855953858
 30
0.0
 10
31.1433565753
 20
33.78684074
 30
0.0
 10
30.917819923
 20
33.2923279922
 30
0.0
 10
30.6233847482
 20
32.8310380643
 30
0.0
 10
30.2770387421
 20
32.4296714145
 30
0.0
 10
29.8983901375
 20
32.1113617758
 30
0.0
 10
29.5088131631
 20
31.8942110217
 30
0.0
 10
29.2361598569
 20
31.821736111
 30
0.0
 10
29.1074389361
 20
31.8109465138
 30
0.0
  0
SPLINE
  5
311
100
AcDbEntity
  8
0
100
AcDbSpline
 62
7
  6
CONTINUOUS
 70
0
 71
3
 72
10
 73
6
 74
0
 42
0.0000001
 43
0.0000001
 44
0.0000000001
 40
0.0
 40
0.0
 40
0.0
 40
0.0
 40
0.2299729274
 40
0.4697385303
 40
1.0
 40
1.0
 40
1.0
 40
1.0
 10
60.338135363
 20
101.6847562488
 30
0.0
 10
60.3161414301
 20
101.6702947837
 30
0.0
 10
60.2745725412
 20
101.635289537
 30
0.0
 10
60.2052149586
 20
101.5433321014
 30
0.0
 10
60.1749768993
 20
101.4579893462
 30
0.0
 10
60.1625229727
 20
101.3985878727
 30
0.0
  0
SPLINE
  5
312
100
AcDbEntity
  8
0
100
AcDbSpline
 62
7
  6
CONTINUOUS
 70
0
 71
3
 72
9
 73
5
 74
0
 42
0.0000001
 43
0.0000001
 44
0.0000000001
 40
0.0
 40
0.0
 40
0.0
 40
0.0
 40
0.475393725
 40
1.0
 40
1.0
 40
1.0
 40
1.0
 10
66.8292719468
 20
98.0326634226
 30
0.0
 10
66.829171601
 20
97.9386545687
 30
0.0
 10
66.8576222754
 20
97.7407104378
 30
0.0
 10
66.9258355325
 20
97.553756851
 30
0.0
 10
66.9699980336
 20
97.4598856639
 30
0.0
  0
SPLINE
  5
313
100
AcDbEntity
  8
0
100
AcDbSpline
 62
7
  6
CONTINUOUS
 70
0
 71
3
 72
10
 73
6
 74
0
 42
0.0000001
 43
0.0000001
 44
0.0000000001
 40
0.0
 40
0.0
 40
0.0
 40
0.0
 40
0.21838324
 40
0.4531043095
 40
1.0
 40
1.0
 40
1.0
 40
1.0
 10
24.9650911606
 20
40.8262255538
 30
0.0
 10
24.9584969707
 20
40.8300326807
 30
0.0
 10
24.9461105138
 20
40.8404217748
 30
0.0
 10
24.927878724
 20
40.8706590994
 30
0.0
 10
24.9236777053
 20
40.8987280627
 30
0.0
 10
24.923677496
 20
40.9177965019
 30
0.0
  0
SPLINE
  5
314
100
AcDbEntity
  8
0
100
AcDbSpline
 62
7
  6
CONTINUOUS
 70
0
 71
3
 72
17
 73
13
 74
0
 42
0.0000001
 43
0.0000001
 44
0.0000000001
 40
0.0
 40
0.0
 40
0.0
 40
0.0
 40
0.0428576877
 40
0.0874849505
 40
0.1353173333
 40
0.1872806034
 40
0.3045412648
 40
0.4382087218
 40
0.5825511809
 40
0.7297102049
 40
0.8713097134
 40
1.0
 40
1.0
 40
1.0
 40
1.0
 10
40.2398830188
 20
65.7747772651
 30
0.0
 10
40.2953379287
 20
65.7427313702
 30
0.0
 10
40.4176214265
 20
65.6919344493
 30
0.0
 10
40.6194466589
 20
65.6623349198
 30
0.0
 10
40.8361977539
 20
65.6783093731
 30
0.0
 10
41.1511388129
 20
65.7620573457
 30
0.0
 10
41.5537423901
 20
65.9822071065
 30
0.0
 10
41.9985525565
 20
66.376135193
 30
0.0
 10
42.3917466718
 20
66.8794121517
 30
0.0
 10
42.7012063541
 20
67.4513838046
 30
0.0
 10
42.9020201253
 20
68.0451473455
 30
0.0
 10
42.9558273834
 20
68.4495398556
 30
0.0
 10
42.9558273834
 20
68.6418599785
 30
0.0
  0
SPLINE
  5
315
100
AcDbEntity
  8
0
100
AcDbSpline
 62
7
  6
CONTINUOUS
 70
0
 71
3
 72
9
 73
5
 74
0
 42
0.0000001
 43
0.0000001
 44
0.0000000001
 40
0.0
 40
0.0
 40
0.0
 40
0.0
 40
0.2330036301
 40
1.0
 40
1.0
 40
1.0
 40
1.0
 10
68.0003219282
 20
40.4728755996
 30
0.0
 10
68.0154987206
 20
40.4316834586
 30
0.0
 10
68.0709060876
 20
40.2513157772
 30
0.0
 10
68.0900047571
 20
40.061051367
 30
0.0
 10
68.0900047571
 20
39.916545378
 30
0.0
  0
SPLINE
  5
316
100
AcDbEntity
  8
0
100
AcDbSpline
 62
7
  6
CONTINUOUS
 70
0
 71
3
 72
17
 73
13
 74
0
 42
0.0000001
 43
0.0000001
 44
0.0000000001
 40
0.0
 40
0.0
 40
0.0
 40
0.0
 40
0.0428567682
 40
0.0874846361
 40
0.1353115866
 40
0.1872772446
 40
0.3045367808
 40
0.4381985211
 40
0.5825369695
 40
0.729684371
 40
0.8713138527
 40
1.0
 40
1.0
 40
1.0
 40
1.0
 10
65.9490530482
 20
38.045401887
 30
0.0
 10
65.9761695459
 20
38.0297458596
 30
0.0
 10
66.0359246368
 20
38.0048440003
 30
0.0
 10
66.1346057169
 20
37.9904517839
 30
0.0
 10
66.240570671
 20
37.9981857242
 30
0.0
 10
66.3945241773
 20
38.039208942
 30
0.0
 10
66.5913571997
 20
38.1467848402
 30
0.0
 10
66.8088191599
 20
38.3393731992
 30
0.0
 10
67.0010275821
 20
38.5854059978
 30
0.0
 10
67.1523555063
 20
38.8650279504
 30
0.0
 10
67.2505104616
 20
39.1553281821
 30
0.0
 10
67.2768353443
 20
39.3530451962
 30
0.0
 10
67.2768353443
 20
39.4470646011
 30
0.0
  0
SPLINE
  5
317
100
AcDbEntity
  8
0
100
AcDbSpline
 62
7
  6
CONTINUOUS
 70
0
 71
3
 72
9
 73
5
 74
0
 42
0.0000001
 43
0.0000001
 44
0.0000000001
 40
0.0
 40
0.0
 40
0.0
 40
0.0
 40
0.4883740468
 40
1.0
 40
1.0
 40
1.0
 40
1.0
 10
62.7664642792
 20
102.5008560977
 30
0.0
 10
63.3136013191
 20
102.1447245971
 30
0.0
 10
64.398744802
 20
101.360508798
 30
0.0
 10
65.4122373548
 20
100.486377078
 30
0.0
 10
65.9124625931
 20
100.0199954902
 30
0.0
  0
SPLINE
  5
318
100
AcDbEntity
  8
0
100
AcDbSpline
 62
7
  6
CONTINUOUS
 70
0
 71
3
 72
9
 73
5
 74
0
 42
0.0000001
 43
0.0000001
 44
0.0000000001
 40
0.0
 40
0.0
 40
0.0
 40
0.0
 40
0.2330036301
 40
1.0
 40
1.0
 40
1.0
 40
1.0
 10
41.9822573981
 20
69.7084911432
 30
0.0
 10
41.9974341905
 20
69.6672990022
 30
0.0
 10
42.0528415574
 20
69.4869313208
 30
0.0
 10
42.0719402269
 20
69.2966669106
 30
0.0
 10
42.0719402269
 20
69.1521609216
 30
0.0
  0
SPLINE
  5
319
100
AcDbEntity
  8
0
100
AcDbSpline
 62
7
  6
CONTINUOUS
 70
0
 71
3
 72
17
 73
13
 74
0
 42
0.0000001
 43
0.0000001
 44
0.0000000001
 40
0.0
 40
0.0
 40
0.0
 40
0.0
 40
0.0428576877
 40
0.0874849505
 40
0.1353173333
 40
0.1872806034
 40
0.3045412648
 40
0.4382087218
 40
0.5825511809
 40
0.7297102049
 40
0.8713097134
 40
1.0
 40
1.0
 40
1.0
 40
1.0
 10
42.570111531
 20
24.7434160209
 30
0.0
 10
42.6255664409
 20
24.7113701261
 30
0.0
 10
42.7478499387
 20
24.6605732051
 30
0.0
 10
42.9496751711
 20
24.6309736756
 30
0.0
 10
43.1664262662
 20
24.646948129
 30
0.0
 10
43.4813673251
 20
24.7306961016
 30
0.0
 10
43.8839709024
 20
24.9508458623
 30
0.0
 10
44.3287810688
 20
25.3447739489
 30
0.0
 10
44.721975184
 20
25.8480509075
 30
0.0
 10
45.0314348664
 20
26.4200225604
 30
0.0
 10
45.2322486375
 20
27.0137861013
 30
0.0
 10
45.2860558956
 20
27.4181786115
 30
0.0
 10
45.2860558956
 20
27.6104987343
 30
0.0
  0
SPLINE
  5
31A
100
AcDbEntity
  8
0
100
AcDbSpline
 62
7
  6
CONTINUOUS
 70
0
 71
3
 72
17
 73
13
 74
0
 42
0.0000001
 43
0.0000001
 44
0.0000000001
 40
0.0
 40
0.0
 40
0.0
 40
0.0
 40
0.0428567682
 40
0.0874846361
 40
0.1353115866
 40
0.1872772446
 40
0.3045367808
 40
0.4381985211
 40
0.5825369695
 40
0.729684371
 40
0.8713138527
 40
1.0
 40
1.0
 40
1.0
 40
1.0
 10
39.930988518
 20
67.2810174306
 30
0.0
 10
39.9581050158
 20
67.2653614032
 30
0.0
 10
40.0178601066
 20
67.2404595439
 30
0.0
 10
40.1165411867
 20
67.2260673275
 30
0.0
 10
40.2225061408
 20
67.2338012678
 30
0.0
 10
40.3764596471
 20
67.2748244856
 30
0.0
 10
40.5732926695
 20
67.3824003838
 30
0.0
 10
40.7907546297
 20
67.5749887427
 30
0.0
 10
40.982963052
 20
67.8210215414
 30
0.0
 10
41.1342909761
 20
68.100643494
 30
0.0
 10
41.2324459314
 20
68.3909437257
 30
0.0
 10
41.2587708141
 20
68.5886607398
 30
0.0
 10
41.2587708141
 20
68.6826801447
 30
0.0
  0
SPLINE
  5
31B
100
AcDbEntity
  8
0
100
AcDbSpline
 62
7
  6
CONTINUOUS
 70
0
 71
3
 72
9
 73
5
 74
0
 42
0.0000001
 43
0.0000001
 44
0.0000000001
 40
0.0
 40
0.0
 40
0.0
 40
0.0
 40
0.2330036301
 40
1.0
 40
1.0
 40
1.0
 40
1.0
 10
44.3124859103
 20
28.6771298991
 30
0.0
 10
44.3276627027
 20
28.6359377581
 30
0.0
 10
44.3830700697
 20
28.4555700767
 30
0.0
 10
44.4021687392
 20
28.2653056664
 30
0.0
 10
44.4021687392
 20
28.1207996775
 30
0.0
  0
SPLINE
  5
31C
100
AcDbEntity
  8
0
100
AcDbSpline
 62
7
  6
CONTINUOUS
 70
0
 71
3
 72
17
 73
13
 74
0
 42
0.0000001
 43
0.0000001
 44
0.0000000001
 40
0.0
 40
0.0
 40
0.0
 40
0.0
 40
0.0428564749
 40
0.0874759937
 40
0.1353121277
 40
0.1872673656
 40
0.3045358732
 40
0.4381964188
 40
0.5825327914
 40
0.7296579449
 40
0.8713337596
 40
1.0
 40
1.0
 40
1.0
 40
1.0
 10
42.286213964
 20
26.2929530887
 30
0.0
 10
42.3121074062
 20
26.2780258993
 30
0.0
 10
42.3691487627
 20
26.2543074815
 30
0.0
 10
42.4633282754
 20
26.2404327857
 30
0.0
 10
42.5644651159
 20
26.2479471133
 30
0.0
 10
42.7114515966
 20
26.2869622318
 30
0.0
 10
42.8993071872
 20
26.3897536264
 30
0.0
 10
43.1068988414
 20
26.5735499897
 30
0.0
 10
43.2903322137
 20
26.8084113263
 30
0.0
 10
43.4348282726
 20
27.0753126234
 30
0.0
 10
43.5284737663
 20
27.3524351634
 30
0.0
 10
43.5536441345
 20
27.5411752345
 30
0.0
 10
43.5536441345
 20
27.6309066928
 30
0.0
  0
SPLINE
  5
31D
100
AcDbEntity
  8
0
100
AcDbSpline
 62
7
  6
CONTINUOUS
 70
0
 71
3
 72
9
 73
5
 74
0
 42
0.0000001
 43
0.0000001
 44
0.0000000001
 40
0.0
 40
0.0
 40
0.0
 40
0.0
 40
0.2378608104
 40
1.0
 40
1.0
 40
1.0
 40
1.0
 10
57.851401431
 20
104.6632549674
 30
0.0
 10
58.111117272
 20
104.6062028695
 30
0.0
 10
59.1943051869
 20
104.3270561546
 30
0.0
 10
60.237005621
 20
103.9009953714
 30
0.0
 10
60.9986878043
 20
103.5192140408
 30
0.0
  0
SPLINE
  5
31E
100
AcDbEntity
  8
0
100
AcDbSpline
 62
7
  6
CONTINUOUS
 70
0
 71
3
 72
17
 73
13
 74
0
 42
0.0000001
 43
0.0000001
 44
0.0000000001
 40
0.0
 40
0.0
 40
0.0
 40
0.0
 40
0.0428576877
 40
0.0874849505
 40
0.1353173333
 40
0.1872806034
 40
0.3045412648
 40
0.4382087218
 40
0.5825511809
 40
0.7297102049
 40
0.8713097134
 40
1.0
 40
1.0
 40
1.0
 40
1.0
 10
64.211136515
 20
85.3275969921
 30
0.0
 10
64.2665914249
 20
85.2955510973
 30
0.0
 10
64.3888749227
 20
85.2447541763
 30
0.0
 10
64.5907001551
 20
85.2151546468
 30
0.0
 10
64.8074512501
 20
85.2311291001
 30
0.0
 10
65.1223923091
 20
85.3148770728
 30
0.0
 10
65.5249958863
 20
85.5350268335
 30
0.0
 10
65.9698060527
 20
85.9289549201
 30
0.0
 10
66.363000168
 20
86.4322318787
 30
0.0
 10
66.6724598503
 20
87.0042035316
 30
0.0
 10
66.8732736215
 20
87.5979670725
 30
0.0
 10
66.9270808796
 20
88.0023595827
 30
0.0
 10
66.9270808796
 20
88.1946797055
 30
0.0
  0
SPLINE
  5
31F
100
AcDbEntity
  8
0
100
AcDbSpline
 62
7
  6
CONTINUOUS
 70
0
 71
3
 72
11
 73
7
 74
0
 42
0.0000001
 43
0.0000001
 44
0.0000000001
 40
0.0
 40
0.0
 40
0.0
 40
0.0
 40
0.2282295796
 40
0.4665510331
 40
0.7227823842
 40
1.0
 40
1.0
 40
1.0
 40
1.0
 10
21.5147687861
 20
19.1706136268
 30
0.0
 10
21.4947295546
 20
19.1821558968
 30
0.0
 10
21.4567102694
 20
19.2113116002
 30
0.0
 10
21.4114618751
 20
19.2697701852
 30
0.0
 10
21.3781563162
 20
19.3410895594
 30
0.0
 10
21.3643462311
 20
19.3936376111
 30
0.0
 10
21.3592216455
 20
19.4212555957
 30
0.0
  0
SPLINE
  5
320
100
AcDbEntity
  8
0
100
AcDbSpline
 62
7
  6
CONTINUOUS
 70
0
 71
3
 72
9
 73
5
 74
0
 42
0.0000001
 43
0.0000001
 44
0.0000000001
 40
0.0
 40
0.0
 40
0.0
 40
0.0
 40
0.2330036301
 40
1.0
 40
1.0
 40
1.0
 40
1.0
 10
52.1631530079
 20
57.1324145652
 30
0.0
 10
52.1783298003
 20
57.0912224242
 30
0.0
 10
52.2337371673
 20
56.9108547428
 30
0.0
 10
52.2528358368
 20
56.7205903326
 30
0.0
 10
52.2528358368
 20
56.5760843436
 30
0.0
  0
SPLINE
  5
321
100
AcDbEntity
  8
0
100
AcDbSpline
 62
7
  6
CONTINUOUS
 70
0
 71
3
 72
9
 73
5
 74
0
 42
0.0000001
 43
0.0000001
 44
0.0000000001
 40
0.0
 40
0.0
 40
0.0
 40
0.0
 40
0.2330036301
 40
1.0
 40
1.0
 40
1.0
 40
1.0
 10
65.9535108943
 20
89.2613108702
 30
0.0
 10
65.9686876867
 20
89.2201187292
 30
0.0
 10
66.0240950536
 20
89.0397510478
 30
0.0
 10
66.0431937231
 20
88.8494866376
 30
0.0
 10
66.0431937231
 20
88.7049806486
 30
0.0
  0
SPLINE
  5
322
100
AcDbEntity
  8
0
100
AcDbSpline
 62
7
  6
CONTINUOUS
 70
0
 71
3
 72
9
 73
5
 74
0
 42
0.0000001
 43
0.0000001
 44
0.0000000001
 40
0.0
 40
0.0
 40
0.0
 40
0.0
 40
0.2581662146
 40
1.0
 40
1.0
 40
1.0
 40
1.0
 10
23.7512836994
 20
25.2746417636
 30
0.0
 10
23.7630587846
 20
25.2791739298
 30
0.0
 10
23.808994255
 20
25.2958608178
 30
0.0
 10
23.8562683884
 20
25.3089581504
 30
0.0
 10
23.8918003027
 20
25.3161635059
 30
0.0
  0
SPLINE
  5
323
100
AcDbEntity
  8
0
100
AcDbSpline
 62
7
  6
CONTINUOUS
 70
0
 71
3
 72
11
 73
7
 74
0
 42
0.0000001
 43
0.0000001
 44
0.0000000001
 40
0.0
 40
0.0
 40
0.0
 40
0.0
 40
0.2736603531
 40
0.5366026198
 40
0.7805977922
 40
1.0
 40
1.0
 40
1.0
 40
1.0
 10
22.9319531659
 20
24.5206514073
 30
0.0
 10
22.9857310597
 20
24.6086842105
 30
0.0
 10
23.1025174228
 20
24.7746741358
 30
0.0
 10
23.3032950367
 20
24.9911467076
 30
0.0
 10
23.5186539619
 20
25.1619996753
 30
0.0
 10
23.674097572
 20
25.2449332434
 30
0.0
 10
23.7512836994
 20
25.2746417636
 30
0.0
  0
SPLINE
  5
324
100
AcDbEntity
  8
0
100
AcDbSpline
 62
7
  6
CONTINUOUS
 70
0
 71
3
 72
11
 73
7
 74
0
 42
0.0000001
 43
0.0000001
 44
0.0000000001
 40
0.0
 40
0.0
 40
0.0
 40
0.0
 40
0.217122715
 40
0.4615057785
 40
0.7258981145
 40
1.0
 40
1.0
 40
1.0
 40
1.0
 10
21.3592216455
 20
19.4212555957
 30
0.0
 10
21.2981812106
 20
19.7502214732
 30
0.0
 10
21.2685797564
 20
20.468757525
 30
0.0
 10
21.4491703888
 20
21.578102172
 30
0.0
 10
21.8381448612
 20
22.7252157285
 30
0.0
 10
22.219917008
 20
23.4658879395
 30
0.0
 10
22.4401100603
 20
23.8263373787
 30
0.0
  0
SPLINE
  5
325
100
AcDbEntity
  8
0
100
AcDbSpline
 62
7
  6
CONTINUOUS
 70
0
 71
3
 72
12
 73
8
 74
0
 42
0.0000001
 43
0.0000001
 44
0.0000000001
 40
0.0
 40
0.0
 40
0.0
 40
0.0
 40
0.1016802687
 40
0.2069452188
 40
0.4359198371
 40
0.6992951744
 40
1.0
 40
1.0
 40
1.0
 40
1.0
 10
35.2966363397
 20
16.7457557089
 30
0.0
 10
35.2435251398
 20
16.7150790785
 30
0.0
 10
35.1291221286
 20
16.662984641
 30
0.0
 10
34.8727925427
 20
16.5990634707
 30
0.0
 10
34.5063918797
 20
16.6032764322
 30
0.0
 10
34.0415938199
 20
16.7298286667
 30
0.0
 10
33.7340671013
 20
16.879721406
 30
0.0
 10
33.5769809721
 20
16.9704130733
 30
0.0
  0
LINE
  5
326
100
AcDbEntity
  8
0
100
AcDbLine
 62
7
  6
CONTINUOUS
 10
25.1379840764
 20
40.531372269
 11
25.1382796517
 21
40.8783917887
  0
SPLINE
  5
327
100
AcDbEntity
  8
0
100
AcDbSpline
 62
7
  6
CONTINUOUS
 70
0
 71
3
 72
9
 73
5
 74
0
 42
0.0000001
 43
0.0000001
 44
0.0000000001
 40
0.0
 40
0.0
 40
0.0
 40
0.0
 40
0.4772506092
 40
1.0
 40
1.0
 40
1.0
 40
1.0
 10
24.923677496
 20
40.9177965019
 30
0.0
 10
24.923677151
 20
40.9492366378
 30
0.0
 10
24.9392095766
 20
41.014987814
 30
0.0
 10
24.9725613288
 20
41.0728843224
 30
0.0
 10
24.9941378341
 20
41.0997244971
 30
0.0
  0
SPLINE
  5
328
100
AcDbEntity
  8
0
100
AcDbSpline
 62
7
  6
CONTINUOUS
 70
0
 71
3
 72
9
 73
5
 74
0
 42
0.0000001
 43
0.0000001
 44
0.0000000001
 40
0.0
 40
0.0
 40
0.0
 40
0.0
 40
0.2669330045
 40
1.0
 40
1.0
 40
1.0
 40
1.0
 10
24.9941378341
 20
41.0997244971
 30
0.0
 10
24.9994439515
 20
41.1063250618
 30
0.0
 10
25.020298084
 20
41.1302061156
 30
0.0
 10
25.0449523605
 20
41.1511166173
 30
0.0
 10
25.0650947337
 20
41.1627446011
 30
0.0
  0
SPLINE
  5
329
100
AcDbEntity
  8
0
100
AcDbSpline
 62
7
  6
CONTINUOUS
 70
0
 71
3
 72
9
 73
5
 74
0
 42
0.0000001
 43
0.0000001
 44
0.0000000001
 40
0.0
 40
0.0
 40
0.0
 40
0.0
 40
0.2463721579
 40
1.0
 40
1.0
 40
1.0
 40
1.0
 10
25.1390983371
 20
41.2054653574
 30
0.0
 10
25.1430640585
 20
42.4061434385
 30
0.0
 10
25.2020470529
 20
47.2793692647
 30
0.0
 10
25.4298361136
 20
52.1503135916
 30
0.0
 10
25.6891543772
 20
55.8139219507
 30
0.0
  0
SPLINE
  5
32A
100
AcDbEntity
  8
0
100
AcDbSpline
 62
7
  6
CONTINUOUS
 70
0
 71
3
 72
9
 73
5
 74
0
 42
0.0000001
 43
0.0000001
 44
0.0000000001
 40
0.0
 40
0.0
 40
0.0
 40
0.0
 40
0.4918853171
 40
1.0
 40
1.0
 40
1.0
 40
1.0
 10
39.2442811496
 20
63.6399313267
 30
0.0
 10
39.2442824723
 20
66.2646344605
 30
0.0
 10
39.4089946395
 20
71.6016135481
 30
0.0
 10
39.8758316965
 20
76.9201230566
 30
0.0
 10
40.1836782606
 20
79.6138927502
 30
0.0
  0
SPLINE
  5
32B
100
AcDbEntity
  8
0
100
AcDbSpline
 62
7
  6
CONTINUOUS
 70
0
 71
3
 72
11
 73
7
 74
0
 42
0.0000001
 43
0.0000001
 44
0.0000000001
 40
0.0
 40
0.0
 40
0.0
 40
0.0
 40
0.2291440699
 40
0.4749370499
 40
0.733488081
 40
1.0
 40
1.0
 40
1.0
 40
1.0
 10
56.5676094987
 20
96.2990249208
 30
0.0
 10
56.30317171
 20
96.4516946954
 30
0.0
 10
55.7298206127
 20
96.7254100709
 30
0.0
 10
54.7991680397
 20
97.0310924595
 30
0.0
 10
53.7913003611
 20
97.2394946503
 30
0.0
 10
53.0936272303
 20
97.3088013355
 30
0.0
 10
52.7389128462
 20
97.3261639044
 30
0.0
  0
SPLINE
  5
32C
100
AcDbEntity
  8
0
100
AcDbSpline
 62
7
  6
CONTINUOUS
 70
0
 71
3
 72
18
 73
14
 74
0
 42
0.0000001
 43
0.0000001
 44
0.0000000001
 40
0.0
 40
0.0
 40
0.0
 40
0.0
 40
0.1536013626
 40
0.3046429865
 40
0.4489764661
 40
0.5831199557
 40
0.704665344
 40
0.7604963705
 40
0.8130984211
 40
0.8627630554
 40
0.909981476
 40
0.9554521273
 40
1.0
 40
1.0
 40
1.0
 40
1.0
 10
52.7389128462
 20
97.3261639044
 30
0.0
 10
52.3161129105
 20
97.3468591265
 30
0.0
 10
51.4742566696
 20
97.3378158422
 30
0.0
 10
50.2444855158
 20
97.1771065292
 30
0.0
 10
49.0960452378
 20
96.8756817973
 30
0.0
 10
48.0765004376
 20
96.4459230549
 30
0.0
 10
47.3477513465
 20
95.9810422704
 30
0.0
 10
46.8748369848
 20
95.5571907451
 30
0.0
 10
46.5867991879
 20
95.2287008426
 30
0.0
 10
46.3585735585
 20
94.8840596944
 30
0.0
 10
46.1931027448
 20
94.5265059644
 30
0.0
 10
46.092695738
 20
94.1600199645
 30
0.0
 10
46.0702475078
 20
93.9113859381
 30
0.0
 10
46.0702221861
 20
93.7886175799
 30
0.0
  0
SPLINE
  5
32D
100
AcDbEntity
  8
0
100
AcDbSpline
 62
7
  6
CONTINUOUS
 70
0
 71
3
 72
17
 73
13
 74
0
 42
0.0000001
 43
0.0000001
 44
0.0000000001
 40
0.0
 40
0.0
 40
0.0
 40
0.0
 40
0.0428576877
 40
0.0874849505
 40
0.1353173333
 40
0.1872806034
 40
0.3045412648
 40
0.4382087218
 40
0.5825511809
 40
0.7297102049
 40
0.8713097134
 40
1.0
 40
1.0
 40
1.0
 40
1.0
 10
29.4918182983
 20
31.402412565
 30
0.0
 10
29.5472732082
 20
31.3703666701
 30
0.0
 10
29.669556706
 20
31.3195697492
 30
0.0
 10
29.8713819384
 20
31.2899702197
 30
0.0
 10
30.0881330334
 20
31.305944673
 30
0.0
 10
30.4030740924
 20
31.3896926456
 30
0.0
 10
30.8056776696
 20
31.6098424064
 30
0.0
 10
31.250487836
 20
32.0037704929
 30
0.0
 10
31.6436819513
 20
32.5070474516
 30
0.0
 10
31.9531416336
 20
33.0790191045
 30
0.0
 10
32.1539554048
 20
33.6727826453
 30
0.0
 10
32.2077626629
 20
34.0771751555
 30
0.0
 10
32.2077626629
 20
34.2694952784
 30
0.0
  0
SPLINE
  5
32E
100
AcDbEntity
  8
0
100
AcDbSpline
 62
7
  6
CONTINUOUS
 70
0
 71
3
 72
11
 73
7
 74
0
 42
0.0000001
 43
0.0000001
 44
0.0000000001
 40
0.0
 40
0.0
 40
0.0
 40
0.0
 40
0.2895463391
 40
0.5491378616
 40
0.7822784713
 40
1.0
 40
1.0
 40
1.0
 40
1.0
 10
41.2587708141
 20
68.6826801447
 30
0.0
 10
41.2587708141
 20
68.7383842052
 30
0.0
 10
41.2502651857
 20
68.8443805982
 30
0.0
 10
41.2074155449
 20
68.9900399842
 30
0.0
 10
41.1351287936
 20
69.1082600335
 30
0.0
 10
41.0671989342
 20
69.1652623482
 30
0.0
 10
41.0309246684
 20
69.1862057202
 30
0.0
  0
SPLINE
  5
32F
100
AcDbEntity
  8
0
100
AcDbSpline
 62
7
  6
CONTINUOUS
 70
0
 71
3
 72
9
 73
5
 74
0
 42
0.0000001
 43
0.0000001
 44
0.0000000001
 40
0.0
 40
0.0
 40
0.0
 40
0.0
 40
0.2597542842
 40
1.0
 40
1.0
 40
1.0
 40
1.0
 10
52.8558702158
 20
84.6249083007
 30
0.0
 10
52.5546216303
 20
84.5232231945
 30
0.0
 10
51.3860330534
 20
84.1591048668
 30
0.0
 10
50.1803348978
 20
83.9089686028
 30
0.0
 10
49.2801566243
 20
83.8056851662
 30
0.0
  0
SPLINE
  5
330
100
AcDbEntity
  8
0
100
AcDbSpline
 62
7
  6
CONTINUOUS
 70
0
 71
3
 72
15
 73
11
 74
0
 42
0.0000001
 43
0.0000001
 44
0.0000000001
 40
0.0
 40
0.0
 40
0.0
 40
0.0
 40
0.1207551358
 40
0.2526273017
 40
0.3909225319
 40
0.5302568209
 40
0.6650348277
 40
0.7902697751
 40
0.9023348529
 40
1.0
 40
1.0
 40
1.0
 40
1.0
 10
42.0719402269
 20
69.1521609216
 30
0.0
 10
42.0719402269
 20
68.9924496763
 30
0.0
 10
42.0347133061
 20
68.6579600859
 30
0.0
 10
41.8914212958
 20
68.1592054401
 30
0.0
 10
41.6658846435
 20
67.6646926923
 30
0.0
 10
41.3714494687
 20
67.2034027644
 30
0.0
 10
41.0251034626
 20
66.8020361146
 30
0.0
 10
40.646454858
 20
66.4837264759
 30
0.0
 10
40.2568778835
 20
66.2665757218
 30
0.0
 10
39.9842245774
 20
66.1941008111
 30
0.0
 10
39.8555036566
 20
66.1833112139
 30
0.0
  0
SPLINE
  5
331
100
AcDbEntity
  8
0
100
AcDbSpline
 62
7
  6
CONTINUOUS
 70
0
 71
3
 72
11
 73
7
 74
0
 42
0.0000001
 43
0.0000001
 44
0.0000000001
 40
0.0
 40
0.0
 40
0.0
 40
0.0
 40
0.2674529637
 40
0.5238165059
 40
0.7681385406
 40
1.0
 40
1.0
 40
1.0
 40
1.0
 10
61.1289798121
 20
90.2063534857
 30
0.0
 10
60.4641282025
 20
89.6521182702
 30
0.0
 10
59.1240821712
 20
88.6109591378
 30
0.0
 10
57.0492650138
 20
87.2370004334
 30
0.0
 10
54.9684656948
 20
86.0950100084
 30
0.0
 10
53.5525733214
 20
85.4792891692
 30
0.0
 10
52.8497016302
 20
85.2165314143
 30
0.0
  0
SPLINE
  5
332
100
AcDbEntity
  8
0
100
AcDbSpline
 62
7
  6
CONTINUOUS
 70
0
 71
3
 72
9
 73
5
 74
0
 42
0.0000001
 43
0.0000001
 44
0.0000000001
 40
0.0
 40
0.0
 40
0.0
 40
0.0
 40
0.2559398333
 40
1.0
 40
1.0
 40
1.0
 40
1.0
 10
66.008001588
 20
93.9341350241
 30
0.0
 10
65.6705619266
 20
93.5607212803
 30
0.0
 10
64.3282131522
 20
92.1236499363
 30
0.0
 10
62.8892463472
 20
90.7758182005
 30
0.0
 10
61.7653785647
 20
89.8389368067
 30
0.0
  0
SPLINE
  5
333
100
AcDbEntity
  8
0
100
AcDbSpline
 62
7
  6
CONTINUOUS
 70
0
 71
3
 72
14
 73
10
 74
0
 42
0.0000001
 43
0.0000001
 44
0.0000000001
 40
0.0
 40
0.0
 40
0.0
 40
0.0
 40
0.2111245176
 40
0.3268699654
 40
0.4494513074
 40
0.5786247206
 40
0.713902785
 40
0.8546565943
 40
1.0
 40
1.0
 40
1.0
 40
1.0
 10
49.2850014314
 20
83.3566819859
 30
0.0
 10
50.7320707627
 20
83.4556281538
 30
0.0
 10
52.9551589403
 20
83.9531597323
 30
0.0
 10
55.8183945726
 20
85.1140822582
 30
0.0
 10
58.0552180248
 20
86.2951274363
 30
0.0
 10
60.2871778815
 20
87.7457873683
 30
0.0
 10
62.4918563971
 20
89.4502898921
 30
0.0
 10
64.6443205873
 20
91.3896821992
 30
0.0
 10
66.010280544
 20
92.8054589785
 30
0.0
 10
66.6797558269
 20
93.5463063073
 30
0.0
  0
SPLINE
  5
334
100
AcDbEntity
  8
0
100
AcDbSpline
 62
7
  6
CONTINUOUS
 70
0
 71
3
 72
17
 73
13
 74
0
 42
0.0000001
 43
0.0000001
 44
0.0000000001
 40
0.0
 40
0.0
 40
0.0
 40
0.0
 40
0.0428607666
 40
0.0874886984
 40
0.1353132233
 40
0.1872731593
 40
0.3045209454
 40
0.4381772149
 40
0.58251812
 40
0.72967195
 40
0.8713100108
 40
1.0
 40
1.0
 40
1.0
 40
1.0
 10
63.9272425899
 20
86.8771406848
 30
0.0
 10
63.9531292425
 20
86.8621954605
 30
0.0
 10
64.0101693958
 20
86.8384218165
 30
0.0
 10
64.1043665195
 20
86.8246818503
 30
0.0
 10
64.2055085878
 20
86.8320695911
 30
0.0
 10
64.3524518615
 20
86.871218335
 30
0.0
 10
64.5403241601
 20
86.9738968366
 30
0.0
 10
64.7478989216
 20
87.1577173356
 30
0.0
 10
64.9313767804
 20
87.3925652296
 30
0.0
 10
65.075838322
 20
87.6594843163
 30
0.0
 10
65.1695381264
 20
87.9366009154
 30
0.0
 10
65.1946691185
 20
88.1253392287
 30
0.0
 10
65.1946691185
 20
88.215087664
 30
0.0
  0
SPLINE
  5
335
100
AcDbEntity
  8
0
100
AcDbSpline
 62
7
  6
CONTINUOUS
 70
0
 71
3
 72
9
 73
5
 74
0
 42
0.0000001
 43
0.0000001
 44
0.0000000001
 40
0.0
 40
0.0
 40
0.0
 40
0.0
 40
0.2549829193
 40
1.0
 40
1.0
 40
1.0
 40
1.0
 10
23.8267229332
 20
26.1917896596
 30
0.0
 10
23.8599992481
 20
26.1901458521
 30
0.0
 10
23.9905793439
 20
26.1854136239
 30
0.0
 10
24.1214374056
 20
26.1876923793
 30
0.0
 10
24.2185946101
 20
26.1937575906
 30
0.0
  0
SPLINE
  5
336
100
AcDbEntity
  8
0
100
AcDbSpline
 62
7
  6
CONTINUOUS
 70
0
 71
3
 72
15
 73
11
 74
0
 42
0.0000001
 43
0.0000001
 44
0.0000000001
 40
0.0
 40
0.0
 40
0.0
 40
0.0
 40
0.1250266356
 40
0.2440710618
 40
0.3600910054
 40
0.4763461627
 40
0.596014276
 40
0.7218927367
 40
0.8561393309
 40
1.0
 40
1.0
 40
1.0
 40
1.0
 10
24.2185946101
 20
26.1937575906
 30
0.0
 10
24.3812988857
 20
26.2039146945
 30
0.0
 10
24.6981984533
 20
26.2478740622
 30
0.0
 10
25.1473427541
 20
26.393168307
 30
0.0
 10
25.5512887756
 20
26.6152010871
 30
0.0
 10
25.9056703691
 20
26.9111050308
 30
0.0
 10
26.2072133319
 20
27.277144151
 30
0.0
 10
26.4542356406
 20
27.7087698102
 30
0.0
 10
26.6455871752
 20
28.201282178
 30
0.0
 10
26.7328646692
 20
28.55426836
 30
0.0
 10
26.768075764
 20
28.7385124337
 30
0.0
  0
SPLINE
  5
337
100
AcDbEntity
  8
0
100
AcDbSpline
 62
7
  6
CONTINUOUS
 70
0
 71
3
 72
16
 73
12
 74
0
 42
0.0000001
 43
0.0000001
 44
0.0000000001
 40
0.0
 40
0.0
 40
0.0
 40
0.0
 40
0.1228033542
 40
0.2572057283
 40
0.3977212006
 40
0.5382804934
 40
0.6730027689
 40
0.7968015425
 40
0.853477926
 40
0.9062703091
 40
1.0
 40
1.0
 40
1.0
 40
1.0
 10
33.5769809721
 20
16.9704130733
 30
0.0
 10
33.3563105333
 20
17.0978143283
 30
0.0
 10
32.9199136888
 20
17.4101350052
 30
0.0
 10
32.3245657312
 20
17.9848856123
 30
0.0
 10
31.7855228924
 20
18.6606898422
 30
0.0
 10
31.3351992488
 20
19.3993840321
 30
0.0
 10
31.0004758203
 20
20.1595625487
 30
0.0
 10
30.8291840052
 20
20.7943501976
 30
0.0
 10
30.7724091318
 20
21.27604243
 30
0.0
 10
30.7688998378
 20
21.6978134928
 30
0.0
 10
30.8224991435
 20
22.00311503
 30
0.0
 10
30.8907871597
 20
22.1852132283
 30
0.0
  0
SPLINE
  5
338
100
AcDbEntity
  8
0
100
AcDbSpline
 62
7
  6
CONTINUOUS
 70
0
 71
3
 72
18
 73
14
 74
0
 42
0.0000001
 43
0.0000001
 44
0.0000000001
 40
0.0
 40
0.0
 40
0.0
 40
0.0
 40
0.1251473404
 40
0.2626525594
 40
0.4060177766
 40
0.5477333263
 40
0.6158388398
 40
0.6810696533
 40
0.8006897279
 40
0.8549952645
 40
0.9058109749
 40
0.9538022806
 40
1.0
 40
1.0
 40
1.0
 40
1.0
 10
33.1464807394
 20
73.729350187
 30
0.0
 10
32.8802497066
 20
73.8830552681
 30
0.0
 10
32.366291001
 20
74.2850478983
 30
0.0
 10
31.7214041289
 20
75.0531538437
 30
0.0
 10
31.2076943575
 20
75.9616871774
 30
0.0
 10
30.922224834
 20
76.7869512565
 30
0.0
 10
30.7999354357
 20
77.4527460864
 30
0.0
 10
30.7543407096
 20
78.0730251807
 30
0.0
 10
30.81339458
 20
78.6662538612
 30
0.0
 10
30.9947174792
 20
79.1900750792
 30
0.0
 10
31.1791407964
 20
79.5204642072
 30
0.0
 10
31.4124157393
 20
79.7929392747
 30
0.0
 10
31.5997980019
 20
79.9326705575
 30
0.0
 10
31.698067395
 20
79.9894256774
 30
0.0
  0
SPLINE
  5
339
100
AcDbEntity
  8
0
100
AcDbSpline
 62
7
  6
CONTINUOUS
 70
0
 71
3
 72
9
 73
5
 74
0
 42
0.0000001
 43
0.0000001
 44
0.0000000001
 40
0.0
 40
0.0
 40
0.0
 40
0.0
 40
0.2330036301
 40
1.0
 40
1.0
 40
1.0
 40
1.0
 10
31.2341926776
 20
35.3361264431
 30
0.0
 10
31.24936947
 20
35.2949343021
 30
0.0
 10
31.3047768369
 20
35.1145666207
 30
0.0
 10
31.3238755064
 20
34.9243022105
 30
0.0
 10
31.3238755064
 20
34.7797962215
 30
0.0
  0
SPLINE
  5
33A
100
AcDbEntity
  8
0
100
AcDbSpline
 62
7
  6
CONTINUOUS
 70
0
 71
3
 72
9
 73
5
 74
0
 42
0.0000001
 43
0.0000001
 44
0.0000000001
 40
0.0
 40
0.0
 40
0.0
 40
0.0
 40
0.4906724088
 40
1.0
 40
1.0
 40
1.0
 40
1.0
 10
40.183678258
 20
10.3744877761
 30
0.0
 10
39.8652070553
 20
12.7934902608
 30
0.0
 10
39.3929319
 20
17.7479288698
 30
0.0
 10
39.2444672396
 20
22.7218165541
 30
0.0
 10
39.2442814923
 20
25.254456157
 30
0.0
  0
SPLINE
  5
33B
100
AcDbEntity
  8
0
100
AcDbSpline
 62
7
  6
CONTINUOUS
 70
0
 71
3
 72
11
 73
7
 74
0
 42
0.0000001
 43
0.0000001
 44
0.0000000001
 40
0.0
 40
0.0
 40
0.0
 40
0.0
 40
0.2893919158
 40
0.549129352
 40
0.7823176993
 40
1.0
 40
1.0
 40
1.0
 40
1.0
 10
51.4043112322
 20
56.086191359
 30
0.0
 10
51.4043112322
 20
56.1393340594
 30
0.0
 10
51.396139081
 20
56.2404981399
 30
0.0
 10
51.3553182756
 20
56.3795711057
 30
0.0
 10
51.2862599944
 20
56.4924063443
 30
0.0
 10
51.2214550255
 20
56.5468675843
 30
0.0
 10
51.1868233445
 20
56.56683224
 30
0.0
  0
SPLINE
  5
33C
100
AcDbEntity
  8
0
100
AcDbSpline
 62
7
  6
CONTINUOUS
 70
0
 71
3
 72
12
 73
8
 74
0
 42
0.0000001
 43
0.0000001
 44
0.0000000001
 40
0.0
 40
0.0
 40
0.0
 40
0.0
 40
0.2099601811
 40
0.3248969001
 40
0.4467947929
 40
0.711081151
 40
1.0
 40
1.0
 40
1.0
 40
1.0
 10
26.768075764
 20
28.7385124337
 30
0.0
 10
26.6156361775
 20
28.9759876323
 30
0.0
 10
26.4395156336
 20
29.3836034194
 30
0.0
 10
26.3039740192
 20
29.9691097851
 30
0.0
 10
26.2242829591
 20
30.6392776697
 30
0.0
 10
26.2524600825
 20
31.5512294334
 30
0.0
 10
26.3920508315
 20
32.2844414706
 30
0.0
 10
26.4894985444
 20
32.6603298331
 30
0.0
  0
SPLINE
  5
33D
100
AcDbEntity
  8
0
100
AcDbSpline
 62
7
  6
CONTINUOUS
 70
0
 71
3
 72
17
 73
13
 74
0
 42
0.0000001
 43
0.0000001
 44
0.0000000001
 40
0.0
 40
0.0
 40
0.0
 40
0.0
 40
0.0428564749
 40
0.0874759937
 40
0.1353121277
 40
0.1872673656
 40
0.3045358732
 40
0.4381964188
 40
0.5825327914
 40
0.7296579449
 40
0.8713337596
 40
1.0
 40
1.0
 40
1.0
 40
1.0
 10
29.2079207312
 20
32.9519496327
 30
0.0
 10
29.2338141735
 20
32.9370224434
 30
0.0
 10
29.29085553
 20
32.9133040255
 30
0.0
 10
29.3850350427
 20
32.8994293297
 30
0.0
 10
29.4861718832
 20
32.9069436573
 30
0.0
 10
29.6331583639
 20
32.9459587759
 30
0.0
 10
29.8210139545
 20
33.0487501704
 30
0.0
 10
30.0286056087
 20
33.2325465337
 30
0.0
 10
30.212038981
 20
33.4674078703
 30
0.0
 10
30.3565350398
 20
33.7343091674
 30
0.0
 10
30.4501805336
 20
34.0114317074
 30
0.0
 10
30.4753509018
 20
34.2001717786
 30
0.0
 10
30.4753509018
 20
34.2899032369
 30
0.0
  0
SPLINE
  5
33E
100
AcDbEntity
  8
0
100
AcDbSpline
 62
7
  6
CONTINUOUS
 70
0
 71
3
 72
11
 73
7
 74
0
 42
0.0000001
 43
0.0000001
 44
0.0000000001
 40
0.0
 40
0.0
 40
0.0
 40
0.0
 40
0.2896423581
 40
0.5491120121
 40
0.7822364467
 40
1.0
 40
1.0
 40
1.0
 40
1.0
 10
32.2077626629
 20
34.2694952784
 30
0.0
 10
32.2077626629
 20
34.3834745288
 30
0.0
 10
32.1904378711
 20
34.6002898135
 30
0.0
 10
32.1026846922
 20
34.8981867389
 30
0.0
 10
31.9548647065
 20
35.139971752
 30
0.0
 10
31.8159358851
 20
35.2566033623
 30
0.0
 10
31.74173976
 20
35.2994792993
 30
0.0
  0
SPLINE
  5
33F
100
AcDbEntity
  8
0
100
AcDbSpline
 62
7
  6
CONTINUOUS
 70
0
 71
3
 72
12
 73
8
 74
0
 42
0.0000001
 43
0.0000001
 44
0.0000000001
 40
0.0
 40
0.0
 40
0.0
 40
0.0
 40
0.2876491205
 40
0.5497602023
 40
0.7858494153
 40
0.8953169029
 40
1.0
 40
1.0
 40
1.0
 40
1.0
 10
16.0113582287
 20
37.1647913763
 30
0.0
 10
15.9642728252
 20
36.8113858338
 30
0.0
 10
15.9181274101
 20
36.1286357837
 30
0.0
 10
16.0079189411
 20
35.1542326508
 30
0.0
 10
16.2237568156
 20
34.4254131541
 30
0.0
 10
16.4793118408
 20
33.9277979443
 30
0.0
 10
16.6318253883
 20
33.709273351
 30
0.0
 10
16.7137462034
 20
33.6086549351
 30
0.0
  0
SPLINE
  5
340
100
AcDbEntity
  8
0
100
AcDbSpline
 62
7
  6
CONTINUOUS
 70
0
 71
3
 72
17
 73
13
 74
0
 42
0.0000001
 43
0.0000001
 44
0.0000000001
 40
0.0
 40
0.0
 40
0.0
 40
0.0
 40
0.0428576877
 40
0.0874849505
 40
0.1353173333
 40
0.1872806034
 40
0.3045412648
 40
0.4382087218
 40
0.5825511809
 40
0.7297102049
 40
0.8713097134
 40
1.0
 40
1.0
 40
1.0
 40
1.0
 10
50.4207786287
 20
53.1987006871
 30
0.0
 10
50.4762335386
 20
53.1666547922
 30
0.0
 10
50.5985170364
 20
53.1158578713
 30
0.0
 10
50.8003422688
 20
53.0862583418
 30
0.0
 10
51.0170933638
 20
53.1022327951
 30
0.0
 10
51.3320344227
 20
53.1859807677
 30
0.0
 10
51.734638
 20
53.4061305284
 30
0.0
 10
52.1794481664
 20
53.800058615
 30
0.0
 10
52.5726422816
 20
54.3033355737
 30
0.0
 10
52.882101964
 20
54.8753072266
 30
0.0
 10
53.0829157352
 20
55.4690707674
 30
0.0
 10
53.1367229932
 20
55.8734632776
 30
0.0
 10
53.1367229932
 20
56.0657834005
 30
0.0
  0
SPLINE
  5
341
100
AcDbEntity
  8
0
100
AcDbSpline
 62
7
  6
CONTINUOUS
 70
0
 71
3
 72
11
 73
7
 74
0
 42
0.0000001
 43
0.0000001
 44
0.0000000001
 40
0.0
 40
0.0
 40
0.0
 40
0.0
 40
0.2595758948
 40
0.5157943096
 40
0.7640506709
 40
1.0
 40
1.0
 40
1.0
 40
1.0
 10
17.5815184776
 20
41.3548244497
 30
0.0
 10
17.3753410465
 20
41.0240057996
 30
0.0
 10
16.9974608628
 20
40.346203829
 30
0.0
 10
16.5388625952
 20
39.2924301064
 30
0.0
 10
16.2009762413
 20
38.2310580451
 30
0.0
 10
16.0581529693
 20
37.5160153113
 30
0.0
 10
16.0113582287
 20
37.1647913763
 30
0.0
  0
SPLINE
  5
342
100
AcDbEntity
  8
0
100
AcDbSpline
 62
7
  6
CONTINUOUS
 70
0
 71
3
 72
15
 73
11
 74
0
 42
0.0000001
 43
0.0000001
 44
0.0000000001
 40
0.0
 40
0.0
 40
0.0
 40
0.0
 40
0.1432868858
 40
0.2850980007
 40
0.4231158099
 40
0.5553534741
 40
0.6800678546
 40
0.7960112769
 40
0.9025737413
 40
1.0
 40
1.0
 40
1.0
 40
1.0
 10
16.2990060119
 20
42.2193071429
 30
0.0
 10
16.0378049938
 20
41.7973276257
 30
0.0
 10
15.5555301681
 20
40.9338733057
 30
0.0
 10
14.9578319561
 20
39.593698925
 30
0.0
 10
14.499900758
 20
38.239603116
 30
0.0
 10
14.1924943342
 20
36.9040369382
 30
0.0
 10
14.0430555421
 20
35.6182109152
 30
0.0
 10
14.0555439437
 20
34.4118825314
 30
0.0
 10
14.2301103097
 20
33.3131792102
 30
0.0
 10
14.4640731843
 20
32.6408718199
 30
0.0
 10
14.6090659446
 20
32.3361716214
 30
0.0
  0
SPLINE
  5
343
100
AcDbEntity
  8
0
100
AcDbSpline
 62
7
  6
CONTINUOUS
 70
0
 71
3
 72
11
 73
7
 74
0
 42
0.0000001
 43
0.0000001
 44
0.0000000001
 40
0.0
 40
0.0
 40
0.0
 40
0.0
 40
0.2896423581
 40
0.5491120121
 40
0.7822364467
 40
1.0
 40
1.0
 40
1.0
 40
1.0
 10
45.2860558956
 20
27.6104987343
 30
0.0
 10
45.2860558956
 20
27.7244779848
 30
0.0
 10
45.2687311038
 20
27.9412932695
 30
0.0
 10
45.1809779249
 20
28.2391901949
 30
0.0
 10
45.0331579393
 20
28.480975208
 30
0.0
 10
44.8942291178
 20
28.5976068183
 30
0.0
 10
44.8200329927
 20
28.6404827553
 30
0.0
  0
SPLINE
  5
344
100
AcDbEntity
  8
0
100
AcDbSpline
 62
7
  6
CONTINUOUS
 70
0
 71
3
 72
15
 73
11
 74
0
 42
0.0000001
 43
0.0000001
 44
0.0000000001
 40
0.0
 40
0.0
 40
0.0
 40
0.0
 40
0.1549867834
 40
0.2965912061
 40
0.4254377352
 40
0.5437875534
 40
0.6554133053
 40
0.7652960811
 40
0.8786598913
 40
1.0
 40
1.0
 40
1.0
 40
1.0
 10
20.030446397
 20
41.7426719533
 30
0.0
 10
19.7115489087
 20
41.9267833388
 30
0.0
 10
19.0777990746
 20
42.2411728228
 30
0.0
 10
18.1091384708
 20
42.546049563
 30
0.0
 10
17.1854372521
 20
42.6556545077
 30
0.0
 10
16.3293724186
 20
42.5653447527
 30
0.0
 10
15.5655351059
 20
42.274324314
 30
0.0
 10
14.9205049363
 20
41.7910787416
 30
0.0
 10
14.4154382012
 20
41.1355378359
 30
0.0
 10
14.1887340677
 20
40.6202216686
 30
0.0
 10
14.0988119874
 20
40.3463157824
 30
0.0
  0
SPLINE
  5
345
100
AcDbEntity
  8
0
100
AcDbSpline
 62
7
  6
CONTINUOUS
 70
0
 71
3
 72
11
 73
7
 74
0
 42
0.0000001
 43
0.0000001
 44
0.0000000001
 40
0.0
 40
0.0
 40
0.0
 40
0.0
 40
0.2382682892
 40
0.4880092291
 40
0.74382132
 40
1.0
 40
1.0
 40
1.0
 40
1.0
 10
26.4894985444
 20
32.6603298331
 30
0.0
 10
26.359972111
 20
33.1510789275
 30
0.0
 10
26.0394015108
 20
34.1421892412
 30
0.0
 10
25.4081566599
 20
35.5978944214
 30
0.0
 10
24.626663029
 20
37.0224738316
 30
0.0
 10
24.0140381919
 20
37.927191192
 30
0.0
 10
23.6859805632
 20
38.3632811019
 30
0.0
  0
SPLINE
  5
346
100
AcDbEntity
  8
0
100
AcDbSpline
 62
7
  6
CONTINUOUS
 70
0
 71
3
 72
11
 73
7
 74
0
 42
0.0000001
 43
0.0000001
 44
0.0000000001
 40
0.0
 40
0.0
 40
0.0
 40
0.0
 40
0.2664034955
 40
0.5241062614
 40
0.7696388902
 40
1.0
 40
1.0
 40
1.0
 40
1.0
 10
23.6859805632
 20
38.3632811019
 30
0.0
 10
23.4185909629
 20
38.7187244647
 30
0.0
 10
22.8637468767
 20
39.3969617683
 30
0.0
 10
21.9644685318
 20
40.3173709334
 30
0.0
 10
21.025799374
 20
41.1073194055
 30
0.0
 10
20.3635323289
 20
41.5503690513
 30
0.0
 10
20.030446397
 20
41.7426719533
 30
0.0
  0
ELLIPSE
  5
347
100
AcDbEntity
  8
0
100
AcDbEllipse
 62
7
  6
CONTINUOUS
 10
62.7989041511
 20
100.523240848
 30
0.0
 11
-0.7717439985
 21
1.3464672017
 31
0.0
 40
0.5779938537
 41
5.5338441138
 42
7.0716647293
  0
ENDSEC
  0
SECTION
  2
OBJECTS
  0
DICTIONARY
  5
C
100
AcDbDictionary
280
0
281
1
  3
ACAD_GROUP
350
D
  3
ACAD_MLINESTYLE
350
17
  3
ACAD_LAYOUT
350
1A
  3
ACAD_PLOTSETTINGS
350
19
  3
ACAD_PLOTSTYLENAME
350
E
  0
DICTIONARY
  5
D
102
{ACAD_REACTORS
330
C
102
}
100
AcDbDictionary
280
0
281
1
  0
ACDBDICTIONARYWDFLT
  5
E
102
{ACAD_REACTORS
330
C
102
}
100
AcDbDictionary
281
1
  3
Normal
350
F
100
AcDbDictionaryWithDefault
340
F
  0
DICTIONARY
  5
17
102
{ACAD_REACTORS
330
C
102
}
100
AcDbDictionary
280
0
281
1
  3
Standard
350
18
  0
DICTIONARY
  5
19
102
{ACAD_REACTORS
330
C
102
}
100
AcDbDictionary
281
1
  0
DICTIONARY
  5
1A
102
{ACAD_REACTORS
330
C
102
}
100
AcDbDictionary
281
1
  3
Model
350
348
  3
Layout1
350
349
  0
ACDBPLACEHOLDER
  5
F
102
{ACAD_REACTORS
330
E
102
}
  0
MLINESTYLE
  5
18
102
{ACAD_REACTORS
330
17
102
}
100
AcDbMlineStyle
  2
STANDARD
 70
0
  3

 62
256
 51
90.0
 52
90.0
 71
2
 49
0.5
 62
256
  6
BYLAYER
 49
-0.5
 62
256
  6
BYLAYER
  0
LAYOUT
  5
348
102
{ACAD_REACTORS
330
1A
102
}
100
AcDbPlotSettings
  1

  2
none_device
  4

  6

 40
0.0
 41
0.0
 42
0.0
 43
0.0
 44
210.0
 45
297.0
 46
0.0
 47
0.0
 48
0.0
 49
0.0
140
0.0
141
0.0
142
1.0
143
1.0
 70
1024
 72
1
 73
0
 74
0
  7

 75
0
147
1.0
148
0.0
149
0.0
100
AcDbLayout
  1
Model
 70
0
 71
0
 10
0.0
 20
0.0
 11
210.0
 21
297.0
 12
0.0
 22
0.0
 32
0.0
 14
0.0
 24
0.0
 34
0.0
 15
0.0
 25
0.0
 35
0.0
146
0.0
 13
0.0
 23
0.0
 33
0.0
 16
1.0
 26
0.0
 36
0.0
 17
0.0
 27
1.0
 37
0.0
 76
0
330
210
345
0
346
0
  0
LAYOUT
  5
349
102
{ACAD_REACTORS
330
1A
102
}
100
AcDbPlotSettings
  1

  2
none_device
  4

  6

 40
0.0
 41
0.0
 42
0.0
 43
0.0
 44
210.0
 45
297.0
 46
0.0
 47
0.0
 48
0.0
 49
0.0
140
0.0
141
0.0
142
1.0
143
1.0
 70
0
 72
1
 73
0
 74
0
  7

 75
0
147
1.0
148
0.0
149
0.0
100
AcDbLayout
  1
Layout1
 70
0
 71
1
 10
0.0
 20
0.0
 11
210.0
 21
297.0
 12
0.0
 22
0.0
 32
0.0
 14
0.0
 24
0.0
 34
0.0
 15
0.0
 25
0.0
 35
0.0
146
0.0
 13
0.0
 23
0.0
 33
0.0
 16
1.0
 26
0.0
 36
0.0
 17
0.0
 27
1.0
 37
0.0
 76
0
330
211
345
0
346
0
  0
ENDSEC
  0
EOF
