999
DXF file: C:\Users\sesa63760\Documents\7-Dev\_Creo\CAD\MCADFD0001100_3D-CAD\drw0001_1.dxf
999
Pro/ENGINEER 2019471 by Parametric Technology Corporation
  0
SECTION
  2
HEADER
  9
$ACADVER
  1
AC1024
  9
$DWGCODEPAGE
  3
ANSI_1252
  9
$EXTMAX
 10
114.2366996198
 20
161.5633323195
 30
0.0
  9
$EXTMIN
 10
0.0
 20
0.0
 30
0.0
  9
$LIMMIN
 10
0.0
 20
0.0
  9
$LIMMAX
 10
114.2366996198
 20
161.5633323195
  9
$VIEWCTR
 10
57.1183498099
 20
80.7816661597
  9
$VIEWSIZE
 40
161.5633323195
  9
$CLAYER
  8
0
  9
$LTSCALE
 40
10.5315357364
  9
$CELTYPE
  6
BYLAYER
  9
$DIMSCALE
 40
1.0
  9
$DIMASZ
 40
1.3599607098
  9
$DIMEXO
 40
1.0
  9
$DIMDLI
 40
7.2763337815
  9
$DIMEXE
 40
1.0
  9
$DIMCEN
 40
1.7233422114
  9
$DIMLFAC
 40
1.0
  9
$DIMBLK
  1
_FILLED
  9
$DIMALT
 70
0
  9
$DIMALTF
 40
0.0393700787
  9
$DIMTXT
 40
1.9039449937
  9
$DIMTOL
 70
1
  9
$DIMLIM
 70
0
  9
$DIMTFAC
 40
1.0
  9
$DIMTP
 40
0.01
  9
$DIMTM
 40
0.01
  9
$DIMGAP
 40
0.625
  9
$DIMDSEP
 70
46
  9
$AUNITS
 70
0
  9
$PDMODE
 70
3
  9
$PDSIZE
 40
0.3125
  9
$HANDSEED
  5
38E
  9
$TILEMODE
 70
1
  9
$MEASUREMENT
 70
1
  9
$INSUNITS
 70
4
  0
ENDSEC
  0
SECTION
  2
CLASSES
  0
CLASS
  1
ACDBDICTIONARYWDFLT
  2
AcDbDictionaryWithDefault
  3
AutoCAD 2000
 90
0
 91
1
280
0
281
0
  0
CLASS
  1
ACDBPLACEHOLDER
  2
AcDbPlaceHolder
  3
AutoCAD 2000
 90
0
 91
1
280
0
281
0
  0
CLASS
  1
LAYOUT
  2
AcDbLayout
  3
AutoCAD 2000
 90
0
 91
0
280
0
281
0
  0
ENDSEC
  0
SECTION
  2
TABLES
  0
TABLE
  2
VPORT
  5
8
100
AcDbSymbolTable
 70
2
  0
VPORT
  5
1F4
100
AcDbSymbolTableRecord
100
AcDbViewportTableRecord
  2
*ACTIVE
 70
0
 10
0.0
 20
0.0
 11
1.0
 21
1.0
 12
57.1183498099
 22
80.7816661597
 13
0.0
 23
0.0
 14
1.0
 24
1.0
 15
0.0
 25
0.0
 16
0.0
 26
0.0
 36
1.0
 17
0.0
 27
0.0
 37
0.0
 40
161.5633323195
 41
0.7070707071
 42
50.0
 43
0.0
 44
0.0
 50
0.0
 51
0.0
 71
0
 72
100
 73
1
 74
1
 75
0
 76
0
 77
0
 78
0
  0
ENDTAB
  0
TABLE
  2
LTYPE
  5
5
100
AcDbSymbolTable
 70
6
  0
LTYPE
  5
14
100
AcDbSymbolTableRecord
100
AcDbLinetypeTableRecord
  2
BYBLOCK
 70
0
  3

 72
65
 73
0
 40
0.0
  0
LTYPE
  5
15
100
AcDbSymbolTableRecord
100
AcDbLinetypeTableRecord
  2
BYLAYER
 70
0
  3

 72
65
 73
0
 40
0.0
  0
LTYPE
  5
16
100
AcDbSymbolTableRecord
100
AcDbLinetypeTableRecord
  2
CONTINUOUS
 70
64
  3
Solid line
 72
65
 73
0
 40
0.0
  0
LTYPE
  5
1F5
100
AcDbSymbolTableRecord
100
AcDbLinetypeTableRecord
  2
CENTER
 70
64
  3
____ _ ____ _ ____ _ ____ _ ____ _ ____ _ ____
 72
65
 73
4
 40
0.6
 49
0.375
 74
0
 49
-0.075
 74
0
 49
0.075
 74
0
 49
-0.075
 74
0
  0
LTYPE
  5
1F6
100
AcDbSymbolTableRecord
100
AcDbLinetypeTableRecord
  2
HIDDEN
 70
64
  3
- - - - - - - - - - - - - - - - - - - -
 72
65
 73
2
 40
0.2
 49
0.1
 74
0
 49
-0.1
 74
0
  0
LTYPE
  5
1F7
100
AcDbSymbolTableRecord
100
AcDbLinetypeTableRecord
  2
PHANTOM
 70
64
  3
_____ _ _ _____ _ _ _____ _ _ _____
 72
65
 73
6
 40
0.8
 49
0.45
 74
0
 49
-0.05
 74
0
 49
0.1
 74
0
 49
-0.05
 74
0
 49
0.1
 74
0
 49
-0.05
 74
0
  0
LTYPE
  5
1F8
100
AcDbSymbolTableRecord
100
AcDbLinetypeTableRecord
  2
DOT
 70
64
  3
. . . . . . . . . . . . . . . . . . . .
 72
65
 73
2
 40
0.2
 49
0.1
 74
0
 49
-0.1
 74
0
  0
LTYPE
  5
1F9
100
AcDbSymbolTableRecord
100
AcDbLinetypeTableRecord
  2
DASHED
 70
64
  3
- - - - - - - - - - - - - - - - - - - -
 72
65
 73
2
 40
0.2
 49
0.1
 74
0
 49
-0.1
 74
0
  0
ENDTAB
  0
TABLE
  2
LAYER
  5
2
100
AcDbSymbolTable
 70
36
  0
LAYER
  5
10
100
AcDbSymbolTableRecord
100
AcDbLayerTableRecord
  2
0
 70
0
 62
7
  6
CONTINUOUS
370
-3
390
F
  0
LAYER
  5
1FA
100
AcDbSymbolTableRecord
100
AcDbLayerTableRecord
  2
DEFAULT_1
 70
0
 62
7
  6
CENTER
370
-3
390
F
  0
LAYER
  5
1FB
100
AcDbSymbolTableRecord
100
AcDbLayerTableRecord
  2
DEFAULT_2
 70
0
 62
8
  6
HIDDEN
370
-3
390
F
  0
LAYER
  5
1FC
100
AcDbSymbolTableRecord
100
AcDbLayerTableRecord
  2
DEFAULT_3
 70
0
 62
7
  6
PHANTOM
370
-3
390
F
  0
LAYER
  5
1FD
100
AcDbSymbolTableRecord
100
AcDbLayerTableRecord
  2
00_COMPONENTS
 70
0
 62
7
  6
CONTINUOUS
370
-3
390
F
  0
LAYER
  5
1FE
100
AcDbSymbolTableRecord
100
AcDbLayerTableRecord
  2
01_1_DEFAULT_DATUMS
 70
0
 62
7
  6
CONTINUOUS
370
-3
390
F
  0
LAYER
  5
1FF
100
AcDbSymbolTableRecord
100
AcDbLayerTableRecord
  2
01_PLANES
 70
0
 62
7
  6
CONTINUOUS
370
-3
390
F
  0
LAYER
  5
200
100
AcDbSymbolTableRecord
100
AcDbLayerTableRecord
  2
02_COORD_SYS
 70
0
 62
7
  6
CONTINUOUS
370
-3
390
F
  0
LAYER
  5
201
100
AcDbSymbolTableRecord
100
AcDbLayerTableRecord
  2
03_AXES
 70
0
 62
7
  6
CONTINUOUS
370
-3
390
F
  0
LAYER
  5
202
100
AcDbSymbolTableRecord
100
AcDbLayerTableRecord
  2
04_POINTS
 70
0
 62
7
  6
CONTINUOUS
370
-3
390
F
  0
LAYER
  5
203
100
AcDbSymbolTableRecord
100
AcDbLayerTableRecord
  2
05_CURVES
 70
0
 62
7
  6
CONTINUOUS
370
-3
390
F
  0
LAYER
  5
204
100
AcDbSymbolTableRecord
100
AcDbLayerTableRecord
  2
06_SURFS
 70
0
 62
7
  6
CONTINUOUS
370
-3
390
F
  0
LAYER
  5
205
100
AcDbSymbolTableRecord
100
AcDbLayerTableRecord
  2
07_COSMETICS
 70
0
 62
7
  6
CONTINUOUS
370
-3
390
F
  0
LAYER
  5
206
100
AcDbSymbolTableRecord
100
AcDbLayerTableRecord
  2
10_NOTES
 70
0
 62
7
  6
CONTINUOUS
370
-3
390
F
  0
LAYER
  5
207
100
AcDbSymbolTableRecord
100
AcDbLayerTableRecord
  2
11_NOTES_PUB
 70
0
 62
7
  6
CONTINUOUS
370
-3
390
F
  0
LAYER
  5
208
100
AcDbSymbolTableRecord
100
AcDbLayerTableRecord
  2
13_REF_GTOL
 70
0
 62
7
  6
CONTINUOUS
370
-3
390
F
  0
LAYER
  5
209
100
AcDbSymbolTableRecord
100
AcDbLayerTableRecord
  2
16_MISC
 70
0
 62
7
  6
CONTINUOUS
370
-3
390
F
  0
LAYER
  5
20A
100
AcDbSymbolTableRecord
100
AcDbLayerTableRecord
  2
17_NO_PRINT
 70
0
 62
7
  6
CONTINUOUS
370
-3
390
F
  0
LAYER
  5
20B
100
AcDbSymbolTableRecord
100
AcDbLayerTableRecord
  2
18_DATUM_CAMS_JOINTS
 70
0
 62
7
  6
CONTINUOUS
370
-3
390
F
  0
LAYER
  5
20C
100
AcDbSymbolTableRecord
100
AcDbLayerTableRecord
  2
19_DATUM_FUNCTIONAL
 70
0
 62
7
  6
CONTINUOUS
370
-3
390
F
  0
LAYER
  5
20D
100
AcDbSymbolTableRecord
100
AcDbLayerTableRecord
  2
20_DATUM_KINEMATIC_SCHEME
 70
0
 62
7
  6
CONTINUOUS
370
-3
390
F
  0
ENDTAB
  0
TABLE
  2
STYLE
  5
3
100
AcDbSymbolTable
 70
1
  0
STYLE
  5
11
100
AcDbSymbolTableRecord
100
AcDbTextStyleTableRecord
  2
STANDARD
 70
0
 40
0.0
 41
0.8
 50
0.0
 71
0
 42
0.2
  3
txt
  4

  0
STYLE
  5
20E
100
AcDbSymbolTableRecord
100
AcDbTextStyleTableRecord
  2
TEXTSTYLE_1
 70
0
 40
0.0
 41
0.8
 50
0.0
 71
0
 42
0.2
  3
gdt
  4

  0
ENDTAB
  0
TABLE
  2
VIEW
  5
6
100
AcDbSymbolTable
 70
0
  0
ENDTAB
  0
TABLE
  2
UCS
  5
7
100
AcDbSymbolTable
 70
0
  0
ENDTAB
  0
TABLE
  2
APPID
  5
9
100
AcDbSymbolTable
 70
1
  0
APPID
  5
20F
100
AcDbSymbolTableRecord
100
AcDbRegAppTableRecord
  2
ACAD
 70
0
  0
ENDTAB
  0
TABLE
  2
BLOCK_RECORD
  5
1
100
AcDbSymbolTable
 70
0
  0
BLOCK_RECORD
  5
210
100
AcDbSymbolTableRecord
100
AcDbBlockTableRecord
  2
*Model_Space
  0
BLOCK_RECORD
  5
211
100
AcDbSymbolTableRecord
100
AcDbBlockTableRecord
  2
*Paper_Space
  0
BLOCK_RECORD
  5
212
100
AcDbSymbolTableRecord
100
AcDbBlockTableRecord
  2
_FILLED
  0
ENDTAB
  0
TABLE
  2
DIMSTYLE
  5
A
100
AcDbSymbolTable
 70
1
100
AcDbDimStyleTable
 71
0
  0
DIMSTYLE
105
213
100
AcDbSymbolTableRecord
100
AcDbDimStyleTableRecord
  2
STANDARD
 70
0
  3

  4

 40
1.0
 41
1.3599607098
 42
1.0
 43
0.38
 44
1.0
 45
0.0
 46
0.0
 47
0.01
 48
0.01
140
1.9039449937
141
0.09
142
0.0
143
25.4
144
1.0
145
0.0
146
1.0
147
0.625
 71
1
 72
0
 73
0
 74
0
 75
0
 76
0
 77
1
 78
8
 79
2
170
0
171
1
172
0
173
0
174
0
175
0
176
0
177
0
178
0
270
2
179
2
271
2
272
2
273
2
274
2
275
0
280
0
281
0
282
0
283
1
284
8
285
0
286
0
287
3
288
0
340
11
278
46
341
212
342
212
343
212
344
212
  0
ENDTAB
  0
ENDSEC
  0
SECTION
  2
BLOCKS
  0
BLOCK
  5
20
100
AcDbEntity
  8
0
100
AcDbBlockBegin
  2
*Model_Space
 70
0
 10
0.0
 20
0.0
 30
0.0
  3
*Model_Space
  1

  0
ENDBLK
  5
21
100
AcDbEntity
  8
0
100
AcDbBlockEnd
  0
BLOCK
  5
1C
100
AcDbEntity
  8
0
100
AcDbBlockBegin
  2
*Paper_Space
 70
0
 10
0.0
 20
0.0
 30
0.0
  3
*Paper_Space
  1

  0
ENDBLK
  5
1D
100
AcDbEntity
  8
0
100
AcDbBlockEnd
  0
BLOCK
  5
214
100
AcDbEntity
  8
0
100
AcDbBlockBegin
  2
_FILLED
 70
64
 10
0.0
 20
0.0
  3
_FILLED
  1

  0
SOLID
  5
215
100
AcDbEntity
  8
0
  6
BYBLOCK
 62
0
100
AcDbTrace
 10
0.0
 20
0.0
 11
-1.0
 21
0.25
 12
-1.0
 22
-0.25
 13
-1.0
 23
-0.25
  0
ENDBLK
  5
216
100
AcDbEntity
  8
0
  6
BYBLOCK
 62
0
100
AcDbBlockEnd
  0
ENDSEC
  0
SECTION
  2
ENTITIES
  0
LINE
  5
217
100
AcDbEntity
  8
0
100
AcDbLine
 62
7
  6
CONTINUOUS
 10
50.2463402721
 20
34.474754934
 11
50.4970806933
 21
34.4513399065
  0
LINE
  5
218
100
AcDbEntity
  8
0
100
AcDbLine
 62
7
  6
CONTINUOUS
 10
13.4766345645
 20
55.703274169
 11
13.3223440261
 21
55.9455529833
  0
LINE
  5
219
100
AcDbEntity
  8
0
100
AcDbLine
 62
7
  6
CONTINUOUS
 10
31.2899174535
 20
116.6462611761
 11
61.4730999154
 21
134.0724256753
  0
LINE
  5
21A
100
AcDbEntity
  8
0
100
AcDbLine
 62
7
  6
CONTINUOUS
 10
61.4723127705
 20
133.2554829119
 11
60.8461977643
 21
132.8939974024
  0
LINE
  5
21B
100
AcDbEntity
  8
0
100
AcDbLine
 62
7
  6
CONTINUOUS
 10
61.473482759
 20
134.4697620383
 11
64.5262746019
 21
136.2283575158
  0
LINE
  5
21C
100
AcDbEntity
  8
0
100
AcDbLine
 62
7
  6
CONTINUOUS
 10
65.540003551
 20
133.8552565582
 11
64.6207691322
 21
133.3257211117
  0
LINE
  5
21D
100
AcDbEntity
  8
0
100
AcDbLine
 62
7
  6
CONTINUOUS
 10
50.2463315082
 20
34.4747397367
 11
13.4766258005
 21
55.7032589717
  0
LINE
  5
21E
100
AcDbEntity
  8
0
100
AcDbLine
 62
7
  6
CONTINUOUS
 10
50.0920497337
 20
34.7170337482
 11
13.3223440261
 21
55.9455529833
  0
LINE
  5
21F
100
AcDbEntity
  8
0
100
AcDbLine
 62
7
  6
CONTINUOUS
 10
52.1619560497
 20
35.3566517105
 11
68.8374438562
 21
25.729272137
  0
LINE
  5
220
100
AcDbEntity
  8
0
100
AcDbLine
 62
7
  6
CONTINUOUS
 10
62.1905990539
 20
132.7193911229
 11
61.7036298581
 21
132.3989699512
  0
LINE
  5
221
100
AcDbEntity
  8
0
100
AcDbLine
 62
7
  6
CONTINUOUS
 10
61.9487912541
 20
132.2574291553
 11
62.3903552661
 21
132.5479741412
  0
LINE
  5
222
100
AcDbEntity
  8
0
100
AcDbLine
 62
7
  6
CONTINUOUS
 10
65.3249654051
 20
130.9625210883
 11
66.3262448637
 21
131.6213535978
  0
LINE
  5
223
100
AcDbEntity
  8
0
100
AcDbLine
 62
7
  6
CONTINUOUS
 10
64.6188341421
 20
131.3174806566
 11
65.5380685609
 21
131.8470161031
  0
LINE
  5
224
100
AcDbEntity
  8
0
100
AcDbLine
 62
7
  6
CONTINUOUS
 10
66.3885456072
 20
132.3073631685
 11
67.307780026
 21
132.836898615
  0
LINE
  5
225
100
AcDbEntity
  8
0
100
AcDbLine
 62
7
  6
CONTINUOUS
 10
53.7560912329
 20
37.1865000916
 11
56.4394972412
 21
35.6372699587
  0
LINE
  5
226
100
AcDbEntity
  8
0
100
AcDbLine
 62
7
  6
CONTINUOUS
 10
51.1398905223
 20
39.1179529903
 11
14.3701848147
 21
60.3464722253
  0
LINE
  5
227
100
AcDbEntity
  8
0
100
AcDbLine
 62
7
  6
CONTINUOUS
 10
51.5798251897
 20
39.847564634
 11
14.810119482
 21
61.0760838691
  0
LINE
  5
228
100
AcDbEntity
  8
0
100
AcDbLine
 62
7
  6
CONTINUOUS
 10
52.5200290146
 20
40.5071931139
 11
54.5189625183
 21
39.3531344258
  0
LINE
  5
229
100
AcDbEntity
  8
0
100
AcDbLine
 62
7
  6
CONTINUOUS
 10
52.585860211
 20
40.6212186704
 11
15.8161545033
 21
61.8497379054
  0
LINE
  5
22A
100
AcDbEntity
  8
0
100
AcDbLine
 62
7
  6
CONTINUOUS
 10
54.2861684199
 20
38.0722466916
 11
54.2378408622
 21
38.1039487977
  0
LINE
  5
22B
100
AcDbEntity
  8
0
100
AcDbLine
 62
7
  6
CONTINUOUS
 10
51.6281527473
 20
39.8158625279
 11
51.5798251897
 21
39.847564634
  0
LINE
  5
22C
100
AcDbEntity
  8
0
100
AcDbLine
 62
7
  6
CONTINUOUS
 10
54.1937698744
 20
38.813817211
 11
52.2606675671
 21
40.0819014556
  0
LINE
  5
22D
100
AcDbEntity
  8
0
100
AcDbLine
 62
7
  6
CONTINUOUS
 10
65.2719307024
 20
130.3388571042
 11
66.3873560712
 21
131.0727965539
  0
LINE
  5
22E
100
AcDbEntity
  8
0
100
AcDbLine
 62
7
  6
CONTINUOUS
 10
72.5866795248
 20
131.5847200045
 11
69.5345439211
 21
129.826502561
  0
LINE
  5
22F
100
AcDbEntity
  8
0
100
AcDbLine
 62
7
  6
CONTINUOUS
 10
69.5332467318
 20
128.4802074127
 11
70.4524811506
 21
129.0097428592
  0
LINE
  5
230
100
AcDbEntity
  8
0
100
AcDbLine
 62
7
  6
CONTINUOUS
 10
20.4390956401
 20
63.4665798786
 11
24.754609073
 21
60.9750734018
  0
LINE
  5
231
100
AcDbEntity
  8
0
100
AcDbLine
 62
7
  6
CONTINUOUS
 10
32.9549377752
 20
56.2407185236
 11
37.2704512081
 21
53.7492120468
  0
LINE
  5
232
100
AcDbEntity
  8
0
100
AcDbLine
 62
7
  6
CONTINUOUS
 10
45.4707799103
 20
49.0148571686
 11
49.7862933432
 21
46.5233506918
  0
LINE
  5
233
100
AcDbEntity
  8
0
100
AcDbLine
 62
7
  6
CONTINUOUS
 10
72.7275627141
 20
129.3366981499
 11
70.451353085
 21
127.8389735244
  0
LINE
  5
234
100
AcDbEntity
  8
0
100
AcDbLine
 62
7
  6
CONTINUOUS
 10
71.4240615711
 20
126.7870030448
 11
73.4839357307
 21
128.1423809566
  0
LINE
  5
235
100
AcDbEntity
  8
0
100
AcDbLine
 62
7
  6
CONTINUOUS
 10
74.4226687321
 20
127.9134633497
 11
71.9478204491
 21
126.4846175564
  0
LINE
  5
236
100
AcDbEntity
  8
0
100
AcDbLine
 62
7
  6
CONTINUOUS
 10
75.8368881824
 20
127.0969818407
 11
73.3620398994
 21
125.6681360473
  0
LINE
  5
237
100
AcDbEntity
  8
0
100
AcDbLine
 62
7
  6
CONTINUOUS
 10
16.79539357
 20
92.8462903766
 11
30.3505203424
 21
100.6722997525
  0
LINE
  5
238
100
AcDbEntity
  8
0
100
AcDbLine
 62
7
  6
CONTINUOUS
 10
75.9850380377
 20
124.7330084375
 11
75.4834057326
 21
124.4433926199
  0
LINE
  5
239
100
AcDbEntity
  8
0
100
AcDbLine
 62
7
  6
CONTINUOUS
 10
67.8980470903
 20
40.6092405248
 11
66.474638833
 21
41.431027074
  0
LINE
  5
23A
100
AcDbEntity
  8
0
100
AcDbLine
 62
7
  6
CONTINUOUS
 10
50.0920497337
 20
34.7170337482
 11
50.2463402721
 21
34.474754934
  0
LINE
  5
23B
100
AcDbEntity
  8
0
100
AcDbLine
 62
7
  6
CONTINUOUS
 10
14.3701848147
 20
60.3464722253
 11
14.810119482
 21
61.0760838691
  0
LINE
  5
23C
100
AcDbEntity
  8
0
100
AcDbLine
 62
7
  6
CONTINUOUS
 10
18.5221738529
 20
60.2874522492
 11
20.4390956401
 21
63.4665798786
  0
LINE
  5
23D
100
AcDbEntity
  8
0
100
AcDbLine
 62
7
  6
CONTINUOUS
 10
53.7963552708
 20
54.5196797695
 11
54.9274630608
 21
54.5253584789
  0
LINE
  5
23E
100
AcDbEntity
  8
0
100
AcDbLine
 62
7
  6
CONTINUOUS
 10
16.2488288655
 20
76.1972638345
 11
53.7963552708
 21
54.5196797695
  0
LINE
  5
23F
100
AcDbEntity
  8
0
100
AcDbLine
 62
7
  6
CONTINUOUS
 10
16.0713396353
 20
77.8586100466
 11
53.6188660406
 21
56.1810259816
  0
LINE
  5
240
100
AcDbEntity
  8
0
100
AcDbLine
 62
7
  6
CONTINUOUS
 10
53.7188767298
 20
56.5175396757
 11
16.1713503245
 21
78.1951237407
  0
LINE
  5
241
100
AcDbEntity
  8
0
100
AcDbLine
 62
7
  6
CONTINUOUS
 10
16.2453375551
 20
78.2378325507
 11
53.7928639604
 21
56.5602484857
  0
LINE
  5
242
100
AcDbEntity
  8
0
100
AcDbLine
 62
7
  6
CONTINUOUS
 10
86.9385108672
 20
120.6876019947
 11
84.4636625842
 21
119.2587562014
  0
LINE
  5
243
100
AcDbEntity
  8
0
100
AcDbLine
 62
7
  6
CONTINUOUS
 10
86.5039970407
 20
118.8037602019
 11
85.8778820345
 21
118.4422746923
  0
LINE
  5
244
100
AcDbEntity
  8
0
100
AcDbLine
 62
7
  6
CONTINUOUS
 10
16.1713503245
 20
78.1951237407
 11
16.2453375551
 21
78.2378325507
  0
LINE
  5
245
100
AcDbEntity
  8
0
100
AcDbLine
 62
7
  6
CONTINUOUS
 10
86.5051670292
 20
120.0180393283
 11
89.5579588721
 21
121.7766348058
  0
LINE
  5
246
100
AcDbEntity
  8
0
100
AcDbLine
 62
7
  6
CONTINUOUS
 10
25.6905401393
 20
57.473026035
 11
25.0982942967
 21
56.4908132321
  0
LINE
  5
247
100
AcDbEntity
  8
0
100
AcDbLine
 62
7
  6
CONTINUOUS
 10
26.7492031531
 20
55.5376821222
 11
27.2564861901
 21
56.378987975
  0
LINE
  5
248
100
AcDbEntity
  8
0
100
AcDbLine
 62
7
  6
CONTINUOUS
 10
87.2222833241
 20
118.2676684129
 11
86.7353141283
 21
117.9472472412
  0
LINE
  5
249
100
AcDbEntity
  8
0
100
AcDbLine
 62
7
  6
CONTINUOUS
 10
86.9804755243
 20
117.8057064453
 11
87.4220395363
 21
118.0962514312
  0
LINE
  5
24A
100
AcDbEntity
  8
0
100
AcDbLine
 62
7
  6
CONTINUOUS
 10
90.5716878212
 20
119.4035338482
 11
89.6524534024
 21
118.8739984017
  0
LINE
  5
24B
100
AcDbEntity
  8
0
100
AcDbLine
 62
7
  6
CONTINUOUS
 10
89.6505184123
 20
116.8657579466
 11
90.5697528311
 21
117.3952933931
  0
LINE
  5
24C
100
AcDbEntity
  8
0
100
AcDbLine
 62
7
  6
CONTINUOUS
 10
91.4202298774
 20
117.8556404585
 11
92.3394642962
 21
118.385175905
  0
LINE
  5
24D
100
AcDbEntity
  8
0
100
AcDbLine
 62
7
  6
CONTINUOUS
 10
90.3566496753
 20
116.5107983783
 11
91.3579291339
 21
117.1696308878
  0
LINE
  5
24E
100
AcDbEntity
  8
0
100
AcDbLine
 62
7
  6
CONTINUOUS
 10
90.3036149726
 20
115.8871343942
 11
91.4190403414
 21
116.6210738439
  0
LINE
  5
24F
100
AcDbEntity
  8
0
100
AcDbLine
 62
7
  6
CONTINUOUS
 10
97.618363795
 20
117.1329972945
 11
94.5662281913
 21
115.374779851
  0
LINE
  5
250
100
AcDbEntity
  8
0
100
AcDbLine
 62
7
  6
CONTINUOUS
 10
94.564931002
 20
114.0284847027
 11
95.4841654208
 21
114.5580201492
  0
LINE
  5
251
100
AcDbEntity
  8
0
100
AcDbLine
 62
7
  6
CONTINUOUS
 10
54.3429199753
 20
71.1687063116
 11
16.79539357
 21
92.8462903766
  0
LINE
  5
252
100
AcDbEntity
  8
0
100
AcDbLine
 62
7
  6
CONTINUOUS
 10
49.7142181043
 20
123.2951759288
 11
49.6927747682
 21
123.5951246239
  0
LINE
  5
253
100
AcDbEntity
  8
0
100
AcDbLine
 62
7
  6
CONTINUOUS
 10
31.038015988
 20
53.0615908941
 11
32.9549377752
 21
56.2407185236
  0
LINE
  5
254
100
AcDbEntity
  8
0
100
AcDbLine
 62
7
  6
CONTINUOUS
 10
97.7592469843
 20
114.8849754398
 11
95.4830373552
 21
113.3872508144
  0
LINE
  5
255
100
AcDbEntity
  8
0
100
AcDbLine
 62
7
  6
CONTINUOUS
 10
96.4557458413
 20
112.3352803347
 11
98.5156200009
 21
113.6906582466
  0
LINE
  5
256
100
AcDbEntity
  8
0
100
AcDbLine
 62
7
  6
CONTINUOUS
 10
99.4543530023
 20
113.4617406397
 11
96.9795047193
 21
112.0328948464
  0
LINE
  5
257
100
AcDbEntity
  8
0
100
AcDbLine
 62
7
  6
CONTINUOUS
 10
68.8374438588
 20
94.9686771111
 11
101.5488557382
 21
113.854506832
  0
LINE
  5
258
100
AcDbEntity
  8
0
100
AcDbLine
 62
7
  6
CONTINUOUS
 10
100.3096125828
 20
110.689526482
 11
97.8347642998
 21
109.2606806887
  0
LINE
  5
259
100
AcDbEntity
  8
0
100
AcDbLine
 62
7
  6
CONTINUOUS
 10
38.2063822744
 20
50.24716468
 11
37.6141364318
 21
49.2649518771
  0
LINE
  5
25A
100
AcDbEntity
  8
0
100
AcDbLine
 62
7
  6
CONTINUOUS
 10
61.4721958652
 20
133.1341520142
 11
61.473482759
 21
134.4697620383
  0
LINE
  5
25B
100
AcDbEntity
  8
0
100
AcDbLine
 62
7
  6
CONTINUOUS
 10
62.3903022183
 20
132.492918126
 11
62.3904092805
 21
132.6040332446
  0
LINE
  5
25C
100
AcDbEntity
  8
0
100
AcDbLine
 62
7
  6
CONTINUOUS
 10
39.2650452882
 20
48.3118207672
 11
39.7723283252
 21
49.15312662
  0
LINE
  5
25D
100
AcDbEntity
  8
0
100
AcDbLine
 62
7
  6
CONTINUOUS
 10
98.0214107098
 20
106.2824317519
 11
99.465561454
 21
107.232669421
  0
LINE
  5
25E
100
AcDbEntity
  8
0
100
AcDbLine
 62
7
  6
CONTINUOUS
 10
98.2808708914
 20
102.1423199226
 11
99.8886553424
 21
103.2002270388
  0
LINE
  5
25F
100
AcDbEntity
  8
0
100
AcDbLine
 62
7
  6
CONTINUOUS
 10
30.3505203424
 20
100.6722997526
 11
67.8980467477
 21
78.9947156875
  0
LINE
  5
260
100
AcDbEntity
  8
0
100
AcDbLine
 62
7
  6
CONTINUOUS
 10
62.2300602394
 20
116.0693145738
 11
62.2086169033
 21
116.3692632689
  0
LINE
  5
261
100
AcDbEntity
  8
0
100
AcDbLine
 62
7
  6
CONTINUOUS
 10
67.8483418502
 20
42.2241301466
 11
67.8980470902
 21
40.6092405287
  0
LINE
  5
262
100
AcDbEntity
  8
0
100
AcDbLine
 62
7
  6
CONTINUOUS
 10
64.6207691322
 20
133.3257211117
 11
64.6188341421
 21
131.3174806566
  0
LINE
  5
263
100
AcDbEntity
  8
0
100
AcDbLine
 62
7
  6
CONTINUOUS
 10
65.5380685609
 20
131.8470161031
 11
65.540003551
 21
133.8552565582
  0
LINE
  5
264
100
AcDbEntity
  8
0
100
AcDbLine
 62
7
  6
CONTINUOUS
 10
66.3866084549
 20
130.2968787703
 11
66.3885456072
 21
132.3073631685
  0
LINE
  5
265
100
AcDbEntity
  8
0
100
AcDbLine
 62
7
  6
CONTINUOUS
 10
43.5538581231
 20
45.8357295391
 11
45.4707799103
 21
49.0148571686
  0
LINE
  5
266
100
AcDbEntity
  8
0
100
AcDbLine
 62
7
  6
CONTINUOUS
 10
98.4380166829
 20
99.6348016343
 11
99.9476209098
 21
100.6281070822
  0
LINE
  5
267
100
AcDbEntity
  8
0
100
AcDbLine
 62
7
  6
CONTINUOUS
 10
54.3429199753
 20
71.1687063116
 11
67.8980467477
 21
78.9947156875
  0
LINE
  5
268
100
AcDbEntity
  8
0
100
AcDbLine
 62
7
  6
CONTINUOUS
 10
99.3444153994
 20
95.109222532
 11
98.7433771401
 21
94.7622757868
  0
LINE
  5
269
100
AcDbEntity
  8
0
100
AcDbLine
 62
7
  6
CONTINUOUS
 10
99.3641524116
 20
66.0525008467
 11
98.8691950342
 21
66.3382727923
  0
LINE
  5
26A
100
AcDbEntity
  8
0
100
AcDbLine
 62
7
  6
CONTINUOUS
 10
100.0359054729
 20
65.8279691116
 11
98.8691950342
 21
66.501554459
  0
LINE
  5
26B
100
AcDbEntity
  8
0
100
AcDbLine
 62
7
  6
CONTINUOUS
 10
99.3287853331
 20
67.0526921611
 11
98.8691950342
 21
67.3180443305
  0
LINE
  5
26C
100
AcDbEntity
  8
0
100
AcDbLine
 62
7
  6
CONTINUOUS
 10
102.7582661393
 20
65.8892120238
 11
100.0358936975
 21
67.4609389287
  0
LINE
  5
26D
100
AcDbEntity
  8
0
100
AcDbLine
 62
7
  6
CONTINUOUS
 10
69.5345439211
 20
129.826502561
 11
69.5332467318
 21
128.4802074127
  0
LINE
  5
26E
100
AcDbEntity
  8
0
100
AcDbLine
 62
7
  6
CONTINUOUS
 10
70.4524811506
 20
129.0097428592
 11
70.451353085
 21
127.8389735244
  0
LINE
  5
26F
100
AcDbEntity
  8
0
100
AcDbLine
 62
7
  6
CONTINUOUS
 10
50.7222244095
 20
43.021303325
 11
50.1299785669
 21
42.0390905221
  0
LINE
  5
270
100
AcDbEntity
  8
0
100
AcDbLine
 62
7
  6
CONTINUOUS
 10
98.8691950342
 20
92.6561580302
 11
99.8337614533
 21
93.2908337034
  0
LINE
  5
271
100
AcDbEntity
  8
0
100
AcDbLine
 62
7
  6
CONTINUOUS
 10
102.7582661393
 20
95.0383483155
 11
101.3417232413
 21
94.2205117737
  0
LINE
  5
272
100
AcDbEntity
  8
0
100
AcDbLine
 62
7
  6
CONTINUOUS
 10
99.4679095413
 20
93.1386713873
 11
98.8691950342
 21
92.7930054687
  0
LINE
  5
273
100
AcDbEntity
  8
0
100
AcDbLine
 62
7
  6
CONTINUOUS
 10
74.7459023745
 20
108.8434532188
 11
74.7244590384
 21
109.1434019139
  0
LINE
  5
274
100
AcDbEntity
  8
0
100
AcDbLine
 62
7
  6
CONTINUOUS
 10
72.7275627141
 20
129.3366981499
 11
72.5866795248
 21
131.5847200045
  0
LINE
  5
275
100
AcDbEntity
  8
0
100
AcDbLine
 62
7
  6
CONTINUOUS
 10
51.7808874233
 20
41.0859594122
 11
52.2881704603
 21
41.927265265
  0
LINE
  5
276
100
AcDbEntity
  8
0
100
AcDbLine
 62
7
  6
CONTINUOUS
 10
51.5798251897
 20
39.847564634
 11
51.1398905223
 21
39.1179529903
  0
LINE
  5
277
100
AcDbEntity
  8
0
100
AcDbLine
 62
7
  6
CONTINUOUS
 10
52.2606675671
 20
40.0819014556
 11
52.585860211
 21
40.6212186704
  0
LINE
  5
278
100
AcDbEntity
  8
0
100
AcDbLine
 62
7
  6
CONTINUOUS
 10
54.5189625183
 20
39.3531344258
 11
54.1937698744
 21
38.813817211
  0
LINE
  5
279
100
AcDbEntity
  8
0
100
AcDbLine
 62
7
  6
CONTINUOUS
 10
53.8462337526
 20
37.3426350478
 11
54.2861684199
 21
38.0722466916
  0
LINE
  5
27A
100
AcDbEntity
  8
0
100
AcDbLine
 62
7
  6
CONTINUOUS
 10
53.7188767298
 20
56.5175396757
 11
53.7928639604
 21
56.5602484857
  0
LINE
  5
27B
100
AcDbEntity
  8
0
100
AcDbLine
 62
7
  6
CONTINUOUS
 10
53.7920452471
 20
56.2331749189
 11
53.718851958
 21
56.1909244082
  0
LINE
  5
27C
100
AcDbEntity
  8
0
100
AcDbLine
 62
7
  6
CONTINUOUS
 10
68.8374438588
 20
94.9686771111
 11
31.2899174535
 21
116.6462611761
  0
LINE
  5
27D
100
AcDbEntity
  8
0
100
AcDbLine
 62
7
  6
CONTINUOUS
 10
75.9850380377
 20
124.7330084375
 11
75.8368881824
 21
127.0969818407
  0
LINE
  5
27E
100
AcDbEntity
  8
0
100
AcDbLine
 62
7
  6
CONTINUOUS
 10
86.5038801354
 20
118.6824293042
 11
86.5051670292
 21
120.0180393283
  0
LINE
  5
27F
100
AcDbEntity
  8
0
100
AcDbLine
 62
7
  6
CONTINUOUS
 10
87.4219864885
 20
118.0411954159
 11
87.4220935507
 21
118.1523105346
  0
LINE
  5
280
100
AcDbEntity
  8
0
100
AcDbLine
 62
7
  6
CONTINUOUS
 10
89.6524534024
 20
118.8739984017
 11
89.6505184123
 21
116.8657579466
  0
LINE
  5
281
100
AcDbEntity
  8
0
100
AcDbLine
 62
7
  6
CONTINUOUS
 10
90.5697528311
 20
117.3952933931
 11
90.5716878212
 21
119.4035338482
  0
LINE
  5
282
100
AcDbEntity
  8
0
100
AcDbLine
 62
7
  6
CONTINUOUS
 10
91.4182927251
 20
115.8451560603
 11
91.4202298774
 21
117.8556404585
  0
LINE
  5
283
100
AcDbEntity
  8
0
100
AcDbLine
 62
7
  6
CONTINUOUS
 10
98.8691950342
 20
66.7873491621
 11
100.0358936975
 21
67.4609389287
  0
LINE
  5
284
100
AcDbEntity
  8
0
100
AcDbLine
 62
7
  6
CONTINUOUS
 10
80.3537132472
 20
105.6058553461
 11
74.7459023745
 21
108.8434532188
  0
LINE
  5
285
100
AcDbEntity
  8
0
100
AcDbLine
 62
7
  6
CONTINUOUS
 10
67.8378711121
 20
112.8317167011
 11
62.2300602394
 21
116.0693145738
  0
LINE
  5
286
100
AcDbEntity
  8
0
100
AcDbLine
 62
7
  6
CONTINUOUS
 10
55.322028977
 20
120.0575780562
 11
49.7142181043
 21
123.2951759288
  0
LINE
  5
287
100
AcDbEntity
  8
0
100
AcDbLine
 62
7
  6
CONTINUOUS
 10
98.6982548963
 20
95.4822750329
 11
99.3444153994
 21
95.109222532
  0
LINE
  5
288
100
AcDbEntity
  8
0
100
AcDbLine
 62
7
  6
CONTINUOUS
 10
99.8614500553
 20
95.0751285621
 11
101.3417232413
 21
94.2205117737
  0
LINE
  5
289
100
AcDbEntity
  8
0
100
AcDbLine
 62
7
  6
CONTINUOUS
 10
94.5662281913
 20
115.374779851
 11
94.564931002
 21
114.0284847027
  0
LINE
  5
28A
100
AcDbEntity
  8
0
100
AcDbLine
 62
7
  6
CONTINUOUS
 10
95.4841654208
 20
114.5580201492
 11
95.4830373552
 21
113.3872508144
  0
LINE
  5
28B
100
AcDbEntity
  8
0
100
AcDbLine
 62
7
  6
CONTINUOUS
 10
100.0359054729
 20
65.8279691116
 11
98.8691950342
 21
65.1543725466
  0
LINE
  5
28C
100
AcDbEntity
  8
0
100
AcDbLine
 62
7
  6
CONTINUOUS
 10
98.8691950342
 20
63.6438691772
 11
102.7582661393
 21
65.8892120238
  0
LINE
  5
28D
100
AcDbEntity
  8
0
100
AcDbLine
 62
7
  6
CONTINUOUS
 10
67.8483418502
 20
42.2241301466
 11
56.4394972412
 21
35.6372699587
  0
LINE
  5
28E
100
AcDbEntity
  8
0
100
AcDbLine
 62
7
  6
CONTINUOUS
 10
98.7433771401
 20
94.7622757868
 11
97.8347642998
 21
109.2606806887
  0
LINE
  5
28F
100
AcDbEntity
  8
0
100
AcDbLine
 62
7
  6
CONTINUOUS
 10
97.7592469843
 20
114.8849754398
 11
97.618363795
 21
117.1329972945
  0
LINE
  5
290
100
AcDbEntity
  8
0
100
AcDbLine
 62
7
  6
CONTINUOUS
 10
99.4679095413
 20
93.1386713873
 11
99.3444153994
 21
95.109222532
  0
LINE
  5
291
100
AcDbEntity
  8
0
100
AcDbLine
 62
7
  6
CONTINUOUS
 10
99.2859588291
 20
110.0985232396
 11
99.465561454
 21
107.232669421
  0
LINE
  5
292
100
AcDbEntity
  8
0
100
AcDbLine
 62
7
  6
CONTINUOUS
 10
99.8886553424
 20
103.2002270388
 11
99.9476209098
 21
100.6281070823
  0
LINE
  5
293
100
AcDbEntity
  8
0
100
AcDbLine
 62
7
  6
CONTINUOUS
 10
96.6771548863
 20
41.2020318448
 11
96.6771548863
 21
41.8024408505
  0
LINE
  5
294
100
AcDbEntity
  8
0
100
AcDbLine
 62
7
  6
CONTINUOUS
 10
98.8691950342
 20
92.7930054687
 11
98.8691950342
 21
63.6438691772
  0
LINE
  5
295
100
AcDbEntity
  8
0
100
AcDbLine
 62
7
  6
CONTINUOUS
 10
99.0105975491
 20
42.5492375526
 11
99.0105975491
 21
43.1496465583
  0
LINE
  5
296
100
AcDbEntity
  8
0
100
AcDbLine
 62
7
  6
CONTINUOUS
 10
99.3641524116
 20
65.4401346159
 11
99.3641524116
 21
66.0525008467
  0
LINE
  5
297
100
AcDbEntity
  8
0
100
AcDbLine
 62
7
  6
CONTINUOUS
 10
99.9476209098
 20
100.6281070823
 11
99.8337614533
 21
93.2908337034
  0
LINE
  5
298
100
AcDbEntity
  8
0
100
AcDbLine
 62
7
  6
CONTINUOUS
 10
99.465561454
 20
107.232669421
 11
99.8886553424
 21
103.2002270388
  0
LINE
  5
299
100
AcDbEntity
  8
0
100
AcDbLine
 62
7
  6
CONTINUOUS
 10
100.3096125828
 20
110.689526482
 11
101.3417232413
 21
94.2205117737
  0
LINE
  5
29A
100
AcDbEntity
  8
0
100
AcDbLine
 62
7
  6
CONTINUOUS
 10
102.7582661393
 20
106.632682639
 11
102.7582661393
 21
95.0383483155
  0
LINE
  5
29B
100
AcDbEntity
  8
0
100
AcDbLine
 62
7
  6
CONTINUOUS
 10
102.7582661393
 20
65.8892120238
 11
102.7582661393
 21
45.3133511121
  0
LINE
  5
29C
100
AcDbEntity
  8
0
100
AcDbLine
 62
7
  6
CONTINUOUS
 10
71.9478204491
 20
126.4846175564
 11
60.8461977643
 21
132.8939974024
  0
LINE
  5
29D
100
AcDbEntity
  8
0
100
AcDbLine
 62
7
  6
CONTINUOUS
 10
73.3620398994
 20
125.6681360473
 11
84.4636625842
 21
119.2587562014
  0
LINE
  5
29E
100
AcDbEntity
  8
0
100
AcDbLine
 62
7
  6
CONTINUOUS
 10
85.8778820345
 20
118.4422746923
 11
96.9795047193
 21
112.0328948464
  0
LINE
  5
29F
100
AcDbEntity
  8
0
100
AcDbLine
 62
7
  6
CONTINUOUS
 10
94.564931002
 20
114.0284847027
 11
91.4182927251
 21
115.8451560603
  0
LINE
  5
2A0
100
AcDbEntity
  8
0
100
AcDbLine
 62
7
  6
CONTINUOUS
 10
89.6505184123
 20
116.8657579466
 11
86.5038801354
 21
118.6824293042
  0
LINE
  5
2A1
100
AcDbEntity
  8
0
100
AcDbLine
 62
7
  6
CONTINUOUS
 10
69.5332467318
 20
128.4802074127
 11
66.3866084549
 21
130.2968787703
  0
LINE
  5
2A2
100
AcDbEntity
  8
0
100
AcDbLine
 62
7
  6
CONTINUOUS
 10
64.6188341421
 20
131.3174806566
 11
61.4721958652
 21
133.1341520142
  0
LINE
  5
2A3
100
AcDbEntity
  8
0
100
AcDbLine
 62
7
  6
CONTINUOUS
 10
90.3566496753
 20
116.5107983783
 11
89.6962235868
 21
116.8920869324
  0
LINE
  5
2A4
100
AcDbEntity
  8
0
100
AcDbLine
 62
7
  6
CONTINUOUS
 10
65.3249654051
 20
130.9625210883
 11
64.6645393165
 21
131.3438096424
  0
LINE
  5
2A5
100
AcDbEntity
  8
0
100
AcDbLine
 62
7
  6
CONTINUOUS
 10
74.4226687321
 20
127.9134633497
 11
72.8983034592
 21
128.7935361405
  0
LINE
  5
2A6
100
AcDbEntity
  8
0
100
AcDbLine
 62
7
  6
CONTINUOUS
 10
75.8368881824
 20
127.0969818407
 11
86.9385108672
 21
120.6876019947
  0
LINE
  5
2A7
100
AcDbEntity
  8
0
100
AcDbLine
 62
7
  6
CONTINUOUS
 10
97.9299877294
 20
114.3418134304
 11
99.4543530023
 21
113.4617406397
  0
LINE
  5
2A8
100
AcDbEntity
  8
0
100
AcDbLine
 62
7
  6
CONTINUOUS
 10
72.6523048301
 20
130.5375608564
 11
88.6915306778
 21
121.2775189857
  0
LINE
  5
2A9
100
AcDbEntity
  8
0
100
AcDbLine
 62
7
  6
CONTINUOUS
 10
97.6839891003
 20
116.0858381464
 11
101.5488557382
 21
113.854506832
  0
LINE
  5
2AA
100
AcDbEntity
  8
0
100
AcDbLine
 62
7
  6
CONTINUOUS
 10
102.7582661393
 20
106.632682639
 11
101.5488557382
 21
113.854506832
  0
LINE
  5
2AB
100
AcDbEntity
  8
0
100
AcDbLine
 62
7
  6
CONTINUOUS
 10
102.7582661393
 20
45.3133511121
 11
68.8374438562
 21
25.729272137
  0
LINE
  5
2AC
100
AcDbEntity
  8
0
100
AcDbLine
 62
7
  6
CONTINUOUS
 10
99.0105975491
 20
42.5492375526
 11
96.6771548863
 21
41.2020318448
  0
ARC
  5
2AD
100
AcDbEntity
  8
0
100
AcDbCircle
 62
7
  6
CONTINUOUS
 10
218.3711684393
 20
77.561746498
 40
202.1269451799
100
AcDbArc
 50
179.9994347163
 51
180.3867851046
  0
ARC
  5
2AE
100
AcDbEntity
  8
0
100
AcDbCircle
 62
7
  6
CONTINUOUS
 10
139.5977124097
 20
76.089899652
 40
122.1581635545
100
AcDbArc
 50
186.5703118792
 51
187.4175872755
  0
ARC
  5
2AF
100
AcDbEntity
  8
0
100
AcDbCircle
 62
7
  6
CONTINUOUS
 10
56.8085153934
 20
116.7135684873
 40
19.2404867982
100
AcDbArc
 50
56.9284437991
 51
59.9650368415
  0
ARC
  5
2B0
100
AcDbEntity
  8
0
100
AcDbCircle
 62
7
  6
CONTINUOUS
 10
81.8401996636
 20
102.2618457773
 40
19.2404867982
100
AcDbArc
 50
56.9284437991
 51
59.9650368415
  0
ARC
  5
2B1
100
AcDbEntity
  8
0
100
AcDbCircle
 62
7
  6
CONTINUOUS
 10
57.6963966339
 20
118.2361134971
 40
17.4779804163
100
AcDbArc
 50
59.9866061633
 51
63.3351541671
  0
ARC
  5
2B2
100
AcDbEntity
  8
0
100
AcDbCircle
 62
7
  6
CONTINUOUS
 10
82.7280809041
 20
103.7843907871
 40
17.4779804164
100
AcDbArc
 50
59.9866061633
 51
63.3351541671
  0
ARC
  5
2B3
100
AcDbEntity
  8
0
100
AcDbCircle
 62
7
  6
CONTINUOUS
 10
59.0244674315
 20
48.8638878957
 40
16.5493283907
100
AcDbArc
 50
148.2430108511
 51
148.8981690522
  0
ARC
  5
2B4
100
AcDbEntity
  8
0
100
AcDbCircle
 62
7
  6
CONTINUOUS
 10
33.9927831613
 20
63.3156106057
 40
16.5493283907
100
AcDbArc
 50
148.2430108511
 51
148.8981690522
  0
ARC
  5
2B5
100
AcDbEntity
  8
0
100
AcDbCircle
 62
7
  6
CONTINUOUS
 10
100.255984634
 20
54.7012450131
 40
13.9655568642
100
AcDbArc
 50
252.5584630396
 51
255.1516725738
  0
ARC
  5
2B6
100
AcDbEntity
  8
0
100
AcDbCircle
 62
7
  6
CONTINUOUS
 10
53.014017237
 20
52.3333543499
 40
10.8
100
AcDbArc
 50
161.8329302133
 51
205.4601120894
  0
ARC
  5
2B7
100
AcDbEntity
  8
0
100
AcDbCircle
 62
7
  6
CONTINUOUS
 10
40.4981751019
 20
59.559215705
 40
10.8
100
AcDbArc
 50
261.9112083464
 51
267.1686667029
  0
ARC
  5
2B8
100
AcDbEntity
  8
0
100
AcDbCircle
 62
7
  6
CONTINUOUS
 10
40.4981751019
 20
59.559215705
 40
10.8
100
AcDbArc
 50
161.828690373
 51
205.4601120894
  0
ARC
  5
2B9
100
AcDbEntity
  8
0
100
AcDbCircle
 62
7
  6
CONTINUOUS
 10
27.9823329668
 20
66.78507706
 40
10.8
100
AcDbArc
 50
261.9112083464
 51
267.1686667029
  0
ARC
  5
2BA
100
AcDbEntity
  8
0
100
AcDbCircle
 62
7
  6
CONTINUOUS
 10
27.9823329668
 20
66.78507706
 40
10.8
100
AcDbArc
 50
161.8329302133
 51
205.4601120894
  0
ARC
  5
2BB
100
AcDbEntity
  8
0
100
AcDbCircle
 62
7
  6
CONTINUOUS
 10
53.014017237
 20
52.3333543499
 40
10.8
100
AcDbArc
 50
261.9112083464
 51
267.1686667029
  0
ARC
  5
2BC
100
AcDbEntity
  8
0
100
AcDbCircle
 62
7
  6
CONTINUOUS
 10
39.8872390405
 20
56.7009986032
 40
7.8811353507
100
AcDbArc
 50
267.8344398102
 51
273.3748173489
  0
ARC
  5
2BD
100
AcDbEntity
  8
0
100
AcDbCircle
 62
7
  6
CONTINUOUS
 10
27.3713969054
 20
63.9268599582
 40
7.8811353507
100
AcDbArc
 50
267.8344398102
 51
273.3748173489
  0
ARC
  5
2BE
100
AcDbEntity
  8
0
100
AcDbCircle
 62
7
  6
CONTINUOUS
 10
52.4030811756
 20
49.4751372482
 40
7.8811353507
100
AcDbArc
 50
267.8344398102
 51
273.3748173489
  0
ARC
  5
2BF
100
AcDbEntity
  8
0
100
AcDbCircle
 62
7
  6
CONTINUOUS
 10
40.1571140141
 20
51.9600487122
 40
3.1917618997
100
AcDbArc
 50
273.559431304
 51
275.4479572191
  0
ARC
  5
2C0
100
AcDbEntity
  8
0
100
AcDbCircle
 62
7
  6
CONTINUOUS
 10
27.6412635612
 20
59.1855624128
 40
3.1914148957
100
AcDbArc
 50
273.5603927025
 51
275.4611445858
  0
ARC
  5
2C1
100
AcDbEntity
  8
0
100
AcDbCircle
 62
7
  6
CONTINUOUS
 10
95.3990448008
 20
101.6167687373
 40
3.006898359
100
AcDbArc
 50
167.277669255
 51
167.935125022
  0
ARC
  5
2C2
100
AcDbEntity
  8
0
100
AcDbCircle
 62
7
  6
CONTINUOUS
 10
60.6797265837
 20
47.6915843103
 40
3.0068983585
100
AcDbArc
 50
167.2776692549
 51
167.9351250221
  0
ARC
  5
2C3
100
AcDbEntity
  8
0
100
AcDbCircle
 62
7
  6
CONTINUOUS
 10
73.7580198162
 20
41.0325877662
 40
3.0068983584
100
AcDbArc
 50
167.2776692548
 51
167.9351250221
  0
ARC
  5
2C4
100
AcDbEntity
  8
0
100
AcDbCircle
 62
7
  6
CONTINUOUS
 10
81.608686914
 20
69.4878724324
 40
3.0068983585
100
AcDbArc
 50
167.2776692549
 51
167.9351250221
  0
ARC
  5
2C5
100
AcDbEntity
  8
0
100
AcDbCircle
 62
7
  6
CONTINUOUS
 10
97.4116366912
 20
52.8357493383
 40
2.9718853256
100
AcDbArc
 50
167.4648290322
 51
168.8561714549
  0
ARC
  5
2C6
100
AcDbEntity
  8
0
100
AcDbCircle
 62
7
  6
CONTINUOUS
 10
71.3935236861
 20
82.0713752449
 40
2.971835757
100
AcDbArc
 50
167.4648212241
 51
168.8577347724
  0
ARC
  5
2C7
100
AcDbEntity
  8
0
100
AcDbCircle
 62
7
  6
CONTINUOUS
 10
47.4505730549
 20
50.659977092
 40
2.6865396093
100
AcDbArc
 50
213.9985021737
 51
219.8820241368
  0
ARC
  5
2C8
100
AcDbEntity
  8
0
100
AcDbCircle
 62
7
  6
CONTINUOUS
 10
34.9347309198
 20
57.885838447
 40
2.6865396093
100
AcDbArc
 50
213.9985021737
 51
219.8820241368
  0
ARC
  5
2C9
100
AcDbEntity
  8
0
100
AcDbCircle
 62
7
  6
CONTINUOUS
 10
22.4188887847
 20
65.111699802
 40
2.6865396093
100
AcDbArc
 50
213.9985021737
 51
219.8820241368
  0
ARC
  5
2CA
100
AcDbEntity
  8
0
100
AcDbCircle
 62
7
  6
CONTINUOUS
 10
47.3807637732
 20
50.6026872668
 40
2.5962356917
100
AcDbArc
 50
219.8996802459
 51
220.5487477056
  0
ARC
  5
2CB
100
AcDbEntity
  8
0
100
AcDbCircle
 62
7
  6
CONTINUOUS
 10
22.349079503
 20
65.0544099768
 40
2.5962356917
100
AcDbArc
 50
219.8996802459
 51
220.5487477056
  0
ARC
  5
2CC
100
AcDbEntity
  8
0
100
AcDbCircle
 62
7
  6
CONTINUOUS
 10
34.8649216379
 20
57.8285486217
 40
2.5962356914
100
AcDbArc
 50
219.8996802458
 51
220.5487477056
  0
ARC
  5
2CD
100
AcDbEntity
  8
0
100
AcDbCircle
 62
7
  6
CONTINUOUS
 10
69.4976444546
 20
84.2161387626
 40
0.3748498278
100
AcDbArc
 50
60.067128943
 51
72.8578935352
  0
ARC
  5
2CE
100
AcDbEntity
  8
0
100
AcDbCircle
 62
7
  6
CONTINUOUS
 10
95.5157304937
 20
54.9805890075
 40
0.3747817576
100
AcDbArc
 50
60.064960857
 51
72.8527458308
  0
SPLINE
  5
2CF
100
AcDbEntity
  8
0
100
AcDbSpline
 62
7
  6
CONTINUOUS
 70
0
 71
3
 72
10
 73
6
 74
0
 42
0.0000001
 43
0.0000001
 44
0.0000000001
 40
0.0
 40
0.0
 40
0.0
 40
0.0
 40
0.2377246814
 40
0.4801509521
 40
1.0
 40
1.0
 40
1.0
 40
1.0
 10
63.960195707
 20
131.4912983401
 30
0.0
 10
63.9793896299
 20
131.5039271329
 30
0.0
 10
64.0209469438
 20
131.5254722735
 30
0.0
 10
64.1145144316
 20
131.5516999971
 30
0.0
 10
64.1901564372
 20
131.5500340855
 30
0.0
 10
64.2397219435
 20
131.5418106857
 30
0.0
  0
SPLINE
  5
2D0
100
AcDbEntity
  8
0
100
AcDbSpline
 62
7
  6
CONTINUOUS
 70
0
 71
3
 72
11
 73
7
 74
0
 42
0.0000001
 43
0.0000001
 44
0.0000000001
 40
0.0
 40
0.0
 40
0.0
 40
0.0
 40
0.2402311209
 40
0.4941580699
 40
0.7511207131
 40
1.0
 40
1.0
 40
1.0
 40
1.0
 10
69.0573798566
 20
128.154013578
 30
0.0
 10
69.0447394302
 20
128.2327190493
 30
0.0
 10
69.003250609
 20
128.3923247598
 30
0.0
 10
68.9036044272
 20
128.6217190855
 30
0.0
 10
68.7701702873
 20
128.8366299922
 30
0.0
 10
68.6608862823
 20
128.9651247735
 30
0.0
 10
68.6021722351
 20
129.0231999909
 30
0.0
  0
SPLINE
  5
2D1
100
AcDbEntity
  8
0
100
AcDbSpline
 62
7
  6
CONTINUOUS
 70
0
 71
3
 72
11
 73
7
 74
0
 42
0.0000001
 43
0.0000001
 44
0.0000000001
 40
0.0
 40
0.0
 40
0.0
 40
0.0
 40
0.2277777526
 40
0.4761035461
 40
0.7366413376
 40
1.0
 40
1.0
 40
1.0
 40
1.0
 10
73.4839357308
 20
128.1423809565
 30
0.0
 10
73.5295987119
 20
128.1160180185
 30
0.0
 10
73.6198426107
 20
128.0517212771
 30
0.0
 10
73.7431645776
 20
127.9332684065
 30
0.0
 10
73.855443357
 20
127.7935964591
 30
0.0
 10
73.9196191655
 20
127.6902764449
 30
0.0
 10
73.948489977
 20
127.6365830259
 30
0.0
  0
SPLINE
  5
2D2
100
AcDbEntity
  8
0
100
AcDbSpline
 62
7
  6
CONTINUOUS
 70
0
 71
3
 72
15
 73
11
 74
0
 42
0.0000001
 43
0.0000001
 44
0.0000000001
 40
0.0
 40
0.0
 40
0.0
 40
0.0
 40
0.1114570754
 40
0.2331087603
 40
0.3622385399
 40
0.495591397
 40
0.6295529174
 40
0.7604635889
 40
0.8849331785
 40
1.0
 40
1.0
 40
1.0
 40
1.0
 10
72.7275627141
 20
129.3366981499
 30
0.0
 10
72.7309579824
 20
129.2825210881
 30
0.0
 10
72.7480600397
 20
129.1697501424
 30
0.0
 10
72.7980835753
 20
129.0001315579
 30
0.0
 10
72.871929657
 20
128.8277952688
 30
0.0
 10
72.96680012
 20
128.6592215033
 30
0.0
 10
73.079179497
 20
128.5007186044
 30
0.0
 10
73.2048424951
 20
128.358195265
 30
0.0
 10
73.3390650175
 20
128.2370408291
 30
0.0
 10
73.4354021665
 20
128.1704011891
 30
0.0
 10
73.4839357308
 20
128.1423809565
 30
0.0
  0
SPLINE
  5
2D3
100
AcDbEntity
  8
0
100
AcDbSpline
 62
7
  6
CONTINUOUS
 70
0
 71
3
 72
11
 73
7
 74
0
 42
0.0000001
 43
0.0000001
 44
0.0000000001
 40
0.0
 40
0.0
 40
0.0
 40
0.0
 40
0.2840590145
 40
0.5438121362
 40
0.7806698713
 40
1.0
 40
1.0
 40
1.0
 40
1.0
 10
62.3903027893
 20
132.493510746
 30
0.0
 10
62.3902620489
 20
132.4512281341
 30
0.0
 10
62.3849220042
 20
132.3701151826
 30
0.0
 10
62.3583377382
 20
132.2563473408
 30
0.0
 10
62.3136820491
 20
132.1587068841
 30
0.0
 10
62.2710540608
 20
132.1047191026
 30
0.0
 10
62.2474651145
 20
132.0821485536
 30
0.0
  0
SPLINE
  5
2D4
100
AcDbEntity
  8
0
100
AcDbSpline
 62
7
  6
CONTINUOUS
 70
0
 71
3
 72
9
 73
5
 74
0
 42
0.0000001
 43
0.0000001
 44
0.0000000001
 40
0.0
 40
0.0
 40
0.0
 40
0.0
 40
0.5116259532
 40
1.0
 40
1.0
 40
1.0
 40
1.0
 10
69.5345439211
 20
129.826502561
 30
0.0
 10
69.0343186827
 20
130.2928841488
 30
0.0
 10
68.0208261299
 20
131.1670158688
 30
0.0
 10
66.935682647
 20
131.951231668
 30
0.0
 10
66.3885456072
 20
132.3073631685
 30
0.0
  0
SPLINE
  5
2D5
100
AcDbEntity
  8
0
100
AcDbSpline
 62
7
  6
CONTINUOUS
 70
0
 71
3
 72
9
 73
5
 74
0
 42
0.0000001
 43
0.0000001
 44
0.0000000001
 40
0.0
 40
0.0
 40
0.0
 40
0.0
 40
0.5247085148
 40
1.0
 40
1.0
 40
1.0
 40
1.0
 10
70.593240229
 20
127.2638220498
 30
0.0
 10
70.548665271
 20
127.358144814
 30
0.0
 10
70.4796891846
 20
127.5460076099
 30
0.0
 10
70.4512626032
 20
127.745066491
 30
0.0
 10
70.451353656
 20
127.8395661445
 30
0.0
  0
SPLINE
  5
2D6
100
AcDbEntity
  8
0
100
AcDbSpline
 62
7
  6
CONTINUOUS
 70
0
 71
3
 72
11
 73
7
 74
0
 42
0.0000001
 43
0.0000001
 44
0.0000000001
 40
0.0
 40
0.0
 40
0.0
 40
0.0
 40
0.2760748422
 40
0.5316654208
 40
0.7708693641
 40
1.0
 40
1.0
 40
1.0
 40
1.0
 10
63.7833363968
 20
131.1989371103
 30
0.0
 10
63.7896466587
 20
131.2305517802
 30
0.0
 10
63.806152865
 20
131.2907168094
 30
0.0
 10
63.8447418209
 20
131.3726105454
 30
0.0
 10
63.8956583614
 20
131.4408647971
 30
0.0
 10
63.9378435744
 20
131.4765915784
 30
0.0
 10
63.960195707
 20
131.4912983401
 30
0.0
  0
SPLINE
  5
2D7
100
AcDbEntity
  8
0
100
AcDbSpline
 62
7
  6
CONTINUOUS
 70
0
 71
3
 72
9
 73
5
 74
0
 42
0.0000001
 43
0.0000001
 44
0.0000000001
 40
0.0
 40
0.0
 40
0.0
 40
0.0
 40
0.5165865499
 40
1.0
 40
1.0
 40
1.0
 40
1.0
 10
64.6207691322
 20
133.3257211117
 30
0.0
 10
64.1042702189
 20
133.5846081471
 30
0.0
 10
63.0771751668
 20
134.0338712772
 30
0.0
 10
62.0015401062
 20
134.353763032
 30
0.0
 10
61.473482759
 20
134.4697620383
 30
0.0
  0
SPLINE
  5
2D8
100
AcDbEntity
  8
0
100
AcDbSpline
 62
7
  6
CONTINUOUS
 70
0
 71
3
 72
10
 73
6
 74
0
 42
0.0000001
 43
0.0000001
 44
0.0000000001
 40
0.0
 40
0.0
 40
0.0
 40
0.0
 40
0.2377246814
 40
0.4801509521
 40
1.0
 40
1.0
 40
1.0
 40
1.0
 10
88.9918799772
 20
117.0395756301
 30
0.0
 10
89.0110739001
 20
117.0522044228
 30
0.0
 10
89.052631214
 20
117.0737495634
 30
0.0
 10
89.1461987018
 20
117.099977287
 30
0.0
 10
89.2218407074
 20
117.0983113755
 30
0.0
 10
89.2714062137
 20
117.0900879756
 30
0.0
  0
SPLINE
  5
2D9
100
AcDbEntity
  8
0
100
AcDbSpline
 62
7
  6
CONTINUOUS
 70
0
 71
3
 72
11
 73
7
 74
0
 42
0.0000001
 43
0.0000001
 44
0.0000000001
 40
0.0
 40
0.0
 40
0.0
 40
0.0
 40
0.2402311209
 40
0.4941580699
 40
0.7511207131
 40
1.0
 40
1.0
 40
1.0
 40
1.0
 10
94.0890641268
 20
113.702290868
 30
0.0
 10
94.0764237004
 20
113.7809963393
 30
0.0
 10
94.0349348792
 20
113.9406020498
 30
0.0
 10
93.9352886974
 20
114.1699963755
 30
0.0
 10
93.8018545575
 20
114.3849072822
 30
0.0
 10
93.6925705525
 20
114.5134020635
 30
0.0
 10
93.6338565053
 20
114.5714772809
 30
0.0
  0
SPLINE
  5
2DA
100
AcDbEntity
  8
0
100
AcDbSpline
 62
7
  6
CONTINUOUS
 70
0
 71
3
 72
11
 73
7
 74
0
 42
0.0000001
 43
0.0000001
 44
0.0000000001
 40
0.0
 40
0.0
 40
0.0
 40
0.0
 40
0.2277777526
 40
0.4761035461
 40
0.7366413376
 40
1.0
 40
1.0
 40
1.0
 40
1.0
 10
98.515620001
 20
113.6906582465
 30
0.0
 10
98.5612829821
 20
113.6642953085
 30
0.0
 10
98.6515268809
 20
113.5999985671
 30
0.0
 10
98.7748488478
 20
113.4815456965
 30
0.0
 10
98.8871276272
 20
113.3418737491
 30
0.0
 10
98.9513034357
 20
113.2385537348
 30
0.0
 10
98.9801742472
 20
113.1848603159
 30
0.0
  0
SPLINE
  5
2DB
100
AcDbEntity
  8
0
100
AcDbSpline
 62
7
  6
CONTINUOUS
 70
0
 71
3
 72
15
 73
11
 74
0
 42
0.0000001
 43
0.0000001
 44
0.0000000001
 40
0.0
 40
0.0
 40
0.0
 40
0.0
 40
0.1114570754
 40
0.2331087603
 40
0.3622385399
 40
0.495591397
 40
0.6295529174
 40
0.7604635889
 40
0.8849331785
 40
1.0
 40
1.0
 40
1.0
 40
1.0
 10
97.7592469843
 20
114.8849754398
 30
0.0
 10
97.7626422526
 20
114.830798378
 30
0.0
 10
97.7797443099
 20
114.7180274324
 30
0.0
 10
97.8297678455
 20
114.5484088479
 30
0.0
 10
97.9036139272
 20
114.3760725587
 30
0.0
 10
97.9984843902
 20
114.2074987933
 30
0.0
 10
98.1108637673
 20
114.0489958943
 30
0.0
 10
98.2365267653
 20
113.906472555
 30
0.0
 10
98.3707492877
 20
113.7853181191
 30
0.0
 10
98.4670864367
 20
113.718678479
 30
0.0
 10
98.515620001
 20
113.6906582465
 30
0.0
  0
SPLINE
  5
2DC
100
AcDbEntity
  8
0
100
AcDbSpline
 62
7
  6
CONTINUOUS
 70
0
 71
3
 72
11
 73
7
 74
0
 42
0.0000001
 43
0.0000001
 44
0.0000000001
 40
0.0
 40
0.0
 40
0.0
 40
0.0
 40
0.2840590145
 40
0.5438121362
 40
0.7806698713
 40
1.0
 40
1.0
 40
1.0
 40
1.0
 10
87.4219870595
 20
118.041788036
 30
0.0
 10
87.4219463191
 20
117.999505424
 30
0.0
 10
87.4166062744
 20
117.9183924726
 30
0.0
 10
87.3900220084
 20
117.8046246308
 30
0.0
 10
87.3453663193
 20
117.7069841741
 30
0.0
 10
87.302738331
 20
117.6529963926
 30
0.0
 10
87.2791493848
 20
117.6304258436
 30
0.0
  0
SPLINE
  5
2DD
100
AcDbEntity
  8
0
100
AcDbSpline
 62
7
  6
CONTINUOUS
 70
0
 71
3
 72
9
 73
5
 74
0
 42
0.0000001
 43
0.0000001
 44
0.0000000001
 40
0.0
 40
0.0
 40
0.0
 40
0.0
 40
0.5116259532
 40
1.0
 40
1.0
 40
1.0
 40
1.0
 10
94.5662281913
 20
115.374779851
 30
0.0
 10
94.0660029529
 20
115.8411614388
 30
0.0
 10
93.0525104001
 20
116.7152931588
 30
0.0
 10
91.9673669172
 20
117.499508958
 30
0.0
 10
91.4202298774
 20
117.8556404585
 30
0.0
  0
SPLINE
  5
2DE
100
AcDbEntity
  8
0
100
AcDbSpline
 62
7
  6
CONTINUOUS
 70
0
 71
3
 72
9
 73
5
 74
0
 42
0.0000001
 43
0.0000001
 44
0.0000000001
 40
0.0
 40
0.0
 40
0.0
 40
0.0
 40
0.5247085148
 40
1.0
 40
1.0
 40
1.0
 40
1.0
 10
95.6249244992
 20
112.8120993398
 30
0.0
 10
95.5803495412
 20
112.906422104
 30
0.0
 10
95.5113734548
 20
113.0942848999
 30
0.0
 10
95.4829468734
 20
113.293343781
 30
0.0
 10
95.4830379262
 20
113.3878434344
 30
0.0
  0
SPLINE
  5
2DF
100
AcDbEntity
  8
0
100
AcDbSpline
 62
7
  6
CONTINUOUS
 70
0
 71
3
 72
11
 73
7
 74
0
 42
0.0000001
 43
0.0000001
 44
0.0000000001
 40
0.0
 40
0.0
 40
0.0
 40
0.0
 40
0.2760748422
 40
0.5316654208
 40
0.7708693641
 40
1.0
 40
1.0
 40
1.0
 40
1.0
 10
88.815020667
 20
116.7472144002
 30
0.0
 10
88.8213309289
 20
116.7788290702
 30
0.0
 10
88.8378371352
 20
116.8389940993
 30
0.0
 10
88.8764260911
 20
116.9208878354
 30
0.0
 10
88.9273426316
 20
116.989142087
 30
0.0
 10
88.9695278446
 20
117.0248688684
 30
0.0
 10
88.9918799772
 20
117.0395756301
 30
0.0
  0
SPLINE
  5
2E0
100
AcDbEntity
  8
0
100
AcDbSpline
 62
7
  6
CONTINUOUS
 70
0
 71
3
 72
9
 73
5
 74
0
 42
0.0000001
 43
0.0000001
 44
0.0000000001
 40
0.0
 40
0.0
 40
0.0
 40
0.0
 40
0.5165865499
 40
1.0
 40
1.0
 40
1.0
 40
1.0
 10
89.6524534024
 20
118.8739984017
 30
0.0
 10
89.1359544891
 20
119.132885437
 30
0.0
 10
88.108859437
 20
119.5821485672
 30
0.0
 10
87.0332243764
 20
119.902040322
 30
0.0
 10
86.5051670292
 20
120.0180393283
 30
0.0
  0
SPLINE
  5
2E1
100
AcDbEntity
  8
0
100
AcDbSpline
 62
7
  6
CONTINUOUS
 70
0
 71
3
 72
11
 73
7
 74
0
 42
0.0000001
 43
0.0000001
 44
0.0000000001
 40
0.0
 40
0.0
 40
0.0
 40
0.0
 40
0.2765742926
 40
0.5421188046
 40
0.7856626842
 40
1.0
 40
1.0
 40
1.0
 40
1.0
 10
54.2378408622
 20
38.1039487977
 30
0.0
 10
54.3001071655
 20
38.2072146307
 30
0.0
 10
54.4071371224
 20
38.4191443946
 30
0.0
 10
54.5129614843
 20
38.7465343093
 30
0.0
 10
54.556641136
 20
39.0606131138
 30
0.0
 10
54.5406773939
 20
39.262241771
 30
0.0
 10
54.5189625183
 20
39.3531344258
 30
0.0
  0
SPLINE
  5
2E2
100
AcDbEntity
  8
0
100
AcDbSpline
 62
7
  6
CONTINUOUS
 70
0
 71
3
 72
11
 73
7
 74
0
 42
0.0000001
 43
0.0000001
 44
0.0000000001
 40
0.0
 40
0.0
 40
0.0
 40
0.0
 40
0.219953895
 40
0.4641074226
 40
0.726779826
 40
1.0
 40
1.0
 40
1.0
 40
1.0
 10
50.8835484447
 20
34.5788515872
 30
0.0
 10
51.1639346303
 20
34.6900953124
 30
0.0
 10
51.7276775059
 20
34.9969776146
 30
0.0
 10
52.5067365118
 20
35.6249807916
 30
0.0
 10
53.2321411072
 20
36.4160583621
 30
0.0
 10
53.6527525504
 20
37.0217552708
 30
0.0
 10
53.8462337526
 20
37.3426350478
 30
0.0
  0
SPLINE
  5
2E3
100
AcDbEntity
  8
0
100
AcDbSpline
 62
7
  6
CONTINUOUS
 70
0
 71
3
 72
9
 73
5
 74
0
 42
0.0000001
 43
0.0000001
 44
0.0000000001
 40
0.0
 40
0.0
 40
0.0
 40
0.0
 40
0.2440658956
 40
1.0
 40
1.0
 40
1.0
 40
1.0
 10
50.4970806933
 20
34.4513399065
 30
0.0
 10
50.5291232394
 20
34.4597193089
 30
0.0
 10
50.6598431004
 20
34.496200033
 30
0.0
 10
50.7881976934
 20
34.5410210045
 30
0.0
 10
50.8835484447
 20
34.5788515872
 30
0.0
  0
SPLINE
  5
2E4
100
AcDbEntity
  8
0
100
AcDbSpline
 62
7
  6
CONTINUOUS
 70
0
 71
3
 72
9
 73
5
 74
0
 42
0.0000001
 43
0.0000001
 44
0.0000000001
 40
0.0
 40
0.0
 40
0.0
 40
0.0
 40
0.2581479788
 40
1.0
 40
1.0
 40
1.0
 40
1.0
 10
15.6753017031
 20
61.8063963457
 30
0.0
 10
15.6870963658
 20
61.8110758994
 30
0.0
 10
15.7331181036
 20
61.8283430529
 30
0.0
 10
15.7805077967
 20
61.8420554669
 30
0.0
 10
15.8161545033
 20
61.8497379054
 30
0.0
  0
SPLINE
  5
2E5
100
AcDbEntity
  8
0
100
AcDbSpline
 62
7
  6
CONTINUOUS
 70
0
 71
3
 72
11
 73
7
 74
0
 42
0.0000001
 43
0.0000001
 44
0.0000000001
 40
0.0
 40
0.0
 40
0.0
 40
0.0
 40
0.2732083983
 40
0.5358940474
 40
0.7800552311
 40
1.0
 40
1.0
 40
1.0
 40
1.0
 10
14.8584470397
 20
61.044381763
 30
0.0
 10
14.9117902746
 20
61.1328490927
 30
0.0
 10
15.0277621976
 20
61.2998460575
 30
0.0
 10
15.2277597301
 20
61.5179692274
 30
0.0
 10
15.4425691877
 20
61.6911115674
 30
0.0
 10
15.59799843
 20
61.7757261325
 30
0.0
 10
15.6753017031
 20
61.8063963457
 30
0.0
  0
SPLINE
  5
2E6
100
AcDbEntity
  8
0
100
AcDbSpline
 62
7
  6
CONTINUOUS
 70
0
 71
3
 72
13
 73
9
 74
0
 42
0.0000001
 43
0.0000001
 44
0.0000000001
 40
0.0
 40
0.0
 40
0.0
 40
0.0
 40
0.1047152601
 40
0.2168220517
 40
0.3358371661
 40
0.4610383745
 40
0.7254320247
 40
1.0
 40
1.0
 40
1.0
 40
1.0
 10
13.3223440261
 20
55.9455529833
 30
0.0
 10
13.2912593887
 20
56.1036167011
 30
0.0
 10
13.2500548504
 20
56.4357117188
 30
0.0
 10
13.2473813024
 20
56.9533132461
 30
0.0
 10
13.3015994526
 20
57.4997089233
 30
0.0
 10
13.4511870845
 20
58.2686598216
 30
0.0
 10
13.7749782227
 20
59.24259987
 30
0.0
 10
14.1520781439
 20
59.9847522282
 30
0.0
 10
14.3701848147
 20
60.3464722253
 30
0.0
  0
SPLINE
  5
2E7
100
AcDbEntity
  8
0
100
AcDbSpline
 62
7
  6
CONTINUOUS
 70
0
 71
3
 72
15
 73
11
 74
0
 42
0.0000001
 43
0.0000001
 44
0.0000000001
 40
0.0
 40
0.0
 40
0.0
 40
0.0
 40
0.0942941212
 40
0.1980061992
 40
0.3121112876
 40
0.4363129436
 40
0.5693554723
 40
0.7092988835
 40
0.8537399043
 40
1.0
 40
1.0
 40
1.0
 40
1.0
 10
20.1916072363
 20
63.6094641427
 30
0.0
 10
20.0511117521
 20
63.8173370518
 30
0.0
 10
19.8141097171
 20
64.2944338281
 30
0.0
 10
19.6100603885
 20
65.1042973869
 30
0.0
 10
19.5439128096
 20
66.0158680059
 30
0.0
 10
19.6163113422
 20
67.0042319896
 30
0.0
 10
19.824484899
 20
68.0428271539
 30
0.0
 10
20.162528059
 20
69.1030315648
 30
0.0
 10
20.6208604621
 20
70.1552065398
 30
0.0
 10
20.9982946414
 20
70.8320318584
 30
0.0
 10
21.2041757592
 20
71.1622838618
 30
0.0
  0
SPLINE
  5
2E8
100
AcDbEntity
  8
0
100
AcDbSpline
 62
7
  6
CONTINUOUS
 70
0
 71
3
 72
15
 73
11
 74
0
 42
0.0000001
 43
0.0000001
 44
0.0000000001
 40
0.0
 40
0.0
 40
0.0
 40
0.0
 40
0.0942941212
 40
0.1980061992
 40
0.3121112876
 40
0.4363129436
 40
0.5693554723
 40
0.7092988835
 40
0.8537399043
 40
1.0
 40
1.0
 40
1.0
 40
1.0
 10
32.7074493714
 20
56.3836027877
 30
0.0
 10
32.5669538872
 20
56.5914756968
 30
0.0
 10
32.3299518522
 20
57.068572473
 30
0.0
 10
32.1259025236
 20
57.8784360319
 30
0.0
 10
32.0597549447
 20
58.7900066509
 30
0.0
 10
32.1321534773
 20
59.7783706346
 30
0.0
 10
32.3403270341
 20
60.8169657989
 30
0.0
 10
32.6783701941
 20
61.8771702098
 30
0.0
 10
33.1367025972
 20
62.9293451848
 30
0.0
 10
33.5141367765
 20
63.6061705034
 30
0.0
 10
33.7200178943
 20
63.9364225068
 30
0.0
  0
SPLINE
  5
2E9
100
AcDbEntity
  8
0
100
AcDbSpline
 62
7
  6
CONTINUOUS
 70
0
 71
3
 72
15
 73
11
 74
0
 42
0.0000001
 43
0.0000001
 44
0.0000000001
 40
0.0
 40
0.0
 40
0.0
 40
0.0
 40
0.0942941212
 40
0.1980061992
 40
0.3121112876
 40
0.4363129436
 40
0.5693554723
 40
0.7092988835
 40
0.8537399043
 40
1.0
 40
1.0
 40
1.0
 40
1.0
 10
45.2232915065
 20
49.1577414327
 30
0.0
 10
45.0827960223
 20
49.3656143418
 30
0.0
 10
44.8457939873
 20
49.842711118
 30
0.0
 10
44.6417446587
 20
50.6525746769
 30
0.0
 10
44.5755970798
 20
51.5641452959
 30
0.0
 10
44.6479956124
 20
52.5525092796
 30
0.0
 10
44.8561691692
 20
53.5911044438
 30
0.0
 10
45.1942123292
 20
54.6513088547
 30
0.0
 10
45.6525447323
 20
55.7034838298
 30
0.0
 10
46.0299789116
 20
56.3803091484
 30
0.0
 10
46.2358600294
 20
56.7105611518
 30
0.0
  0
SPLINE
  5
2EA
100
AcDbEntity
  8
0
100
AcDbSpline
 62
7
  6
CONTINUOUS
 70
0
 71
3
 72
11
 73
7
 74
0
 42
0.0000001
 43
0.0000001
 44
0.0000000001
 40
0.0
 40
0.0
 40
0.0
 40
0.0
 40
0.2199447689
 40
0.4641059526
 40
0.7267916017
 40
1.0
 40
1.0
 40
1.0
 40
1.0
 10
52.4450074108
 20
40.5778771106
 30
0.0
 10
52.3677041376
 20
40.5472068975
 30
0.0
 10
52.2122748953
 20
40.4625923323
 30
0.0
 10
51.9974654377
 20
40.2894499924
 30
0.0
 10
51.7974679052
 20
40.0713268224
 30
0.0
 10
51.6814959822
 20
39.9043298577
 30
0.0
 10
51.6281527473
 20
39.8158625279
 30
0.0
  0
SPLINE
  5
2EB
100
AcDbEntity
  8
0
100
AcDbSpline
 62
7
  6
CONTINUOUS
 70
0
 71
3
 72
9
 73
5
 74
0
 42
0.0000001
 43
0.0000001
 44
0.0000000001
 40
0.0
 40
0.0
 40
0.0
 40
0.0
 40
0.2421427745
 40
1.0
 40
1.0
 40
1.0
 40
1.0
 10
52.585860211
 20
40.6212186704
 30
0.0
 10
52.5742246984
 20
40.6187110303
 30
0.0
 10
52.5264102692
 20
40.6072629955
 30
0.0
 10
52.4796345065
 20
40.5916154733
 30
0.0
 10
52.4450074108
 20
40.5778771106
 30
0.0
  0
SPLINE
  5
2EC
100
AcDbEntity
  8
0
100
AcDbSpline
 62
7
  6
CONTINUOUS
 70
0
 71
3
 72
13
 73
9
 74
0
 42
0.0000001
 43
0.0000001
 44
0.0000000001
 40
0.0
 40
0.0
 40
0.0
 40
0.0
 40
0.2745679753
 40
0.5389616255
 40
0.6641628339
 40
0.7831779483
 40
0.8952847399
 40
1.0
 40
1.0
 40
1.0
 40
1.0
 10
51.1398905223
 20
39.1179529903
 30
0.0
 10
50.9217838515
 20
38.7562329932
 30
0.0
 10
50.5446839303
 20
38.014080635
 30
0.0
 10
50.2208927922
 20
37.0401405866
 30
0.0
 10
50.0713051602
 20
36.2711896883
 30
0.0
 10
50.01708701
 20
35.724794011
 30
0.0
 10
50.019760558
 20
35.2071924837
 30
0.0
 10
50.0609650963
 20
34.8750974661
 30
0.0
 10
50.0920497337
 20
34.7170337482
 30
0.0
  0
SPLINE
  5
2ED
100
AcDbEntity
  8
0
100
AcDbSpline
 62
7
  6
CONTINUOUS
 70
0
 71
3
 72
9
 73
5
 74
0
 42
0.0000001
 43
0.0000001
 44
0.0000000001
 40
0.0
 40
0.0
 40
0.0
 40
0.0
 40
0.2466337179
 40
1.0
 40
1.0
 40
1.0
 40
1.0
 10
57.8616888835
 20
48.3067384889
 30
0.0
 10
57.8516264193
 20
48.3125377711
 30
0.0
 10
57.8119923548
 20
48.3380525961
 30
0.0
 10
57.7777349502
 20
48.3716467041
 30
0.0
 10
57.7559174509
 20
48.3996207503
 30
0.0
  0
SPLINE
  5
2EE
100
AcDbEntity
  8
0
100
AcDbSpline
 62
7
  6
CONTINUOUS
 70
0
 71
3
 72
15
 73
11
 74
0
 42
0.0000001
 43
0.0000001
 44
0.0000000001
 40
0.0
 40
0.0
 40
0.0
 40
0.0
 40
0.1130700546
 40
0.2239080327
 40
0.3357486374
 40
0.4518778927
 40
0.5749225631
 40
0.7067293621
 40
0.8483961473
 40
1.0
 40
1.0
 40
1.0
 40
1.0
 10
52.867024867
 20
41.6076693793
 30
0.0
 10
52.6364232722
 20
41.6471804688
 30
0.0
 10
52.1858430985
 20
41.7706948808
 30
0.0
 10
51.5655868526
 20
42.0952052326
 30
0.0
 10
51.025245224
 20
42.5503168861
 30
0.0
 10
50.5747779725
 20
43.1260156075
 30
0.0
 10
50.2198373027
 20
43.8110278483
 30
0.0
 10
49.9647265052
 20
44.5941536853
 30
0.0
 10
49.8121779298
 20
45.4628427668
 30
0.0
 10
49.7805468447
 20
46.0703836775
 30
0.0
 10
49.7805468447
 20
46.3840789532
 30
0.0
  0
SPLINE
  5
2EF
100
AcDbEntity
  8
0
100
AcDbSpline
 62
7
  6
CONTINUOUS
 70
0
 71
3
 72
11
 73
7
 74
0
 42
0.0000001
 43
0.0000001
 44
0.0000000001
 40
0.0
 40
0.0
 40
0.0
 40
0.0
 40
0.2177651606
 40
0.4508956102
 40
0.7103690052
 40
1.0
 40
1.0
 40
1.0
 40
1.0
 10
58.145587424
 20
46.7572028762
 30
0.0
 10
58.0713906642
 20
46.8000787351
 30
0.0
 10
57.9324531296
 20
46.9167047357
 30
0.0
 10
57.7846375058
 20
47.1584990899
 30
0.0
 10
57.6968858134
 20
47.4563942024
 30
0.0
 10
57.6795609935
 20
47.6732063303
 30
0.0
 10
57.6795609935
 20
47.7871809468
 30
0.0
  0
SPLINE
  5
2F0
100
AcDbEntity
  8
0
100
AcDbSpline
 62
7
  6
CONTINUOUS
 70
0
 71
3
 72
9
 73
5
 74
0
 42
0.0000001
 43
0.0000001
 44
0.0000000001
 40
0.0
 40
0.0
 40
0.0
 40
0.0
 40
0.5238468844
 40
1.0
 40
1.0
 40
1.0
 40
1.0
 10
52.0238688616
 20
53.4916839585
 30
0.0
 10
51.2758486096
 20
53.8690357018
 30
0.0
 10
49.8562119815
 20
54.6059630884
 30
0.0
 10
48.4563687253
 20
55.3800976568
 30
0.0
 10
47.7968580449
 20
55.7608577117
 30
0.0
  0
SPLINE
  5
2F1
100
AcDbEntity
  8
0
100
AcDbSpline
 62
7
  6
CONTINUOUS
 70
0
 71
3
 72
11
 73
7
 74
0
 42
0.0000001
 43
0.0000001
 44
0.0000000001
 40
0.0
 40
0.0
 40
0.0
 40
0.0
 40
0.3005044385
 40
0.5698487567
 40
0.8040874463
 40
1.0
 40
1.0
 40
1.0
 40
1.0
 10
47.7968580449
 20
55.7608577117
 30
0.0
 10
47.5041128625
 20
55.9298703979
 30
0.0
 10
46.9516534595
 20
56.255044502
 30
0.0
 10
46.1819417548
 20
56.7302630753
 30
0.0
 10
45.5237480062
 20
57.1616049257
 30
0.0
 10
45.1286997571
 20
57.4413673289
 30
0.0
 10
44.9527716101
 20
57.5740915037
 30
0.0
  0
SPLINE
  5
2F2
100
AcDbEntity
  8
0
100
AcDbSpline
 62
7
  6
CONTINUOUS
 70
0
 71
3
 72
11
 73
7
 74
0
 42
0.0000001
 43
0.0000001
 44
0.0000000001
 40
0.0
 40
0.0
 40
0.0
 40
0.0
 40
0.2655410505
 40
0.525284646
 40
0.7720733659
 40
1.0
 40
1.0
 40
1.0
 40
1.0
 10
52.0238688616
 20
53.4916839585
 30
0.0
 10
51.6726973696
 20
52.924353947
 30
0.0
 10
51.0447608807
 20
51.7591506136
 30
0.0
 10
50.3369598029
 20
49.9475422517
 30
0.0
 10
49.892962459
 20
48.1507664275
 30
0.0
 10
49.7805468447
 20
46.9567873517
 30
0.0
 10
49.7805468447
 20
46.3840789532
 30
0.0
  0
SPLINE
  5
2F3
100
AcDbEntity
  8
0
100
AcDbSpline
 62
7
  6
CONTINUOUS
 70
0
 71
3
 72
9
 73
5
 74
0
 42
0.0000001
 43
0.0000001
 44
0.0000000001
 40
0.0
 40
0.0
 40
0.0
 40
0.0
 40
0.2385575052
 40
1.0
 40
1.0
 40
1.0
 40
1.0
 10
57.6795609935
 20
47.7871809468
 30
0.0
 10
57.6795609935
 20
47.8298669081
 30
0.0
 10
57.6850421713
 20
48.0087872721
 30
0.0
 10
57.7107693857
 20
48.1868449226
 30
0.0
 10
57.7392459218
 20
48.3200834875
 30
0.0
  0
SPLINE
  5
2F4
100
AcDbEntity
  8
0
100
AcDbSpline
 62
7
  6
CONTINUOUS
 70
0
 71
3
 72
9
 73
5
 74
0
 42
0.0000001
 43
0.0000001
 44
0.0000000001
 40
0.0
 40
0.0
 40
0.0
 40
0.0
 40
0.245858046
 40
1.0
 40
1.0
 40
1.0
 40
1.0
 10
57.7466512305
 20
48.353782703
 30
0.0
 10
57.7528465307
 20
48.3812252881
 30
0.0
 10
57.7795991143
 20
48.4924904765
 30
0.0
 10
57.8123717815
 20
48.6022914833
 30
0.0
 10
57.8400831735
 20
48.6840165285
 30
0.0
  0
SPLINE
  5
2F5
100
AcDbEntity
  8
0
100
AcDbSpline
 62
7
  6
CONTINUOUS
 70
0
 71
3
 72
9
 73
5
 74
0
 42
0.0000001
 43
0.0000001
 44
0.0000000001
 40
0.0
 40
0.0
 40
0.0
 40
0.0
 40
0.5062180807
 40
1.0
 40
1.0
 40
1.0
 40
1.0
 10
57.8400831735
 20
48.6840165285
 30
0.0
 10
57.9402727443
 20
48.9794905787
 30
0.0
 10
58.2150057391
 20
49.5385592424
 30
0.0
 10
58.6121816474
 20
50.0198225266
 30
0.0
 10
58.8379801414
 20
50.2238662647
 30
0.0
  0
SPLINE
  5
2F6
100
AcDbEntity
  8
0
100
AcDbSpline
 62
7
  6
CONTINUOUS
 70
0
 71
3
 72
12
 73
8
 74
0
 42
0.0000001
 43
0.0000001
 44
0.0000000001
 40
0.0
 40
0.0
 40
0.0
 40
0.0
 40
0.3020962094
 40
0.5672355594
 40
0.795278602
 40
0.8993402334
 40
1.0
 40
1.0
 40
1.0
 40
1.0
 10
58.8379801414
 20
50.2238662647
 30
0.0
 10
58.9662907909
 20
50.339814711
 30
0.0
 10
59.2267898428
 20
50.537830428
 30
0.0
 10
59.6444034315
 20
50.7296664542
 30
0.0
 10
59.9914870462
 20
50.7752370623
 30
0.0
 10
60.2368727173
 20
50.7299825288
 30
0.0
 10
60.3456093229
 20
50.6830889434
 30
0.0
 10
60.3955018306
 20
50.6542577097
 30
0.0
  0
SPLINE
  5
2F7
100
AcDbEntity
  8
0
100
AcDbSpline
 62
7
  6
CONTINUOUS
 70
0
 71
3
 72
9
 73
5
 74
0
 42
0.0000001
 43
0.0000001
 44
0.0000000001
 40
0.0
 40
0.0
 40
0.0
 40
0.0
 40
0.2385575052
 40
1.0
 40
1.0
 40
1.0
 40
1.0
 10
70.7578542263
 20
41.1281844027
 30
0.0
 10
70.7578542263
 20
41.170870364
 30
0.0
 10
70.763335404
 20
41.349790728
 30
0.0
 10
70.7890626184
 20
41.5278483786
 30
0.0
 10
70.8175391545
 20
41.6610869434
 30
0.0
  0
SPLINE
  5
2F8
100
AcDbEntity
  8
0
100
AcDbSpline
 62
7
  6
CONTINUOUS
 70
0
 71
3
 72
9
 73
5
 74
0
 42
0.0000001
 43
0.0000001
 44
0.0000000001
 40
0.0
 40
0.0
 40
0.0
 40
0.0
 40
0.245858046
 40
1.0
 40
1.0
 40
1.0
 40
1.0
 10
70.8249444633
 20
41.694786159
 30
0.0
 10
70.8311397634
 20
41.722228744
 30
0.0
 10
70.857892347
 20
41.8334939324
 30
0.0
 10
70.8906650143
 20
41.9432949393
 30
0.0
 10
70.9183764062
 20
42.0250199845
 30
0.0
  0
SPLINE
  5
2F9
100
AcDbEntity
  8
0
100
AcDbSpline
 62
7
  6
CONTINUOUS
 70
0
 71
3
 72
9
 73
5
 74
0
 42
0.0000001
 43
0.0000001
 44
0.0000000001
 40
0.0
 40
0.0
 40
0.0
 40
0.0
 40
0.5062180807
 40
1.0
 40
1.0
 40
1.0
 40
1.0
 10
70.9183764062
 20
42.0250199845
 30
0.0
 10
71.0185659771
 20
42.3204940346
 30
0.0
 10
71.2932989718
 20
42.8795626984
 30
0.0
 10
71.6904748801
 20
43.3608259825
 30
0.0
 10
71.9162733742
 20
43.5648697207
 30
0.0
  0
SPLINE
  5
2FA
100
AcDbEntity
  8
0
100
AcDbSpline
 62
7
  6
CONTINUOUS
 70
0
 71
3
 72
12
 73
8
 74
0
 42
0.0000001
 43
0.0000001
 44
0.0000000001
 40
0.0
 40
0.0
 40
0.0
 40
0.0
 40
0.3020962094
 40
0.5672355594
 40
0.795278602
 40
0.8993402334
 40
1.0
 40
1.0
 40
1.0
 40
1.0
 10
71.9162733742
 20
43.5648697207
 30
0.0
 10
72.0445840236
 20
43.680818167
 30
0.0
 10
72.3050830755
 20
43.878833884
 30
0.0
 10
72.7226966642
 20
44.0706699102
 30
0.0
 10
73.069780279
 20
44.1162405183
 30
0.0
 10
73.31516595
 20
44.0709859847
 30
0.0
 10
73.4239025556
 20
44.0240923993
 30
0.0
 10
73.4737950633
 20
43.9952611657
 30
0.0
  0
SPLINE
  5
2FB
100
AcDbEntity
  8
0
100
AcDbSpline
 62
7
  6
CONTINUOUS
 70
0
 71
3
 72
9
 73
5
 74
0
 42
0.0000001
 43
0.0000001
 44
0.0000000001
 40
0.0
 40
0.0
 40
0.0
 40
0.0
 40
0.2393271584
 40
1.0
 40
1.0
 40
1.0
 40
1.0
 10
94.4456902442
 20
52.9239301033
 30
0.0
 10
94.4456902442
 20
52.9629577869
 30
0.0
 10
94.450257243
 20
53.126019721
 30
0.0
 10
94.4718187382
 20
53.288425784
 30
0.0
 10
94.4957859462
 20
53.4101332004
 30
0.0
  0
SPLINE
  5
2FC
100
AcDbEntity
  8
0
100
AcDbSpline
 62
7
  6
CONTINUOUS
 70
0
 71
3
 72
9
 73
5
 74
0
 42
0.0000001
 43
0.0000001
 44
0.0000000001
 40
0.0
 40
0.0
 40
0.0
 40
0.0
 40
0.2460366322
 40
1.0
 40
1.0
 40
1.0
 40
1.0
 10
94.5105923094
 20
53.480763976
 30
0.0
 10
94.5162993898
 20
53.5064394912
 30
0.0
 10
94.5408610255
 20
53.6104893832
 30
0.0
 10
94.5707230931
 20
53.7132746146
 30
0.0
 10
94.5958892969
 20
53.7898462784
 30
0.0
  0
SPLINE
  5
2FD
100
AcDbEntity
  8
0
100
AcDbSpline
 62
7
  6
CONTINUOUS
 70
0
 71
3
 72
10
 73
6
 74
0
 42
0.0000001
 43
0.0000001
 44
0.0000000001
 40
0.0
 40
0.0
 40
0.0
 40
0.0
 40
0.5062041633
 40
0.7587593695
 40
1.0
 40
1.0
 40
1.0
 40
1.0
 10
94.5958892969
 20
53.7898462784
 30
0.0
 10
94.6975735382
 20
54.0992346781
 30
0.0
 10
94.9148892208
 20
54.5444165187
 30
0.0
 10
95.2994972393
 20
55.061342177
 30
0.0
 10
95.5224483278
 20
55.2896228227
 30
0.0
 10
95.6392272684
 20
55.3918524471
 30
0.0
  0
SPLINE
  5
2FE
100
AcDbEntity
  8
0
100
AcDbSpline
 62
7
  6
CONTINUOUS
 70
0
 71
3
 72
12
 73
8
 74
0
 42
0.0000001
 43
0.0000001
 44
0.0000000001
 40
0.0
 40
0.0
 40
0.0
 40
0.0
 40
0.3013132917
 40
0.5659278855
 40
0.794255756
 40
0.8987684651
 40
1.0
 40
1.0
 40
1.0
 40
1.0
 10
95.6392272684
 20
55.3918524471
 30
0.0
 10
95.7654785356
 20
55.502374255
 30
0.0
 10
96.0211940875
 20
55.6906443866
 30
0.0
 10
96.4295715195
 20
55.8710795791
 30
0.0
 10
96.7676503427
 20
55.9111781092
 30
0.0
 10
97.0066825396
 20
55.8653126462
 30
0.0
 10
97.1128215641
 20
55.8192122754
 30
0.0
 10
97.1616310812
 20
55.7910068662
 30
0.0
  0
SPLINE
  5
2FF
100
AcDbEntity
  8
0
100
AcDbSpline
 62
7
  6
CONTINUOUS
 70
0
 71
3
 72
9
 73
5
 74
0
 42
0.0000001
 43
0.0000001
 44
0.0000000001
 40
0.0
 40
0.0
 40
0.0
 40
0.0
 40
0.2385575052
 40
1.0
 40
1.0
 40
1.0
 40
1.0
 10
92.3988792102
 20
101.7123653739
 30
0.0
 10
92.3988792102
 20
101.7550513352
 30
0.0
 10
92.404360388
 20
101.9339716992
 30
0.0
 10
92.4300876024
 20
102.1120293497
 30
0.0
 10
92.4585641385
 20
102.2452679146
 30
0.0
  0
SPLINE
  5
300
100
AcDbEntity
  8
0
100
AcDbSpline
 62
7
  6
CONTINUOUS
 70
0
 71
3
 72
9
 73
5
 74
0
 42
0.0000001
 43
0.0000001
 44
0.0000000001
 40
0.0
 40
0.0
 40
0.0
 40
0.0
 40
0.245858046
 40
1.0
 40
1.0
 40
1.0
 40
1.0
 10
92.4659694472
 20
102.2789671302
 30
0.0
 10
92.4721647474
 20
102.3064097152
 30
0.0
 10
92.498917331
 20
102.4176749036
 30
0.0
 10
92.5316899982
 20
102.5274759105
 30
0.0
 10
92.5594013901
 20
102.6092009557
 30
0.0
  0
SPLINE
  5
301
100
AcDbEntity
  8
0
100
AcDbSpline
 62
7
  6
CONTINUOUS
 70
0
 71
3
 72
9
 73
5
 74
0
 42
0.0000001
 43
0.0000001
 44
0.0000000001
 40
0.0
 40
0.0
 40
0.0
 40
0.0
 40
0.5062180807
 40
1.0
 40
1.0
 40
1.0
 40
1.0
 10
92.5594013901
 20
102.6092009557
 30
0.0
 10
92.659590961
 20
102.9046750058
 30
0.0
 10
92.9343239558
 20
103.4637436696
 30
0.0
 10
93.3314998641
 20
103.9450069537
 30
0.0
 10
93.5572983581
 20
104.1490506919
 30
0.0
  0
SPLINE
  5
302
100
AcDbEntity
  8
0
100
AcDbSpline
 62
7
  6
CONTINUOUS
 70
0
 71
3
 72
12
 73
8
 74
0
 42
0.0000001
 43
0.0000001
 44
0.0000000001
 40
0.0
 40
0.0
 40
0.0
 40
0.0
 40
0.3020962094
 40
0.5672355594
 40
0.795278602
 40
0.8993402334
 40
1.0
 40
1.0
 40
1.0
 40
1.0
 10
93.5572983581
 20
104.1490506919
 30
0.0
 10
93.6856090076
 20
104.2649991381
 30
0.0
 10
93.9461080594
 20
104.4630148552
 30
0.0
 10
94.3637216481
 20
104.6548508813
 30
0.0
 10
94.7108052629
 20
104.7004214895
 30
0.0
 10
94.956190934
 20
104.6551669559
 30
0.0
 10
95.0649275396
 20
104.6082733705
 30
0.0
 10
95.1148200473
 20
104.5794421369
 30
0.0
  0
SPLINE
  5
303
100
AcDbEntity
  8
0
100
AcDbSpline
 62
7
  6
CONTINUOUS
 70
0
 71
3
 72
9
 73
5
 74
0
 42
0.0000001
 43
0.0000001
 44
0.0000000001
 40
0.0
 40
0.0
 40
0.0
 40
0.0
 40
0.2385575052
 40
1.0
 40
1.0
 40
1.0
 40
1.0
 10
78.6085213239
 20
69.5834690689
 30
0.0
 10
78.6085213239
 20
69.6261550302
 30
0.0
 10
78.6140025016
 20
69.8050753942
 30
0.0
 10
78.6397297161
 20
69.9831330447
 30
0.0
 10
78.6682062522
 20
70.1163716096
 30
0.0
  0
SPLINE
  5
304
100
AcDbEntity
  8
0
100
AcDbSpline
 62
7
  6
CONTINUOUS
 70
0
 71
3
 72
9
 73
5
 74
0
 42
0.0000001
 43
0.0000001
 44
0.0000000001
 40
0.0
 40
0.0
 40
0.0
 40
0.0
 40
0.245858046
 40
1.0
 40
1.0
 40
1.0
 40
1.0
 10
78.6756115609
 20
70.1500708251
 30
0.0
 10
78.6818068611
 20
70.1775134102
 30
0.0
 10
78.7085594447
 20
70.2887785986
 30
0.0
 10
78.7413321119
 20
70.3985796054
 30
0.0
 10
78.7690435038
 20
70.4803046506
 30
0.0
  0
SPLINE
  5
305
100
AcDbEntity
  8
0
100
AcDbSpline
 62
7
  6
CONTINUOUS
 70
0
 71
3
 72
9
 73
5
 74
0
 42
0.0000001
 43
0.0000001
 44
0.0000000001
 40
0.0
 40
0.0
 40
0.0
 40
0.0
 40
0.5062180807
 40
1.0
 40
1.0
 40
1.0
 40
1.0
 10
78.7690435038
 20
70.4803046506
 30
0.0
 10
78.8692330747
 20
70.7757787008
 30
0.0
 10
79.1439660695
 20
71.3348473645
 30
0.0
 10
79.5411419778
 20
71.8161106487
 30
0.0
 10
79.7669404718
 20
72.0201543868
 30
0.0
  0
SPLINE
  5
306
100
AcDbEntity
  8
0
100
AcDbSpline
 62
7
  6
CONTINUOUS
 70
0
 71
3
 72
12
 73
8
 74
0
 42
0.0000001
 43
0.0000001
 44
0.0000000001
 40
0.0
 40
0.0
 40
0.0
 40
0.0
 40
0.3020962094
 40
0.5672355594
 40
0.795278602
 40
0.8993402334
 40
1.0
 40
1.0
 40
1.0
 40
1.0
 10
79.7669404718
 20
72.0201543868
 30
0.0
 10
79.8952511212
 20
72.1361028331
 30
0.0
 10
80.1557501731
 20
72.3341185501
 30
0.0
 10
80.5733637618
 20
72.5259545763
 30
0.0
 10
80.9204473766
 20
72.5715251844
 30
0.0
 10
81.1658330477
 20
72.5262706509
 30
0.0
 10
81.2745696532
 20
72.4793770655
 30
0.0
 10
81.3244621609
 20
72.4505458318
 30
0.0
  0
SPLINE
  5
307
100
AcDbEntity
  8
0
100
AcDbSpline
 62
7
  6
CONTINUOUS
 70
0
 71
3
 72
9
 73
5
 74
0
 42
0.0000001
 43
0.0000001
 44
0.0000000001
 40
0.0
 40
0.0
 40
0.0
 40
0.0
 40
0.2393284889
 40
1.0
 40
1.0
 40
1.0
 40
1.0
 10
68.427625714
 20
82.1595456469
 30
0.0
 10
68.427625714
 20
82.1985671537
 30
0.0
 10
68.4321912415
 20
82.3616023766
 30
0.0
 10
68.4537460019
 20
82.5239820468
 30
0.0
 10
68.4777059043
 20
82.6456699687
 30
0.0
  0
SPLINE
  5
308
100
AcDbEntity
  8
0
100
AcDbSpline
 62
7
  6
CONTINUOUS
 70
0
 71
3
 72
9
 73
5
 74
0
 42
0.0000001
 43
0.0000001
 44
0.0000000001
 40
0.0
 40
0.0
 40
0.0
 40
0.0
 40
0.2460366322
 40
1.0
 40
1.0
 40
1.0
 40
1.0
 10
68.4925277792
 20
82.7163795196
 30
0.0
 10
68.4982348596
 20
82.7420550348
 30
0.0
 10
68.5227964953
 20
82.8461049268
 30
0.0
 10
68.5526585629
 20
82.9488901582
 30
0.0
 10
68.5778247668
 20
83.025461822
 30
0.0
  0
SPLINE
  5
309
100
AcDbEntity
  8
0
100
AcDbSpline
 62
7
  6
CONTINUOUS
 70
0
 71
3
 72
10
 73
6
 74
0
 42
0.0000001
 43
0.0000001
 44
0.0000000001
 40
0.0
 40
0.0
 40
0.0
 40
0.0
 40
0.5062058007
 40
0.7587609327
 40
1.0
 40
1.0
 40
1.0
 40
1.0
 10
68.5778247668
 20
83.025461822
 30
0.0
 10
68.6795134559
 20
83.3348637549
 30
0.0
 10
68.8968411642
 20
83.7800638822
 30
0.0
 10
69.2814719452
 20
84.2970052561
 30
0.0
 10
69.5044362662
 20
84.5252898055
 30
0.0
 10
69.6212219107
 20
84.6275197896
 30
0.0
  0
SPLINE
  5
30A
100
AcDbEntity
  8
0
100
AcDbSpline
 62
7
  6
CONTINUOUS
 70
0
 71
3
 72
12
 73
8
 74
0
 42
0.0000001
 43
0.0000001
 44
0.0000000001
 40
0.0
 40
0.0
 40
0.0
 40
0.0
 40
0.3013119354
 40
0.5659256493
 40
0.7942540185
 40
0.8987674956
 40
1.0
 40
1.0
 40
1.0
 40
1.0
 10
69.6212219107
 20
84.6275197896
 30
0.0
 10
69.7474696474
 20
84.7380325514
 30
0.0
 10
70.0031770671
 20
84.926286457
 30
0.0
 10
70.4115389057
 20
85.1067027095
 30
0.0
 10
70.749602618
 20
85.1467922208
 30
0.0
 10
70.9886241804
 20
85.1009257981
 30
0.0
 10
71.0947588528
 20
85.0548267679
 30
0.0
 10
71.1435665511
 20
85.0266224098
 30
0.0
  0
SPLINE
  5
30B
100
AcDbEntity
  8
0
100
AcDbSpline
 62
7
  6
CONTINUOUS
 70
0
 71
3
 72
9
 73
5
 74
0
 42
0.0000001
 43
0.0000001
 44
0.0000000001
 40
0.0
 40
0.0
 40
0.0
 40
0.0
 40
0.246372157
 40
1.0
 40
1.0
 40
1.0
 40
1.0
 10
16.2453375551
 20
78.2378325507
 30
0.0
 10
16.2493032695
 20
79.4385107286
 30
0.0
 10
16.3082861907
 20
84.3117369663
 30
0.0
 10
16.5360752843
 20
89.1826817045
 30
0.0
 10
16.79539357
 20
92.8462903766
 30
0.0
  0
SPLINE
  5
30C
100
AcDbEntity
  8
0
100
AcDbSpline
 62
7
  6
CONTINUOUS
 70
0
 71
3
 72
11
 73
7
 74
0
 42
0.0000001
 43
0.0000001
 44
0.0000000001
 40
0.0
 40
0.0
 40
0.0
 40
0.0
 40
0.2370527156
 40
0.5000106723
 40
0.7629608018
 40
1.0
 40
1.0
 40
1.0
 40
1.0
 10
16.0299155047
 20
77.950173464
 30
0.0
 10
16.0299155047
 20
77.9733379804
 30
0.0
 10
16.0387061003
 20
78.0222049217
 30
0.0
 10
16.068863868
 20
78.090994949
 30
0.0
 10
16.1133623071
 20
78.1515037393
 30
0.0
 10
16.1512895004
 20
78.1835437164
 30
0.0
 10
16.1713503245
 20
78.1951237407
 30
0.0
  0
SPLINE
  5
30D
100
AcDbEntity
  8
0
100
AcDbSpline
 62
7
  6
CONTINUOUS
 70
0
 71
3
 72
11
 73
7
 74
0
 42
0.0000001
 43
0.0000001
 44
0.0000000001
 40
0.0
 40
0.0
 40
0.0
 40
0.0
 40
0.2177651606
 40
0.4508956102
 40
0.7103690052
 40
1.0
 40
1.0
 40
1.0
 40
1.0
 10
68.8936521445
 20
81.1295675763
 30
0.0
 10
68.8194553847
 20
81.1724434352
 30
0.0
 10
68.6805178501
 20
81.2890694358
 30
0.0
 10
68.5327022263
 20
81.53086379
 30
0.0
 10
68.4449505339
 20
81.8287589025
 30
0.0
 10
68.427625714
 20
82.0455710304
 30
0.0
 10
68.427625714
 20
82.1595456469
 30
0.0
  0
LINE
  5
30E
100
AcDbEntity
  8
0
100
AcDbLine
 62
7
  6
CONTINUOUS
 10
16.2442232693
 20
77.5637406949
 11
16.2443166364
 21
77.7587358299
  0
SPLINE
  5
30F
100
AcDbEntity
  8
0
100
AcDbSpline
 62
7
  6
CONTINUOUS
 70
0
 71
3
 72
9
 73
5
 74
0
 42
0.0000001
 43
0.0000001
 44
0.0000000001
 40
0.0
 40
0.0
 40
0.0
 40
0.0
 40
0.2477798314
 40
1.0
 40
1.0
 40
1.0
 40
1.0
 10
17.5957377373
 20
69.6926982589
 30
0.0
 10
17.5685619813
 20
70.1748116115
 30
0.0
 10
17.469182628
 20
72.1211139618
 30
0.0
 10
17.4106225955
 20
74.0694785489
 30
0.0
 10
17.3885004693
 20
75.5352544688
 30
0.0
  0
SPLINE
  5
310
100
AcDbEntity
  8
0
100
AcDbSpline
 62
7
  6
CONTINUOUS
 70
0
 71
3
 72
9
 73
5
 74
0
 42
0.0000001
 43
0.0000001
 44
0.0000000001
 40
0.0
 40
0.0
 40
0.0
 40
0.0
 40
0.2475659092
 40
1.0
 40
1.0
 40
1.0
 40
1.0
 10
68.5847554855
 20
82.6358042682
 30
0.0
 10
68.5757840787
 20
82.6409833351
 30
0.0
 10
68.5404302972
 20
82.6634140912
 30
0.0
 10
68.5089979662
 20
82.6919126288
 30
0.0
 10
68.488319434
 20
82.7156542766
 30
0.0
  0
SPLINE
  5
311
100
AcDbEntity
  8
0
100
AcDbSpline
 62
7
  6
CONTINUOUS
 70
0
 71
3
 72
11
 73
7
 74
0
 42
0.0000001
 43
0.0000001
 44
0.0000000001
 40
0.0
 40
0.0
 40
0.0
 40
0.0
 40
0.2177651606
 40
0.4508956102
 40
0.7103690052
 40
1.0
 40
1.0
 40
1.0
 40
1.0
 10
79.0745477544
 20
68.5534909983
 30
0.0
 10
79.0003509945
 20
68.5963668572
 30
0.0
 10
78.86141346
 20
68.7129928578
 30
0.0
 10
78.7135978362
 20
68.954787212
 30
0.0
 10
78.6258461438
 20
69.2526823245
 30
0.0
 10
78.6085213239
 20
69.4694944524
 30
0.0
 10
78.6085213239
 20
69.5834690689
 30
0.0
  0
SPLINE
  5
312
100
AcDbEntity
  8
0
100
AcDbSpline
 62
7
  6
CONTINUOUS
 70
0
 71
3
 72
9
 73
5
 74
0
 42
0.0000001
 43
0.0000001
 44
0.0000000001
 40
0.0
 40
0.0
 40
0.0
 40
0.0
 40
0.2466337179
 40
1.0
 40
1.0
 40
1.0
 40
1.0
 10
78.7906492138
 20
70.103026611
 30
0.0
 10
78.7805867497
 20
70.1088258932
 30
0.0
 10
78.7409526851
 20
70.1343407182
 30
0.0
 10
78.7066952805
 20
70.1679348262
 30
0.0
 10
78.6848777812
 20
70.1959088724
 30
0.0
  0
SPLINE
  5
313
100
AcDbEntity
  8
0
100
AcDbSpline
 62
7
  6
CONTINUOUS
 70
0
 71
3
 72
9
 73
5
 74
0
 42
0.0000001
 43
0.0000001
 44
0.0000000001
 40
0.0
 40
0.0
 40
0.0
 40
0.0
 40
0.2439112253
 40
1.0
 40
1.0
 40
1.0
 40
1.0
 10
30.3505203424
 20
100.6722997525
 30
0.0
 10
30.3505209982
 20
101.9736867717
 30
0.0
 10
30.4323126869
 20
107.3090184275
 30
0.0
 10
30.8318771349
 20
112.6382413625
 30
0.0
 10
31.2899174535
 20
116.6462611761
 30
0.0
  0
SPLINE
  5
314
100
AcDbEntity
  8
0
100
AcDbSpline
 62
7
  6
CONTINUOUS
 70
0
 71
3
 72
11
 73
7
 74
0
 42
0.0000001
 43
0.0000001
 44
0.0000000001
 40
0.0
 40
0.0
 40
0.0
 40
0.0
 40
0.2177651606
 40
0.4508956102
 40
0.7103690052
 40
1.0
 40
1.0
 40
1.0
 40
1.0
 10
92.8649056407
 20
100.6823873034
 30
0.0
 10
92.7907088808
 20
100.7252631622
 30
0.0
 10
92.6517713463
 20
100.8418891629
 30
0.0
 10
92.5039557225
 20
101.0836835171
 30
0.0
 10
92.4162040301
 20
101.3815786295
 30
0.0
 10
92.3988792102
 20
101.5983907574
 30
0.0
 10
92.3988792102
 20
101.7123653739
 30
0.0
  0
SPLINE
  5
315
100
AcDbEntity
  8
0
100
AcDbSpline
 62
7
  6
CONTINUOUS
 70
0
 71
3
 72
9
 73
5
 74
0
 42
0.0000001
 43
0.0000001
 44
0.0000000001
 40
0.0
 40
0.0
 40
0.0
 40
0.0
 40
0.2466337179
 40
1.0
 40
1.0
 40
1.0
 40
1.0
 10
92.5810071001
 20
102.2319229161
 30
0.0
 10
92.570944636
 20
102.2377221982
 30
0.0
 10
92.5313105714
 20
102.2632370233
 30
0.0
 10
92.4970531669
 20
102.2968311312
 30
0.0
 10
92.4752356675
 20
102.3248051774
 30
0.0
  0
SPLINE
  5
316
100
AcDbEntity
  8
0
100
AcDbSpline
 62
7
  6
CONTINUOUS
 70
0
 71
3
 72
11
 73
7
 74
0
 42
0.0000001
 43
0.0000001
 44
0.0000000001
 40
0.0
 40
0.0
 40
0.0
 40
0.0
 40
0.2177651606
 40
0.4508956102
 40
0.7103690052
 40
1.0
 40
1.0
 40
1.0
 40
1.0
 10
94.9117166746
 20
51.8939520327
 30
0.0
 10
94.8375199148
 20
51.9368278916
 30
0.0
 10
94.6985823803
 20
52.0534538922
 30
0.0
 10
94.5507667565
 20
52.2952482464
 30
0.0
 10
94.4630150641
 20
52.5931433589
 30
0.0
 10
94.4456902442
 20
52.8099554868
 30
0.0
 10
94.4456902442
 20
52.9239301033
 30
0.0
  0
SPLINE
  5
317
100
AcDbEntity
  8
0
100
AcDbSpline
 62
7
  6
CONTINUOUS
 70
0
 71
3
 72
9
 73
5
 74
0
 42
0.0000001
 43
0.0000001
 44
0.0000000001
 40
0.0
 40
0.0
 40
0.0
 40
0.0
 40
0.2475825929
 40
1.0
 40
1.0
 40
1.0
 40
1.0
 10
94.6028201827
 20
53.4001890032
 30
0.0
 10
94.5938689662
 20
53.405356741
 30
0.0
 10
94.5585953187
 20
53.4277335229
 30
0.0
 10
94.5272219386
 20
53.4561475972
 30
0.0
 10
94.5065738155
 20
53.4798186819
 30
0.0
  0
SPLINE
  5
318
100
AcDbEntity
  8
0
100
AcDbSpline
 62
7
  6
CONTINUOUS
 70
0
 71
3
 72
11
 73
7
 74
0
 42
0.0000001
 43
0.0000001
 44
0.0000000001
 40
0.0
 40
0.0
 40
0.0
 40
0.0
 40
0.2177651606
 40
0.4508956102
 40
0.7103690052
 40
1.0
 40
1.0
 40
1.0
 40
1.0
 10
71.2238806567
 20
40.0982063322
 30
0.0
 10
71.1496838969
 20
40.141082191
 30
0.0
 10
71.0107463624
 20
40.2577081917
 30
0.0
 10
70.8629307385
 20
40.4995025459
 30
0.0
 10
70.7751790461
 20
40.7973976583
 30
0.0
 10
70.7578542263
 20
41.0142097862
 30
0.0
 10
70.7578542263
 20
41.1281844027
 30
0.0
  0
SPLINE
  5
319
100
AcDbEntity
  8
0
100
AcDbSpline
 62
7
  6
CONTINUOUS
 70
0
 71
3
 72
9
 73
5
 74
0
 42
0.0000001
 43
0.0000001
 44
0.0000000001
 40
0.0
 40
0.0
 40
0.0
 40
0.0
 40
0.2466337179
 40
1.0
 40
1.0
 40
1.0
 40
1.0
 10
70.9399821162
 20
41.6477419449
 30
0.0
 10
70.929919652
 20
41.6535412271
 30
0.0
 10
70.8902855875
 20
41.6790560521
 30
0.0
 10
70.8560281829
 20
41.71265016
 30
0.0
 10
70.8342106836
 20
41.7406242063
 30
0.0
  0
SPLINE
  5
31A
100
AcDbEntity
  8
0
100
AcDbSpline
 62
7
  6
CONTINUOUS
 70
0
 71
3
 72
17
 73
13
 74
0
 42
0.0000001
 43
0.0000001
 44
0.0000000001
 40
0.0
 40
0.0
 40
0.0
 40
0.0
 40
0.0449373625
 40
0.0918932031
 40
0.1420331084
 40
0.196064557
 40
0.3161434927
 40
0.4503879419
 40
0.5931034067
 40
0.7369915999
 40
0.8746288762
 40
1.0
 40
1.0
 40
1.0
 40
1.0
 10
63.6463777572
 20
88.9325013619
 30
0.0
 10
63.7415388009
 20
88.9874624891
 30
0.0
 10
63.9230304883
 20
89.124138324
 30
0.0
 10
64.1474358208
 20
89.3925763279
 30
0.0
 10
64.324161557
 20
89.7196642591
 30
0.0
 10
64.4982534146
 20
90.2420354017
 30
0.0
 10
64.5710179341
 20
91.00211296
 30
0.0
 10
64.4485060828
 20
91.9712480822
 30
0.0
 10
64.1297389239
 20
92.9558462346
 30
0.0
 10
63.6370575169
 20
93.8755067654
 30
0.0
 10
63.0078137162
 20
94.6540418669
 30
0.0
 10
62.4977745262
 20
95.0590804282
 30
0.0
 10
62.2322584211
 20
95.212372755
 30
0.0
  0
SPLINE
  5
31B
100
AcDbEntity
  8
0
100
AcDbSpline
 62
7
  6
CONTINUOUS
 70
0
 71
3
 72
17
 73
13
 74
0
 42
0.0000001
 43
0.0000001
 44
0.0000000001
 40
0.0
 40
0.0
 40
0.0
 40
0.0
 40
0.0449374083
 40
0.0918932952
 40
0.1420332299
 40
0.1960646795
 40
0.3161435547
 40
0.4503879434
 40
0.593103385
 40
0.7369916201
 40
0.8746289147
 40
1.0
 40
1.0
 40
1.0
 40
1.0
 10
51.1305356063
 20
96.158362694
 30
0.0
 10
51.2256967367
 20
96.2133238956
 30
0.0
 10
51.407188546
 20
96.3499999502
 30
0.0
 10
51.6315940329
 20
96.6184382022
 30
0.0
 10
51.8083198446
 20
96.945526326
 30
0.0
 10
51.9824112391
 20
97.4678975403
 30
0.0
 10
52.055175952
 20
98.2279747519
 30
0.0
 10
51.9326636717
 20
99.197109476
 30
0.0
 10
51.6138970227
 20
100.1817076754
 30
0.0
 10
51.1212151723
 20
101.1013680941
 30
0.0
 10
50.4919715595
 20
101.8799034013
 30
0.0
 10
49.9819323103
 20
102.2849418298
 30
0.0
 10
49.716416286
 20
102.43823411
 30
0.0
  0
SPLINE
  5
31C
100
AcDbEntity
  8
0
100
AcDbSpline
 62
7
  6
CONTINUOUS
 70
0
 71
3
 72
17
 73
13
 74
0
 42
0.0000001
 43
0.0000001
 44
0.0000000001
 40
0.0
 40
0.0
 40
0.0
 40
0.0
 40
0.0449373723
 40
0.0918932455
 40
0.1420331592
 40
0.1960645562
 40
0.3161433311
 40
0.450387549
 40
0.59310311
 40
0.7369916783
 40
0.8746290185
 40
1.0
 40
1.0
 40
1.0
 40
1.0
 10
38.6146934529
 20
103.3842240614
 30
0.0
 10
38.7098545213
 20
103.439185195
 30
0.0
 10
38.8913463238
 20
103.5758610665
 30
0.0
 10
39.1157516231
 20
103.8442992642
 30
0.0
 10
39.2924774275
 20
104.1713871218
 30
0.0
 10
39.4665690805
 20
104.6937578243
 30
0.0
 10
39.5393334532
 20
105.4538342436
 30
0.0
 10
39.4168225579
 20
106.4229687636
 30
0.0
 10
39.0980549418
 20
107.4075674402
 30
0.0
 10
38.605373283
 20
108.3272292695
 30
0.0
 10
37.9761293436
 20
109.1057653158
 30
0.0
 10
37.4660899565
 20
109.5108033112
 30
0.0
 10
37.2005741509
 20
109.664095465
 30
0.0
  0
SPLINE
  5
31D
100
AcDbEntity
  8
0
100
AcDbSpline
 62
7
  6
CONTINUOUS
 70
0
 71
3
 72
17
 73
13
 74
0
 42
0.0000001
 43
0.0000001
 44
0.0000000001
 40
0.0
 40
0.0
 40
0.0
 40
0.0
 40
0.0445341976
 40
0.0899999686
 40
0.1372316973
 40
0.1869114232
 40
0.2951688832
 40
0.4167405059
 40
0.5509151889
 40
0.6952810966
 40
0.8463632334
 40
1.0
 40
1.0
 40
1.0
 40
1.0
 10
87.0224283934
 20
109.1434017872
 30
0.0
 10
87.0224301721
 20
109.0206953833
 30
0.0
 10
86.9999802802
 20
108.7721539914
 30
0.0
 10
86.899524481
 20
108.4057870527
 30
0.0
 10
86.7341823579
 20
108.048174742
 30
0.0
 10
86.4210650819
 20
107.5752995185
 30
0.0
 10
85.8667735421
 20
107.0285630066
 30
0.0
 10
85.0165685833
 20
106.4864232408
 30
0.0
 10
83.9966539226
 20
106.0563247205
 30
0.0
 10
82.8482757088
 20
105.7549460301
 30
0.0
 10
81.6184190945
 20
105.594204784
 30
0.0
 10
80.7765270073
 20
105.5851594473
 30
0.0
 10
80.3537132472
 20
105.6058553461
 30
0.0
  0
SPLINE
  5
31E
100
AcDbEntity
  8
0
100
AcDbSpline
 62
7
  6
CONTINUOUS
 70
0
 71
3
 72
17
 73
13
 74
0
 42
0.0000001
 43
0.0000001
 44
0.0000000001
 40
0.0
 40
0.0
 40
0.0
 40
0.0
 40
0.0445341976
 40
0.0899999686
 40
0.1372316973
 40
0.1869114232
 40
0.2951688832
 40
0.4167405059
 40
0.5509151889
 40
0.6952810966
 40
0.8463632334
 40
1.0
 40
1.0
 40
1.0
 40
1.0
 10
74.5065862583
 20
116.3692631423
 30
0.0
 10
74.506588037
 20
116.2465567383
 30
0.0
 10
74.4841381451
 20
115.9980153464
 30
0.0
 10
74.3836823459
 20
115.6316484077
 30
0.0
 10
74.2183402228
 20
115.274036097
 30
0.0
 10
73.9052229468
 20
114.8011608735
 30
0.0
 10
73.350931407
 20
114.2544243617
 30
0.0
 10
72.5007264482
 20
113.7122845958
 30
0.0
 10
71.4808117875
 20
113.2821860755
 30
0.0
 10
70.3324335737
 20
112.9808073851
 30
0.0
 10
69.1025769594
 20
112.820066139
 30
0.0
 10
68.2606848722
 20
112.8110208023
 30
0.0
 10
67.8378711121
 20
112.8317167011
 30
0.0
  0
SPLINE
  5
31F
100
AcDbEntity
  8
0
100
AcDbSpline
 62
7
  6
CONTINUOUS
 70
0
 71
3
 72
17
 73
13
 74
0
 42
0.0000001
 43
0.0000001
 44
0.0000000001
 40
0.0
 40
0.0
 40
0.0
 40
0.0
 40
0.0445341976
 40
0.0899999686
 40
0.1372316973
 40
0.1869114232
 40
0.2951688832
 40
0.4167405059
 40
0.5509151889
 40
0.6952810966
 40
0.8463632334
 40
1.0
 40
1.0
 40
1.0
 40
1.0
 10
61.9907441232
 20
123.5951244973
 30
0.0
 10
61.9907459019
 20
123.4724180933
 30
0.0
 10
61.96829601
 20
123.2238767014
 30
0.0
 10
61.8678402108
 20
122.8575097627
 30
0.0
 10
61.7024980877
 20
122.4998974521
 30
0.0
 10
61.3893808117
 20
122.0270222285
 30
0.0
 10
60.8350892719
 20
121.4802857167
 30
0.0
 10
59.9848843131
 20
120.9381459508
 30
0.0
 10
58.9649696524
 20
120.5080474305
 30
0.0
 10
57.8165914386
 20
120.2066687401
 30
0.0
 10
56.5867348243
 20
120.045927494
 30
0.0
 10
55.7448427371
 20
120.0368821573
 30
0.0
 10
55.322028977
 20
120.0575780562
 30
0.0
  0
SPLINE
  5
320
100
AcDbEntity
  8
0
100
AcDbSpline
 62
7
  6
CONTINUOUS
 70
0
 71
3
 72
19
 73
15
 74
0
 42
0.0000001
 43
0.0000001
 44
0.0000000001
 40
0.0
 40
0.0
 40
0.0
 40
0.0
 40
0.0391482224
 40
0.0800498645
 40
0.1245955879
 40
0.1739868091
 40
0.2287341786
 40
0.2888179693
 40
0.3538214225
 40
0.4230226223
 40
0.5700685576
 40
0.7213197445
 40
0.8673995237
 40
1.0
 40
1.0
 40
1.0
 40
1.0
 10
63.9504075956
 20
32.1005460834
 30
0.0
 10
64.02949697
 20
32.1462271561
 30
0.0
 10
64.1784806401
 20
32.2638019621
 30
0.0
 10
64.3494533429
 20
32.5028245121
 30
0.0
 10
64.467317408
 20
32.7971858279
 30
0.0
 10
64.531491647
 20
33.1398621273
 30
0.0
 10
64.5423037875
 20
33.524118577
 30
0.0
 10
64.5000472203
 20
33.9425120104
 30
0.0
 10
64.405644842
 20
34.3866584437
 30
0.0
 10
64.2087915969
 20
35.0134251666
 30
0.0
 10
63.846507192
 20
35.7950075046
 30
0.0
 10
63.2708264603
 20
36.6620168927
 30
0.0
 10
62.5900889058
 20
37.4041986336
 30
0.0
 10
62.0673790968
 20
37.8003370378
 30
0.0
 10
61.7994632865
 20
37.9550148038
 30
0.0
  0
SPLINE
  5
321
100
AcDbEntity
  8
0
100
AcDbSpline
 62
7
  6
CONTINUOUS
 70
0
 71
3
 72
9
 73
5
 74
0
 42
0.0000001
 43
0.0000001
 44
0.0000000001
 40
0.0
 40
0.0
 40
0.0
 40
0.0
 40
0.4499696819
 40
1.0
 40
1.0
 40
1.0
 40
1.0
 10
53.6188568664
 20
56.1810100821
 30
0.0
 10
53.6323643001
 20
56.1732116895
 30
0.0
 10
53.6692885866
 20
56.1678097191
 30
0.0
 10
53.70234017
 20
56.1813930497
 30
0.0
 10
53.718851958
 20
56.1909244082
 30
0.0
  0
SPLINE
  5
322
100
AcDbEntity
  8
0
100
AcDbSpline
 62
7
  6
CONTINUOUS
 70
0
 71
3
 72
9
 73
5
 74
0
 42
0.0000001
 43
0.0000001
 44
0.0000000001
 40
0.0
 40
0.0
 40
0.0
 40
0.0
 40
0.4499595182
 40
1.0
 40
1.0
 40
1.0
 40
1.0
 10
16.0713304534
 20
77.8585941516
 30
0.0
 10
16.0578201334
 20
77.866394192
 30
0.0
 10
16.034675599
 20
77.8956794121
 30
0.0
 10
16.0299155047
 20
77.9311033111
 30
0.0
 10
16.0299155047
 20
77.950173464
 30
0.0
  0
SPLINE
  5
323
100
AcDbEntity
  8
0
100
AcDbSpline
 62
7
  6
CONTINUOUS
 70
0
 71
3
 72
9
 73
5
 74
0
 42
0.0000001
 43
0.0000001
 44
0.0000000001
 40
0.0
 40
0.0
 40
0.0
 40
0.0
 40
0.2531882254
 40
1.0
 40
1.0
 40
1.0
 40
1.0
 10
58.8184077988
 20
50.1627161246
 30
0.0
 10
58.8266486868
 20
50.1606660886
 30
0.0
 10
58.8589165771
 20
50.15148632
 30
0.0
 10
58.8899239037
 20
50.1378315476
 30
0.0
 10
58.9116260582
 20
50.1253239833
 30
0.0
  0
SPLINE
  5
324
100
AcDbEntity
  8
0
100
AcDbSpline
 62
7
  6
CONTINUOUS
 70
0
 71
3
 72
9
 73
5
 74
0
 42
0.0000001
 43
0.0000001
 44
0.0000000001
 40
0.0
 40
0.0
 40
0.0
 40
0.0
 40
0.2531882254
 40
1.0
 40
1.0
 40
1.0
 40
1.0
 10
79.7473681292
 20
71.9590042467
 30
0.0
 10
79.7556090172
 20
71.9569542107
 30
0.0
 10
79.7878769075
 20
71.9477744421
 30
0.0
 10
79.8188842341
 20
71.9341196697
 30
0.0
 10
79.8405863886
 20
71.9216121054
 30
0.0
  0
SPLINE
  5
325
100
AcDbEntity
  8
0
100
AcDbSpline
 62
7
  6
CONTINUOUS
 70
0
 71
3
 72
9
 73
5
 74
0
 42
0.0000001
 43
0.0000001
 44
0.0000000001
 40
0.0
 40
0.0
 40
0.0
 40
0.0
 40
0.2531882254
 40
1.0
 40
1.0
 40
1.0
 40
1.0
 10
93.5377260155
 20
104.0879005517
 30
0.0
 10
93.5459669035
 20
104.0858505158
 30
0.0
 10
93.5782347938
 20
104.0766707472
 30
0.0
 10
93.6092421204
 20
104.0630159748
 30
0.0
 10
93.6309442749
 20
104.0505084105
 30
0.0
  0
SPLINE
  5
326
100
AcDbEntity
  8
0
100
AcDbSpline
 62
7
  6
CONTINUOUS
 70
0
 71
3
 72
9
 73
5
 74
0
 42
0.0000001
 43
0.0000001
 44
0.0000000001
 40
0.0
 40
0.0
 40
0.0
 40
0.0
 40
0.2531882254
 40
1.0
 40
1.0
 40
1.0
 40
1.0
 10
71.8967010315
 20
43.5037195806
 30
0.0
 10
71.9049419196
 20
43.5016695446
 30
0.0
 10
71.9372098099
 20
43.492489776
 30
0.0
 10
71.9682171365
 20
43.4788350036
 30
0.0
 10
71.989919291
 20
43.4663274393
 30
0.0
  0
SPLINE
  5
327
100
AcDbEntity
  8
0
100
AcDbSpline
 62
7
  6
CONTINUOUS
 70
0
 71
3
 72
11
 73
7
 74
0
 42
0.0000001
 43
0.0000001
 44
0.0000000001
 40
0.0
 40
0.0
 40
0.0
 40
0.0
 40
0.2798270015
 40
0.5354633788
 40
0.7721980079
 40
1.0
 40
1.0
 40
1.0
 40
1.0
 10
62.2322584211
 20
95.212372755
 30
0.0
 10
62.0730728126
 20
95.3042765298
 30
0.0
 10
61.7513887874
 20
95.4534165963
 30
0.0
 10
61.2502082906
 20
95.5596934872
 30
0.0
 10
60.7716458344
 20
95.5307014755
 30
0.0
 10
60.4814188889
 20
95.4190486614
 30
0.0
 10
60.351840351
 20
95.3442115375
 30
0.0
  0
SPLINE
  5
328
100
AcDbEntity
  8
0
100
AcDbSpline
 62
7
  6
CONTINUOUS
 70
0
 71
3
 72
11
 73
7
 74
0
 42
0.0000001
 43
0.0000001
 44
0.0000000001
 40
0.0
 40
0.0
 40
0.0
 40
0.0
 40
0.2798269597
 40
0.5354633288
 40
0.7721979817
 40
1.0
 40
1.0
 40
1.0
 40
1.0
 10
49.716416286
 20
102.43823411
 30
0.0
 10
49.5572307034
 20
102.5301378698
 30
0.0
 10
49.2355467456
 20
102.6792779977
 30
0.0
 10
48.7343662495
 20
102.7855548152
 30
0.0
 10
48.2558037856
 20
102.756562813
 30
0.0
 10
47.965576787
 20
102.644910041
 30
0.0
 10
47.8359982393
 20
102.5700729037
 30
0.0
  0
SPLINE
  5
329
100
AcDbEntity
  8
0
100
AcDbSpline
 62
7
  6
CONTINUOUS
 70
0
 71
3
 72
11
 73
7
 74
0
 42
0.0000001
 43
0.0000001
 44
0.0000000001
 40
0.0
 40
0.0
 40
0.0
 40
0.0
 40
0.2798274862
 40
0.5354636463
 40
0.7721979975
 40
1.0
 40
1.0
 40
1.0
 40
1.0
 10
37.2005741509
 20
109.664095465
 30
0.0
 10
37.041388261
 20
109.7559994022
 30
0.0
 10
36.719704068
 20
109.9051395569
 30
0.0
 10
36.2185235437
 20
110.0114164518
 30
0.0
 10
35.7399613969
 20
109.982424118
 30
0.0
 10
35.4497346829
 20
109.8707712704
 30
0.0
 10
35.3201561003
 20
109.7959341996
 30
0.0
  0
SPLINE
  5
32A
100
AcDbEntity
  8
0
100
AcDbSpline
 62
7
  6
CONTINUOUS
 70
0
 71
3
 72
9
 73
5
 74
0
 42
0.0000001
 43
0.0000001
 44
0.0000000001
 40
0.0
 40
0.0
 40
0.0
 40
0.0
 40
0.5282188942
 40
1.0
 40
1.0
 40
1.0
 40
1.0
 10
61.7994632865
 20
37.9550148038
 30
0.0
 10
61.6521858825
 20
38.040043529
 30
0.0
 10
61.3615394395
 20
38.1818537432
 30
0.0
 10
61.0488449803
 20
38.2691943924
 30
0.0
 10
60.8986706114
 20
38.2919601602
 30
0.0
  0
SPLINE
  5
32B
100
AcDbEntity
  8
0
100
AcDbSpline
 62
7
  6
CONTINUOUS
 70
0
 71
3
 72
9
 73
5
 74
0
 42
0.0000001
 43
0.0000001
 44
0.0000000001
 40
0.0
 40
0.0
 40
0.0
 40
0.0
 40
0.5238468844
 40
1.0
 40
1.0
 40
1.0
 40
1.0
 10
26.9921845913
 20
67.9434066685
 30
0.0
 10
26.2441643394
 20
68.3207584118
 30
0.0
 10
24.8245277113
 20
69.0576857984
 30
0.0
 10
23.4246844551
 20
69.8318203668
 30
0.0
 10
22.7651737747
 20
70.2125804217
 30
0.0
  0
SPLINE
  5
32C
100
AcDbEntity
  8
0
100
AcDbSpline
 62
7
  6
CONTINUOUS
 70
0
 71
3
 72
11
 73
7
 74
0
 42
0.0000001
 43
0.0000001
 44
0.0000000001
 40
0.0
 40
0.0
 40
0.0
 40
0.0
 40
0.3005044385
 40
0.5698487567
 40
0.8040874463
 40
1.0
 40
1.0
 40
1.0
 40
1.0
 10
22.7651737747
 20
70.2125804217
 30
0.0
 10
22.4724285923
 20
70.381593108
 30
0.0
 10
21.9199691893
 20
70.706767212
 30
0.0
 10
21.1502574846
 20
71.1819857853
 30
0.0
 10
20.492063736
 20
71.6133276357
 30
0.0
 10
20.0970154869
 20
71.8930900389
 30
0.0
 10
19.9210873399
 20
72.0258142137
 30
0.0
  0
SPLINE
  5
32D
100
AcDbEntity
  8
0
100
AcDbSpline
 62
7
  6
CONTINUOUS
 70
0
 71
3
 72
15
 73
11
 74
0
 42
0.0000001
 43
0.0000001
 44
0.0000000001
 40
0.0
 40
0.0
 40
0.0
 40
0.0
 40
0.1130700546
 40
0.2239080327
 40
0.3357486374
 40
0.4518778927
 40
0.5749225631
 40
0.7067293621
 40
0.8483961473
 40
1.0
 40
1.0
 40
1.0
 40
1.0
 10
27.8353405968
 20
56.0593920893
 30
0.0
 10
27.604739002
 20
56.0989031788
 30
0.0
 10
27.1541588282
 20
56.2224175908
 30
0.0
 10
26.5339025824
 20
56.5469279426
 30
0.0
 10
25.9935609538
 20
57.0020395962
 30
0.0
 10
25.5430937023
 20
57.5777383175
 30
0.0
 10
25.1881530325
 20
58.2627505583
 30
0.0
 10
24.933042235
 20
59.0458763953
 30
0.0
 10
24.7804936596
 20
59.9145654769
 30
0.0
 10
24.7488625745
 20
60.5221063875
 30
0.0
 10
24.7488625745
 20
60.8358016632
 30
0.0
  0
SPLINE
  5
32E
100
AcDbEntity
  8
0
100
AcDbSpline
 62
7
  6
CONTINUOUS
 70
0
 71
3
 72
11
 73
7
 74
0
 42
0.0000001
 43
0.0000001
 44
0.0000000001
 40
0.0
 40
0.0
 40
0.0
 40
0.0
 40
0.3005044385
 40
0.5698487567
 40
0.8040874463
 40
1.0
 40
1.0
 40
1.0
 40
1.0
 10
35.2810159098
 20
62.9867190667
 30
0.0
 10
34.9882707274
 20
63.1557317529
 30
0.0
 10
34.4358113244
 20
63.480905857
 30
0.0
 10
33.6660996197
 20
63.9561244303
 30
0.0
 10
33.0079058711
 20
64.3874662807
 30
0.0
 10
32.612857622
 20
64.6672286839
 30
0.0
 10
32.436929475
 20
64.7999528587
 30
0.0
  0
SPLINE
  5
32F
100
AcDbEntity
  8
0
100
AcDbSpline
 62
7
  6
CONTINUOUS
 70
0
 71
3
 72
9
 73
5
 74
0
 42
0.0000001
 43
0.0000001
 44
0.0000000001
 40
0.0
 40
0.0
 40
0.0
 40
0.0
 40
0.5238468844
 40
1.0
 40
1.0
 40
1.0
 40
1.0
 10
39.5080267265
 20
60.7175453135
 30
0.0
 10
38.7600064745
 20
61.0948970568
 30
0.0
 10
37.3403698464
 20
61.8318244434
 30
0.0
 10
35.9405265902
 20
62.6059590118
 30
0.0
 10
35.2810159098
 20
62.9867190667
 30
0.0
  0
SPLINE
  5
330
100
AcDbEntity
  8
0
100
AcDbSpline
 62
7
  6
CONTINUOUS
 70
0
 71
3
 72
15
 73
11
 74
0
 42
0.0000001
 43
0.0000001
 44
0.0000000001
 40
0.0
 40
0.0
 40
0.0
 40
0.0
 40
0.1130700546
 40
0.2239080327
 40
0.3357486374
 40
0.4518778927
 40
0.5749225631
 40
0.7067293621
 40
0.8483961473
 40
1.0
 40
1.0
 40
1.0
 40
1.0
 10
40.3511827319
 20
48.8335307343
 30
0.0
 10
40.1205811371
 20
48.8730418238
 30
0.0
 10
39.6700009633
 20
48.9965562358
 30
0.0
 10
39.0497447175
 20
49.3210665876
 30
0.0
 10
38.5094030889
 20
49.7761782412
 30
0.0
 10
38.0589358374
 20
50.3518769625
 30
0.0
 10
37.7039951676
 20
51.0368892033
 30
0.0
 10
37.4488843701
 20
51.8200150403
 30
0.0
 10
37.2963357947
 20
52.6887041219
 30
0.0
 10
37.2647047096
 20
53.2962450325
 30
0.0
 10
37.2647047096
 20
53.6099403082
 30
0.0
  0
SPLINE
  5
331
100
AcDbEntity
  8
0
100
AcDbSpline
 62
7
  6
CONTINUOUS
 70
0
 71
3
 72
9
 73
5
 74
0
 42
0.0000001
 43
0.0000001
 44
0.0000000001
 40
0.0
 40
0.0
 40
0.0
 40
0.0
 40
0.4875875623
 40
1.0
 40
1.0
 40
1.0
 40
1.0
 10
44.0138618005
 20
46.606825183
 30
0.0
 10
43.8619469975
 20
46.7590834099
 30
0.0
 10
43.5796637808
 20
47.1015789059
 30
0.0
 10
43.3600669689
 20
47.4865604935
 30
0.0
 10
43.2628668189
 20
47.6906274557
 30
0.0
  0
SPLINE
  5
332
100
AcDbEntity
  8
0
100
AcDbSpline
 62
7
  6
CONTINUOUS
 70
0
 71
3
 72
11
 73
7
 74
0
 42
0.0000001
 43
0.0000001
 44
0.0000000001
 40
0.0
 40
0.0
 40
0.0
 40
0.0
 40
0.2655410505
 40
0.525284646
 40
0.7720733659
 40
1.0
 40
1.0
 40
1.0
 40
1.0
 10
39.5080267264
 20
60.7175453135
 30
0.0
 10
39.1568552345
 20
60.150215302
 30
0.0
 10
38.5289187456
 20
58.9850119686
 30
0.0
 10
37.8211176677
 20
57.1734036067
 30
0.0
 10
37.3771203239
 20
55.3766277825
 30
0.0
 10
37.2647047096
 20
54.1826487067
 30
0.0
 10
37.2647047096
 20
53.6099403082
 30
0.0
  0
SPLINE
  5
333
100
AcDbEntity
  8
0
100
AcDbSpline
 62
7
  6
CONTINUOUS
 70
0
 71
3
 72
9
 73
5
 74
0
 42
0.0000001
 43
0.0000001
 44
0.0000000001
 40
0.0
 40
0.0
 40
0.0
 40
0.0
 40
0.4875875623
 40
1.0
 40
1.0
 40
1.0
 40
1.0
 10
31.4980196654
 20
53.832686538
 30
0.0
 10
31.3461048624
 20
53.9849447649
 30
0.0
 10
31.0638216457
 20
54.3274402609
 30
0.0
 10
30.8442248338
 20
54.7124218485
 30
0.0
 10
30.7470246838
 20
54.9164888107
 30
0.0
  0
SPLINE
  5
334
100
AcDbEntity
  8
0
100
AcDbSpline
 62
7
  6
CONTINUOUS
 70
0
 71
3
 72
11
 73
7
 74
0
 42
0.0000001
 43
0.0000001
 44
0.0000000001
 40
0.0
 40
0.0
 40
0.0
 40
0.0
 40
0.2655410505
 40
0.525284646
 40
0.7720733659
 40
1.0
 40
1.0
 40
1.0
 40
1.0
 10
26.9921845913
 20
67.9434066685
 30
0.0
 10
26.6410130994
 20
67.376076657
 30
0.0
 10
26.0130766105
 20
66.2108733236
 30
0.0
 10
25.3052755326
 20
64.3992649617
 30
0.0
 10
24.8612781888
 20
62.6024891375
 30
0.0
 10
24.7488625745
 20
61.4085100618
 30
0.0
 10
24.7488625745
 20
60.8358016632
 30
0.0
  0
SPLINE
  5
335
100
AcDbEntity
  8
0
100
AcDbSpline
 62
7
  6
CONTINUOUS
 70
0
 71
3
 72
9
 73
5
 74
0
 42
0.0000001
 43
0.0000001
 44
0.0000000001
 40
0.0
 40
0.0
 40
0.0
 40
0.0
 40
0.4875875623
 40
1.0
 40
1.0
 40
1.0
 40
1.0
 10
18.9821775303
 20
61.058547893
 30
0.0
 10
18.8302627273
 20
61.2108061199
 30
0.0
 10
18.5479795106
 20
61.5533016159
 30
0.0
 10
18.3283826987
 20
61.9382832035
 30
0.0
 10
18.2311825487
 20
62.1423501657
 30
0.0
  0
SPLINE
  5
336
100
AcDbEntity
  8
0
100
AcDbSpline
 62
7
  6
CONTINUOUS
 70
0
 71
3
 72
17
 73
13
 74
0
 42
0.0000001
 43
0.0000001
 44
0.0000000001
 40
0.0
 40
0.0
 40
0.0
 40
0.0
 40
0.1286891333
 40
0.2702803493
 40
0.4174326844
 40
0.5617743804
 40
0.6954465661
 40
0.8127104963
 40
0.8646756522
 40
0.91250911
 40
0.9571392634
 40
1.0
 40
1.0
 40
1.0
 40
1.0
 10
97.6276575117
 20
54.7610287957
 30
0.0
 10
97.6276575117
 20
54.5687105194
 30
0.0
 10
97.573853886
 20
54.1643321203
 30
0.0
 10
97.3730506591
 20
53.5705915231
 30
0.0
 10
97.0636130511
 20
52.9986352211
 30
0.0
 10
96.6704293396
 20
52.4953569957
 30
0.0
 10
96.2256211055
 20
52.10140774
 30
0.0
 10
95.8230074297
 20
51.8812531939
 30
0.0
 10
95.508062755
 20
51.7974768125
 30
0.0
 10
95.2913031276
 20
51.781513576
 30
0.0
 10
95.0894638534
 20
51.8110928174
 30
0.0
 10
94.9671756383
 20
51.8619041279
 30
0.0
 10
94.9117166746
 20
51.8939520327
 30
0.0
  0
SPLINE
  5
337
100
AcDbEntity
  8
0
100
AcDbSpline
 62
7
  6
CONTINUOUS
 70
0
 71
3
 72
17
 73
13
 74
0
 42
0.0000001
 43
0.0000001
 44
0.0000000001
 40
0.0
 40
0.0
 40
0.0
 40
0.0
 40
0.1286585904
 40
0.270314267
 40
0.4174301424
 40
0.5617701512
 40
0.6954418627
 40
0.8127138798
 40
0.8646727357
 40
0.912513532
 40
0.9571381545
 40
1.0
 40
1.0
 40
1.0
 40
1.0
 10
59.1291164999
 20
49.6446875977
 30
0.0
 10
59.1291164999
 20
49.5549620679
 30
0.0
 10
59.1039600734
 20
49.3662413722
 30
0.0
 10
59.0103237768
 20
49.0891445746
 30
0.0
 10
58.8658435624
 20
48.8222576018
 30
0.0
 10
58.682411456
 20
48.5873937559
 30
0.0
 10
58.4748280133
 20
48.4035724119
 30
0.0
 10
58.2869652674
 20
48.3007668998
 30
0.0
 10
58.139972943
 20
48.2617484609
 30
0.0
 10
58.0388275033
 20
48.254223665
 30
0.0
 10
57.944639185
 20
48.268103267
 30
0.0
 10
57.8875871595
 20
48.2918125813
 30
0.0
 10
57.8616888835
 20
48.3067384889
 30
0.0
  0
SPLINE
  5
338
100
AcDbEntity
  8
0
100
AcDbSpline
 62
7
  6
CONTINUOUS
 70
0
 71
3
 72
10
 73
6
 74
0
 42
0.0000001
 43
0.0000001
 44
0.0000000001
 40
0.0
 40
0.0
 40
0.0
 40
0.0
 40
0.4643063886
 40
0.723009108
 40
1.0
 40
1.0
 40
1.0
 40
1.0
 10
55.4218413621
 20
44.0932967945
 30
0.0
 10
55.2388254191
 20
44.3784048065
 30
0.0
 10
55.0407490691
 20
44.8803741104
 30
0.0
 10
54.9152684209
 20
45.5996137852
 30
0.0
 10
54.8948855897
 20
45.9912320927
 30
0.0
 10
54.8948855897
 20
46.1933461939
 30
0.0
  0
SPLINE
  5
339
100
AcDbEntity
  8
0
100
AcDbSpline
 62
7
  6
CONTINUOUS
 70
0
 71
3
 72
9
 73
5
 74
0
 42
0.0000001
 43
0.0000001
 44
0.0000000001
 40
0.0
 40
0.0
 40
0.0
 40
0.0
 40
0.2677258092
 40
1.0
 40
1.0
 40
1.0
 40
1.0
 10
59.9776411046
 20
50.1345805823
 30
0.0
 10
59.9776411046
 20
50.1849741759
 30
0.0
 10
59.9708575451
 20
50.3729719405
 30
0.0
 10
59.935699667
 20
50.5612105689
 30
0.0
 10
59.8880878848
 20
50.6905610414
 30
0.0
  0
SPLINE
  5
33A
100
AcDbEntity
  8
0
100
AcDbSpline
 62
7
  6
CONTINUOUS
 70
0
 71
3
 72
11
 73
7
 74
0
 42
0.0000001
 43
0.0000001
 44
0.0000000001
 40
0.0
 40
0.0
 40
0.0
 40
0.0
 40
0.217727726
 40
0.4508670227
 40
0.7104594228
 40
1.0
 40
1.0
 40
1.0
 40
1.0
 10
95.7027532603
 20
55.305371782
 30
0.0
 10
95.7390291359
 20
55.2844289064
 30
0.0
 10
95.8069613467
 20
55.2274275844
 30
0.0
 10
95.8792478055
 20
55.1092057501
 30
0.0
 10
95.9220936566
 20
54.9635469029
 30
0.0
 10
95.9306009424
 20
54.8575518522
 30
0.0
 10
95.9306009424
 20
54.8018489619
 30
0.0
  0
SPLINE
  5
33B
100
AcDbEntity
  8
0
100
AcDbSpline
 62
7
  6
CONTINUOUS
 70
0
 71
3
 72
17
 73
13
 74
0
 42
0.0000001
 43
0.0000001
 44
0.0000000001
 40
0.0
 40
0.0
 40
0.0
 40
0.0
 40
0.1286891333
 40
0.2702803493
 40
0.4174326844
 40
0.5617743804
 40
0.6954465661
 40
0.8127104963
 40
0.8646756522
 40
0.91250911
 40
0.9571392634
 40
1.0
 40
1.0
 40
1.0
 40
1.0
 10
95.5808464777
 20
103.5494640663
 30
0.0
 10
95.5808464777
 20
103.35714579
 30
0.0
 10
95.527042852
 20
102.9527673909
 30
0.0
 10
95.3262396251
 20
102.3590267937
 30
0.0
 10
95.0168020171
 20
101.7870704917
 30
0.0
 10
94.6236183056
 20
101.2837922663
 30
0.0
 10
94.1788100715
 20
100.8898430106
 30
0.0
 10
93.7761963958
 20
100.6696884645
 30
0.0
 10
93.461251721
 20
100.5859120831
 30
0.0
 10
93.2444920937
 20
100.5699488466
 30
0.0
 10
93.0426528195
 20
100.599528088
 30
0.0
 10
92.9203646043
 20
100.6503393986
 30
0.0
 10
92.8649056407
 20
100.6823873034
 30
0.0
  0
SPLINE
  5
33C
100
AcDbEntity
  8
0
100
AcDbSpline
 62
7
  6
CONTINUOUS
 70
0
 71
3
 72
16
 73
12
 74
0
 42
0.0000001
 43
0.0000001
 44
0.0000000001
 40
0.0
 40
0.0
 40
0.0
 40
0.0
 40
0.1287410646
 40
0.2704217334
 40
0.4176260079
 40
0.5620272452
 40
0.6957527047
 40
0.8130676178
 40
0.9124709781
 40
0.9571206991
 40
1.0
 40
1.0
 40
1.0
 40
1.0
 10
69.9125364123
 20
84.0374645055
 30
0.0
 10
69.9125364123
 20
83.9434459919
 30
0.0
 10
69.8862125218
 20
83.7457372428
 30
0.0
 10
69.7880712266
 20
83.4554508835
 30
0.0
 10
69.6367291005
 20
83.1758331888
 30
0.0
 10
69.4446286009
 20
82.9298096241
 30
0.0
 10
69.2268257269
 20
82.7371734303
 30
0.0
 10
69.0002393142
 20
82.6128719343
 30
0.0
 10
68.8079022341
 20
82.5753477113
 30
0.0
 10
68.6716339725
 20
82.5952479611
 30
0.0
 10
68.6118752998
 20
82.6201483811
 30
0.0
 10
68.5847554855
 20
82.6358042682
 30
0.0
  0
SPLINE
  5
33D
100
AcDbEntity
  8
0
100
AcDbSpline
 62
7
  6
CONTINUOUS
 70
0
 71
3
 72
9
 73
5
 74
0
 42
0.0000001
 43
0.0000001
 44
0.0000000001
 40
0.0
 40
0.0
 40
0.0
 40
0.0
 40
0.2677258092
 40
1.0
 40
1.0
 40
1.0
 40
1.0
 10
70.7257058251
 20
84.5069452824
 30
0.0
 10
70.7257058251
 20
84.557338876
 30
0.0
 10
70.7189222656
 20
84.7453366406
 30
0.0
 10
70.6837643875
 20
84.933575269
 30
0.0
 10
70.6361526053
 20
85.0629257415
 30
0.0
  0
SPLINE
  5
33E
100
AcDbEntity
  8
0
100
AcDbSpline
 62
7
  6
CONTINUOUS
 70
0
 71
3
 72
11
 73
7
 74
0
 42
0.0000001
 43
0.0000001
 44
0.0000000001
 40
0.0
 40
0.0
 40
0.0
 40
0.0
 40
0.2177651606
 40
0.4508956102
 40
0.7103690052
 40
1.0
 40
1.0
 40
1.0
 40
1.0
 10
95.1148200473
 20
104.5794421369
 30
0.0
 10
95.1890168071
 20
104.536566278
 30
0.0
 10
95.3279543416
 20
104.4199402774
 30
0.0
 10
95.4757699655
 20
104.1781459232
 30
0.0
 10
95.5635216578
 20
103.8802508107
 30
0.0
 10
95.5808464777
 20
103.6634386828
 30
0.0
 10
95.5808464777
 20
103.5494640663
 30
0.0
  0
SPLINE
  5
33F
100
AcDbEntity
  8
0
100
AcDbSpline
 62
7
  6
CONTINUOUS
 70
0
 71
3
 72
17
 73
13
 74
0
 42
0.0000001
 43
0.0000001
 44
0.0000000001
 40
0.0
 40
0.0
 40
0.0
 40
0.0
 40
0.1286585904
 40
0.270314267
 40
0.4174301424
 40
0.5617701512
 40
0.6954418627
 40
0.8127138798
 40
0.8646727357
 40
0.912513532
 40
0.9571381545
 40
1.0
 40
1.0
 40
1.0
 40
1.0
 10
80.0580768303
 20
71.4409757198
 30
0.0
 10
80.0580768303
 20
71.35125019
 30
0.0
 10
80.0329204038
 20
71.1625294943
 30
0.0
 10
79.9392841072
 20
70.8854326967
 30
0.0
 10
79.7948038927
 20
70.6185457239
 30
0.0
 10
79.6113717863
 20
70.383681878
 30
0.0
 10
79.4037883437
 20
70.199860534
 30
0.0
 10
79.2159255978
 20
70.0970550219
 30
0.0
 10
79.0689332734
 20
70.058036583
 30
0.0
 10
78.9677878337
 20
70.0505117871
 30
0.0
 10
78.8735995154
 20
70.0643913891
 30
0.0
 10
78.8165474899
 20
70.0881007034
 30
0.0
 10
78.7906492138
 20
70.103026611
 30
0.0
  0
SPLINE
  5
340
100
AcDbEntity
  8
0
100
AcDbSpline
 62
7
  6
CONTINUOUS
 70
0
 71
3
 72
9
 73
5
 74
0
 42
0.0000001
 43
0.0000001
 44
0.0000000001
 40
0.0
 40
0.0
 40
0.0
 40
0.0
 40
0.2677258092
 40
1.0
 40
1.0
 40
1.0
 40
1.0
 10
80.9066014349
 20
71.9308687044
 30
0.0
 10
80.9066014349
 20
71.981262298
 30
0.0
 10
80.8998178755
 20
72.1692600626
 30
0.0
 10
80.8646599974
 20
72.357498691
 30
0.0
 10
80.8170482152
 20
72.4868491635
 30
0.0
  0
SPLINE
  5
341
100
AcDbEntity
  8
0
100
AcDbSpline
 62
7
  6
CONTINUOUS
 70
0
 71
3
 72
17
 73
13
 74
0
 42
0.0000001
 43
0.0000001
 44
0.0000000001
 40
0.0
 40
0.0
 40
0.0
 40
0.0
 40
0.1286891333
 40
0.2702803493
 40
0.4174326844
 40
0.5617743804
 40
0.6954465661
 40
0.8127104963
 40
0.8646756522
 40
0.91250911
 40
0.9571392634
 40
1.0
 40
1.0
 40
1.0
 40
1.0
 10
81.7904885914
 20
71.4205677613
 30
0.0
 10
81.7904885914
 20
71.228249485
 30
0.0
 10
81.7366849657
 20
70.8238710858
 30
0.0
 10
81.5358817388
 20
70.2301304887
 30
0.0
 10
81.2264441308
 20
69.6581741867
 30
0.0
 10
80.8332604193
 20
69.1548959613
 30
0.0
 10
80.3884521852
 20
68.7609467056
 30
0.0
 10
79.9858385094
 20
68.5407921594
 30
0.0
 10
79.6708938347
 20
68.4570157781
 30
0.0
 10
79.4541342073
 20
68.4410525416
 30
0.0
 10
79.2522949331
 20
68.470631783
 30
0.0
 10
79.130006718
 20
68.5214430935
 30
0.0
 10
79.0745477544
 20
68.5534909983
 30
0.0
  0
SPLINE
  5
342
100
AcDbEntity
  8
0
100
AcDbSpline
 62
7
  6
CONTINUOUS
 70
0
 71
3
 72
15
 73
11
 74
0
 42
0.0000001
 43
0.0000001
 44
0.0000000001
 40
0.0
 40
0.0
 40
0.0
 40
0.0
 40
0.097662448
 40
0.2097241085
 40
0.3349540434
 40
0.4697297884
 40
0.6090672085
 40
0.7473676273
 40
0.8792459224
 40
1.0
 40
1.0
 40
1.0
 40
1.0
 10
57.761205679
 20
47.1657317285
 30
0.0
 10
57.8899224796
 20
47.1765272482
 30
0.0
 10
58.1625695594
 20
47.248985633
 30
0.0
 10
58.5521344599
 20
47.4661317843
 30
0.0
 10
58.9307760627
 20
47.7844257465
 30
0.0
 10
59.2771215118
 20
48.1857860869
 30
0.0
 10
59.5715640286
 20
48.6470803014
 30
0.0
 10
59.7971158062
 20
49.1416071813
 30
0.0
 10
59.9404123977
 20
49.6403747767
 30
0.0
 10
59.9776411046
 20
49.9748707875
 30
0.0
 10
59.9776411046
 20
50.1345805823
 30
0.0
  0
SPLINE
  5
343
100
AcDbEntity
  8
0
100
AcDbSpline
 62
7
  6
CONTINUOUS
 70
0
 71
3
 72
17
 73
13
 74
0
 42
0.0000001
 43
0.0000001
 44
0.0000000001
 40
0.0
 40
0.0
 40
0.0
 40
0.0
 40
0.1286891333
 40
0.2702803493
 40
0.4174326844
 40
0.5617743804
 40
0.6954465661
 40
0.8127104963
 40
0.8646756522
 40
0.91250911
 40
0.9571392634
 40
1.0
 40
1.0
 40
1.0
 40
1.0
 10
71.6095929815
 20
83.9966443393
 30
0.0
 10
71.6095929815
 20
83.804326063
 30
0.0
 10
71.5557893558
 20
83.3999476638
 30
0.0
 10
71.3549861289
 20
82.8062070667
 30
0.0
 10
71.0455485209
 20
82.2342507647
 30
0.0
 10
70.6523648094
 20
81.7309725393
 30
0.0
 10
70.2075565753
 20
81.3370232836
 30
0.0
 10
69.8049428996
 20
81.1168687374
 30
0.0
 10
69.4899982248
 20
81.0330923561
 30
0.0
 10
69.2732385975
 20
81.0171291196
 30
0.0
 10
69.0713993233
 20
81.046708361
 30
0.0
 10
68.9491111081
 20
81.0975196715
 30
0.0
 10
68.8936521445
 20
81.1295675763
 30
0.0
  0
SPLINE
  5
344
100
AcDbEntity
  8
0
100
AcDbSpline
 62
7
  6
CONTINUOUS
 70
0
 71
3
 72
17
 73
13
 74
0
 42
0.0000001
 43
0.0000001
 44
0.0000000001
 40
0.0
 40
0.0
 40
0.0
 40
0.0
 40
0.1286585904
 40
0.270314267
 40
0.4174301424
 40
0.5617701512
 40
0.6954418627
 40
0.8127138798
 40
0.8646727357
 40
0.912513532
 40
0.9571381545
 40
1.0
 40
1.0
 40
1.0
 40
1.0
 10
93.8484347166
 20
103.5698720248
 30
0.0
 10
93.8484347166
 20
103.480146495
 30
0.0
 10
93.8232782901
 20
103.2914257994
 30
0.0
 10
93.7296419935
 20
103.0143290017
 30
0.0
 10
93.5851617791
 20
102.7474420289
 30
0.0
 10
93.4017296726
 20
102.512578183
 30
0.0
 10
93.19414623
 20
102.328756839
 30
0.0
 10
93.0062834841
 20
102.2259513269
 30
0.0
 10
92.8592911597
 20
102.186932888
 30
0.0
 10
92.75814572
 20
102.1794080921
 30
0.0
 10
92.6639574017
 20
102.1932876941
 30
0.0
 10
92.6069053762
 20
102.2169970085
 30
0.0
 10
92.5810071001
 20
102.2319229161
 30
0.0
  0
SPLINE
  5
345
100
AcDbEntity
  8
0
100
AcDbSpline
 62
7
  6
CONTINUOUS
 70
0
 71
3
 72
9
 73
5
 74
0
 42
0.0000001
 43
0.0000001
 44
0.0000000001
 40
0.0
 40
0.0
 40
0.0
 40
0.0
 40
0.2677258092
 40
1.0
 40
1.0
 40
1.0
 40
1.0
 10
94.6969593213
 20
104.0597650095
 30
0.0
 10
94.6969593213
 20
104.1101586031
 30
0.0
 10
94.6901757618
 20
104.2981563676
 30
0.0
 10
94.6550178837
 20
104.486394996
 30
0.0
 10
94.6074061015
 20
104.6157454685
 30
0.0
  0
SPLINE
  5
346
100
AcDbEntity
  8
0
100
AcDbSpline
 62
7
  6
CONTINUOUS
 70
0
 71
3
 72
15
 73
11
 74
0
 42
0.0000001
 43
0.0000001
 44
0.0000000001
 40
0.0
 40
0.0
 40
0.0
 40
0.0
 40
0.097662448
 40
0.2097241085
 40
0.3349540434
 40
0.4697297884
 40
0.6090672085
 40
0.7473676273
 40
0.8792459224
 40
1.0
 40
1.0
 40
1.0
 40
1.0
 10
92.4805238957
 20
101.0909161556
 30
0.0
 10
92.6092406963
 20
101.1017116753
 30
0.0
 10
92.8818877761
 20
101.1741700602
 30
0.0
 10
93.2714526766
 20
101.3913162114
 30
0.0
 10
93.6500942794
 20
101.7096101736
 30
0.0
 10
93.9964397285
 20
102.110970514
 30
0.0
 10
94.2908822453
 20
102.5722647286
 30
0.0
 10
94.5164340229
 20
103.0667916084
 30
0.0
 10
94.6597306143
 20
103.5655592038
 30
0.0
 10
94.6969593213
 20
103.9000552147
 30
0.0
 10
94.6969593213
 20
104.0597650095
 30
0.0
  0
SPLINE
  5
347
100
AcDbEntity
  8
0
100
AcDbSpline
 62
7
  6
CONTINUOUS
 70
0
 71
3
 72
11
 73
7
 74
0
 42
0.0000001
 43
0.0000001
 44
0.0000000001
 40
0.0
 40
0.0
 40
0.0
 40
0.0
 40
0.2177651606
 40
0.4508956102
 40
0.7103690052
 40
1.0
 40
1.0
 40
1.0
 40
1.0
 10
73.4737950633
 20
43.9952611657
 30
0.0
 10
73.5479918231
 20
43.9523853068
 30
0.0
 10
73.6869293576
 20
43.8357593062
 30
0.0
 10
73.8347449815
 20
43.593964952
 30
0.0
 10
73.9224966739
 20
43.2960698395
 30
0.0
 10
73.9398214937
 20
43.0792577116
 30
0.0
 10
73.9398214937
 20
42.9652830951
 30
0.0
  0
SPLINE
  5
348
100
AcDbEntity
  8
0
100
AcDbSpline
 62
7
  6
CONTINUOUS
 70
0
 71
3
 72
9
 73
5
 74
0
 42
0.0000001
 43
0.0000001
 44
0.0000000001
 40
0.0
 40
0.0
 40
0.0
 40
0.0
 40
0.550041162
 40
1.0
 40
1.0
 40
1.0
 40
1.0
 10
53.57744191
 20
56.2725894018
 30
0.0
 10
53.57744191
 20
56.2535192056
 30
0.0
 10
53.5822016833
 20
56.2180951355
 30
0.0
 10
53.6053465609
 20
56.1888101326
 30
0.0
 10
53.6188568664
 20
56.1810100821
 30
0.0
  0
SPLINE
  5
349
100
AcDbEntity
  8
0
100
AcDbSpline
 62
7
  6
CONTINUOUS
 70
0
 71
3
 72
16
 73
12
 74
0
 42
0.0000001
 43
0.0000001
 44
0.0000000001
 40
0.0
 40
0.0
 40
0.0
 40
0.0
 40
0.1287423347
 40
0.2704249801
 40
0.417638208
 40
0.5620439327
 40
0.6957622448
 40
0.8130688335
 40
0.9124700511
 40
0.9571204075
 40
1.0
 40
1.0
 40
1.0
 40
1.0
 10
95.9306009424
 20
54.8018489619
 30
0.0
 10
95.9306009424
 20
54.7078295409
 30
0.0
 10
95.9042753127
 20
54.5101187147
 30
0.0
 10
95.8061324991
 20
54.2198233839
 30
0.0
 10
95.6547789122
 20
53.9401987903
 30
0.0
 10
95.4626723381
 20
53.6941742403
 30
0.0
 10
95.2448725703
 20
53.5015471605
 30
0.0
 10
95.0182963834
 20
53.3772535743
 30
0.0
 10
94.825966755
 20
53.3397338302
 30
0.0
 10
94.6896989123
 20
53.3596305859
 30
0.0
 10
94.6299397473
 20
53.384532271
 30
0.0
 10
94.6028201827
 20
53.4001890032
 30
0.0
  0
SPLINE
  5
34A
100
AcDbEntity
  8
0
100
AcDbSpline
 62
7
  6
CONTINUOUS
 70
0
 71
3
 72
9
 73
5
 74
0
 42
0.0000001
 43
0.0000001
 44
0.0000000001
 40
0.0
 40
0.0
 40
0.0
 40
0.0
 40
0.2677258092
 40
1.0
 40
1.0
 40
1.0
 40
1.0
 10
96.7437703552
 20
55.2713297389
 30
0.0
 10
96.7437703552
 20
55.3217233324
 30
0.0
 10
96.7369867958
 20
55.509721097
 30
0.0
 10
96.7018289177
 20
55.6979597254
 30
0.0
 10
96.6542171355
 20
55.8273101979
 30
0.0
  0
SPLINE
  5
34B
100
AcDbEntity
  8
0
100
AcDbSpline
 62
7
  6
CONTINUOUS
 70
0
 71
3
 72
11
 73
7
 74
0
 42
0.0000001
 43
0.0000001
 44
0.0000000001
 40
0.0
 40
0.0
 40
0.0
 40
0.0
 40
0.2176899422
 40
0.4508856506
 40
0.7106204681
 40
1.0
 40
1.0
 40
1.0
 40
1.0
 10
93.6309442749
 20
104.0505084105
 30
0.0
 10
93.6655796191
 20
104.0305470838
 30
0.0
 10
93.7303877131
 20
103.9760835486
 30
0.0
 10
93.7994510777
 20
103.8632484569
 30
0.0
 10
93.8402659615
 20
103.7241739589
 30
0.0
 10
93.8484347166
 20
103.6230125947
 30
0.0
 10
93.8484347166
 20
103.5698720248
 30
0.0
  0
SPLINE
  5
34C
100
AcDbEntity
  8
0
100
AcDbSpline
 62
7
  6
CONTINUOUS
 70
0
 71
3
 72
9
 73
5
 74
0
 42
0.0000001
 43
0.0000001
 44
0.0000000001
 40
0.0
 40
0.0
 40
0.0
 40
0.0
 40
0.2310197142
 40
1.0
 40
1.0
 40
1.0
 40
1.0
 10
53.7188767298
 20
56.5175396757
 30
0.0
 10
53.7125295386
 20
56.5138757869
 30
0.0
 10
53.6860344411
 20
56.4963372694
 30
0.0
 10
53.6632263286
 20
56.4735631583
 30
0.0
 10
53.6479386522
 20
56.4545527998
 30
0.0
  0
SPLINE
  5
34D
100
AcDbEntity
  8
0
100
AcDbSpline
 62
7
  6
CONTINUOUS
 70
0
 71
3
 72
9
 73
5
 74
0
 42
0.0000001
 43
0.0000001
 44
0.0000000001
 40
0.0
 40
0.0
 40
0.0
 40
0.0
 40
0.5227358246
 40
1.0
 40
1.0
 40
1.0
 40
1.0
 10
53.6479386522
 20
56.4545527998
 30
0.0
 10
53.6263528373
 20
56.4277106512
 30
0.0
 10
53.5929871339
 20
56.3698037356
 30
0.0
 10
53.57744191
 20
56.3040379781
 30
0.0
 10
53.57744191
 20
56.2725894018
 30
0.0
  0
SPLINE
  5
34E
100
AcDbEntity
  8
0
100
AcDbSpline
 62
7
  6
CONTINUOUS
 70
0
 71
3
 72
17
 73
13
 74
0
 42
0.0000001
 43
0.0000001
 44
0.0000000001
 40
0.0
 40
0.0
 40
0.0
 40
0.0
 40
0.1286585904
 40
0.270314267
 40
0.4174301424
 40
0.5617701512
 40
0.6954418627
 40
0.8127138798
 40
0.8646727357
 40
0.912513532
 40
0.9571381545
 40
1.0
 40
1.0
 40
1.0
 40
1.0
 10
72.2074097326
 20
42.9856910536
 30
0.0
 10
72.2074097326
 20
42.8959655238
 30
0.0
 10
72.1822533061
 20
42.7072448282
 30
0.0
 10
72.0886170096
 20
42.4301480306
 30
0.0
 10
71.9441367951
 20
42.1632610577
 30
0.0
 10
71.7607046887
 20
41.9283972118
 30
0.0
 10
71.553121246
 20
41.7445758679
 30
0.0
 10
71.3652585001
 20
41.6417703557
 30
0.0
 10
71.2182661757
 20
41.6027519168
 30
0.0
 10
71.117120736
 20
41.595227121
 30
0.0
 10
71.0229324178
 20
41.609106723
 30
0.0
 10
70.9658803922
 20
41.6328160373
 30
0.0
 10
70.9399821162
 20
41.6477419449
 30
0.0
  0
SPLINE
  5
34F
100
AcDbEntity
  8
0
100
AcDbSpline
 62
7
  6
CONTINUOUS
 70
0
 71
3
 72
9
 73
5
 74
0
 42
0.0000001
 43
0.0000001
 44
0.0000000001
 40
0.0
 40
0.0
 40
0.0
 40
0.0
 40
0.2677258092
 40
1.0
 40
1.0
 40
1.0
 40
1.0
 10
73.0559343373
 20
43.4755840383
 30
0.0
 10
73.0559343373
 20
43.5259776319
 30
0.0
 10
73.0491507778
 20
43.7139753964
 30
0.0
 10
73.0139928998
 20
43.9022140249
 30
0.0
 10
72.9663811175
 20
44.0315644974
 30
0.0
  0
SPLINE
  5
350
100
AcDbEntity
  8
0
100
AcDbSpline
 62
7
  6
CONTINUOUS
 70
0
 71
3
 72
15
 73
11
 74
0
 42
0.0000001
 43
0.0000001
 44
0.0000000001
 40
0.0
 40
0.0
 40
0.0
 40
0.0
 40
0.097662448
 40
0.2097241085
 40
0.3349540434
 40
0.4697297884
 40
0.6090672085
 40
0.7473676273
 40
0.8792459224
 40
1.0
 40
1.0
 40
1.0
 40
1.0
 10
70.8394989117
 20
40.5067351844
 30
0.0
 10
70.9682157124
 20
40.5175307041
 30
0.0
 10
71.2408627922
 20
40.589989089
 30
0.0
 10
71.6304276926
 20
40.8071352402
 30
0.0
 10
72.0090692954
 20
41.1254292025
 30
0.0
 10
72.3554147446
 20
41.5267895428
 30
0.0
 10
72.6498572613
 20
41.9880837574
 30
0.0
 10
72.8754090389
 20
42.4826106373
 30
0.0
 10
73.0187056304
 20
42.9813782326
 30
0.0
 10
73.0559343373
 20
43.3158742435
 30
0.0
 10
73.0559343373
 20
43.4755840383
 30
0.0
  0
SPLINE
  5
351
100
AcDbEntity
  8
0
100
AcDbSpline
 62
7
  6
CONTINUOUS
 70
0
 71
3
 72
11
 73
7
 74
0
 42
0.0000001
 43
0.0000001
 44
0.0000000001
 40
0.0
 40
0.0
 40
0.0
 40
0.0
 40
0.2176899422
 40
0.4508856506
 40
0.7106204681
 40
1.0
 40
1.0
 40
1.0
 40
1.0
 10
71.989919291
 20
43.4663274393
 30
0.0
 10
72.0245546352
 20
43.4463661126
 30
0.0
 10
72.0893627292
 20
43.3919025774
 30
0.0
 10
72.1584260937
 20
43.2790674857
 30
0.0
 10
72.1992409775
 20
43.1399929877
 30
0.0
 10
72.2074097326
 20
43.0388316236
 30
0.0
 10
72.2074097326
 20
42.9856910536
 30
0.0
  0
SPLINE
  5
352
100
AcDbEntity
  8
0
100
AcDbSpline
 62
7
  6
CONTINUOUS
 70
0
 71
3
 72
11
 73
7
 74
0
 42
0.0000001
 43
0.0000001
 44
0.0000000001
 40
0.0
 40
0.0
 40
0.0
 40
0.0
 40
0.2837542894
 40
0.5405871593
 40
0.7756755317
 40
1.0
 40
1.0
 40
1.0
 40
1.0
 10
61.8002463375
 20
89.0841345478
 30
0.0
 10
61.9588295637
 20
88.9925785508
 30
0.0
 10
62.2769190584
 20
88.8432000452
 30
0.0
 10
62.7698758304
 20
88.7319240498
 30
0.0
 10
63.2379606003
 20
88.7533179466
 30
0.0
 10
63.5210204288
 20
88.8601000955
 30
0.0
 10
63.6463777572
 20
88.9325013619
 30
0.0
  0
SPLINE
  5
353
100
AcDbEntity
  8
0
100
AcDbSpline
 62
7
  6
CONTINUOUS
 70
0
 71
3
 72
9
 73
5
 74
0
 42
0.0000001
 43
0.0000001
 44
0.0000000001
 40
0.0
 40
0.0
 40
0.0
 40
0.0
 40
0.2536295994
 40
1.0
 40
1.0
 40
1.0
 40
1.0
 10
54.3429199753
 20
71.1687063116
 30
0.0
 10
54.255647911
 20
69.9357400713
 30
0.0
 10
53.9507754704
 20
65.0717874757
 30
0.0
 10
53.8048778413
 20
60.197627076
 30
0.0
 10
53.7928639604
 20
56.5602484857
 30
0.0
  0
SPLINE
  5
354
100
AcDbEntity
  8
0
100
AcDbSpline
 62
7
  6
CONTINUOUS
 70
0
 71
3
 72
9
 73
5
 74
0
 42
0.0000001
 43
0.0000001
 44
0.0000000001
 40
0.0
 40
0.0
 40
0.0
 40
0.0
 40
0.25607925
 40
1.0
 40
1.0
 40
1.0
 40
1.0
 10
68.8374438588
 20
94.9686771111
 30
0.0
 10
68.6823119856
 20
93.6112166517
 30
0.0
 10
68.1467861996
 20
88.3026478716
 30
0.0
 10
67.8980487479
 20
82.9638617823
 30
0.0
 10
67.8980467477
 20
78.9947156875
 30
0.0
  0
SPLINE
  5
355
100
AcDbEntity
  8
0
100
AcDbSpline
 62
7
  6
CONTINUOUS
 70
0
 71
3
 72
11
 73
7
 74
0
 42
0.0000001
 43
0.0000001
 44
0.0000000001
 40
0.0
 40
0.0
 40
0.0
 40
0.0
 40
0.2176899422
 40
0.4508856506
 40
0.7106204681
 40
1.0
 40
1.0
 40
1.0
 40
1.0
 10
58.9116260582
 20
50.1253239833
 30
0.0
 10
58.9462614024
 20
50.1053626567
 30
0.0
 10
59.0110694964
 20
50.0508991215
 30
0.0
 10
59.080132861
 20
49.9380640298
 30
0.0
 10
59.1209477448
 20
49.7989895318
 30
0.0
 10
59.1291164999
 20
49.6978281676
 30
0.0
 10
59.1291164999
 20
49.6446875977
 30
0.0
  0
SPLINE
  5
356
100
AcDbEntity
  8
0
100
AcDbSpline
 62
7
  6
CONTINUOUS
 70
0
 71
3
 72
17
 73
13
 74
0
 42
0.0000001
 43
0.0000001
 44
0.0000000001
 40
0.0
 40
0.0
 40
0.0
 40
0.0
 40
0.046206259
 40
0.0942060492
 40
0.1450300935
 40
0.1993451741
 40
0.318984723
 40
0.4521469628
 40
0.5938906681
 40
0.7372897866
 40
0.8748288661
 40
1.0
 40
1.0
 40
1.0
 40
1.0
 10
60.351840351
 20
95.3442115375
 30
0.0
 10
60.253572051
 20
95.2874574094
 30
0.0
 10
60.0661877597
 20
95.1477369256
 30
0.0
 10
59.8329147998
 20
94.8752651083
 30
0.0
 10
59.6485008094
 20
94.5448988072
 30
0.0
 10
59.4671578571
 20
94.0210128599
 30
0.0
 10
59.3914810783
 20
93.260111595
 30
0.0
 10
59.5237109607
 20
92.2934062391
 30
0.0
 10
59.8613567015
 20
91.3166447252
 30
0.0
 10
60.3751584667
 20
90.4079384284
 30
0.0
 10
61.0200476468
 20
89.6398526937
 30
0.0
 10
61.534017285
 20
89.2378384857
 30
0.0
 10
61.8002463375
 20
89.0841345478
 30
0.0
  0
SPLINE
  5
357
100
AcDbEntity
  8
0
100
AcDbSpline
 62
7
  6
CONTINUOUS
 70
0
 71
3
 72
11
 73
7
 74
0
 42
0.0000001
 43
0.0000001
 44
0.0000000001
 40
0.0
 40
0.0
 40
0.0
 40
0.0
 40
0.2837541284
 40
0.540587034
 40
0.7756754861
 40
1.0
 40
1.0
 40
1.0
 40
1.0
 10
49.2844042024
 20
96.3099959028
 30
0.0
 10
49.4429873353
 20
96.2184399597
 30
0.0
 10
49.7610767225
 20
96.0690614337
 30
0.0
 10
50.2540334687
 20
95.9577854794
 30
0.0
 10
50.7221183172
 20
95.9791793118
 30
0.0
 10
51.0051782688
 20
96.0859613904
 30
0.0
 10
51.1305356063
 20
96.158362694
 30
0.0
  0
SPLINE
  5
358
100
AcDbEntity
  8
0
100
AcDbSpline
 62
7
  6
CONTINUOUS
 70
0
 71
3
 72
11
 73
7
 74
0
 42
0.0000001
 43
0.0000001
 44
0.0000000001
 40
0.0
 40
0.0
 40
0.0
 40
0.0
 40
0.2837542909
 40
0.540587071
 40
0.7756754657
 40
1.0
 40
1.0
 40
1.0
 40
1.0
 10
36.7685620673
 20
103.5358572578
 30
0.0
 10
36.9271452916
 20
103.4443012619
 30
0.0
 10
37.2452346945
 20
103.2949227074
 30
0.0
 10
37.7381914346
 20
103.1836467632
 30
0.0
 10
38.2062761817
 20
103.2050406836
 30
0.0
 10
38.4893360852
 20
103.3118227827
 30
0.0
 10
38.6146934529
 20
103.3842240614
 30
0.0
  0
SPLINE
  5
359
100
AcDbEntity
  8
0
100
AcDbSpline
 62
7
  6
CONTINUOUS
 70
0
 71
3
 72
11
 73
7
 74
0
 42
0.0000001
 43
0.0000001
 44
0.0000000001
 40
0.0
 40
0.0
 40
0.0
 40
0.0
 40
0.2177651606
 40
0.4508956102
 40
0.7103690052
 40
1.0
 40
1.0
 40
1.0
 40
1.0
 10
71.1435665511
 20
85.0266224098
 30
0.0
 10
71.2177633109
 20
84.983746551
 30
0.0
 10
71.3567008454
 20
84.8671205503
 30
0.0
 10
71.5045164693
 20
84.6253261961
 30
0.0
 10
71.5922681616
 20
84.3274310837
 30
0.0
 10
71.6095929815
 20
84.1106189558
 30
0.0
 10
71.6095929815
 20
83.9966443393
 30
0.0
  0
SPLINE
  5
35A
100
AcDbEntity
  8
0
100
AcDbSpline
 62
7
  6
CONTINUOUS
 70
0
 71
3
 72
17
 73
13
 74
0
 42
0.0000001
 43
0.0000001
 44
0.0000000001
 40
0.0
 40
0.0
 40
0.0
 40
0.0
 40
0.0462062778
 40
0.0942060867
 40
0.145030144
 40
0.199345228
 40
0.3189847699
 40
0.452146997
 40
0.5938906962
 40
0.7372898263
 40
0.8748288914
 40
1.0
 40
1.0
 40
1.0
 40
1.0
 10
47.8359982393
 20
102.5700729037
 30
0.0
 10
47.7377299017
 20
102.5133187479
 30
0.0
 10
47.550345539
 20
102.3735981993
 30
0.0
 10
47.3170725406
 20
102.1011262502
 30
0.0
 10
47.1326585154
 20
101.7707598673
 30
0.0
 10
46.9513156606
 20
101.2468738569
 30
0.0
 10
46.875638969
 20
100.4859726311
 30
0.0
 10
47.0078688901
 20
99.5192673453
 30
0.0
 10
47.3455146362
 20
98.5425058423
 30
0.0
 10
47.8593165097
 20
97.6337996326
 30
0.0
 10
48.504205602
 20
96.8657139116
 30
0.0
 10
49.0181752029
 20
96.4636998101
 30
0.0
 10
49.2844042024
 20
96.3099959028
 30
0.0
  0
SPLINE
  5
35B
100
AcDbEntity
  8
0
100
AcDbSpline
 62
7
  6
CONTINUOUS
 70
0
 71
3
 72
12
 73
8
 74
0
 42
0.0000001
 43
0.0000001
 44
0.0000000001
 40
0.0
 40
0.0
 40
0.0
 40
0.0
 40
0.3007045398
 40
0.5640708227
 40
0.7930523596
 40
0.8983210729
 40
1.0
 40
1.0
 40
1.0
 40
1.0
 10
62.2307465702
 20
32.3251974341
 30
0.0
 10
62.3878334696
 20
32.2345053222
 30
0.0
 10
62.6953539036
 20
32.0846090875
 30
0.0
 10
63.1601542067
 20
31.9580535931
 30
0.0
 10
63.526556681
 20
31.9538491518
 30
0.0
 10
63.7828957318
 20
32.01776556
 30
0.0
 10
63.8972966819
 20
32.0698698576
 30
0.0
 10
63.9504075956
 20
32.1005460834
 30
0.0
  0
SPLINE
  5
35C
100
AcDbEntity
  8
0
100
AcDbSpline
 62
7
  6
CONTINUOUS
 70
0
 71
3
 72
17
 73
13
 74
0
 42
0.0000001
 43
0.0000001
 44
0.0000000001
 40
0.0
 40
0.0
 40
0.0
 40
0.0
 40
0.0462062155
 40
0.0942059964
 40
0.1450300178
 40
0.1993450469
 40
0.318984552
 40
0.4521467202
 40
0.5938904631
 40
0.7372898059
 40
0.8748289519
 40
1.0
 40
1.0
 40
1.0
 40
1.0
 10
35.3201561003
 20
109.7959341996
 30
0.0
 10
35.2218878669
 20
109.7391801698
 30
0.0
 10
35.0345034671
 20
109.5994600236
 30
0.0
 10
34.8012308754
 20
109.3269880925
 30
0.0
 10
34.6168169703
 20
108.9966220362
 30
0.0
 10
34.4354734707
 20
108.4727365779
 30
0.0
 10
34.3597967803
 20
107.7118356428
 30
0.0
 10
34.4920264743
 20
106.7451305146
 30
0.0
 10
34.8296719559
 20
105.7683683909
 30
0.0
 10
35.3434741201
 20
104.8596613818
 30
0.0
 10
35.9883634594
 20
104.0915750944
 30
0.0
 10
36.5023331969
 20
103.6895610906
 30
0.0
 10
36.7685620673
 20
103.5358572578
 30
0.0
  0
SPLINE
  5
35D
100
AcDbEntity
  8
0
100
AcDbSpline
 62
7
  6
CONTINUOUS
 70
0
 71
3
 72
11
 73
7
 74
0
 42
0.0000001
 43
0.0000001
 44
0.0000000001
 40
0.0
 40
0.0
 40
0.0
 40
0.0
 40
0.2177651606
 40
0.4508956102
 40
0.7103690052
 40
1.0
 40
1.0
 40
1.0
 40
1.0
 10
60.3955018306
 20
50.6542577097
 30
0.0
 10
60.4696985904
 20
50.6113818509
 30
0.0
 10
60.6086361249
 20
50.4947558502
 30
0.0
 10
60.7564517488
 20
50.252961496
 30
0.0
 10
60.8442034412
 20
49.9550663836
 30
0.0
 10
60.861528261
 20
49.7382542557
 30
0.0
 10
60.861528261
 20
49.6242796392
 30
0.0
  0
SPLINE
  5
35E
100
AcDbEntity
  8
0
100
AcDbSpline
 62
7
  6
CONTINUOUS
 70
0
 71
3
 72
20
 73
16
 74
0
 42
0.0000001
 43
0.0000001
 44
0.0000000001
 40
0.0
 40
0.0
 40
0.0
 40
0.0
 40
0.0428544196
 40
0.0874574422
 40
0.1352565307
 40
0.1871877797
 40
0.2436593774
 40
0.3046417723
 40
0.3697655573
 40
0.4384022136
 40
0.5826509606
 40
0.7297084189
 40
0.8711967832
 40
0.9376014833
 40
1.0
 40
1.0
 40
1.0
 40
1.0
 10
74.7239922944
 20
109.1434019493
 30
0.0
 10
74.7240321511
 20
109.3185470144
 30
0.0
 10
74.7707010104
 20
109.6775204074
 30
0.0
 10
74.9766750363
 20
110.1957325026
 30
0.0
 10
75.3107315601
 20
110.6868438018
 30
0.0
 10
75.763322513
 20
111.1414070319
 30
0.0
 10
76.3242588839
 20
111.551173681
 30
0.0
 10
76.9814297712
 20
111.9085532548
 30
0.0
 10
77.721147809
 20
112.2065984156
 30
0.0
 10
78.8145050054
 20
112.5214905664
 30
0.0
 10
80.2797918136
 20
112.7270309199
 30
0.0
 10
82.0552938892
 20
112.6779808908
 30
0.0
 10
83.486843442
 20
112.3916256217
 30
0.0
 10
84.5269869579
 20
112.0147178521
 30
0.0
 10
85.0005188681
 20
111.7813178001
 30
0.0
 10
85.2213750968
 20
111.6538092816
 30
0.0
  0
SPLINE
  5
35F
100
AcDbEntity
  8
0
100
AcDbSpline
 62
7
  6
CONTINUOUS
 70
0
 71
3
 72
20
 73
16
 74
0
 42
0.0000001
 43
0.0000001
 44
0.0000000001
 40
0.0
 40
0.0
 40
0.0
 40
0.0
 40
0.0428544196
 40
0.0874574422
 40
0.1352565307
 40
0.1871877797
 40
0.2436593774
 40
0.3046417723
 40
0.3697655573
 40
0.4384022136
 40
0.5826509606
 40
0.7297084189
 40
0.8711967832
 40
0.9376014833
 40
1.0
 40
1.0
 40
1.0
 40
1.0
 10
62.2081501593
 20
116.3692633043
 30
0.0
 10
62.208190016
 20
116.5444083694
 30
0.0
 10
62.2548588753
 20
116.9033817624
 30
0.0
 10
62.4608329012
 20
117.4215938576
 30
0.0
 10
62.794889425
 20
117.9127051568
 30
0.0
 10
63.2474803779
 20
118.3672683869
 30
0.0
 10
63.8084167488
 20
118.777035036
 30
0.0
 10
64.4655876361
 20
119.1344146098
 30
0.0
 10
65.2053056739
 20
119.4324597706
 30
0.0
 10
66.2986628703
 20
119.7473519214
 30
0.0
 10
67.7639496785
 20
119.952892275
 30
0.0
 10
69.5394517541
 20
119.9038422458
 30
0.0
 10
70.9710013069
 20
119.6174869768
 30
0.0
 10
72.0111448228
 20
119.2405792071
 30
0.0
 10
72.484676733
 20
119.0071791551
 30
0.0
 10
72.7055329617
 20
118.8796706366
 30
0.0
  0
SPLINE
  5
360
100
AcDbEntity
  8
0
100
AcDbSpline
 62
7
  6
CONTINUOUS
 70
0
 71
3
 72
20
 73
16
 74
0
 42
0.0000001
 43
0.0000001
 44
0.0000000001
 40
0.0
 40
0.0
 40
0.0
 40
0.0
 40
0.0428544196
 40
0.0874574422
 40
0.1352565307
 40
0.1871877797
 40
0.2436593774
 40
0.3046417723
 40
0.3697655573
 40
0.4384022136
 40
0.5826509606
 40
0.7297084189
 40
0.8711967832
 40
0.9376014833
 40
1.0
 40
1.0
 40
1.0
 40
1.0
 10
49.6923080242
 20
123.5951246593
 30
0.0
 10
49.6923478809
 20
123.7702697244
 30
0.0
 10
49.7390167402
 20
124.1292431175
 30
0.0
 10
49.9449907661
 20
124.6474552126
 30
0.0
 10
50.2790472899
 20
125.1385665118
 30
0.0
 10
50.7316382428
 20
125.5931297419
 30
0.0
 10
51.2925746137
 20
126.002896391
 30
0.0
 10
51.949745501
 20
126.3602759649
 30
0.0
 10
52.6894635388
 20
126.6583211256
 30
0.0
 10
53.7828207352
 20
126.9732132765
 30
0.0
 10
55.2481075434
 20
127.17875363
 30
0.0
 10
57.023609619
 20
127.1297036008
 30
0.0
 10
58.4551591718
 20
126.8433483318
 30
0.0
 10
59.4953026877
 20
126.4664405621
 30
0.0
 10
59.9688345979
 20
126.2330405101
 30
0.0
 10
60.1896908266
 20
126.1055319916
 30
0.0
  0
SPLINE
  5
361
100
AcDbEntity
  8
0
100
AcDbSpline
 62
7
  6
CONTINUOUS
 70
0
 71
3
 72
16
 73
12
 74
0
 42
0.0000001
 43
0.0000001
 44
0.0000000001
 40
0.0
 40
0.0
 40
0.0
 40
0.0
 40
0.0937194355
 40
0.1465054864
 40
0.203175439
 40
0.3269672852
 40
0.4616878798
 40
0.6022545978
 40
0.7427804661
 40
0.8771943412
 40
1.0
 40
1.0
 40
1.0
 40
1.0
 10
59.5446966883
 20
37.5403932793
 30
0.0
 10
59.4763651739
 20
37.3583201074
 30
0.0
 10
59.4226990169
 20
37.0530412437
 30
0.0
 10
59.4261480244
 20
36.6312887473
 30
0.0
 10
59.4828547471
 20
36.1495964817
 30
0.0
 10
59.6540860316
 20
35.514778171
 30
0.0
 10
59.9887582634
 20
34.7545162029
 30
0.0
 10
60.4391221688
 20
34.0157383266
 30
0.0
 10
60.9781887728
 20
33.3398014553
 30
0.0
 10
61.5736062619
 20
32.7649662726
 30
0.0
 10
62.0100570949
 20
32.4526096797
 30
0.0
 10
62.2307465702
 20
32.3251974341
 30
0.0
  0
SPLINE
  5
362
100
AcDbEntity
  8
0
100
AcDbSpline
 62
7
  6
CONTINUOUS
 70
0
 71
3
 72
11
 73
7
 74
0
 42
0.0000001
 43
0.0000001
 44
0.0000000001
 40
0.0
 40
0.0
 40
0.0
 40
0.0
 40
0.2177651606
 40
0.4508956102
 40
0.7103690052
 40
1.0
 40
1.0
 40
1.0
 40
1.0
 10
97.1616310812
 20
55.7910068662
 30
0.0
 10
97.2358278411
 20
55.7481310074
 30
0.0
 10
97.3747653756
 20
55.6315050067
 30
0.0
 10
97.5225809994
 20
55.3897106525
 30
0.0
 10
97.6103326918
 20
55.0918155401
 30
0.0
 10
97.6276575117
 20
54.8750034122
 30
0.0
 10
97.6276575117
 20
54.7610287957
 30
0.0
  0
SPLINE
  5
363
100
AcDbEntity
  8
0
100
AcDbSpline
 62
7
  6
CONTINUOUS
 70
0
 71
3
 72
15
 73
11
 74
0
 42
0.0000001
 43
0.0000001
 44
0.0000000001
 40
0.0
 40
0.0
 40
0.0
 40
0.0
 40
0.097662448
 40
0.2097241085
 40
0.3349540434
 40
0.4697297884
 40
0.6090672085
 40
0.7473676273
 40
0.8792459224
 40
1.0
 40
1.0
 40
1.0
 40
1.0
 10
68.5092703995
 20
81.5380964286
 30
0.0
 10
68.6379872001
 20
81.5488919483
 30
0.0
 10
68.9106342799
 20
81.6213503331
 30
0.0
 10
69.3001991804
 20
81.8384964844
 30
0.0
 10
69.6788407832
 20
82.1567904466
 30
0.0
 10
70.0251862323
 20
82.558150787
 30
0.0
 10
70.3196287491
 20
83.0194450015
 30
0.0
 10
70.5451805267
 20
83.5139718814
 30
0.0
 10
70.6884771181
 20
84.0127394768
 30
0.0
 10
70.7257058251
 20
84.3472354877
 30
0.0
 10
70.7257058251
 20
84.5069452824
 30
0.0
  0
LINE
  5
364
100
AcDbEntity
  8
0
100
AcDbLine
 62
7
  6
CONTINUOUS
 10
53.7917496746
 20
55.8861566298
 11
53.7920452471
 21
56.2331749189
  0
SPLINE
  5
365
100
AcDbEntity
  8
0
100
AcDbSpline
 62
7
  6
CONTINUOUS
 70
0
 71
3
 72
11
 73
7
 74
0
 42
0.0000001
 43
0.0000001
 44
0.0000000001
 40
0.0
 40
0.0
 40
0.0
 40
0.0
 40
0.2493334396
 40
0.436860515
 40
0.6248235543
 40
1.0
 40
1.0
 40
1.0
 40
1.0
 10
53.7963552708
 20
54.5196797695
 30
0.0
 10
53.7955882235
 20
54.6332477955
 30
0.0
 10
53.7934212844
 20
54.8322258878
 30
0.0
 10
53.7925753674
 20
55.116832261
 30
0.0
 10
53.7936153139
 20
55.4587584419
 30
0.0
 10
53.7917496746
 20
55.7152649105
 30
0.0
 10
53.7917496746
 20
55.8861566298
 30
0.0
  0
SPLINE
  5
366
100
AcDbEntity
  8
0
100
AcDbSpline
 62
7
  6
CONTINUOUS
 70
0
 71
3
 72
11
 73
7
 74
0
 42
0.0000001
 43
0.0000001
 44
0.0000000001
 40
0.0
 40
0.0
 40
0.0
 40
0.0
 40
0.2177231375
 40
0.4508717887
 40
0.7104673698
 40
1.0
 40
1.0
 40
1.0
 40
1.0
 10
69.6846888972
 20
84.5409876042
 30
0.0
 10
69.7209645385
 20
84.5200461871
 30
0.0
 10
69.7888949714
 20
84.4630410604
 30
0.0
 10
69.8611832549
 20
84.3448195203
 30
0.0
 10
69.9040301256
 20
84.1991598149
 30
0.0
 10
69.9125364123
 20
84.0931658013
 30
0.0
 10
69.9125364123
 20
84.0374645055
 30
0.0
  0
SPLINE
  5
367
100
AcDbEntity
  8
0
100
AcDbSpline
 62
7
  6
CONTINUOUS
 70
0
 71
3
 72
9
 73
5
 74
0
 42
0.0000001
 43
0.0000001
 44
0.0000000001
 40
0.0
 40
0.0
 40
0.0
 40
0.0
 40
0.2570371457
 40
1.0
 40
1.0
 40
1.0
 40
1.0
 10
67.8980470902
 20
40.6092405287
 30
0.0
 10
67.8981408162
 20
39.3312990598
 30
0.0
 10
67.9733364669
 20
34.3600012703
 30
0.0
 10
68.3552912549
 20
29.3915446768
 30
0.0
 10
68.8374438562
 20
25.729272137
 30
0.0
  0
SPLINE
  5
368
100
AcDbEntity
  8
0
100
AcDbSpline
 62
7
  6
CONTINUOUS
 70
0
 71
3
 72
11
 73
7
 74
0
 42
0.0000001
 43
0.0000001
 44
0.0000000001
 40
0.0
 40
0.0
 40
0.0
 40
0.0
 40
0.2281212187
 40
0.4747683724
 40
0.7343304772
 40
1.0
 40
1.0
 40
1.0
 40
1.0
 10
42.7094495933
 20
50.4664864984
 30
0.0
 10
42.7094495933
 20
51.0253242411
 30
0.0
 10
42.8162190165
 20
52.189522301
 30
0.0
 10
43.2403922887
 20
53.9429257462
 30
0.0
 10
43.9172734057
 20
55.713514145
 30
0.0
 10
44.5179058336
 20
56.8553548001
 30
0.0
 10
44.8540954349
 20
57.4126204136
 30
0.0
  0
SPLINE
  5
369
100
AcDbEntity
  8
0
100
AcDbSpline
 62
7
  6
CONTINUOUS
 70
0
 71
3
 72
12
 73
8
 74
0
 42
0.0000001
 43
0.0000001
 44
0.0000000001
 40
0.0
 40
0.0
 40
0.0
 40
0.0
 40
0.2910295567
 40
0.5516563214
 40
0.7850143823
 40
0.8941574045
 40
1.0
 40
1.0
 40
1.0
 40
1.0
 10
48.6842119951
 20
57.0974563141
 30
0.0
 10
48.3046184443
 20
57.3166097949
 30
0.0
 10
47.5515949624
 20
57.6792385879
 30
0.0
 10
46.3998133624
 20
57.9809566064
 30
0.0
 10
45.4791394293
 20
57.9940096009
 30
0.0
 10
44.8166205343
 20
57.851982395
 30
0.0
 10
44.5130428802
 20
57.7346356283
 30
0.0
 10
44.369604126
 20
57.6650934239
 30
0.0
  0
SPLINE
  5
36A
100
AcDbEntity
  8
0
100
AcDbSpline
 62
7
  6
CONTINUOUS
 70
0
 71
3
 72
11
 73
7
 74
0
 42
0.0000001
 43
0.0000001
 44
0.0000000001
 40
0.0
 40
0.0
 40
0.0
 40
0.0
 40
0.2279266384
 40
0.4747153595
 40
0.7344589545
 40
1.0
 40
1.0
 40
1.0
 40
1.0
 10
30.1936074582
 20
57.6923478534
 30
0.0
 10
30.1936074582
 20
58.2650562626
 30
0.0
 10
30.3060230815
 20
59.4590353516
 30
0.0
 10
30.7500204316
 20
61.2558111863
 30
0.0
 10
31.4578215077
 20
63.067419537
 30
0.0
 10
32.0857579897
 20
64.2326228579
 30
0.0
 10
32.436929475
 20
64.7999528587
 30
0.0
  0
SPLINE
  5
36B
100
AcDbEntity
  8
0
100
AcDbSpline
 62
7
  6
CONTINUOUS
 70
0
 71
3
 72
12
 73
8
 74
0
 42
0.0000001
 43
0.0000001
 44
0.0000000001
 40
0.0
 40
0.0
 40
0.0
 40
0.0
 40
0.2895583766
 40
0.5486502068
 40
0.781632075
 40
0.8918384284
 40
1.0
 40
1.0
 40
1.0
 40
1.0
 10
60.1896908266
 20
126.1055319916
 30
0.0
 10
60.4595881589
 20
125.9497102194
 30
0.0
 10
60.9491693057
 20
125.6124747844
 30
0.0
 10
61.5341726492
 20
124.9981633103
 30
0.0
 10
61.848114434
 20
124.4191631828
 30
0.0
 10
61.970559965
 20
123.9470602097
 30
0.0
 10
61.9907424358
 20
123.7115377328
 30
0.0
 10
61.9907441232
 20
123.5951244973
 30
0.0
  0
SPLINE
  5
36C
100
AcDbEntity
  8
0
100
AcDbSpline
 62
7
  6
CONTINUOUS
 70
0
 71
3
 72
9
 73
5
 74
0
 42
0.0000001
 43
0.0000001
 44
0.0000000001
 40
0.0
 40
0.0
 40
0.0
 40
0.0
 40
0.2536442689
 40
1.0
 40
1.0
 40
1.0
 40
1.0
 10
55.4218413621
 20
44.0932967945
 30
0.0
 10
55.4835327212
 20
43.3757639098
 30
0.0
 10
55.7502275088
 20
40.5489557281
 30
0.0
 10
56.1120981499
 20
37.7309773113
 30
0.0
 10
56.4394972412
 20
35.6372699587
 30
0.0
  0
SPLINE
  5
36D
100
AcDbEntity
  8
0
100
AcDbSpline
 62
7
  6
CONTINUOUS
 70
0
 71
3
 72
11
 73
7
 74
0
 42
0.0000001
 43
0.0000001
 44
0.0000000001
 40
0.0
 40
0.0
 40
0.0
 40
0.0
 40
0.2667866631
 40
0.518359539
 40
0.7605181545
 40
1.0
 40
1.0
 40
1.0
 40
1.0
 10
42.7524415006
 20
55.7006259554
 30
0.0
 10
42.8248802886
 20
55.92131618
 30
0.0
 10
42.9997877166
 20
56.3402219924
 30
0.0
 10
43.3663107999
 20
56.8967636967
 30
0.0
 10
43.8233707363
 20
57.349200445
 30
0.0
 10
44.1819890037
 20
57.5741335626
 30
0.0
 10
44.369604126
 20
57.6650934239
 30
0.0
  0
SPLINE
  5
36E
100
AcDbEntity
  8
0
100
AcDbSpline
 62
7
  6
CONTINUOUS
 70
0
 71
3
 72
15
 73
11
 74
0
 42
0.0000001
 43
0.0000001
 44
0.0000000001
 40
0.0
 40
0.0
 40
0.0
 40
0.0
 40
0.1120000463
 40
0.2319189282
 40
0.3579755853
 40
0.4880509818
 40
0.6197356536
 40
0.7505513994
 40
0.8780775273
 40
1.0
 40
1.0
 40
1.0
 40
1.0
 10
36.16836986
 20
64.3233176691
 30
0.0
 10
36.5369302037
 20
64.1105340693
 30
0.0
 10
37.2683518435
 20
63.6136768667
 30
0.0
 10
38.2968649211
 20
62.7195957789
 30
0.0
 10
39.2723187549
 20
61.6721095202
 30
0.0
 10
40.1715947026
 20
60.5021745983
 30
0.0
 10
40.9741320105
 20
59.2425617234
 30
0.0
 10
41.662008285
 20
57.9278118815
 30
0.0
 10
42.2211353891
 20
56.593642764
 30
0.0
 10
42.5091950176
 20
55.6889133699
 30
0.0
 10
42.6274220074
 20
55.2409755505
 30
0.0
  0
SPLINE
  5
36F
100
AcDbEntity
  8
0
100
AcDbSpline
 62
7
  6
CONTINUOUS
 70
0
 71
3
 72
15
 73
11
 74
0
 42
0.0000001
 43
0.0000001
 44
0.0000000001
 40
0.0
 40
0.0
 40
0.0
 40
0.0
 40
0.1119947468
 40
0.2319211765
 40
0.3579811978
 40
0.4880555571
 40
0.6197418093
 40
0.7505571648
 40
0.8780814539
 40
1.0
 40
1.0
 40
1.0
 40
1.0
 10
48.6842119951
 20
57.0974563141
 30
0.0
 10
49.0527553316
 20
56.8846825332
 30
0.0
 10
49.7843212045
 20
56.3880103129
 30
0.0
 10
50.8126169577
 20
55.4936268423
 30
0.0
 10
51.7881696812
 20
54.4462054235
 30
0.0
 10
52.687579179
 20
53.2763402815
 30
0.0
 10
53.4900083448
 20
52.0166504984
 30
0.0
 10
54.1778113466
 20
50.7018708464
 30
0.0
 10
54.7370382409
 20
49.3677657462
 30
0.0
 10
55.0250408219
 20
48.4630381121
 30
0.0
 10
55.1432641426
 20
48.0151141939
 30
0.0
  0
SPLINE
  5
370
100
AcDbEntity
  8
0
100
AcDbSpline
 62
7
  6
CONTINUOUS
 70
0
 71
3
 72
15
 73
11
 74
0
 42
0.0000001
 43
0.0000001
 44
0.0000000001
 40
0.0
 40
0.0
 40
0.0
 40
0.0
 40
0.1120002832
 40
0.2319190081
 40
0.357975618
 40
0.4880509916
 40
0.6197355386
 40
0.7505513418
 40
0.8780774572
 40
1.0
 40
1.0
 40
1.0
 40
1.0
 10
23.6525277249
 20
71.5491790241
 30
0.0
 10
24.0210888421
 20
71.3363949777
 30
0.0
 10
24.7525060197
 20
70.8395309978
 30
0.0
 10
25.7810271663
 20
69.9454598278
 30
0.0
 10
26.7564811734
 20
68.897974026
 30
0.0
 10
27.6557511533
 20
67.7280355877
 30
0.0
 10
28.4582873777
 20
66.4684227073
 30
0.0
 10
29.1461655123
 20
65.1536740856
 30
0.0
 10
29.7052903691
 20
63.8195036568
 30
0.0
 10
29.9933528165
 20
62.9147749749
 30
0.0
 10
30.1115798723
 20
62.4668369053
 30
0.0
  0
SPLINE
  5
371
100
AcDbEntity
  8
0
100
AcDbSpline
 62
7
  6
CONTINUOUS
 70
0
 71
3
 72
11
 73
7
 74
0
 42
0.0000001
 43
0.0000001
 44
0.0000000001
 40
0.0
 40
0.0
 40
0.0
 40
0.0
 40
0.2281212187
 40
0.4747683724
 40
0.7343304772
 40
1.0
 40
1.0
 40
1.0
 40
1.0
 10
17.6777653231
 20
64.9182092084
 30
0.0
 10
17.6777653231
 20
65.4770469511
 30
0.0
 10
17.7845347463
 20
66.6412450111
 30
0.0
 10
18.2087080185
 20
68.3946484562
 30
0.0
 10
18.8855891355
 20
70.165236855
 30
0.0
 10
19.4862215634
 20
71.3070775101
 30
0.0
 10
19.8224111647
 20
71.8643431236
 30
0.0
  0
SPLINE
  5
372
100
AcDbEntity
  8
0
100
AcDbSpline
 62
7
  6
CONTINUOUS
 70
0
 71
3
 72
12
 73
8
 74
0
 42
0.0000001
 43
0.0000001
 44
0.0000000001
 40
0.0
 40
0.0
 40
0.0
 40
0.0
 40
0.2910263617
 40
0.5516521895
 40
0.7850106362
 40
0.8941544898
 40
1.0
 40
1.0
 40
1.0
 40
1.0
 10
23.6525277249
 20
71.5491790241
 30
0.0
 10
23.2729323677
 20
71.7683335479
 30
0.0
 10
22.5199011479
 20
72.130968977
 30
0.0
 10
21.3681114462
 20
72.4326724003
 30
0.0
 10
20.4474073208
 20
72.4457598727
 30
0.0
 10
19.784900839
 20
72.3036481616
 30
0.0
 10
19.4812642041
 20
72.1864234716
 30
0.0
 10
19.3378206258
 20
72.1168754048
 30
0.0
  0
SPLINE
  5
373
100
AcDbEntity
  8
0
100
AcDbSpline
 62
7
  6
CONTINUOUS
 70
0
 71
3
 72
15
 73
11
 74
0
 42
0.0000001
 43
0.0000001
 44
0.0000000001
 40
0.0
 40
0.0
 40
0.0
 40
0.0
 40
0.143853428
 40
0.2780958142
 40
0.4039767365
 40
0.5236464343
 40
0.6398975818
 40
0.755913655
 40
0.8749667618
 40
1.0
 40
1.0
 40
1.0
 40
1.0
 10
55.4218413622
 20
44.0932967945
 30
0.0
 10
55.3866266942
 20
43.9090340241
 30
0.0
 10
55.2993057522
 20
43.5560145999
 30
0.0
 10
55.1078529775
 20
43.0634689281
 30
0.0
 10
54.8607683994
 20
42.6317961063
 30
0.0
 10
54.5592086241
 20
42.2656819178
 30
0.0
 10
54.2048143574
 20
41.9696936907
 30
0.0
 10
53.8007703415
 20
41.7476666712
 30
0.0
 10
53.3514666554
 20
41.6025711853
 30
0.0
 10
53.0344956401
 20
41.5586891592
 30
0.0
 10
52.8717572048
 20
41.548543833
 30
0.0
  0
SPLINE
  5
374
100
AcDbEntity
  8
0
100
AcDbSpline
 62
7
  6
CONTINUOUS
 70
0
 71
3
 72
9
 73
5
 74
0
 42
0.0000001
 43
0.0000001
 44
0.0000000001
 40
0.0
 40
0.0
 40
0.0
 40
0.0
 40
0.2452486828
 40
1.0
 40
1.0
 40
1.0
 40
1.0
 10
52.8717572048
 20
41.548543833
 30
0.0
 10
52.8398269613
 20
41.54655326
 30
0.0
 10
52.7095160189
 20
41.5403571838
 30
0.0
 10
52.5788701909
 20
41.5417108198
 30
0.0
 10
52.4805332362
 20
41.5465488411
 30
0.0
  0
SPLINE
  5
375
100
AcDbEntity
  8
0
100
AcDbSpline
 62
7
  6
CONTINUOUS
 70
0
 71
3
 72
9
 73
5
 74
0
 42
0.0000001
 43
0.0000001
 44
0.0000000001
 40
0.0
 40
0.0
 40
0.0
 40
0.0
 40
0.5170870974
 40
1.0
 40
1.0
 40
1.0
 40
1.0
 10
55.1432641426
 20
48.0151141939
 30
0.0
 10
55.0635777435
 20
47.7077371485
 30
0.0
 10
54.9413405876
 20
47.104411433
 30
0.0
 10
54.8948855897
 20
46.4898984412
 30
0.0
 10
54.8948855897
 20
46.1933461939
 30
0.0
  0
SPLINE
  5
376
100
AcDbEntity
  8
0
100
AcDbSpline
 62
7
  6
CONTINUOUS
 70
0
 71
3
 72
11
 73
7
 74
0
 42
0.0000001
 43
0.0000001
 44
0.0000000001
 40
0.0
 40
0.0
 40
0.0
 40
0.0
 40
0.2558904036
 40
0.4997497296
 40
0.7436833936
 40
1.0
 40
1.0
 40
1.0
 40
1.0
 10
42.4919684411
 20
50.1219232895
 30
0.0
 10
42.3877121249
 20
49.9326015954
 30
0.0
 10
42.1450562212
 20
49.5819111196
 30
0.0
 10
41.6662216363
 20
49.1647451204
 30
0.0
 10
41.0942854754
 20
48.8876208224
 30
0.0
 10
40.6756544453
 20
48.8032826976
 30
0.0
 10
40.460144922
 20
48.7827044921
 30
0.0
  0
SPLINE
  5
377
100
AcDbEntity
  8
0
100
AcDbSpline
 62
7
  6
CONTINUOUS
 70
0
 71
3
 72
9
 73
5
 74
0
 42
0.0000001
 43
0.0000001
 44
0.0000000001
 40
0.0
 40
0.0
 40
0.0
 40
0.0
 40
0.2452603157
 40
1.0
 40
1.0
 40
1.0
 40
1.0
 10
40.355270861
 20
48.7744439206
 30
0.0
 10
40.3233916223
 20
48.7724573688
 30
0.0
 10
40.1932954401
 20
48.7662690534
 30
0.0
 10
40.0628651654
 20
48.7675995812
 30
0.0
 10
39.9646907277
 20
48.7724113244
 30
0.0
  0
SPLINE
  5
378
100
AcDbEntity
  8
0
100
AcDbSpline
 62
7
  6
CONTINUOUS
 70
0
 71
3
 72
12
 73
8
 74
0
 42
0.0000001
 43
0.0000001
 44
0.0000000001
 40
0.0
 40
0.0
 40
0.0
 40
0.0
 40
0.2895583766
 40
0.5486502068
 40
0.781632075
 40
0.8918384284
 40
1.0
 40
1.0
 40
1.0
 40
1.0
 10
72.7055329617
 20
118.8796706366
 30
0.0
 10
72.975430294
 20
118.7238488643
 30
0.0
 10
73.4650114408
 20
118.3866134294
 30
0.0
 10
74.0500147843
 20
117.7723019553
 30
0.0
 10
74.3639565691
 20
117.1933018278
 30
0.0
 10
74.4864021001
 20
116.7211988547
 30
0.0
 10
74.5065845709
 20
116.4856763778
 30
0.0
 10
74.5065862583
 20
116.3692631423
 30
0.0
  0
SPLINE
  5
379
100
AcDbEntity
  8
0
100
AcDbSpline
 62
7
  6
CONTINUOUS
 70
0
 71
3
 72
10
 73
6
 74
0
 42
0.0000001
 43
0.0000001
 44
0.0000000001
 40
0.0
 40
0.0
 40
0.0
 40
0.0
 40
0.4708098844
 40
0.7282271809
 40
1.0
 40
1.0
 40
1.0
 40
1.0
 10
43.2628668189
 20
47.6906274557
 30
0.0
 10
43.0705620261
 20
48.0943619651
 30
0.0
 10
42.8637879432
 20
48.7641125937
 30
0.0
 10
42.7311348086
 20
49.7051264373
 30
0.0
 10
42.7094495933
 20
50.2083457008
 30
0.0
 10
42.7094495933
 20
50.4664864984
 30
0.0
  0
SPLINE
  5
37A
100
AcDbEntity
  8
0
100
AcDbSpline
 62
7
  6
CONTINUOUS
 70
0
 71
3
 72
11
 73
7
 74
0
 42
0.0000001
 43
0.0000001
 44
0.0000000001
 40
0.0
 40
0.0
 40
0.0
 40
0.0
 40
0.2559003995
 40
0.4997664432
 40
0.7436981247
 40
1.0
 40
1.0
 40
1.0
 40
1.0
 10
29.9762326421
 20
57.3479852016
 30
0.0
 10
29.8720054551
 20
57.1586832116
 30
0.0
 10
29.6294244481
 20
56.8080212441
 30
0.0
 10
29.1507313593
 20
56.3908549962
 30
0.0
 10
28.5789652251
 20
56.1136734325
 30
0.0
 10
28.1604454759
 20
56.0292565802
 30
0.0
 10
27.9449927436
 20
56.0086334522
 30
0.0
  0
SPLINE
  5
37B
100
AcDbEntity
  8
0
100
AcDbSpline
 62
7
  6
CONTINUOUS
 70
0
 71
3
 72
9
 73
5
 74
0
 42
0.0000001
 43
0.0000001
 44
0.0000000001
 40
0.0
 40
0.0
 40
0.0
 40
0.0
 40
0.2452599574
 40
1.0
 40
1.0
 40
1.0
 40
1.0
 10
27.8394523121
 20
56.0003072808
 30
0.0
 10
27.8075713668
 20
55.9983200426
 30
0.0
 10
27.6774679915
 20
55.9921291081
 30
0.0
 10
27.5470303408
 20
55.9934579374
 30
0.0
 10
27.4488503039
 20
55.9982690838
 30
0.0
  0
SPLINE
  5
37C
100
AcDbEntity
  8
0
100
AcDbSpline
 62
7
  6
CONTINUOUS
 70
0
 71
3
 72
9
 73
5
 74
0
 42
0.0000001
 43
0.0000001
 44
0.0000000001
 40
0.0
 40
0.0
 40
0.0
 40
0.0
 40
0.2524721246
 40
1.0
 40
1.0
 40
1.0
 40
1.0
 10
54.9274630608
 20
54.5253584789
 30
0.0
 10
54.9332549887
 20
53.9771763866
 30
0.0
 10
54.9682502593
 20
51.8060668607
 30
0.0
 10
55.0519145413
 20
49.6357080291
 30
0.0
 10
55.1432641426
 20
48.0151141939
 30
0.0
  0
SPLINE
  5
37D
100
AcDbEntity
  8
0
100
AcDbSpline
 62
7
  6
CONTINUOUS
 70
0
 71
3
 72
17
 73
13
 74
0
 42
0.0000001
 43
0.0000001
 44
0.0000000001
 40
0.0
 40
0.0
 40
0.0
 40
0.0
 40
0.1286891333
 40
0.2702803493
 40
0.4174326844
 40
0.5617743804
 40
0.6954465661
 40
0.8127104963
 40
0.8646756522
 40
0.91250911
 40
0.9571392634
 40
1.0
 40
1.0
 40
1.0
 40
1.0
 10
60.861528261
 20
49.6242796392
 30
0.0
 10
60.861528261
 20
49.4319613629
 30
0.0
 10
60.8077246353
 20
49.0275829637
 30
0.0
 10
60.6069214084
 20
48.4338423666
 30
0.0
 10
60.2974838004
 20
47.8618860646
 30
0.0
 10
59.904300089
 20
47.3586078392
 30
0.0
 10
59.4594918549
 20
46.9646585835
 30
0.0
 10
59.0568781791
 20
46.7445040373
 30
0.0
 10
58.7419335043
 20
46.660727656
 30
0.0
 10
58.525173877
 20
46.6447644195
 30
0.0
 10
58.3233346028
 20
46.6743436609
 30
0.0
 10
58.2010463876
 20
46.7251549714
 30
0.0
 10
58.145587424
 20
46.7572028762
 30
0.0
  0
SPLINE
  5
37E
100
AcDbEntity
  8
0
100
AcDbSpline
 62
7
  6
CONTINUOUS
 70
0
 71
3
 72
15
 73
11
 74
0
 42
0.0000001
 43
0.0000001
 44
0.0000000001
 40
0.0
 40
0.0
 40
0.0
 40
0.0
 40
0.121335537
 40
0.234698907
 40
0.3445806587
 40
0.4562065613
 40
0.5745568035
 40
0.7034022888
 40
0.8450079048
 40
1.0
 40
1.0
 40
1.0
 40
1.0
 10
30.2368368382
 20
62.9272577018
 30
0.0
 10
30.3267752176
 20
63.2011324863
 30
0.0
 10
30.5535214523
 20
63.7163874823
 30
0.0
 10
31.0586034053
 20
64.3718471588
 30
0.0
 10
31.7036276332
 20
64.8550267382
 30
0.0
 10
32.4674322308
 20
65.1460229891
 30
0.0
 10
33.3234620698
 20
65.2362750741
 30
0.0
 10
34.2471157218
 20
65.1266726745
 30
0.0
 10
35.2157525701
 20
64.8218294541
 30
0.0
 10
35.8494764908
 20
64.5074266766
 30
0.0
 10
36.16836986
 20
64.3233176691
 30
0.0
  0
SPLINE
  5
37F
100
AcDbEntity
  8
0
100
AcDbSpline
 62
7
  6
CONTINUOUS
 70
0
 71
3
 72
10
 73
6
 74
0
 42
0.0000001
 43
0.0000001
 44
0.0000000001
 40
0.0
 40
0.0
 40
0.0
 40
0.0
 40
0.4708098844
 40
0.7282271809
 40
1.0
 40
1.0
 40
1.0
 40
1.0
 10
30.7470246838
 20
54.9164888107
 30
0.0
 10
30.554719891
 20
55.3202233201
 30
0.0
 10
30.3479458081
 20
55.9899739487
 30
0.0
 10
30.2152926735
 20
56.9309877923
 30
0.0
 10
30.1936074582
 20
57.4342070558
 30
0.0
 10
30.1936074582
 20
57.6923478534
 30
0.0
  0
SPLINE
  5
380
100
AcDbEntity
  8
0
100
AcDbSpline
 62
7
  6
CONTINUOUS
 70
0
 71
3
 72
12
 73
8
 74
0
 42
0.0000001
 43
0.0000001
 44
0.0000000001
 40
0.0
 40
0.0
 40
0.0
 40
0.0
 40
0.2895583766
 40
0.5486502068
 40
0.781632075
 40
0.8918384284
 40
1.0
 40
1.0
 40
1.0
 40
1.0
 10
85.2213750968
 20
111.6538092816
 30
0.0
 10
85.4912724291
 20
111.4979875093
 30
0.0
 10
85.9808535759
 20
111.1607520744
 30
0.0
 10
86.5658569194
 20
110.5464406003
 30
0.0
 10
86.8797987042
 20
109.9674404728
 30
0.0
 10
87.0022442352
 20
109.4953374997
 30
0.0
 10
87.022426706
 20
109.2598150228
 30
0.0
 10
87.0224283934
 20
109.1434017872
 30
0.0
  0
SPLINE
  5
381
100
AcDbEntity
  8
0
100
AcDbSpline
 62
7
  6
CONTINUOUS
 70
0
 71
3
 72
11
 73
7
 74
0
 42
0.0000001
 43
0.0000001
 44
0.0000000001
 40
0.0
 40
0.0
 40
0.0
 40
0.0
 40
0.2667765399
 40
0.5183486852
 40
0.7605156353
 40
1.0
 40
1.0
 40
1.0
 40
1.0
 10
17.7207730798
 20
70.1523334131
 30
0.0
 10
17.7932232054
 20
70.3730050058
 30
0.0
 10
17.9681646671
 20
70.7918727098
 30
0.0
 10
18.3346452622
 20
71.3484134075
 30
0.0
 10
18.7916253626
 20
71.8009164874
 30
0.0
 10
19.1502096626
 20
72.0259129515
 30
0.0
 10
19.3378206258
 20
72.1168754048
 30
0.0
  0
SPLINE
  5
382
100
AcDbEntity
  8
0
100
AcDbSpline
 62
7
  6
CONTINUOUS
 70
0
 71
3
 72
11
 73
7
 74
0
 42
0.0000001
 43
0.0000001
 44
0.0000000001
 40
0.0
 40
0.0
 40
0.0
 40
0.0
 40
0.2177651606
 40
0.4508956102
 40
0.7103690052
 40
1.0
 40
1.0
 40
1.0
 40
1.0
 10
81.3244621609
 20
72.4505458318
 30
0.0
 10
81.3986589208
 20
72.407669973
 30
0.0
 10
81.5375964553
 20
72.2910439723
 30
0.0
 10
81.6854120791
 20
72.0492496181
 30
0.0
 10
81.7731637715
 20
71.7513545057
 30
0.0
 10
81.7904885914
 20
71.5345423778
 30
0.0
 10
81.7904885914
 20
71.4205677613
 30
0.0
  0
SPLINE
  5
383
100
AcDbEntity
  8
0
100
AcDbSpline
 62
7
  6
CONTINUOUS
 70
0
 71
3
 72
10
 73
6
 74
0
 42
0.0000001
 43
0.0000001
 44
0.0000000001
 40
0.0
 40
0.0
 40
0.0
 40
0.0
 40
0.4708098844
 40
0.7282271809
 40
1.0
 40
1.0
 40
1.0
 40
1.0
 10
18.2311825487
 20
62.1423501657
 30
0.0
 10
18.0388777559
 20
62.5460846751
 30
0.0
 10
17.8321036729
 20
63.2158353037
 30
0.0
 10
17.6994505384
 20
64.1568491473
 30
0.0
 10
17.6777653231
 20
64.6600684109
 30
0.0
 10
17.6777653231
 20
64.9182092084
 30
0.0
  0
SPLINE
  5
384
100
AcDbEntity
  8
0
100
AcDbSpline
 62
7
  6
CONTINUOUS
 70
0
 71
3
 72
17
 73
13
 74
0
 42
0.0000001
 43
0.0000001
 44
0.0000000001
 40
0.0
 40
0.0
 40
0.0
 40
0.0
 40
0.1286891333
 40
0.2702803493
 40
0.4174326844
 40
0.5617743804
 40
0.6954465661
 40
0.8127104963
 40
0.8646756522
 40
0.91250911
 40
0.9571392634
 40
1.0
 40
1.0
 40
1.0
 40
1.0
 10
73.9398214937
 20
42.9652830951
 30
0.0
 10
73.9398214937
 20
42.7729648189
 30
0.0
 10
73.886017868
 20
42.3685864197
 30
0.0
 10
73.6852146412
 20
41.7748458225
 30
0.0
 10
73.3757770331
 20
41.2028895205
 30
0.0
 10
72.9825933217
 20
40.6996112951
 30
0.0
 10
72.5377850876
 20
40.3056620394
 30
0.0
 10
72.1351714118
 20
40.0855074933
 30
0.0
 10
71.8202267371
 20
40.0017311119
 30
0.0
 10
71.6034671097
 20
39.9857678754
 30
0.0
 10
71.4016278355
 20
40.0153471168
 30
0.0
 10
71.2793396203
 20
40.0661584274
 30
0.0
 10
71.2238806567
 20
40.0982063322
 30
0.0
  0
SPLINE
  5
385
100
AcDbEntity
  8
0
100
AcDbSpline
 62
7
  6
CONTINUOUS
 70
0
 71
3
 72
15
 73
11
 74
0
 42
0.0000001
 43
0.0000001
 44
0.0000000001
 40
0.0
 40
0.0
 40
0.0
 40
0.0
 40
0.097662448
 40
0.2097241085
 40
0.3349540434
 40
0.4697297884
 40
0.6090672085
 40
0.7473676273
 40
0.8792459224
 40
1.0
 40
1.0
 40
1.0
 40
1.0
 10
94.5273349297
 20
52.302480885
 30
0.0
 10
94.6560517303
 20
52.3132764047
 30
0.0
 10
94.9286988101
 20
52.3857347896
 30
0.0
 10
95.3182637106
 20
52.6028809408
 30
0.0
 10
95.6969053134
 20
52.921174903
 30
0.0
 10
96.0432507625
 20
53.3225352434
 30
0.0
 10
96.3376932793
 20
53.7838294579
 30
0.0
 10
96.5632450569
 20
54.2783563378
 30
0.0
 10
96.7065416483
 20
54.7771239332
 30
0.0
 10
96.7437703552
 20
55.1116199441
 30
0.0
 10
96.7437703552
 20
55.2713297389
 30
0.0
  0
SPLINE
  5
386
100
AcDbEntity
  8
0
100
AcDbSpline
 62
7
  6
CONTINUOUS
 70
0
 71
3
 72
15
 73
11
 74
0
 42
0.0000001
 43
0.0000001
 44
0.0000000001
 40
0.0
 40
0.0
 40
0.0
 40
0.0
 40
0.097662448
 40
0.2097241085
 40
0.3349540434
 40
0.4697297884
 40
0.6090672085
 40
0.7473676273
 40
0.8792459224
 40
1.0
 40
1.0
 40
1.0
 40
1.0
 10
78.6901660094
 20
68.9620198506
 30
0.0
 10
78.81888281
 20
68.9728153703
 30
0.0
 10
79.0915298898
 20
69.0452737551
 30
0.0
 10
79.4810947903
 20
69.2624199064
 30
0.0
 10
79.8597363931
 20
69.5807138686
 30
0.0
 10
80.2060818422
 20
69.982074209
 30
0.0
 10
80.500524359
 20
70.4433684235
 30
0.0
 10
80.7260761366
 20
70.9378953034
 30
0.0
 10
80.869372728
 20
71.4366628988
 30
0.0
 10
80.9066014349
 20
71.7711589096
 30
0.0
 10
80.9066014349
 20
71.9308687044
 30
0.0
  0
SPLINE
  5
387
100
AcDbEntity
  8
0
100
AcDbSpline
 62
7
  6
CONTINUOUS
 70
0
 71
3
 72
11
 73
7
 74
0
 42
0.0000001
 43
0.0000001
 44
0.0000000001
 40
0.0
 40
0.0
 40
0.0
 40
0.0
 40
0.2176899422
 40
0.4508856506
 40
0.7106204681
 40
1.0
 40
1.0
 40
1.0
 40
1.0
 10
79.8405863886
 20
71.9216121054
 30
0.0
 10
79.8752217328
 20
71.9016507788
 30
0.0
 10
79.9400298268
 20
71.8471872436
 30
0.0
 10
80.0090931914
 20
71.7343521519
 30
0.0
 10
80.0499080752
 20
71.5952776539
 30
0.0
 10
80.0580768303
 20
71.4941162897
 30
0.0
 10
80.0580768303
 20
71.4409757198
 30
0.0
  0
ELLIPSE
  5
388
100
AcDbEntity
  8
0
100
AcDbEllipse
 62
7
  6
CONTINUOUS
 10
69.4847127817
 20
119.325729272
 30
0.0
 11
-10.6181495476
 21
16.2036140087
 31
0.0
 40
0.535815383
 41
5.1696791611
 42
5.7677003779
  0
ELLIPSE
  5
389
100
AcDbEntity
  8
0
100
AcDbEllipse
 62
7
  6
CONTINUOUS
 10
66.420985479
 20
130.3297479188
 30
0.0
 11
-0.7717439985
 21
1.3464672017
 31
0.0
 40
0.5779938537
 41
5.5330161882
 42
7.0716647293
  0
ELLIPSE
  5
38A
100
AcDbEntity
  8
0
100
AcDbEllipse
 62
7
  6
CONTINUOUS
 10
94.5163970519
 20
104.874006562
 30
0.0
 11
-10.6181495476
 21
16.2036140087
 31
0.0
 40
0.535815383
 41
5.1696791611
 42
5.7677003779
  0
ELLIPSE
  5
38B
100
AcDbEntity
  8
0
100
AcDbEllipse
 62
7
  6
CONTINUOUS
 10
91.4526697493
 20
115.8780252088
 30
0.0
 11
-0.7717439985
 21
1.3464672017
 31
0.0
 40
0.5779938537
 41
5.5330161882
 42
7.0716647293
  0
ENDSEC
  0
SECTION
  2
OBJECTS
  0
DICTIONARY
  5
C
100
AcDbDictionary
280
0
281
1
  3
ACAD_GROUP
350
D
  3
ACAD_MLINESTYLE
350
17
  3
ACAD_LAYOUT
350
1A
  3
ACAD_PLOTSETTINGS
350
19
  3
ACAD_PLOTSTYLENAME
350
E
  0
DICTIONARY
  5
D
102
{ACAD_REACTORS
330
C
102
}
100
AcDbDictionary
280
0
281
1
  0
ACDBDICTIONARYWDFLT
  5
E
102
{ACAD_REACTORS
330
C
102
}
100
AcDbDictionary
281
1
  3
Normal
350
F
100
AcDbDictionaryWithDefault
340
F
  0
DICTIONARY
  5
17
102
{ACAD_REACTORS
330
C
102
}
100
AcDbDictionary
280
0
281
1
  3
Standard
350
18
  0
DICTIONARY
  5
19
102
{ACAD_REACTORS
330
C
102
}
100
AcDbDictionary
281
1
  0
DICTIONARY
  5
1A
102
{ACAD_REACTORS
330
C
102
}
100
AcDbDictionary
281
1
  3
Model
350
38C
  3
Layout1
350
38D
  0
ACDBPLACEHOLDER
  5
F
102
{ACAD_REACTORS
330
E
102
}
  0
MLINESTYLE
  5
18
102
{ACAD_REACTORS
330
17
102
}
100
AcDbMlineStyle
  2
STANDARD
 70
0
  3

 62
256
 51
90.0
 52
90.0
 71
2
 49
0.5
 62
256
  6
BYLAYER
 49
-0.5
 62
256
  6
BYLAYER
  0
LAYOUT
  5
38C
102
{ACAD_REACTORS
330
1A
102
}
100
AcDbPlotSettings
  1

  2
none_device
  4

  6

 40
0.0
 41
0.0
 42
0.0
 43
0.0
 44
210.0
 45
297.0
 46
0.0
 47
0.0
 48
0.0
 49
0.0
140
0.0
141
0.0
142
1.0
143
1.0
 70
1024
 72
1
 73
0
 74
0
  7

 75
0
147
1.0
148
0.0
149
0.0
100
AcDbLayout
  1
Model
 70
0
 71
0
 10
0.0
 20
0.0
 11
210.0
 21
297.0
 12
0.0
 22
0.0
 32
0.0
 14
0.0
 24
0.0
 34
0.0
 15
0.0
 25
0.0
 35
0.0
146
0.0
 13
0.0
 23
0.0
 33
0.0
 16
1.0
 26
0.0
 36
0.0
 17
0.0
 27
1.0
 37
0.0
 76
0
330
210
345
0
346
0
  0
LAYOUT
  5
38D
102
{ACAD_REACTORS
330
1A
102
}
100
AcDbPlotSettings
  1

  2
none_device
  4

  6

 40
0.0
 41
0.0
 42
0.0
 43
0.0
 44
210.0
 45
297.0
 46
0.0
 47
0.0
 48
0.0
 49
0.0
140
0.0
141
0.0
142
1.0
143
1.0
 70
0
 72
1
 73
0
 74
0
  7

 75
0
147
1.0
148
0.0
149
0.0
100
AcDbLayout
  1
Layout1
 70
0
 71
1
 10
0.0
 20
0.0
 11
210.0
 21
297.0
 12
0.0
 22
0.0
 32
0.0
 14
0.0
 24
0.0
 34
0.0
 15
0.0
 25
0.0
 35
0.0
146
0.0
 13
0.0
 23
0.0
 33
0.0
 16
1.0
 26
0.0
 36
0.0
 17
0.0
 27
1.0
 37
0.0
 76
0
330
211
345
0
346
0
  0
ENDSEC
  0
EOF
