999
DXF file: C:\Users\sesa63760\Documents\7-Dev\_Creo\CAD\MCADFD0001101_3D-CAD\drw0001_1.dxf
999
Pro/ENGINEER 2019471 by Parametric Technology Corporation
  0
SECTION
  2
HEADER
  9
$ACADVER
  1
AC1024
  9
$DWGCODEPAGE
  3
ANSI_1252
  9
$EXTMAX
 10
130.3863904553
 20
184.4036093582
 30
0.0
  9
$EXTMIN
 10
0.0
 20
0.0
 30
0.0
  9
$LIMMIN
 10
0.0
 20
0.0
  9
$LIMMAX
 10
130.3863904553
 20
184.4036093582
  9
$VIEWCTR
 10
65.1931952276
 20
92.2018046791
  9
$VIEWSIZE
 40
184.4036093582
  9
$CLAYER
  8
0
  9
$LTSCALE
 40
12.0203834248
  9
$CELTYPE
  6
BYLAYER
  9
$DIMSCALE
 40
1.0
  9
$DIMASZ
 40
1.552218934
  9
$DIMEXO
 40
1.0
  9
$DIMDLI
 40
8.3049921844
  9
$DIMEXE
 40
1.0
  9
$DIMCEN
 40
1.9669718332
  9
$DIMLFAC
 40
1.0
  9
$DIMBLK
  1
_FILLED
  9
$DIMALT
 70
0
  9
$DIMALTF
 40
0.0393700787
  9
$DIMTXT
 40
2.1731065076
  9
$DIMTOL
 70
1
  9
$DIMLIM
 70
0
  9
$DIMTFAC
 40
1.0
  9
$DIMTP
 40
0.01
  9
$DIMTM
 40
0.01
  9
$DIMGAP
 40
0.625
  9
$DIMDSEP
 70
46
  9
$AUNITS
 70
0
  9
$PDMODE
 70
3
  9
$PDSIZE
 40
0.3125
  9
$HANDSEED
  5
3B1
  9
$TILEMODE
 70
1
  9
$MEASUREMENT
 70
1
  9
$INSUNITS
 70
4
  0
ENDSEC
  0
SECTION
  2
CLASSES
  0
CLASS
  1
ACDBDICTIONARYWDFLT
  2
AcDbDictionaryWithDefault
  3
AutoCAD 2000
 90
0
 91
1
280
0
281
0
  0
CLASS
  1
ACDBPLACEHOLDER
  2
AcDbPlaceHolder
  3
AutoCAD 2000
 90
0
 91
1
280
0
281
0
  0
CLASS
  1
LAYOUT
  2
AcDbLayout
  3
AutoCAD 2000
 90
0
 91
0
280
0
281
0
  0
ENDSEC
  0
SECTION
  2
TABLES
  0
TABLE
  2
VPORT
  5
8
100
AcDbSymbolTable
 70
2
  0
VPORT
  5
1F4
100
AcDbSymbolTableRecord
100
AcDbViewportTableRecord
  2
*ACTIVE
 70
0
 10
0.0
 20
0.0
 11
1.0
 21
1.0
 12
65.1931952276
 22
92.2018046791
 13
0.0
 23
0.0
 14
1.0
 24
1.0
 15
0.0
 25
0.0
 16
0.0
 26
0.0
 36
1.0
 17
0.0
 27
0.0
 37
0.0
 40
184.4036093582
 41
0.7070707071
 42
50.0
 43
0.0
 44
0.0
 50
0.0
 51
0.0
 71
0
 72
100
 73
1
 74
1
 75
0
 76
0
 77
0
 78
0
  0
ENDTAB
  0
TABLE
  2
LTYPE
  5
5
100
AcDbSymbolTable
 70
6
  0
LTYPE
  5
14
100
AcDbSymbolTableRecord
100
AcDbLinetypeTableRecord
  2
BYBLOCK
 70
0
  3

 72
65
 73
0
 40
0.0
  0
LTYPE
  5
15
100
AcDbSymbolTableRecord
100
AcDbLinetypeTableRecord
  2
BYLAYER
 70
0
  3

 72
65
 73
0
 40
0.0
  0
LTYPE
  5
16
100
AcDbSymbolTableRecord
100
AcDbLinetypeTableRecord
  2
CONTINUOUS
 70
64
  3
Solid line
 72
65
 73
0
 40
0.0
  0
LTYPE
  5
1F5
100
AcDbSymbolTableRecord
100
AcDbLinetypeTableRecord
  2
CENTER
 70
64
  3
____ _ ____ _ ____ _ ____ _ ____ _ ____ _ ____
 72
65
 73
4
 40
0.6
 49
0.375
 74
0
 49
-0.075
 74
0
 49
0.075
 74
0
 49
-0.075
 74
0
  0
LTYPE
  5
1F6
100
AcDbSymbolTableRecord
100
AcDbLinetypeTableRecord
  2
HIDDEN
 70
64
  3
- - - - - - - - - - - - - - - - - - - -
 72
65
 73
2
 40
0.2
 49
0.1
 74
0
 49
-0.1
 74
0
  0
LTYPE
  5
1F7
100
AcDbSymbolTableRecord
100
AcDbLinetypeTableRecord
  2
PHANTOM
 70
64
  3
_____ _ _ _____ _ _ _____ _ _ _____
 72
65
 73
6
 40
0.8
 49
0.45
 74
0
 49
-0.05
 74
0
 49
0.1
 74
0
 49
-0.05
 74
0
 49
0.1
 74
0
 49
-0.05
 74
0
  0
LTYPE
  5
1F8
100
AcDbSymbolTableRecord
100
AcDbLinetypeTableRecord
  2
DOT
 70
64
  3
. . . . . . . . . . . . . . . . . . . .
 72
65
 73
2
 40
0.2
 49
0.1
 74
0
 49
-0.1
 74
0
  0
LTYPE
  5
1F9
100
AcDbSymbolTableRecord
100
AcDbLinetypeTableRecord
  2
DASHED
 70
64
  3
- - - - - - - - - - - - - - - - - - - -
 72
65
 73
2
 40
0.2
 49
0.1
 74
0
 49
-0.1
 74
0
  0
ENDTAB
  0
TABLE
  2
LAYER
  5
2
100
AcDbSymbolTable
 70
36
  0
LAYER
  5
10
100
AcDbSymbolTableRecord
100
AcDbLayerTableRecord
  2
0
 70
0
 62
7
  6
CONTINUOUS
370
-3
390
F
  0
LAYER
  5
1FA
100
AcDbSymbolTableRecord
100
AcDbLayerTableRecord
  2
DEFAULT_1
 70
0
 62
7
  6
CENTER
370
-3
390
F
  0
LAYER
  5
1FB
100
AcDbSymbolTableRecord
100
AcDbLayerTableRecord
  2
DEFAULT_2
 70
0
 62
8
  6
HIDDEN
370
-3
390
F
  0
LAYER
  5
1FC
100
AcDbSymbolTableRecord
100
AcDbLayerTableRecord
  2
DEFAULT_3
 70
0
 62
7
  6
PHANTOM
370
-3
390
F
  0
LAYER
  5
1FD
100
AcDbSymbolTableRecord
100
AcDbLayerTableRecord
  2
00_COMPONENTS
 70
0
 62
7
  6
CONTINUOUS
370
-3
390
F
  0
LAYER
  5
1FE
100
AcDbSymbolTableRecord
100
AcDbLayerTableRecord
  2
01_1_DEFAULT_DATUMS
 70
0
 62
7
  6
CONTINUOUS
370
-3
390
F
  0
LAYER
  5
1FF
100
AcDbSymbolTableRecord
100
AcDbLayerTableRecord
  2
01_PLANES
 70
0
 62
7
  6
CONTINUOUS
370
-3
390
F
  0
LAYER
  5
200
100
AcDbSymbolTableRecord
100
AcDbLayerTableRecord
  2
02_COORD_SYS
 70
0
 62
7
  6
CONTINUOUS
370
-3
390
F
  0
LAYER
  5
201
100
AcDbSymbolTableRecord
100
AcDbLayerTableRecord
  2
03_AXES
 70
0
 62
7
  6
CONTINUOUS
370
-3
390
F
  0
LAYER
  5
202
100
AcDbSymbolTableRecord
100
AcDbLayerTableRecord
  2
04_POINTS
 70
0
 62
7
  6
CONTINUOUS
370
-3
390
F
  0
LAYER
  5
203
100
AcDbSymbolTableRecord
100
AcDbLayerTableRecord
  2
05_CURVES
 70
0
 62
7
  6
CONTINUOUS
370
-3
390
F
  0
LAYER
  5
204
100
AcDbSymbolTableRecord
100
AcDbLayerTableRecord
  2
06_SURFS
 70
0
 62
7
  6
CONTINUOUS
370
-3
390
F
  0
LAYER
  5
205
100
AcDbSymbolTableRecord
100
AcDbLayerTableRecord
  2
07_COSMETICS
 70
0
 62
7
  6
CONTINUOUS
370
-3
390
F
  0
LAYER
  5
206
100
AcDbSymbolTableRecord
100
AcDbLayerTableRecord
  2
10_NOTES
 70
0
 62
7
  6
CONTINUOUS
370
-3
390
F
  0
LAYER
  5
207
100
AcDbSymbolTableRecord
100
AcDbLayerTableRecord
  2
11_NOTES_PUB
 70
0
 62
7
  6
CONTINUOUS
370
-3
390
F
  0
LAYER
  5
208
100
AcDbSymbolTableRecord
100
AcDbLayerTableRecord
  2
13_REF_GTOL
 70
0
 62
7
  6
CONTINUOUS
370
-3
390
F
  0
LAYER
  5
209
100
AcDbSymbolTableRecord
100
AcDbLayerTableRecord
  2
16_MISC
 70
0
 62
7
  6
CONTINUOUS
370
-3
390
F
  0
LAYER
  5
20A
100
AcDbSymbolTableRecord
100
AcDbLayerTableRecord
  2
17_NO_PRINT
 70
0
 62
7
  6
CONTINUOUS
370
-3
390
F
  0
LAYER
  5
20B
100
AcDbSymbolTableRecord
100
AcDbLayerTableRecord
  2
18_DATUM_CAMS_JOINTS
 70
0
 62
7
  6
CONTINUOUS
370
-3
390
F
  0
LAYER
  5
20C
100
AcDbSymbolTableRecord
100
AcDbLayerTableRecord
  2
19_DATUM_FUNCTIONAL
 70
0
 62
7
  6
CONTINUOUS
370
-3
390
F
  0
LAYER
  5
20D
100
AcDbSymbolTableRecord
100
AcDbLayerTableRecord
  2
20_DATUM_KINEMATIC_SCHEME
 70
0
 62
7
  6
CONTINUOUS
370
-3
390
F
  0
ENDTAB
  0
TABLE
  2
STYLE
  5
3
100
AcDbSymbolTable
 70
1
  0
STYLE
  5
11
100
AcDbSymbolTableRecord
100
AcDbTextStyleTableRecord
  2
STANDARD
 70
0
 40
0.0
 41
0.8
 50
0.0
 71
0
 42
0.2
  3
txt
  4

  0
STYLE
  5
20E
100
AcDbSymbolTableRecord
100
AcDbTextStyleTableRecord
  2
TEXTSTYLE_1
 70
0
 40
0.0
 41
0.8
 50
0.0
 71
0
 42
0.2
  3
gdt
  4

  0
ENDTAB
  0
TABLE
  2
VIEW
  5
6
100
AcDbSymbolTable
 70
0
  0
ENDTAB
  0
TABLE
  2
UCS
  5
7
100
AcDbSymbolTable
 70
0
  0
ENDTAB
  0
TABLE
  2
APPID
  5
9
100
AcDbSymbolTable
 70
1
  0
APPID
  5
20F
100
AcDbSymbolTableRecord
100
AcDbRegAppTableRecord
  2
ACAD
 70
0
  0
ENDTAB
  0
TABLE
  2
BLOCK_RECORD
  5
1
100
AcDbSymbolTable
 70
0
  0
BLOCK_RECORD
  5
210
100
AcDbSymbolTableRecord
100
AcDbBlockTableRecord
  2
*Model_Space
  0
BLOCK_RECORD
  5
211
100
AcDbSymbolTableRecord
100
AcDbBlockTableRecord
  2
*Paper_Space
  0
BLOCK_RECORD
  5
212
100
AcDbSymbolTableRecord
100
AcDbBlockTableRecord
  2
_FILLED
  0
ENDTAB
  0
TABLE
  2
DIMSTYLE
  5
A
100
AcDbSymbolTable
 70
1
100
AcDbDimStyleTable
 71
0
  0
DIMSTYLE
105
213
100
AcDbSymbolTableRecord
100
AcDbDimStyleTableRecord
  2
STANDARD
 70
0
  3

  4

 40
1.0
 41
1.552218934
 42
1.0
 43
0.38
 44
1.0
 45
0.0
 46
0.0
 47
0.01
 48
0.01
140
2.1731065076
141
0.09
142
0.0
143
25.4
144
1.0
145
0.0
146
1.0
147
0.625
 71
1
 72
0
 73
0
 74
0
 75
0
 76
0
 77
1
 78
8
 79
2
170
0
171
1
172
0
173
0
174
0
175
0
176
0
177
0
178
0
270
2
179
2
271
2
272
2
273
2
274
2
275
0
280
0
281
0
282
0
283
1
284
8
285
0
286
0
287
3
288
0
340
11
278
46
341
212
342
212
343
212
344
212
  0
ENDTAB
  0
ENDSEC
  0
SECTION
  2
BLOCKS
  0
BLOCK
  5
20
100
AcDbEntity
  8
0
100
AcDbBlockBegin
  2
*Model_Space
 70
0
 10
0.0
 20
0.0
 30
0.0
  3
*Model_Space
  1

  0
ENDBLK
  5
21
100
AcDbEntity
  8
0
100
AcDbBlockEnd
  0
BLOCK
  5
1C
100
AcDbEntity
  8
0
100
AcDbBlockBegin
  2
*Paper_Space
 70
0
 10
0.0
 20
0.0
 30
0.0
  3
*Paper_Space
  1

  0
ENDBLK
  5
1D
100
AcDbEntity
  8
0
100
AcDbBlockEnd
  0
BLOCK
  5
214
100
AcDbEntity
  8
0
100
AcDbBlockBegin
  2
_FILLED
 70
64
 10
0.0
 20
0.0
  3
_FILLED
  1

  0
SOLID
  5
215
100
AcDbEntity
  8
0
  6
BYBLOCK
 62
0
100
AcDbTrace
 10
0.0
 20
0.0
 11
-1.0
 21
0.25
 12
-1.0
 22
-0.25
 13
-1.0
 23
-0.25
  0
ENDBLK
  5
216
100
AcDbEntity
  8
0
  6
BYBLOCK
 62
0
100
AcDbBlockEnd
  0
ENDSEC
  0
SECTION
  2
ENTITIES
  0
LINE
  5
217
100
AcDbEntity
  8
0
100
AcDbLine
 62
7
  6
CONTINUOUS
 10
15.3402913365
 20
70.8621069777
 11
15.1839386213
 21
71.1154182209
  0
LINE
  5
218
100
AcDbEntity
  8
0
100
AcDbLine
 62
7
  6
CONTINUOUS
 10
64.2017367288
 20
147.7803313107
 11
63.714767533
 21
147.459910139
  0
LINE
  5
219
100
AcDbEntity
  8
0
100
AcDbLine
 62
7
  6
CONTINUOUS
 10
63.959928929
 20
147.3183693431
 11
64.401492941
 21
147.6089143289
  0
LINE
  5
21A
100
AcDbEntity
  8
0
100
AcDbLine
 62
7
  6
CONTINUOUS
 10
33.3010551283
 20
131.7072013638
 11
63.4842375903
 21
149.1333658631
  0
LINE
  5
21B
100
AcDbEntity
  8
0
100
AcDbLine
 62
7
  6
CONTINUOUS
 10
63.4834504454
 20
148.3164230997
 11
62.8573354392
 21
147.9549375901
  0
LINE
  5
21C
100
AcDbEntity
  8
0
100
AcDbLine
 62
7
  6
CONTINUOUS
 10
63.4846204339
 20
149.530702226
 11
66.5374122768
 21
151.2892977036
  0
LINE
  5
21D
100
AcDbEntity
  8
0
100
AcDbLine
 62
7
  6
CONTINUOUS
 10
67.5511412259
 20
148.916196746
 11
66.6319068071
 21
148.3866612994
  0
LINE
  5
21E
100
AcDbEntity
  8
0
100
AcDbLine
 62
7
  6
CONTINUOUS
 10
66.6299718169
 20
146.3784208443
 11
67.5492062357
 21
146.9079562909
  0
LINE
  5
21F
100
AcDbEntity
  8
0
100
AcDbLine
 62
7
  6
CONTINUOUS
 10
68.399683282
 20
147.3683033562
 11
69.3189177008
 21
147.8978388028
  0
LINE
  5
220
100
AcDbEntity
  8
0
100
AcDbLine
 62
7
  6
CONTINUOUS
 10
64.6258391793
 20
42.4077263877
 11
64.8661924934
 21
42.3817077989
  0
LINE
  5
221
100
AcDbEntity
  8
0
100
AcDbLine
 62
7
  6
CONTINUOUS
 10
67.3361030799
 20
146.0234612761
 11
68.3373825385
 21
146.6822937855
  0
LINE
  5
222
100
AcDbEntity
  8
0
100
AcDbLine
 62
7
  6
CONTINUOUS
 10
67.2830683773
 20
145.3997972919
 11
68.3984937461
 21
146.1337367417
  0
LINE
  5
223
100
AcDbEntity
  8
0
100
AcDbLine
 62
7
  6
CONTINUOUS
 10
74.5978171997
 20
146.6456601923
 11
71.5456815959
 21
144.8874427488
  0
LINE
  5
224
100
AcDbEntity
  8
0
100
AcDbLine
 62
7
  6
CONTINUOUS
 10
71.5443844067
 20
143.5411476004
 11
72.4636188255
 21
144.0706830469
  0
LINE
  5
225
100
AcDbEntity
  8
0
100
AcDbLine
 62
7
  6
CONTINUOUS
 10
64.6258233329
 20
42.4076989049
 11
15.3402754901
 21
70.862079495
  0
LINE
  5
226
100
AcDbEntity
  8
0
100
AcDbLine
 62
7
  6
CONTINUOUS
 10
64.469486464
 20
42.6610376308
 11
15.1839386213
 21
71.1154182209
  0
LINE
  5
227
100
AcDbEntity
  8
0
100
AcDbLine
 62
7
  6
CONTINUOUS
 10
66.5526694725
 20
43.2704021987
 11
83.3644236662
 21
33.5643509697
  0
LINE
  5
228
100
AcDbEntity
  8
0
100
AcDbLine
 62
7
  6
CONTINUOUS
 10
74.738700389
 20
144.3976383376
 11
72.4624907598
 21
142.8999137122
  0
LINE
  5
229
100
AcDbEntity
  8
0
100
AcDbLine
 62
7
  6
CONTINUOUS
 10
73.4351992459
 20
141.8479432325
 11
75.4950734056
 21
143.2033211444
  0
LINE
  5
22A
100
AcDbEntity
  8
0
100
AcDbLine
 62
7
  6
CONTINUOUS
 10
76.433806407
 20
142.9744035374
 11
73.958958124
 21
141.5455577441
  0
LINE
  5
22B
100
AcDbEntity
  8
0
100
AcDbLine
 62
7
  6
CONTINUOUS
 10
77.8480258573
 20
142.1579220284
 11
75.3731775743
 21
140.7290762351
  0
LINE
  5
22C
100
AcDbEntity
  8
0
100
AcDbLine
 62
7
  6
CONTINUOUS
 10
18.8065312449
 20
107.9072305643
 11
32.3616580173
 21
115.7332399403
  0
LINE
  5
22D
100
AcDbEntity
  8
0
100
AcDbLine
 62
7
  6
CONTINUOUS
 10
68.1630278365
 20
45.0908843339
 11
70.9664770512
 21
43.4723487914
  0
LINE
  5
22E
100
AcDbEntity
  8
0
100
AcDbLine
 62
7
  6
CONTINUOUS
 10
65.5798373697
 20
47.0742784863
 11
16.294289527
 21
75.5286590764
  0
LINE
  5
22F
100
AcDbEntity
  8
0
100
AcDbLine
 62
7
  6
CONTINUOUS
 10
66.0275481453
 20
47.7986039039
 11
16.7420003025
 21
76.252984494
  0
LINE
  5
230
100
AcDbEntity
  8
0
100
AcDbLine
 62
7
  6
CONTINUOUS
 10
66.9326406288
 20
48.3717576324
 11
68.9299548506
 21
47.2186338159
  0
LINE
  5
231
100
AcDbEntity
  8
0
100
AcDbLine
 62
7
  6
CONTINUOUS
 10
67.0365851648
 20
48.551798923
 11
17.7510373221
 21
77.006179513
  0
LINE
  5
232
100
AcDbEntity
  8
0
100
AcDbLine
 62
7
  6
CONTINUOUS
 10
68.6782657054
 20
45.932172754
 11
68.6309314632
 21
45.9655018817
  0
LINE
  5
233
100
AcDbEntity
  8
0
100
AcDbLine
 62
7
  6
CONTINUOUS
 10
66.0748823874
 20
47.7652747762
 11
66.0275481453
 21
47.7986039039
  0
LINE
  5
234
100
AcDbEntity
  8
0
100
AcDbLine
 62
7
  6
CONTINUOUS
 10
68.5990142324
 20
46.6832240946
 11
66.7056445466
 21
48.0163892017
  0
LINE
  5
235
100
AcDbEntity
  8
0
100
AcDbLine
 62
7
  6
CONTINUOUS
 10
16.294289527
 20
75.5286590764
 11
16.7420003025
 21
76.252984494
  0
LINE
  5
236
100
AcDbEntity
  8
0
100
AcDbLine
 62
7
  6
CONTINUOUS
 10
77.9961757126
 20
139.7939486253
 11
77.4945434075
 21
139.5043328077
  0
LINE
  5
237
100
AcDbEntity
  8
0
100
AcDbLine
 62
7
  6
CONTINUOUS
 10
22.4054530288
 20
78.5958692584
 11
26.7674751
 21
76.0775116143
  0
LINE
  5
238
100
AcDbEntity
  8
0
100
AcDbLine
 62
7
  6
CONTINUOUS
 10
34.9212951639
 20
71.3700079034
 11
39.2833172351
 21
68.8516502592
  0
LINE
  5
239
100
AcDbEntity
  8
0
100
AcDbLine
 62
7
  6
CONTINUOUS
 10
47.437137299
 20
64.1441465483
 11
51.7991593702
 21
61.6257889042
  0
LINE
  5
23A
100
AcDbEntity
  8
0
100
AcDbLine
 62
7
  6
CONTINUOUS
 10
59.9529794341
 20
56.9182851933
 11
64.3150015053
 21
54.3999275492
  0
LINE
  5
23B
100
AcDbEntity
  8
0
100
AcDbLine
 62
7
  6
CONTINUOUS
 10
20.4571580687
 20
75.4438353165
 11
22.4054530288
 21
78.5958692584
  0
LINE
  5
23C
100
AcDbEntity
  8
0
100
AcDbLine
 62
7
  6
CONTINUOUS
 10
88.9496485421
 20
135.7485421824
 11
86.4748002591
 21
134.3196963891
  0
LINE
  5
23D
100
AcDbEntity
  8
0
100
AcDbLine
 62
7
  6
CONTINUOUS
 10
68.3233350807
 20
62.3547586022
 11
69.4544428708
 21
62.3604373117
  0
LINE
  5
23E
100
AcDbEntity
  8
0
100
AcDbLine
 62
7
  6
CONTINUOUS
 10
82.4250269002
 20
48.4443193575
 11
81.001618643
 21
49.2661059067
  0
LINE
  5
23F
100
AcDbEntity
  8
0
100
AcDbLine
 62
7
  6
CONTINUOUS
 10
64.469486464
 20
42.6610376308
 11
64.6258391793
 21
42.4077263877
  0
LINE
  5
240
100
AcDbEntity
  8
0
100
AcDbLine
 62
7
  6
CONTINUOUS
 10
27.6402016722
 20
72.6291022421
 11
27.0332785125
 21
71.6471962994
  0
LINE
  5
241
100
AcDbEntity
  8
0
100
AcDbLine
 62
7
  6
CONTINUOUS
 10
28.6855258097
 20
70.6932924579
 11
29.1777110932
 21
71.4895706144
  0
LINE
  5
242
100
AcDbEntity
  8
0
100
AcDbLine
 62
7
  6
CONTINUOUS
 10
90.3638679924
 20
134.9320606734
 11
87.8890197094
 21
133.5032148801
  0
LINE
  5
243
100
AcDbEntity
  8
0
100
AcDbLine
 62
7
  6
CONTINUOUS
 10
90.5120178477
 20
132.5680872703
 11
90.0103855426
 21
132.2784714527
  0
LINE
  5
244
100
AcDbEntity
  8
0
100
AcDbLine
 62
7
  6
CONTINUOUS
 10
18.1824879994
 20
93.2560639284
 11
18.2564752299
 21
93.2987727385
  0
LINE
  5
245
100
AcDbEntity
  8
0
100
AcDbLine
 62
7
  6
CONTINUOUS
 10
18.2599665403
 20
91.2582040223
 11
68.3233350807
 21
62.3547586022
  0
LINE
  5
246
100
AcDbEntity
  8
0
100
AcDbLine
 62
7
  6
CONTINUOUS
 10
18.0824773102
 20
92.9195502343
 11
68.1458458506
 21
64.0161048143
  0
LINE
  5
247
100
AcDbEntity
  8
0
100
AcDbLine
 62
7
  6
CONTINUOUS
 10
68.2458565398
 20
64.3526185084
 11
18.1824879994
 21
93.2560639284
  0
LINE
  5
248
100
AcDbEntity
  8
0
100
AcDbLine
 62
7
  6
CONTINUOUS
 10
18.2564752299
 20
93.2987727385
 11
68.3198437703
 21
64.3953273184
  0
LINE
  5
249
100
AcDbEntity
  8
0
100
AcDbLine
 62
7
  6
CONTINUOUS
 10
32.9730002038
 20
68.2179739615
 11
34.9212951639
 21
71.3700079034
  0
LINE
  5
24A
100
AcDbEntity
  8
0
100
AcDbLine
 62
7
  6
CONTINUOUS
 10
51.7253557792
 20
138.3561161166
 11
51.7039124431
 21
138.6560648117
  0
LINE
  5
24B
100
AcDbEntity
  8
0
100
AcDbLine
 62
7
  6
CONTINUOUS
 10
101.4654906772
 20
128.5226808274
 11
98.9906423942
 21
127.0938350341
  0
LINE
  5
24C
100
AcDbEntity
  8
0
100
AcDbLine
 62
7
  6
CONTINUOUS
 10
101.0309768507
 20
126.6388390347
 11
100.4048618445
 21
126.2773535251
  0
LINE
  5
24D
100
AcDbEntity
  8
0
100
AcDbLine
 62
7
  6
CONTINUOUS
 10
101.0321468392
 20
127.853118161
 11
104.0849386821
 21
129.6117136385
  0
LINE
  5
24E
100
AcDbEntity
  8
0
100
AcDbLine
 62
7
  6
CONTINUOUS
 10
105.0986676312
 20
127.2386126809
 11
104.1794332124
 21
126.7090772344
  0
LINE
  5
24F
100
AcDbEntity
  8
0
100
AcDbLine
 62
7
  6
CONTINUOUS
 10
68.8698997853
 20
79.0037851443
 11
18.8065312449
 21
107.9072305643
  0
LINE
  5
250
100
AcDbEntity
  8
0
100
AcDbLine
 62
7
  6
CONTINUOUS
 10
40.1560438073
 20
65.4032408871
 11
39.5491206476
 21
64.4213349444
  0
LINE
  5
251
100
AcDbEntity
  8
0
100
AcDbLine
 62
7
  6
CONTINUOUS
 10
41.2013679448
 20
63.4674311029
 11
41.6935532283
 21
64.2637092594
  0
LINE
  5
252
100
AcDbEntity
  8
0
100
AcDbLine
 62
7
  6
CONTINUOUS
 10
101.7492631341
 20
126.1027472456
 11
101.2622939383
 21
125.7823260739
  0
LINE
  5
253
100
AcDbEntity
  8
0
100
AcDbLine
 62
7
  6
CONTINUOUS
 10
101.5074553343
 20
125.640785278
 11
101.9490193463
 21
125.9313302639
  0
LINE
  5
254
100
AcDbEntity
  8
0
100
AcDbLine
 62
7
  6
CONTINUOUS
 10
104.8836294852
 20
124.345877211
 11
105.8849089439
 21
125.0047097205
  0
LINE
  5
255
100
AcDbEntity
  8
0
100
AcDbLine
 62
7
  6
CONTINUOUS
 10
104.8305947826
 20
123.7222132269
 11
105.9460201514
 21
124.4561526766
  0
LINE
  5
256
100
AcDbEntity
  8
0
100
AcDbLine
 62
7
  6
CONTINUOUS
 10
104.1774982222
 20
124.7008367793
 11
105.096732641
 21
125.2303722258
  0
LINE
  5
257
100
AcDbEntity
  8
0
100
AcDbLine
 62
7
  6
CONTINUOUS
 10
105.9472096874
 20
125.6907192912
 11
106.8664441062
 21
126.2202547377
  0
LINE
  5
258
100
AcDbEntity
  8
0
100
AcDbLine
 62
7
  6
CONTINUOUS
 10
112.145343605
 20
124.9680761272
 11
109.0932080012
 21
123.2098586837
  0
LINE
  5
259
100
AcDbEntity
  8
0
100
AcDbLine
 62
7
  6
CONTINUOUS
 10
63.48333354
 20
148.195092202
 11
63.4846204339
 21
149.530702226
  0
LINE
  5
25A
100
AcDbEntity
  8
0
100
AcDbLine
 62
7
  6
CONTINUOUS
 10
64.4014398931
 20
147.5538583137
 11
64.4015469554
 21
147.6649734323
  0
LINE
  5
25B
100
AcDbEntity
  8
0
100
AcDbLine
 62
7
  6
CONTINUOUS
 10
66.6319068071
 20
148.3866612994
 11
66.6299718169
 21
146.3784208443
  0
LINE
  5
25C
100
AcDbEntity
  8
0
100
AcDbLine
 62
7
  6
CONTINUOUS
 10
45.4888423389
 20
60.9921126065
 11
47.437137299
 21
64.1441465483
  0
LINE
  5
25D
100
AcDbEntity
  8
0
100
AcDbLine
 62
7
  6
CONTINUOUS
 10
112.2862267943
 20
122.7200542726
 11
110.0100171651
 21
121.2223296471
  0
LINE
  5
25E
100
AcDbEntity
  8
0
100
AcDbLine
 62
7
  6
CONTINUOUS
 10
113.9813328123
 20
121.2968194724
 11
111.5064845293
 21
119.8679736791
  0
LINE
  5
25F
100
AcDbEntity
  8
0
100
AcDbLine
 62
7
  6
CONTINUOUS
 10
83.3644236688
 20
102.8037559438
 11
116.0758355482
 21
121.6895856648
  0
LINE
  5
260
100
AcDbEntity
  8
0
100
AcDbLine
 62
7
  6
CONTINUOUS
 10
109.091910812
 20
121.8635635354
 11
110.0111452308
 21
122.3930989819
  0
LINE
  5
261
100
AcDbEntity
  8
0
100
AcDbLine
 62
7
  6
CONTINUOUS
 10
64.2411979143
 20
131.1302547616
 11
64.2197545782
 21
131.4302034567
  0
LINE
  5
262
100
AcDbEntity
  8
0
100
AcDbLine
 62
7
  6
CONTINUOUS
 10
67.5492062357
 20
146.9079562909
 11
67.5511412259
 21
148.916196746
  0
LINE
  5
263
100
AcDbEntity
  8
0
100
AcDbLine
 62
7
  6
CONTINUOUS
 10
68.3977461298
 20
145.357818958
 11
68.399683282
 21
147.3683033562
  0
LINE
  5
264
100
AcDbEntity
  8
0
100
AcDbLine
 62
7
  6
CONTINUOUS
 10
71.5456815959
 20
144.8874427488
 11
71.5443844067
 21
143.5411476004
  0
LINE
  5
265
100
AcDbEntity
  8
0
100
AcDbLine
 62
7
  6
CONTINUOUS
 10
110.9827256512
 20
120.1703591675
 11
113.0425998109
 21
121.5257370793
  0
LINE
  5
266
100
AcDbEntity
  8
0
100
AcDbLine
 62
7
  6
CONTINUOUS
 10
114.8365923927
 20
118.5246053148
 11
112.3617441098
 21
117.0957595215
  0
LINE
  5
267
100
AcDbEntity
  8
0
100
AcDbLine
 62
7
  6
CONTINUOUS
 10
32.3616580173
 20
115.7332399403
 11
82.4250265577
 21
86.8297945203
  0
LINE
  5
268
100
AcDbEntity
  8
0
100
AcDbLine
 62
7
  6
CONTINUOUS
 10
72.4636188255
 20
144.0706830469
 11
72.4624907598
 21
142.8999137122
  0
LINE
  5
269
100
AcDbEntity
  8
0
100
AcDbLine
 62
7
  6
CONTINUOUS
 10
52.6718859424
 20
58.1773795321
 11
52.0649627827
 21
57.1954735894
  0
LINE
  5
26A
100
AcDbEntity
  8
0
100
AcDbLine
 62
7
  6
CONTINUOUS
 10
53.7172100799
 20
56.2415697478
 11
54.2093953634
 21
57.0378479044
  0
LINE
  5
26B
100
AcDbEntity
  8
0
100
AcDbLine
 62
7
  6
CONTINUOUS
 10
112.5483905198
 20
114.1175105846
 11
113.992541264
 21
115.0677482537
  0
LINE
  5
26C
100
AcDbEntity
  8
0
100
AcDbLine
 62
7
  6
CONTINUOUS
 10
112.8078507013
 20
109.9773987553
 11
114.4156351523
 21
111.0353058715
  0
LINE
  5
26D
100
AcDbEntity
  8
0
100
AcDbLine
 62
7
  6
CONTINUOUS
 10
114.5628852829
 20
73.6630479444
 11
113.3961748442
 21
74.3366332917
  0
LINE
  5
26E
100
AcDbEntity
  8
0
100
AcDbLine
 62
7
  6
CONTINUOUS
 10
117.2852459493
 20
73.7242908565
 11
114.5628735075
 21
75.2960177614
  0
LINE
  5
26F
100
AcDbEntity
  8
0
100
AcDbLine
 62
7
  6
CONTINUOUS
 10
76.7570400494
 20
123.9043934065
 11
76.7355967133
 21
124.2043421016
  0
LINE
  5
270
100
AcDbEntity
  8
0
100
AcDbLine
 62
7
  6
CONTINUOUS
 10
74.738700389
 20
144.3976383376
 11
74.5978171997
 21
146.6456601923
  0
LINE
  5
271
100
AcDbEntity
  8
0
100
AcDbLine
 62
7
  6
CONTINUOUS
 10
77.9961757126
 20
139.7939486253
 11
77.8480258573
 21
142.1579220284
  0
LINE
  5
272
100
AcDbEntity
  8
0
100
AcDbLine
 62
7
  6
CONTINUOUS
 10
82.3753216601
 20
50.0592089793
 11
82.4250269001
 21
48.4443193615
  0
LINE
  5
273
100
AcDbEntity
  8
0
100
AcDbLine
 62
7
  6
CONTINUOUS
 10
58.004684474
 20
53.7662512515
 11
59.9529794341
 21
56.9182851933
  0
LINE
  5
274
100
AcDbEntity
  8
0
100
AcDbLine
 62
7
  6
CONTINUOUS
 10
112.9649964928
 20
107.469880467
 11
114.4746007198
 21
108.463185915
  0
LINE
  5
275
100
AcDbEntity
  8
0
100
AcDbLine
 62
7
  6
CONTINUOUS
 10
68.8698997853
 20
79.0037851443
 11
82.4250265577
 21
86.8297945203
  0
LINE
  5
276
100
AcDbEntity
  8
0
100
AcDbLine
 62
7
  6
CONTINUOUS
 10
113.8713952094
 20
102.9443013648
 11
113.2703569501
 21
102.5973546195
  0
LINE
  5
277
100
AcDbEntity
  8
0
100
AcDbLine
 62
7
  6
CONTINUOUS
 10
65.1877280775
 20
50.9515181771
 11
64.5808049178
 21
49.9696122344
  0
LINE
  5
278
100
AcDbEntity
  8
0
100
AcDbLine
 62
7
  6
CONTINUOUS
 10
113.3961748442
 20
100.491236863
 11
114.3607412632
 21
101.1259125361
  0
LINE
  5
279
100
AcDbEntity
  8
0
100
AcDbLine
 62
7
  6
CONTINUOUS
 10
117.2852459493
 20
102.8734271482
 11
115.8687030513
 21
102.0555906065
  0
LINE
  5
27A
100
AcDbEntity
  8
0
100
AcDbLine
 62
7
  6
CONTINUOUS
 10
113.9948893513
 20
100.97375022
 11
113.3961748442
 21
100.6280843015
  0
LINE
  5
27B
100
AcDbEntity
  8
0
100
AcDbLine
 62
7
  6
CONTINUOUS
 10
83.3644236688
 20
102.8037559438
 11
33.3010551284
 21
131.7072013638
  0
LINE
  5
27C
100
AcDbEntity
  8
0
100
AcDbLine
 62
7
  6
CONTINUOUS
 10
89.2728821845
 20
116.6785320515
 11
89.2514388484
 21
116.9784807466
  0
LINE
  5
27D
100
AcDbEntity
  8
0
100
AcDbLine
 62
7
  6
CONTINUOUS
 10
66.233052215
 20
49.0157083928
 11
66.7252374985
 21
49.8119865494
  0
LINE
  5
27E
100
AcDbEntity
  8
0
100
AcDbLine
 62
7
  6
CONTINUOUS
 10
66.0275481453
 20
47.7986039039
 11
65.5798373697
 21
47.0742784863
  0
LINE
  5
27F
100
AcDbEntity
  8
0
100
AcDbLine
 62
7
  6
CONTINUOUS
 10
66.7056445466
 20
48.0163892017
 11
67.0365851648
 21
48.551798923
  0
LINE
  5
280
100
AcDbEntity
  8
0
100
AcDbLine
 62
7
  6
CONTINUOUS
 10
68.9299548506
 20
47.2186338159
 11
68.5990142324
 21
46.6832240946
  0
LINE
  5
281
100
AcDbEntity
  8
0
100
AcDbLine
 62
7
  6
CONTINUOUS
 10
68.2305549298
 20
45.2078473364
 11
68.6782657054
 21
45.932172754
  0
LINE
  5
282
100
AcDbEntity
  8
0
100
AcDbLine
 62
7
  6
CONTINUOUS
 10
68.2458565398
 20
64.3526185084
 11
68.3198437703
 21
64.3953273184
  0
LINE
  5
283
100
AcDbEntity
  8
0
100
AcDbLine
 62
7
  6
CONTINUOUS
 10
68.3190250571
 20
64.0682537516
 11
68.245831768
 21
64.0260032409
  0
LINE
  5
284
100
AcDbEntity
  8
0
100
AcDbLine
 62
7
  6
CONTINUOUS
 10
90.5120178477
 20
132.5680872703
 11
90.3638679924
 21
134.9320606734
  0
LINE
  5
285
100
AcDbEntity
  8
0
100
AcDbLine
 62
7
  6
CONTINUOUS
 10
101.0308599453
 20
126.5175081369
 11
101.0321468392
 21
127.853118161
  0
LINE
  5
286
100
AcDbEntity
  8
0
100
AcDbLine
 62
7
  6
CONTINUOUS
 10
101.9489662985
 20
125.8762742487
 11
101.9490733607
 21
125.9873893673
  0
LINE
  5
287
100
AcDbEntity
  8
0
100
AcDbLine
 62
7
  6
CONTINUOUS
 10
94.8806930572
 20
113.4409341789
 11
89.2728821845
 21
116.6785320515
  0
LINE
  5
288
100
AcDbEntity
  8
0
100
AcDbLine
 62
7
  6
CONTINUOUS
 10
82.3648509221
 20
120.6667955339
 11
76.7570400494
 21
123.9043934065
  0
LINE
  5
289
100
AcDbEntity
  8
0
100
AcDbLine
 62
7
  6
CONTINUOUS
 10
69.849008787
 20
127.8926568889
 11
64.2411979143
 21
131.1302547616
  0
LINE
  5
28A
100
AcDbEntity
  8
0
100
AcDbLine
 62
7
  6
CONTINUOUS
 10
57.3331666519
 20
135.1185182439
 11
51.7253557792
 21
138.3561161166
  0
LINE
  5
28B
100
AcDbEntity
  8
0
100
AcDbLine
 62
7
  6
CONTINUOUS
 10
113.2252347063
 20
103.3173538656
 11
113.8713952094
 21
102.9443013648
  0
LINE
  5
28C
100
AcDbEntity
  8
0
100
AcDbLine
 62
7
  6
CONTINUOUS
 10
114.3884298653
 20
102.9102073948
 11
115.8687030513
 21
102.0555906065
  0
LINE
  5
28D
100
AcDbEntity
  8
0
100
AcDbLine
 62
7
  6
CONTINUOUS
 10
104.1794332124
 20
126.7090772344
 11
104.1774982222
 21
124.7008367793
  0
LINE
  5
28E
100
AcDbEntity
  8
0
100
AcDbLine
 62
7
  6
CONTINUOUS
 10
105.096732641
 20
125.2303722258
 11
105.0986676312
 21
127.2386126809
  0
LINE
  5
28F
100
AcDbEntity
  8
0
100
AcDbLine
 62
7
  6
CONTINUOUS
 10
105.9452725351
 20
123.680234893
 11
105.9472096874
 21
125.6907192912
  0
LINE
  5
290
100
AcDbEntity
  8
0
100
AcDbLine
 62
7
  6
CONTINUOUS
 10
113.3961748442
 20
74.6224279949
 11
114.5628735075
 21
75.2960177614
  0
LINE
  5
291
100
AcDbEntity
  8
0
100
AcDbLine
 62
7
  6
CONTINUOUS
 10
114.5628852829
 20
73.6630479444
 11
113.3961748442
 21
72.9894513793
  0
LINE
  5
292
100
AcDbEntity
  8
0
100
AcDbLine
 62
7
  6
CONTINUOUS
 10
113.3961748442
 20
71.4789480099
 11
117.2852459493
 21
73.7242908565
  0
LINE
  5
293
100
AcDbEntity
  8
0
100
AcDbLine
 62
7
  6
CONTINUOUS
 10
113.3961748442
 20
100.6280843015
 11
113.3961748442
 21
71.4789480099
  0
LINE
  5
294
100
AcDbEntity
  8
0
100
AcDbLine
 62
7
  6
CONTINUOUS
 10
109.0932080012
 20
123.2098586837
 11
109.091910812
 21
121.8635635354
  0
LINE
  5
295
100
AcDbEntity
  8
0
100
AcDbLine
 62
7
  6
CONTINUOUS
 10
110.0111452308
 20
122.3930989819
 11
110.0100171651
 21
121.2223296471
  0
LINE
  5
296
100
AcDbEntity
  8
0
100
AcDbLine
 62
7
  6
CONTINUOUS
 10
82.3753216601
 20
50.0592089793
 11
70.9664770512
 21
43.4723487914
  0
LINE
  5
297
100
AcDbEntity
  8
0
100
AcDbLine
 62
7
  6
CONTINUOUS
 10
73.958958124
 20
141.5455577441
 11
62.8573354392
 21
147.9549375901
  0
LINE
  5
298
100
AcDbEntity
  8
0
100
AcDbLine
 62
7
  6
CONTINUOUS
 10
75.3731775743
 20
140.7290762351
 11
86.4748002591
 21
134.3196963891
  0
LINE
  5
299
100
AcDbEntity
  8
0
100
AcDbLine
 62
7
  6
CONTINUOUS
 10
87.8890197094
 20
133.5032148801
 11
98.9906423942
 21
127.0938350341
  0
LINE
  5
29A
100
AcDbEntity
  8
0
100
AcDbLine
 62
7
  6
CONTINUOUS
 10
100.4048618445
 20
126.2773535251
 11
111.5064845293
 21
119.8679736791
  0
LINE
  5
29B
100
AcDbEntity
  8
0
100
AcDbLine
 62
7
  6
CONTINUOUS
 10
109.091910812
 20
121.8635635354
 11
105.9452725351
 21
123.680234893
  0
LINE
  5
29C
100
AcDbEntity
  8
0
100
AcDbLine
 62
7
  6
CONTINUOUS
 10
104.1774982222
 20
124.7008367793
 11
101.0308599453
 21
126.5175081369
  0
LINE
  5
29D
100
AcDbEntity
  8
0
100
AcDbLine
 62
7
  6
CONTINUOUS
 10
71.5443844067
 20
143.5411476004
 11
68.3977461298
 21
145.357818958
  0
LINE
  5
29E
100
AcDbEntity
  8
0
100
AcDbLine
 62
7
  6
CONTINUOUS
 10
66.6299718169
 20
146.3784208443
 11
63.48333354
 21
148.195092202
  0
LINE
  5
29F
100
AcDbEntity
  8
0
100
AcDbLine
 62
7
  6
CONTINUOUS
 10
104.8836294852
 20
124.345877211
 11
104.2232033967
 21
124.7271657651
  0
LINE
  5
2A0
100
AcDbEntity
  8
0
100
AcDbLine
 62
7
  6
CONTINUOUS
 10
67.3361030799
 20
146.0234612761
 11
66.6756769914
 21
146.4047498302
  0
LINE
  5
2A1
100
AcDbEntity
  8
0
100
AcDbLine
 62
7
  6
CONTINUOUS
 10
113.992541264
 20
115.0677482537
 11
114.4156351523
 21
111.0353058715
  0
LINE
  5
2A2
100
AcDbEntity
  8
0
100
AcDbLine
 62
7
  6
CONTINUOUS
 10
113.2703569501
 20
102.5973546195
 11
112.3617441098
 21
117.0957595215
  0
LINE
  5
2A3
100
AcDbEntity
  8
0
100
AcDbLine
 62
7
  6
CONTINUOUS
 10
112.2862267943
 20
122.7200542726
 11
112.145343605
 21
124.9680761272
  0
LINE
  5
2A4
100
AcDbEntity
  8
0
100
AcDbLine
 62
7
  6
CONTINUOUS
 10
113.9948893513
 20
100.97375022
 11
113.8713952094
 21
102.9443013648
  0
LINE
  5
2A5
100
AcDbEntity
  8
0
100
AcDbLine
 62
7
  6
CONTINUOUS
 10
113.812938639
 20
117.9336020723
 11
113.992541264
 21
115.0677482537
  0
LINE
  5
2A6
100
AcDbEntity
  8
0
100
AcDbLine
 62
7
  6
CONTINUOUS
 10
114.8365923927
 20
118.5246053148
 11
115.8687030513
 21
102.0555906065
  0
LINE
  5
2A7
100
AcDbEntity
  8
0
100
AcDbLine
 62
7
  6
CONTINUOUS
 10
114.4156351523
 20
111.0353058715
 11
114.4746007198
 21
108.463185915
  0
LINE
  5
2A8
100
AcDbEntity
  8
0
100
AcDbLine
 62
7
  6
CONTINUOUS
 10
117.2852459493
 20
114.4677614717
 11
117.2852459493
 21
102.8734271482
  0
LINE
  5
2A9
100
AcDbEntity
  8
0
100
AcDbLine
 62
7
  6
CONTINUOUS
 10
117.2852459493
 20
73.7242908565
 11
117.2852459493
 21
53.1484299448
  0
LINE
  5
2AA
100
AcDbEntity
  8
0
100
AcDbLine
 62
7
  6
CONTINUOUS
 10
114.4746007198
 20
108.463185915
 11
114.3607412632
 21
101.1259125361
  0
LINE
  5
2AB
100
AcDbEntity
  8
0
100
AcDbLine
 62
7
  6
CONTINUOUS
 10
76.433806407
 20
142.9744035374
 11
74.9094411341
 21
143.8544763282
  0
LINE
  5
2AC
100
AcDbEntity
  8
0
100
AcDbLine
 62
7
  6
CONTINUOUS
 10
77.8480258573
 20
142.1579220284
 11
88.9496485421
 21
135.7485421824
  0
LINE
  5
2AD
100
AcDbEntity
  8
0
100
AcDbLine
 62
7
  6
CONTINUOUS
 10
90.3638679924
 20
134.9320606734
 11
101.4654906772
 21
128.5226808274
  0
LINE
  5
2AE
100
AcDbEntity
  8
0
100
AcDbLine
 62
7
  6
CONTINUOUS
 10
112.4569675394
 20
122.1768922632
 11
113.9813328123
 21
121.2968194724
  0
LINE
  5
2AF
100
AcDbEntity
  8
0
100
AcDbLine
 62
7
  6
CONTINUOUS
 10
74.663442505
 20
145.5985010441
 11
103.2185104878
 21
129.1125978185
  0
LINE
  5
2B0
100
AcDbEntity
  8
0
100
AcDbLine
 62
7
  6
CONTINUOUS
 10
112.2109689103
 20
123.9209169791
 11
116.0758355482
 21
121.6895856648
  0
LINE
  5
2B1
100
AcDbEntity
  8
0
100
AcDbLine
 62
7
  6
CONTINUOUS
 10
117.2852459493
 20
114.4677614717
 11
116.0758355482
 21
121.6895856648
  0
LINE
  5
2B2
100
AcDbEntity
  8
0
100
AcDbLine
 62
7
  6
CONTINUOUS
 10
117.2852459493
 20
53.1484299448
 11
83.3644236662
 21
33.5643509697
  0
ARC
  5
2B3
100
AcDbEntity
  8
0
100
AcDbCircle
 62
7
  6
CONTINUOUS
 10
36.0039208367
 20
78.3765507931
 40
16.5493283914
100
AcDbArc
 50
148.2430108511
 51
148.8981690522
  0
ARC
  5
2B4
100
AcDbEntity
  8
0
100
AcDbCircle
 62
7
  6
CONTINUOUS
 10
43.4855923741
 20
59.4656128178
 40
14.1375966803
100
AcDbArc
 50
14.7960281707
 51
16.37842669
  0
ARC
  5
2B5
100
AcDbEntity
  8
0
100
AcDbCircle
 62
7
  6
CONTINUOUS
 10
30.9796757671
 20
66.6940602902
 40
14.1273398324
100
AcDbArc
 50
14.7961677016
 51
16.3783690039
  0
ARC
  5
2B6
100
AcDbEntity
  8
0
100
AcDbCircle
 62
7
  6
CONTINUOUS
 10
18.4644099065
 20
73.9200722144
 40
14.1267442143
100
AcDbArc
 50
14.7961741626
 51
16.3784421402
  0
ARC
  5
2B7
100
AcDbEntity
  8
0
100
AcDbCircle
 62
7
  6
CONTINUOUS
 10
42.5093127768
 20
74.6201558927
 40
10.8
100
AcDbArc
 50
161.8286864526
 51
205.4602165904
  0
ARC
  5
2B8
100
AcDbEntity
  8
0
100
AcDbCircle
 62
7
  6
CONTINUOUS
 10
42.5093127768
 20
74.6201558927
 40
10.8
100
AcDbArc
 50
261.6103681378
 51
267.1686667029
  0
ARC
  5
2B9
100
AcDbEntity
  8
0
100
AcDbCircle
 62
7
  6
CONTINUOUS
 10
55.0251549119
 20
67.3942945377
 40
10.8
100
AcDbArc
 50
161.8286864526
 51
205.4602165904
  0
ARC
  5
2BA
100
AcDbEntity
  8
0
100
AcDbCircle
 62
7
  6
CONTINUOUS
 10
55.0251549119
 20
67.3942945377
 40
10.8
100
AcDbArc
 50
261.6103681378
 51
267.1686667029
  0
ARC
  5
2BB
100
AcDbEntity
  8
0
100
AcDbCircle
 62
7
  6
CONTINUOUS
 10
67.540997047
 20
60.1684331827
 40
10.8
100
AcDbArc
 50
161.8286864526
 51
205.4602165904
  0
ARC
  5
2BC
100
AcDbEntity
  8
0
100
AcDbCircle
 62
7
  6
CONTINUOUS
 10
67.540997047
 20
60.1684331827
 40
10.8
100
AcDbArc
 50
261.6103681378
 51
267.1686667029
  0
ARC
  5
2BD
100
AcDbEntity
  8
0
100
AcDbCircle
 62
7
  6
CONTINUOUS
 10
29.9934706417
 20
81.8460172477
 40
10.8
100
AcDbArc
 50
161.8329302133
 51
205.4602165904
  0
ARC
  5
2BE
100
AcDbEntity
  8
0
100
AcDbCircle
 62
7
  6
CONTINUOUS
 10
29.9934706417
 20
81.8460172477
 40
10.8
100
AcDbArc
 50
261.6103681378
 51
267.1686667029
  0
ARC
  5
2BF
100
AcDbEntity
  8
0
100
AcDbCircle
 62
7
  6
CONTINUOUS
 10
41.8987539752
 20
71.7352034784
 40
7.8544242855
100
AcDbArc
 50
266.9290738222
 51
273.3835508623
  0
ARC
  5
2C0
100
AcDbEntity
  8
0
100
AcDbCircle
 62
7
  6
CONTINUOUS
 10
54.4145961103
 20
64.5093421234
 40
7.8544242855
100
AcDbArc
 50
266.9290738222
 51
273.3835508623
  0
ARC
  5
2C1
100
AcDbEntity
  8
0
100
AcDbCircle
 62
7
  6
CONTINUOUS
 10
66.9304382454
 20
57.2834807684
 40
7.8544242855
100
AcDbArc
 50
266.9290738222
 51
273.3835508623
  0
ARC
  5
2C2
100
AcDbEntity
  8
0
100
AcDbCircle
 62
7
  6
CONTINUOUS
 10
29.3829118401
 20
78.9610648334
 40
7.8544242855
100
AcDbArc
 50
266.9290738222
 51
273.3835508623
  0
ARC
  5
2C3
100
AcDbEntity
  8
0
100
AcDbCircle
 62
7
  6
CONTINUOUS
 10
42.1682516889
 20
67.0209888999
 40
3.1917618997
100
AcDbArc
 50
273.559431304
 51
275.4479572191
  0
ARC
  5
2C4
100
AcDbEntity
  8
0
100
AcDbCircle
 62
7
  6
CONTINUOUS
 10
29.6524012361
 20
74.2465026005
 40
3.1914148957
100
AcDbArc
 50
273.5603927025
 51
275.4611445857
  0
ARC
  5
2C5
100
AcDbEntity
  8
0
100
AcDbCircle
 62
7
  6
CONTINUOUS
 10
54.6858722572
 20
59.7778426294
 40
3.1744785693
100
AcDbArc
 50
273.5583244182
 51
275.7951273454
  0
ARC
  5
2C6
100
AcDbEntity
  8
0
100
AcDbCircle
 62
7
  6
CONTINUOUS
 10
67.2017872189
 20
52.5509816872
 40
3.1734690014
100
AcDbArc
 50
273.5590978606
 51
275.823098977
  0
ARC
  5
2C7
100
AcDbEntity
  8
0
100
AcDbCircle
 62
7
  6
CONTINUOUS
 10
75.206706395
 20
55.5266631427
 40
3.0068983599
100
AcDbArc
 50
167.2776692551
 51
167.935125022
  0
ARC
  5
2C8
100
AcDbEntity
  8
0
100
AcDbCircle
 62
7
  6
CONTINUOUS
 10
96.1356667239
 20
77.3229512651
 40
3.0068983584
100
AcDbArc
 50
167.2776692548
 51
167.935125022
  0
ARC
  5
2C9
100
AcDbEntity
  8
0
100
AcDbCircle
 62
7
  6
CONTINUOUS
 10
88.2849996248
 20
48.8676665993
 40
3.006898357
100
AcDbArc
 50
167.2776692547
 51
167.9351250222
  0
ARC
  5
2CA
100
AcDbEntity
  8
0
100
AcDbCircle
 62
7
  6
CONTINUOUS
 10
111.9385062513
 20
60.6708517396
 40
2.9717725884
100
AcDbArc
 50
167.4648112606
 51
168.859726861
  0
ARC
  5
2CB
100
AcDbEntity
  8
0
100
AcDbCircle
 62
7
  6
CONTINUOUS
 10
85.9204417211
 20
89.9064672832
 40
2.9717725883
100
AcDbArc
 50
167.4648112606
 51
168.859726861
  0
ARC
  5
2CC
100
AcDbEntity
  8
0
100
AcDbCircle
 62
7
  6
CONTINUOUS
 10
62.031949268
 20
58.535383184
 40
2.7542175011
100
AcDbArc
 50
212.3613306129
 51
218.045999728
  0
ARC
  5
2CD
100
AcDbEntity
  8
0
100
AcDbCircle
 62
7
  6
CONTINUOUS
 10
49.5161071329
 20
65.761244539
 40
2.7542175011
100
AcDbArc
 50
212.3613306129
 51
218.045999728
  0
ARC
  5
2CE
100
AcDbEntity
  8
0
100
AcDbCircle
 62
7
  6
CONTINUOUS
 10
37.0002649978
 20
72.987105894
 40
2.7542175011
100
AcDbArc
 50
212.3613306129
 51
218.045999728
  0
ARC
  5
2CF
100
AcDbEntity
  8
0
100
AcDbCircle
 62
7
  6
CONTINUOUS
 10
24.4844228627
 20
80.212967249
 40
2.7542175011
100
AcDbArc
 50
212.3613306129
 51
218.045999728
  0
ARC
  5
2D0
100
AcDbEntity
  8
0
100
AcDbCircle
 62
7
  6
CONTINUOUS
 10
61.9535552352
 20
58.4750750339
 40
2.6553135088
100
AcDbArc
 50
218.0636961042
 51
218.8026206674
  0
ARC
  5
2D1
100
AcDbEntity
  8
0
100
AcDbCircle
 62
7
  6
CONTINUOUS
 10
49.4377130997
 20
65.7009363886
 40
2.6553135082
100
AcDbArc
 50
218.0636961041
 51
218.8026206674
  0
ARC
  5
2D2
100
AcDbEntity
  8
0
100
AcDbCircle
 62
7
  6
CONTINUOUS
 10
24.4060288295
 20
80.1526590986
 40
2.6553135082
100
AcDbArc
 50
218.0636961041
 51
218.8026206675
  0
ARC
  5
2D3
100
AcDbEntity
  8
0
100
AcDbCircle
 62
7
  6
CONTINUOUS
 10
36.9218709642
 20
72.9267977433
 40
2.6553135078
100
AcDbArc
 50
218.063696104
 51
218.8026206675
  0
ARC
  5
2D4
100
AcDbEntity
  8
0
100
AcDbCircle
 62
7
  6
CONTINUOUS
 10
58.8196530682
 20
131.7745086749
 40
19.2404867984
100
AcDbArc
 50
56.9284437991
 51
59.9650368415
  0
ARC
  5
2D5
100
AcDbEntity
  8
0
100
AcDbCircle
 62
7
  6
CONTINUOUS
 10
96.3671794736
 20
110.09692461
 40
19.2404867982
100
AcDbArc
 50
56.9284437991
 51
59.9650368415
  0
ARC
  5
2D6
100
AcDbEntity
  8
0
100
AcDbCircle
 62
7
  6
CONTINUOUS
 10
59.7075343087
 20
133.2970536848
 40
17.4779804164
100
AcDbArc
 50
59.9866061633
 51
63.3351541671
  0
ARC
  5
2D7
100
AcDbEntity
  8
0
100
AcDbCircle
 62
7
  6
CONTINUOUS
 10
97.255060714
 20
111.6194696197
 40
17.4779804165
100
AcDbArc
 50
59.9866061633
 51
63.3351541671
  0
ARC
  5
2D8
100
AcDbEntity
  8
0
100
AcDbCircle
 62
7
  6
CONTINUOUS
 10
109.9260246087
 20
109.4518475705
 40
3.0068983569
100
AcDbArc
 50
167.2776692548
 51
167.9351250223
  0
ARC
  5
2D9
100
AcDbEntity
  8
0
100
AcDbCircle
 62
7
  6
CONTINUOUS
 10
220.3823061136
 20
92.6226866858
 40
202.1269451793
100
AcDbArc
 50
179.9994347163
 51
180.3867851046
  0
ARC
  5
2DA
100
AcDbEntity
  8
0
100
AcDbCircle
 62
7
  6
CONTINUOUS
 10
156.6437494054
 20
92.4779151374
 40
137.2543962292
100
AcDbArc
 50
183.0376689815
 51
183.2261436456
  0
ARC
  5
2DB
100
AcDbEntity
  8
0
100
AcDbCircle
 62
7
  6
CONTINUOUS
 10
141.6832857567
 20
91.1598816713
 40
122.233144936
100
AcDbArc
 50
186.5705327336
 51
187.3814387518
  0
SPLINE
  5
2DC
100
AcDbEntity
  8
0
100
AcDbSpline
 62
7
  6
CONTINUOUS
 70
0
 71
3
 72
10
 73
6
 74
0
 42
0.0000001
 43
0.0000001
 44
0.0000000001
 40
0.0
 40
0.0
 40
0.0
 40
0.0
 40
0.2377246814
 40
0.4801509521
 40
1.0
 40
1.0
 40
1.0
 40
1.0
 10
65.9713333819
 20
146.5522385279
 30
0.0
 10
65.9905273048
 20
146.5648673206
 30
0.0
 10
66.0320846187
 20
146.5864124612
 30
0.0
 10
66.1256521065
 20
146.6126401848
 30
0.0
 10
66.2012941121
 20
146.6109742733
 30
0.0
 10
66.2508596184
 20
146.6027508734
 30
0.0
  0
SPLINE
  5
2DD
100
AcDbEntity
  8
0
100
AcDbSpline
 62
7
  6
CONTINUOUS
 70
0
 71
3
 72
11
 73
7
 74
0
 42
0.0000001
 43
0.0000001
 44
0.0000000001
 40
0.0
 40
0.0
 40
0.0
 40
0.0
 40
0.2402311209
 40
0.4941580699
 40
0.7511207131
 40
1.0
 40
1.0
 40
1.0
 40
1.0
 10
71.0685175314
 20
143.2149537657
 30
0.0
 10
71.0558771051
 20
143.293659237
 30
0.0
 10
71.0143882838
 20
143.4532649475
 30
0.0
 10
70.9147421021
 20
143.6826592733
 30
0.0
 10
70.7813079621
 20
143.89757018
 30
0.0
 10
70.6720239572
 20
144.0260649612
 30
0.0
 10
70.61330991
 20
144.0841401786
 30
0.0
  0
SPLINE
  5
2DE
100
AcDbEntity
  8
0
100
AcDbSpline
 62
7
  6
CONTINUOUS
 70
0
 71
3
 72
11
 73
7
 74
0
 42
0.0000001
 43
0.0000001
 44
0.0000000001
 40
0.0
 40
0.0
 40
0.0
 40
0.0
 40
0.2277777526
 40
0.4761035461
 40
0.7366413376
 40
1.0
 40
1.0
 40
1.0
 40
1.0
 10
75.4950734057
 20
143.2033211443
 30
0.0
 10
75.5407363868
 20
143.1769582063
 30
0.0
 10
75.6309802856
 20
143.1126614648
 30
0.0
 10
75.7543022525
 20
142.9942085943
 30
0.0
 10
75.8665810318
 20
142.8545366469
 30
0.0
 10
75.9307568404
 20
142.7512166326
 30
0.0
 10
75.9596276518
 20
142.6975232136
 30
0.0
  0
SPLINE
  5
2DF
100
AcDbEntity
  8
0
100
AcDbSpline
 62
7
  6
CONTINUOUS
 70
0
 71
3
 72
15
 73
11
 74
0
 42
0.0000001
 43
0.0000001
 44
0.0000000001
 40
0.0
 40
0.0
 40
0.0
 40
0.0
 40
0.1114570754
 40
0.2331087603
 40
0.3622385399
 40
0.495591397
 40
0.6295529174
 40
0.7604635889
 40
0.8849331785
 40
1.0
 40
1.0
 40
1.0
 40
1.0
 10
74.738700389
 20
144.3976383376
 30
0.0
 10
74.7420956573
 20
144.3434612758
 30
0.0
 10
74.7591977145
 20
144.2306903302
 30
0.0
 10
74.8092212502
 20
144.0610717456
 30
0.0
 10
74.8830673319
 20
143.8887354565
 30
0.0
 10
74.9779377949
 20
143.7201616911
 30
0.0
 10
75.0903171719
 20
143.5616587921
 30
0.0
 10
75.21598017
 20
143.4191354527
 30
0.0
 10
75.3502026924
 20
143.2979810169
 30
0.0
 10
75.4465398414
 20
143.2313413768
 30
0.0
 10
75.4950734057
 20
143.2033211443
 30
0.0
  0
SPLINE
  5
2E0
100
AcDbEntity
  8
0
100
AcDbSpline
 62
7
  6
CONTINUOUS
 70
0
 71
3
 72
11
 73
7
 74
0
 42
0.0000001
 43
0.0000001
 44
0.0000000001
 40
0.0
 40
0.0
 40
0.0
 40
0.0
 40
0.2840590145
 40
0.5438121362
 40
0.7806698713
 40
1.0
 40
1.0
 40
1.0
 40
1.0
 10
64.4014404641
 20
147.5544509337
 30
0.0
 10
64.4013997238
 20
147.5121683218
 30
0.0
 10
64.3960596791
 20
147.4310553704
 30
0.0
 10
64.3694754131
 20
147.3172875285
 30
0.0
 10
64.3248197239
 20
147.2196470719
 30
0.0
 10
64.2821917357
 20
147.1656592904
 30
0.0
 10
64.2586027894
 20
147.1430887413
 30
0.0
  0
SPLINE
  5
2E1
100
AcDbEntity
  8
0
100
AcDbSpline
 62
7
  6
CONTINUOUS
 70
0
 71
3
 72
9
 73
5
 74
0
 42
0.0000001
 43
0.0000001
 44
0.0000000001
 40
0.0
 40
0.0
 40
0.0
 40
0.0
 40
0.5116259532
 40
1.0
 40
1.0
 40
1.0
 40
1.0
 10
71.5456815959
 20
144.8874427488
 30
0.0
 10
71.0454563576
 20
145.3538243365
 30
0.0
 10
70.0319638048
 20
146.2279560566
 30
0.0
 10
68.9468203219
 20
147.0121718557
 30
0.0
 10
68.399683282
 20
147.3683033562
 30
0.0
  0
SPLINE
  5
2E2
100
AcDbEntity
  8
0
100
AcDbSpline
 62
7
  6
CONTINUOUS
 70
0
 71
3
 72
9
 73
5
 74
0
 42
0.0000001
 43
0.0000001
 44
0.0000000001
 40
0.0
 40
0.0
 40
0.0
 40
0.0
 40
0.5247085148
 40
1.0
 40
1.0
 40
1.0
 40
1.0
 10
72.6043779038
 20
142.3247622375
 30
0.0
 10
72.5598029459
 20
142.4190850018
 30
0.0
 10
72.4908268594
 20
142.6069477976
 30
0.0
 10
72.462400278
 20
142.8060066787
 30
0.0
 10
72.4624913308
 20
142.9005063322
 30
0.0
  0
SPLINE
  5
2E3
100
AcDbEntity
  8
0
100
AcDbSpline
 62
7
  6
CONTINUOUS
 70
0
 71
3
 72
11
 73
7
 74
0
 42
0.0000001
 43
0.0000001
 44
0.0000000001
 40
0.0
 40
0.0
 40
0.0
 40
0.0
 40
0.2760748422
 40
0.5316654208
 40
0.7708693641
 40
1.0
 40
1.0
 40
1.0
 40
1.0
 10
65.7944740716
 20
146.259877298
 30
0.0
 10
65.8007843336
 20
146.291491968
 30
0.0
 10
65.8172905399
 20
146.3516569971
 30
0.0
 10
65.8558794958
 20
146.4335507331
 30
0.0
 10
65.9067960362
 20
146.5018049848
 30
0.0
 10
65.9489812492
 20
146.5375317662
 30
0.0
 10
65.9713333819
 20
146.5522385279
 30
0.0
  0
SPLINE
  5
2E4
100
AcDbEntity
  8
0
100
AcDbSpline
 62
7
  6
CONTINUOUS
 70
0
 71
3
 72
9
 73
5
 74
0
 42
0.0000001
 43
0.0000001
 44
0.0000000001
 40
0.0
 40
0.0
 40
0.0
 40
0.0
 40
0.5165865499
 40
1.0
 40
1.0
 40
1.0
 40
1.0
 10
66.6319068071
 20
148.3866612994
 30
0.0
 10
66.1154078938
 20
148.6455483348
 30
0.0
 10
65.0883128416
 20
149.094811465
 30
0.0
 10
64.0126777811
 20
149.4147032197
 30
0.0
 10
63.4846204339
 20
149.530702226
 30
0.0
  0
SPLINE
  5
2E5
100
AcDbEntity
  8
0
100
AcDbSpline
 62
7
  6
CONTINUOUS
 70
0
 71
3
 72
10
 73
6
 74
0
 42
0.0000001
 43
0.0000001
 44
0.0000000001
 40
0.0
 40
0.0
 40
0.0
 40
0.0
 40
0.2377246814
 40
0.4801509521
 40
1.0
 40
1.0
 40
1.0
 40
1.0
 10
103.5188597872
 20
124.8746544628
 30
0.0
 10
103.5380537101
 20
124.8872832556
 30
0.0
 10
103.579611024
 20
124.9088283962
 30
0.0
 10
103.6731785118
 20
124.9350561198
 30
0.0
 10
103.7488205174
 20
124.9333902082
 30
0.0
 10
103.7983860237
 20
124.9251668084
 30
0.0
  0
SPLINE
  5
2E6
100
AcDbEntity
  8
0
100
AcDbSpline
 62
7
  6
CONTINUOUS
 70
0
 71
3
 72
11
 73
7
 74
0
 42
0.0000001
 43
0.0000001
 44
0.0000000001
 40
0.0
 40
0.0
 40
0.0
 40
0.0
 40
0.2402311209
 40
0.4941580699
 40
0.7511207131
 40
1.0
 40
1.0
 40
1.0
 40
1.0
 10
108.6160439367
 20
121.5373697007
 30
0.0
 10
108.6034035104
 20
121.616075172
 30
0.0
 10
108.5619146892
 20
121.7756808825
 30
0.0
 10
108.4622685074
 20
122.0050752083
 30
0.0
 10
108.3288343675
 20
122.2199861149
 30
0.0
 10
108.2195503625
 20
122.3484808962
 30
0.0
 10
108.1608363153
 20
122.4065561136
 30
0.0
  0
SPLINE
  5
2E7
100
AcDbEntity
  8
0
100
AcDbSpline
 62
7
  6
CONTINUOUS
 70
0
 71
3
 72
11
 73
7
 74
0
 42
0.0000001
 43
0.0000001
 44
0.0000000001
 40
0.0
 40
0.0
 40
0.0
 40
0.0
 40
0.2277777526
 40
0.4761035461
 40
0.7366413376
 40
1.0
 40
1.0
 40
1.0
 40
1.0
 10
113.042599811
 20
121.5257370793
 30
0.0
 10
113.0882627921
 20
121.4993741412
 30
0.0
 10
113.1785066909
 20
121.4350773998
 30
0.0
 10
113.3018286578
 20
121.3166245292
 30
0.0
 10
113.4141074371
 20
121.1769525818
 30
0.0
 10
113.4782832457
 20
121.0736325676
 30
0.0
 10
113.5071540571
 20
121.0199391486
 30
0.0
  0
SPLINE
  5
2E8
100
AcDbEntity
  8
0
100
AcDbSpline
 62
7
  6
CONTINUOUS
 70
0
 71
3
 72
15
 73
11
 74
0
 42
0.0000001
 43
0.0000001
 44
0.0000000001
 40
0.0
 40
0.0
 40
0.0
 40
0.0
 40
0.1114570754
 40
0.2331087603
 40
0.3622385399
 40
0.495591397
 40
0.6295529174
 40
0.7604635889
 40
0.8849331785
 40
1.0
 40
1.0
 40
1.0
 40
1.0
 10
112.2862267943
 20
122.7200542726
 30
0.0
 10
112.2896220626
 20
122.6658772108
 30
0.0
 10
112.3067241198
 20
122.5531062651
 30
0.0
 10
112.3567476555
 20
122.3834876806
 30
0.0
 10
112.4305937372
 20
122.2111513915
 30
0.0
 10
112.5254642002
 20
122.042577626
 30
0.0
 10
112.6378435772
 20
121.8840747271
 30
0.0
 10
112.7635065753
 20
121.7415513877
 30
0.0
 10
112.8977290977
 20
121.6203969518
 30
0.0
 10
112.9940662467
 20
121.5537573118
 30
0.0
 10
113.042599811
 20
121.5257370793
 30
0.0
  0
SPLINE
  5
2E9
100
AcDbEntity
  8
0
100
AcDbSpline
 62
7
  6
CONTINUOUS
 70
0
 71
3
 72
11
 73
7
 74
0
 42
0.0000001
 43
0.0000001
 44
0.0000000001
 40
0.0
 40
0.0
 40
0.0
 40
0.0
 40
0.2840590145
 40
0.5438121362
 40
0.7806698713
 40
1.0
 40
1.0
 40
1.0
 40
1.0
 10
101.9489668695
 20
125.8768668687
 30
0.0
 10
101.9489261291
 20
125.8345842568
 30
0.0
 10
101.9435860844
 20
125.7534713053
 30
0.0
 10
101.9170018184
 20
125.6397034635
 30
0.0
 10
101.8723461293
 20
125.5420630068
 30
0.0
 10
101.829718141
 20
125.4880752253
 30
0.0
 10
101.8061291947
 20
125.4655046763
 30
0.0
  0
SPLINE
  5
2EA
100
AcDbEntity
  8
0
100
AcDbSpline
 62
7
  6
CONTINUOUS
 70
0
 71
3
 72
9
 73
5
 74
0
 42
0.0000001
 43
0.0000001
 44
0.0000000001
 40
0.0
 40
0.0
 40
0.0
 40
0.0
 40
0.5116259532
 40
1.0
 40
1.0
 40
1.0
 40
1.0
 10
109.0932080012
 20
123.2098586837
 30
0.0
 10
108.5929827629
 20
123.6762402715
 30
0.0
 10
107.5794902101
 20
124.5503719915
 30
0.0
 10
106.4943467272
 20
125.3345877907
 30
0.0
 10
105.9472096874
 20
125.6907192912
 30
0.0
  0
SPLINE
  5
2EB
100
AcDbEntity
  8
0
100
AcDbSpline
 62
7
  6
CONTINUOUS
 70
0
 71
3
 72
9
 73
5
 74
0
 42
0.0000001
 43
0.0000001
 44
0.0000000001
 40
0.0
 40
0.0
 40
0.0
 40
0.0
 40
0.5247085148
 40
1.0
 40
1.0
 40
1.0
 40
1.0
 10
110.1519043091
 20
120.6471781725
 30
0.0
 10
110.1073293512
 20
120.7415009367
 30
0.0
 10
110.0383532647
 20
120.9293637326
 30
0.0
 10
110.0099266833
 20
121.1284226137
 30
0.0
 10
110.0100177361
 20
121.2229222672
 30
0.0
  0
SPLINE
  5
2EC
100
AcDbEntity
  8
0
100
AcDbSpline
 62
7
  6
CONTINUOUS
 70
0
 71
3
 72
11
 73
7
 74
0
 42
0.0000001
 43
0.0000001
 44
0.0000000001
 40
0.0
 40
0.0
 40
0.0
 40
0.0
 40
0.2760748422
 40
0.5316654208
 40
0.7708693641
 40
1.0
 40
1.0
 40
1.0
 40
1.0
 10
103.3420004769
 20
124.582293233
 30
0.0
 10
103.3483107389
 20
124.6139079029
 30
0.0
 10
103.3648169452
 20
124.6740729321
 30
0.0
 10
103.4034059011
 20
124.7559666681
 30
0.0
 10
103.4543224415
 20
124.8242209198
 30
0.0
 10
103.4965076546
 20
124.8599477011
 30
0.0
 10
103.5188597872
 20
124.8746544628
 30
0.0
  0
SPLINE
  5
2ED
100
AcDbEntity
  8
0
100
AcDbSpline
 62
7
  6
CONTINUOUS
 70
0
 71
3
 72
9
 73
5
 74
0
 42
0.0000001
 43
0.0000001
 44
0.0000000001
 40
0.0
 40
0.0
 40
0.0
 40
0.0
 40
0.5165865499
 40
1.0
 40
1.0
 40
1.0
 40
1.0
 10
104.1794332124
 20
126.7090772344
 30
0.0
 10
103.6629342991
 20
126.9679642698
 30
0.0
 10
102.6358392469
 20
127.4172273999
 30
0.0
 10
101.5602041864
 20
127.7371191547
 30
0.0
 10
101.0321468392
 20
127.853118161
 30
0.0
  0
SPLINE
  5
2EE
100
AcDbEntity
  8
0
100
AcDbSpline
 62
7
  6
CONTINUOUS
 70
0
 71
3
 72
11
 73
7
 74
0
 42
0.0000001
 43
0.0000001
 44
0.0000000001
 40
0.0
 40
0.0
 40
0.0
 40
0.0
 40
0.2753391567
 40
0.5405851085
 40
0.7846451865
 40
1.0
 40
1.0
 40
1.0
 40
1.0
 10
68.6309314632
 20
45.9655018817
 30
0.0
 10
68.6944048393
 20
46.0681917925
 30
0.0
 10
68.8040228277
 20
46.2795365338
 30
0.0
 10
68.9141245332
 20
46.6070544148
 30
0.0
 10
68.9624463362
 20
46.9227628003
 30
0.0
 10
68.9499447631
 20
47.1263511766
 30
0.0
 10
68.9299548506
 20
47.2186338159
 30
0.0
  0
SPLINE
  5
2EF
100
AcDbEntity
  8
0
100
AcDbSpline
 62
7
  6
CONTINUOUS
 70
0
 71
3
 72
11
 73
7
 74
0
 42
0.0000001
 43
0.0000001
 44
0.0000000001
 40
0.0
 40
0.0
 40
0.0
 40
0.0
 40
0.2190494562
 40
0.4627732428
 40
0.7257135106
 40
1.0
 40
1.0
 40
1.0
 40
1.0
 10
65.2510106055
 20
42.499772809
 30
0.0
 10
65.5307237927
 20
42.6044183316
 30
0.0
 10
66.0948307755
 20
42.8991941503
 30
0.0
 10
66.8767686516
 20
43.5119825826
 30
0.0
 10
67.6081299375
 20
44.2907372251
 30
0.0
 10
68.0339376853
 20
44.889751647
 30
0.0
 10
68.2305549298
 20
45.2078473364
 30
0.0
  0
SPLINE
  5
2F0
100
AcDbEntity
  8
0
100
AcDbSpline
 62
7
  6
CONTINUOUS
 70
0
 71
3
 72
9
 73
5
 74
0
 42
0.0000001
 43
0.0000001
 44
0.0000000001
 40
0.0
 40
0.0
 40
0.0
 40
0.0
 40
0.2440504731
 40
1.0
 40
1.0
 40
1.0
 40
1.0
 10
64.8661924934
 20
42.3817077989
 30
0.0
 10
64.8980618385
 20
42.3892834037
 30
0.0
 10
65.0281227459
 20
42.4225088014
 30
0.0
 10
65.1559771346
 20
42.4642191502
 30
0.0
 10
65.2510106055
 20
42.499772809
 30
0.0
  0
SPLINE
  5
2F1
100
AcDbEntity
  8
0
100
AcDbSpline
 62
7
  6
CONTINUOUS
 70
0
 71
3
 72
9
 73
5
 74
0
 42
0.0000001
 43
0.0000001
 44
0.0000000001
 40
0.0
 40
0.0
 40
0.0
 40
0.0
 40
0.2581794708
 40
1.0
 40
1.0
 40
1.0
 40
1.0
 10
17.6108374798
 20
76.9663102003
 30
0.0
 10
17.6225938519
 20
76.9707084617
 30
0.0
 10
17.6684477882
 20
76.986868436
 30
0.0
 10
17.7156130499
 20
76.9994071202
 30
0.0
 10
17.7510373221
 20
77.006179513
 30
0.0
  0
SPLINE
  5
2F2
100
AcDbEntity
  8
0
100
AcDbSpline
 62
7
  6
CONTINUOUS
 70
0
 71
3
 72
11
 73
7
 74
0
 42
0.0000001
 43
0.0000001
 44
0.0000000001
 40
0.0
 40
0.0
 40
0.0
 40
0.0
 40
0.2742746585
 40
0.5372282834
 40
0.7809596277
 40
1.0
 40
1.0
 40
1.0
 40
1.0
 10
16.7893345447
 20
76.2196553663
 30
0.0
 10
16.8435423922
 20
76.3073551135
 30
0.0
 10
16.9609470157
 20
76.4725095703
 30
0.0
 10
17.1625869566
 20
76.6872352608
 30
0.0
 10
17.3781901065
 20
76.856182447
 30
0.0
 10
17.5337197526
 20
76.9374591299
 30
0.0
 10
17.6108374798
 20
76.9663102003
 30
0.0
  0
SPLINE
  5
2F3
100
AcDbEntity
  8
0
100
AcDbSpline
 62
7
  6
CONTINUOUS
 70
0
 71
3
 72
11
 73
7
 74
0
 42
0.0000001
 43
0.0000001
 44
0.0000000001
 40
0.0
 40
0.0
 40
0.0
 40
0.0
 40
0.2175924067
 40
0.4621890601
 40
0.7264462854
 40
1.0
 40
1.0
 40
1.0
 40
1.0
 10
15.1839386213
 20
71.1154182209
 30
0.0
 10
15.1257541913
 20
71.4466967145
 30
0.0
 10
15.1015436019
 20
72.1685675622
 30
0.0
 10
15.2895915948
 20
73.2810444911
 30
0.0
 10
15.6857140041
 20
74.4288909635
 30
0.0
 10
16.0719634747
 20
75.1689705911
 30
0.0
 10
16.294289527
 20
75.5286590764
 30
0.0
  0
SPLINE
  5
2F4
100
AcDbEntity
  8
0
100
AcDbSpline
 62
7
  6
CONTINUOUS
 70
0
 71
3
 72
15
 73
11
 74
0
 42
0.0000001
 43
0.0000001
 44
0.0000000001
 40
0.0
 40
0.0
 40
0.0
 40
0.0
 40
0.0948221128
 40
0.1990655989
 40
0.3135275443
 40
0.4378510561
 40
0.5707642052
 40
0.7103631335
 40
0.8543075834
 40
1.0
 40
1.0
 40
1.0
 40
1.0
 10
22.157964625
 20
78.7387535224
 30
0.0
 10
22.0240801052
 20
78.9495854825
 30
0.0
 10
21.8000266635
 20
79.4296491989
 30
0.0
 10
21.6110266974
 20
80.2380241426
 30
0.0
 10
21.5562837458
 20
81.1435537942
 30
0.0
 10
21.6361291895
 20
82.1220731044
 30
0.0
 10
21.8478292971
 20
83.1479712807
 30
0.0
 10
22.1855038484
 20
84.1937062117
 30
0.0
 10
22.6398843531
 20
85.2308195882
 30
0.0
 10
23.0125642529
 20
85.8980571294
 30
0.0
 10
23.2156018808
 20
86.223678844
 30
0.0
  0
SPLINE
  5
2F5
100
AcDbEntity
  8
0
100
AcDbSpline
 62
7
  6
CONTINUOUS
 70
0
 71
3
 72
15
 73
11
 74
0
 42
0.0000001
 43
0.0000001
 44
0.0000000001
 40
0.0
 40
0.0
 40
0.0
 40
0.0
 40
0.0948221128
 40
0.1990655989
 40
0.3135275443
 40
0.4378510561
 40
0.5707642052
 40
0.7103631335
 40
0.8543075834
 40
1.0
 40
1.0
 40
1.0
 40
1.0
 10
34.6738067601
 20
71.5128921674
 30
0.0
 10
34.5399222403
 20
71.7237241275
 30
0.0
 10
34.3158687986
 20
72.2037878439
 30
0.0
 10
34.1268688325
 20
73.0121627876
 30
0.0
 10
34.0721258809
 20
73.9176924392
 30
0.0
 10
34.1519713246
 20
74.8962117494
 30
0.0
 10
34.3636714322
 20
75.9221099257
 30
0.0
 10
34.7013459835
 20
76.9678448567
 30
0.0
 10
35.1557264882
 20
78.0049582332
 30
0.0
 10
35.528406388
 20
78.6721957744
 30
0.0
 10
35.7314440159
 20
78.997817489
 30
0.0
  0
SPLINE
  5
2F6
100
AcDbEntity
  8
0
100
AcDbSpline
 62
7
  6
CONTINUOUS
 70
0
 71
3
 72
15
 73
11
 74
0
 42
0.0000001
 43
0.0000001
 44
0.0000000001
 40
0.0
 40
0.0
 40
0.0
 40
0.0
 40
0.0948221128
 40
0.1990655989
 40
0.3135275443
 40
0.4378510561
 40
0.5707642052
 40
0.7103631335
 40
0.8543075834
 40
1.0
 40
1.0
 40
1.0
 40
1.0
 10
47.1896488952
 20
64.2870308124
 30
0.0
 10
47.0557643754
 20
64.4978627725
 30
0.0
 10
46.8317109337
 20
64.9779264889
 30
0.0
 10
46.6427109676
 20
65.7863014326
 30
0.0
 10
46.587968016
 20
66.6918310842
 30
0.0
 10
46.6678134597
 20
67.6703503944
 30
0.0
 10
46.8795135673
 20
68.6962485706
 30
0.0
 10
47.2171881186
 20
69.7419835016
 30
0.0
 10
47.6715686233
 20
70.7790968782
 30
0.0
 10
48.0442485231
 20
71.4463344194
 30
0.0
 10
48.247286151
 20
71.771956134
 30
0.0
  0
SPLINE
  5
2F7
100
AcDbEntity
  8
0
100
AcDbSpline
 62
7
  6
CONTINUOUS
 70
0
 71
3
 72
15
 73
11
 74
0
 42
0.0000001
 43
0.0000001
 44
0.0000000001
 40
0.0
 40
0.0
 40
0.0
 40
0.0
 40
0.0948221128
 40
0.1990655989
 40
0.3135275443
 40
0.4378510561
 40
0.5707642052
 40
0.7103631335
 40
0.8543075834
 40
1.0
 40
1.0
 40
1.0
 40
1.0
 10
59.7054910303
 20
57.0611694574
 30
0.0
 10
59.5716065105
 20
57.2720014175
 30
0.0
 10
59.3475530688
 20
57.7520651339
 30
0.0
 10
59.1585531027
 20
58.5604400776
 30
0.0
 10
59.1038101511
 20
59.4659697292
 30
0.0
 10
59.1836555948
 20
60.4444890394
 30
0.0
 10
59.3953557024
 20
61.4703872156
 30
0.0
 10
59.7330302537
 20
62.5161221466
 30
0.0
 10
60.1874107584
 20
63.5532355232
 30
0.0
 10
60.5600906582
 20
64.2204730644
 30
0.0
 10
60.7631282861
 20
64.546094779
 30
0.0
  0
SPLINE
  5
2F8
100
AcDbEntity
  8
0
100
AcDbSpline
 62
7
  6
CONTINUOUS
 70
0
 71
3
 72
11
 73
7
 74
0
 42
0.0000001
 43
0.0000001
 44
0.0000000001
 40
0.0
 40
0.0
 40
0.0
 40
0.0
 40
0.2190403723
 40
0.4627717166
 40
0.7257253415
 40
1.0
 40
1.0
 40
1.0
 40
1.0
 10
66.8963853225
 20
48.5119296102
 30
0.0
 10
66.8192675953
 20
48.4830785398
 30
0.0
 10
66.6637379492
 20
48.4018018569
 30
0.0
 10
66.4481347994
 20
48.2328546707
 30
0.0
 10
66.2464948585
 20
48.0181289803
 30
0.0
 10
66.129090235
 20
47.8529745234
 30
0.0
 10
66.0748823874
 20
47.7652747762
 30
0.0
  0
SPLINE
  5
2F9
100
AcDbEntity
  8
0
100
AcDbSpline
 62
7
  6
CONTINUOUS
 70
0
 71
3
 72
9
 73
5
 74
0
 42
0.0000001
 43
0.0000001
 44
0.0000000001
 40
0.0
 40
0.0
 40
0.0
 40
0.0
 40
0.2421400468
 40
1.0
 40
1.0
 40
1.0
 40
1.0
 10
67.0365851648
 20
48.551798923
 30
0.0
 10
67.025021882
 20
48.5495882609
 30
0.0
 10
66.9774819632
 20
48.539349432
 30
0.0
 10
66.9308959625
 20
48.5248406353
 30
0.0
 10
66.8963853225
 20
48.5119296102
 30
0.0
  0
SPLINE
  5
2FA
100
AcDbEntity
  8
0
100
AcDbSpline
 62
7
  6
CONTINUOUS
 70
0
 71
3
 72
11
 73
7
 74
0
 42
0.0000001
 43
0.0000001
 44
0.0000000001
 40
0.0
 40
0.0
 40
0.0
 40
0.0
 40
0.2735537146
 40
0.5378109399
 40
0.7824075933
 40
1.0
 40
1.0
 40
1.0
 40
1.0
 10
65.5798373697
 20
47.0742784863
 30
0.0
 10
65.3575113174
 20
46.7145900011
 30
0.0
 10
64.9712618468
 20
45.9745103734
 30
0.0
 10
64.5751394376
 20
44.8266639011
 30
0.0
 10
64.3870914447
 20
43.7141869721
 30
0.0
 10
64.411302034
 20
42.9923161244
 30
0.0
 10
64.469486464
 20
42.6610376308
 30
0.0
  0
SPLINE
  5
2FB
100
AcDbEntity
  8
0
100
AcDbSpline
 62
7
  6
CONTINUOUS
 70
0
 71
3
 72
15
 73
11
 74
0
 42
0.0000001
 43
0.0000001
 44
0.0000000001
 40
0.0
 40
0.0
 40
0.0
 40
0.0
 40
0.1130700546
 40
0.2239080327
 40
0.3357486374
 40
0.4518778927
 40
0.5749225631
 40
0.7067293621
 40
0.8483961473
 40
1.0
 40
1.0
 40
1.0
 40
1.0
 10
29.8464782716
 20
71.120332277
 30
0.0
 10
29.6158766769
 20
71.1598433665
 30
0.0
 10
29.1652965031
 20
71.2833577786
 30
0.0
 10
28.5450402572
 20
71.6078681304
 30
0.0
 10
28.0046986287
 20
72.0629797839
 30
0.0
 10
27.5542313772
 20
72.6386785053
 30
0.0
 10
27.1992907074
 20
73.3236907461
 30
0.0
 10
26.9441799098
 20
74.1068165831
 30
0.0
 10
26.7916313345
 20
74.9755056646
 30
0.0
 10
26.7600002494
 20
75.5830465752
 30
0.0
 10
26.7600002494
 20
75.8967418509
 30
0.0
  0
SPLINE
  5
2FC
100
AcDbEntity
  8
0
100
AcDbSpline
 62
7
  6
CONTINUOUS
 70
0
 71
3
 72
10
 73
6
 74
0
 42
0.0000001
 43
0.0000001
 44
0.0000000001
 40
0.0
 40
0.0
 40
0.0
 40
0.0
 40
0.5698343742
 40
0.8040808958
 40
1.0
 40
1.0
 40
1.0
 40
1.0
 10
24.7763114496
 20
85.2735206094
 30
0.0
 10
24.2212091983
 20
85.5940017934
 30
0.0
 10
23.4442021235
 20
86.0577807922
 30
0.0
 10
22.5031901795
 20
86.6742475773
 30
0.0
 10
22.1081531618
 20
86.9540302267
 30
0.0
 10
21.9322250147
 20
87.0867544015
 30
0.0
  0
SPLINE
  5
2FD
100
AcDbEntity
  8
0
100
AcDbSpline
 62
7
  6
CONTINUOUS
 70
0
 71
3
 72
9
 73
5
 74
0
 42
0.0000001
 43
0.0000001
 44
0.0000000001
 40
0.0
 40
0.0
 40
0.0
 40
0.0
 40
0.5238468844
 40
1.0
 40
1.0
 40
1.0
 40
1.0
 10
29.0033222662
 20
83.0043468563
 30
0.0
 10
28.2553020142
 20
83.3816985995
 30
0.0
 10
26.8356653862
 20
84.1186259861
 30
0.0
 10
25.4358221299
 20
84.8927605545
 30
0.0
 10
24.7763114496
 20
85.2735206094
 30
0.0
  0
SPLINE
  5
2FE
100
AcDbEntity
  8
0
100
AcDbSpline
 62
7
  6
CONTINUOUS
 70
0
 71
3
 72
11
 73
7
 74
0
 42
0.0000001
 43
0.0000001
 44
0.0000000001
 40
0.0
 40
0.0
 40
0.0
 40
0.0
 40
0.2655404918
 40
0.5252840283
 40
0.7720728887
 40
1.0
 40
1.0
 40
1.0
 40
1.0
 10
29.0033222662
 20
83.0043468563
 30
0.0
 10
28.6521515201
 20
82.4370180497
 30
0.0
 10
28.0242158516
 20
81.2718160902
 30
0.0
 10
27.3164148685
 20
79.4602090155
 30
0.0
 10
26.8724168796
 20
77.663431993
 30
0.0
 10
26.7600002494
 20
76.469451437
 30
0.0
 10
26.7600002494
 20
75.8967418509
 30
0.0
  0
SPLINE
  5
2FF
100
AcDbEntity
  8
0
100
AcDbSpline
 62
7
  6
CONTINUOUS
 70
0
 71
3
 72
9
 73
5
 74
0
 42
0.0000001
 43
0.0000001
 44
0.0000000001
 40
0.0
 40
0.0
 40
0.0
 40
0.0
 40
0.2420647825
 40
1.0
 40
1.0
 40
1.0
 40
1.0
 10
20.9195326803
 20
76.1957585628
 30
0.0
 10
20.852363743
 20
76.2673622666
 30
0.0
 10
20.587448263
 20
76.574889054
 30
0.0
 10
20.3745218038
 20
76.9257426799
 30
0.0
 10
20.2423286938
 20
77.2032725706
 30
0.0
  0
SPLINE
  5
300
100
AcDbEntity
  8
0
100
AcDbSpline
 62
7
  6
CONTINUOUS
 70
0
 71
3
 72
9
 73
5
 74
0
 42
0.0000001
 43
0.0000001
 44
0.0000000001
 40
0.0
 40
0.0
 40
0.0
 40
0.0
 40
0.246372157
 40
1.0
 40
1.0
 40
1.0
 40
1.0
 10
18.2564752299
 20
93.2987727385
 30
0.0
 10
18.2604409443
 20
94.4994509164
 30
0.0
 10
18.3194238655
 20
99.3726771541
 30
0.0
 10
18.5472129592
 20
104.2436218922
 30
0.0
 10
18.8065312449
 20
107.9072305643
 30
0.0
  0
SPLINE
  5
301
100
AcDbEntity
  8
0
100
AcDbSpline
 62
7
  6
CONTINUOUS
 70
0
 71
3
 72
11
 73
7
 74
0
 42
0.0000001
 43
0.0000001
 44
0.0000000001
 40
0.0
 40
0.0
 40
0.0
 40
0.0
 40
0.2370527156
 40
0.5000106723
 40
0.7629608018
 40
1.0
 40
1.0
 40
1.0
 40
1.0
 10
18.0410531795
 20
93.0111136517
 30
0.0
 10
18.0410531795
 20
93.0342781682
 30
0.0
 10
18.0498437752
 20
93.0831451095
 30
0.0
 10
18.0800015429
 20
93.1519351368
 30
0.0
 10
18.1244999819
 20
93.2124439271
 30
0.0
 10
18.1624271753
 20
93.2444839041
 30
0.0
 10
18.1824879994
 20
93.2560639284
 30
0.0
  0
LINE
  5
302
100
AcDbEntity
  8
0
100
AcDbLine
 62
7
  6
CONTINUOUS
 10
18.2553609441
 20
92.6246808826
 11
18.2554543112
 21
92.8196760177
  0
SPLINE
  5
303
100
AcDbEntity
  8
0
100
AcDbSpline
 62
7
  6
CONTINUOUS
 70
0
 71
3
 72
9
 73
5
 74
0
 42
0.0000001
 43
0.0000001
 44
0.0000000001
 40
0.0
 40
0.0
 40
0.0
 40
0.0
 40
0.2479566924
 40
1.0
 40
1.0
 40
1.0
 40
1.0
 10
19.5822078491
 20
85.2044626942
 30
0.0
 10
19.5585773142
 20
85.6497453071
 30
0.0
 10
19.4720028879
 20
87.4460077556
 30
0.0
 10
19.4200472166
 20
89.2439228766
 30
0.0
 10
19.3996381442
 20
90.5961946565
 30
0.0
  0
SPLINE
  5
304
100
AcDbEntity
  8
0
100
AcDbSpline
 62
7
  6
CONTINUOUS
 70
0
 71
3
 72
9
 73
5
 74
0
 42
0.0000001
 43
0.0000001
 44
0.0000000001
 40
0.0
 40
0.0
 40
0.0
 40
0.0
 40
0.247287922
 40
1.0
 40
1.0
 40
1.0
 40
1.0
 10
83.1117349098
 20
90.4708823671
 30
0.0
 10
83.1022890328
 20
90.4763262927
 30
0.0
 10
83.0650706908
 20
90.5000202155
 30
0.0
 10
83.0322819449
 20
90.5305012561
 30
0.0
 10
83.010901572
 20
90.555881221
 30
0.0
  0
SPLINE
  5
305
100
AcDbEntity
  8
0
100
AcDbSpline
 62
7
  6
CONTINUOUS
 70
0
 71
3
 72
11
 73
7
 74
0
 42
0.0000001
 43
0.0000001
 44
0.0000000001
 40
0.0
 40
0.0
 40
0.0
 40
0.0
 40
0.2177651606
 40
0.4508956102
 40
0.7103690052
 40
1.0
 40
1.0
 40
1.0
 40
1.0
 10
83.4206319544
 20
88.9646464091
 30
0.0
 10
83.3464351946
 20
89.0075222679
 30
0.0
 10
83.2074976601
 20
89.1241482686
 30
0.0
 10
83.0596820363
 20
89.3659426228
 30
0.0
 10
82.9719303439
 20
89.6638377352
 30
0.0
 10
82.954605524
 20
89.8806498631
 30
0.0
 10
82.954605524
 20
89.9946244796
 30
0.0
  0
SPLINE
  5
306
100
AcDbEntity
  8
0
100
AcDbSpline
 62
7
  6
CONTINUOUS
 70
0
 71
3
 72
9
 73
5
 74
0
 42
0.0000001
 43
0.0000001
 44
0.0000000001
 40
0.0
 40
0.0
 40
0.0
 40
0.0
 40
0.2439112253
 40
1.0
 40
1.0
 40
1.0
 40
1.0
 10
32.3616580173
 20
115.7332399403
 30
0.0
 10
32.3616586731
 20
117.0346269594
 30
0.0
 10
32.4434503618
 20
122.3699586152
 30
0.0
 10
32.8430148097
 20
127.6991815503
 30
0.0
 10
33.3010551283
 20
131.7072013638
 30
0.0
  0
SPLINE
  5
307
100
AcDbEntity
  8
0
100
AcDbSpline
 62
7
  6
CONTINUOUS
 70
0
 71
3
 72
9
 73
5
 74
0
 42
0.0000001
 43
0.0000001
 44
0.0000000001
 40
0.0
 40
0.0
 40
0.0
 40
0.0
 40
0.2385575052
 40
1.0
 40
1.0
 40
1.0
 40
1.0
 10
72.2065408035
 20
55.6222597795
 30
0.0
 10
72.2065408035
 20
55.6649457408
 30
0.0
 10
72.2120219812
 20
55.8438661048
 30
0.0
 10
72.2377491957
 20
56.0219237553
 30
0.0
 10
72.2662257318
 20
56.1551623202
 30
0.0
  0
SPLINE
  5
308
100
AcDbEntity
  8
0
100
AcDbSpline
 62
7
  6
CONTINUOUS
 70
0
 71
3
 72
9
 73
5
 74
0
 42
0.0000001
 43
0.0000001
 44
0.0000000001
 40
0.0
 40
0.0
 40
0.0
 40
0.0
 40
0.245858046
 40
1.0
 40
1.0
 40
1.0
 40
1.0
 10
72.2736310405
 20
56.1888615358
 30
0.0
 10
72.2798263407
 20
56.2163041208
 30
0.0
 10
72.3065789243
 20
56.3275693092
 30
0.0
 10
72.3393515915
 20
56.4373703161
 30
0.0
 10
72.3670629834
 20
56.5190953613
 30
0.0
  0
SPLINE
  5
309
100
AcDbEntity
  8
0
100
AcDbSpline
 62
7
  6
CONTINUOUS
 70
0
 71
3
 72
9
 73
5
 74
0
 42
0.0000001
 43
0.0000001
 44
0.0000000001
 40
0.0
 40
0.0
 40
0.0
 40
0.0
 40
0.5062180807
 40
1.0
 40
1.0
 40
1.0
 40
1.0
 10
72.3670629834
 20
56.5190953613
 30
0.0
 10
72.4672525543
 20
56.8145694114
 30
0.0
 10
72.7419855491
 20
57.3736380752
 30
0.0
 10
73.1391614574
 20
57.8549013593
 30
0.0
 10
73.3649599514
 20
58.0589450975
 30
0.0
  0
SPLINE
  5
30A
100
AcDbEntity
  8
0
100
AcDbSpline
 62
7
  6
CONTINUOUS
 70
0
 71
3
 72
12
 73
8
 74
0
 42
0.0000001
 43
0.0000001
 44
0.0000000001
 40
0.0
 40
0.0
 40
0.0
 40
0.0
 40
0.3020962094
 40
0.5672355594
 40
0.795278602
 40
0.8993402334
 40
1.0
 40
1.0
 40
1.0
 40
1.0
 10
73.3649599514
 20
58.0589450975
 30
0.0
 10
73.4932706008
 20
58.1748935437
 30
0.0
 10
73.7537696527
 20
58.3729092608
 30
0.0
 10
74.1713832414
 20
58.5647452869
 30
0.0
 10
74.5184668562
 20
58.6103158951
 30
0.0
 10
74.7638525273
 20
58.5650613615
 30
0.0
 10
74.8725891328
 20
58.5181677761
 30
0.0
 10
74.9224816405
 20
58.4893365425
 30
0.0
  0
SPLINE
  5
30B
100
AcDbEntity
  8
0
100
AcDbSpline
 62
7
  6
CONTINUOUS
 70
0
 71
3
 72
9
 73
5
 74
0
 42
0.0000001
 43
0.0000001
 44
0.0000000001
 40
0.0
 40
0.0
 40
0.0
 40
0.0
 40
0.2385575052
 40
1.0
 40
1.0
 40
1.0
 40
1.0
 10
85.2848340362
 20
48.9632632354
 30
0.0
 10
85.2848340362
 20
49.0059491967
 30
0.0
 10
85.290315214
 20
49.1848695608
 30
0.0
 10
85.3160424284
 20
49.3629272113
 30
0.0
 10
85.3445189645
 20
49.4961657762
 30
0.0
  0
SPLINE
  5
30C
100
AcDbEntity
  8
0
100
AcDbSpline
 62
7
  6
CONTINUOUS
 70
0
 71
3
 72
9
 73
5
 74
0
 42
0.0000001
 43
0.0000001
 44
0.0000000001
 40
0.0
 40
0.0
 40
0.0
 40
0.0
 40
0.245858046
 40
1.0
 40
1.0
 40
1.0
 40
1.0
 10
85.3519242732
 20
49.5298649917
 30
0.0
 10
85.3581195734
 20
49.5573075767
 30
0.0
 10
85.384872157
 20
49.6685727652
 30
0.0
 10
85.4176448242
 20
49.778373772
 30
0.0
 10
85.4453562162
 20
49.8600988172
 30
0.0
  0
SPLINE
  5
30D
100
AcDbEntity
  8
0
100
AcDbSpline
 62
7
  6
CONTINUOUS
 70
0
 71
3
 72
9
 73
5
 74
0
 42
0.0000001
 43
0.0000001
 44
0.0000000001
 40
0.0
 40
0.0
 40
0.0
 40
0.0
 40
0.5062180807
 40
1.0
 40
1.0
 40
1.0
 40
1.0
 10
85.4453562162
 20
49.8600988172
 30
0.0
 10
85.545545787
 20
50.1555728673
 30
0.0
 10
85.8202787818
 20
50.7146415311
 30
0.0
 10
86.2174546901
 20
51.1959048153
 30
0.0
 10
86.4432531841
 20
51.3999485534
 30
0.0
  0
SPLINE
  5
30E
100
AcDbEntity
  8
0
100
AcDbSpline
 62
7
  6
CONTINUOUS
 70
0
 71
3
 72
12
 73
8
 74
0
 42
0.0000001
 43
0.0000001
 44
0.0000000001
 40
0.0
 40
0.0
 40
0.0
 40
0.0
 40
0.3020962094
 40
0.5672355594
 40
0.795278602
 40
0.8993402334
 40
1.0
 40
1.0
 40
1.0
 40
1.0
 10
86.4432531841
 20
51.3999485534
 30
0.0
 10
86.5715638336
 20
51.5158969997
 30
0.0
 10
86.8320628854
 20
51.7139127167
 30
0.0
 10
87.2496764741
 20
51.9057487429
 30
0.0
 10
87.5967600889
 20
51.951319351
 30
0.0
 10
87.84214576
 20
51.9060648175
 30
0.0
 10
87.9508823656
 20
51.859171232
 30
0.0
 10
88.0007748733
 20
51.8303399984
 30
0.0
  0
SPLINE
  5
30F
100
AcDbEntity
  8
0
100
AcDbSpline
 62
7
  6
CONTINUOUS
 70
0
 71
3
 72
9
 73
5
 74
0
 42
0.0000001
 43
0.0000001
 44
0.0000000001
 40
0.0
 40
0.0
 40
0.0
 40
0.0
 40
0.2393301845
 40
1.0
 40
1.0
 40
1.0
 40
1.0
 10
108.9726700542
 20
60.759008936
 30
0.0
 10
108.9726700542
 20
60.7980225721
 30
0.0
 10
108.9772337072
 20
60.9610237587
 30
0.0
 10
108.9987798873
 20
61.1233697984
 30
0.0
 10
109.0227304822
 20
61.2450328796
 30
0.0
  0
SPLINE
  5
310
100
AcDbEntity
  8
0
100
AcDbSpline
 62
7
  6
CONTINUOUS
 70
0
 71
3
 72
9
 73
5
 74
0
 42
0.0000001
 43
0.0000001
 44
0.0000000001
 40
0.0
 40
0.0
 40
0.0
 40
0.0
 40
0.2460366322
 40
1.0
 40
1.0
 40
1.0
 40
1.0
 10
109.0375721193
 20
61.3158428087
 30
0.0
 10
109.0432791998
 20
61.3415183239
 30
0.0
 10
109.0678408354
 20
61.445568216
 30
0.0
 10
109.097702903
 20
61.5483534473
 30
0.0
 10
109.1228691069
 20
61.6249251111
 30
0.0
  0
SPLINE
  5
311
100
AcDbEntity
  8
0
100
AcDbSpline
 62
7
  6
CONTINUOUS
 70
0
 71
3
 72
9
 73
5
 74
0
 42
0.0000001
 43
0.0000001
 44
0.0000000001
 40
0.0
 40
0.0
 40
0.0
 40
0.0
 40
0.5067867047
 40
1.0
 40
1.0
 40
1.0
 40
1.0
 10
109.1228691069
 20
61.6249251111
 30
0.0
 10
109.2245634621
 20
61.9343442837
 30
0.0
 10
109.5097127659
 20
62.5186403475
 30
0.0
 10
109.9278266659
 20
63.0182759086
 30
0.0
 10
110.1663416308
 20
63.2270490614
 30
0.0
  0
SPLINE
  5
312
100
AcDbEntity
  8
0
100
AcDbSpline
 62
7
  6
CONTINUOUS
 70
0
 71
3
 72
12
 73
8
 74
0
 42
0.0000001
 43
0.0000001
 44
0.0000000001
 40
0.0
 40
0.0
 40
0.0
 40
0.0
 40
0.3013102073
 40
0.5659228004
 40
0.7942518051
 40
0.8987662604
 40
1.0
 40
1.0
 40
1.0
 40
1.0
 10
110.1663416308
 20
63.2270490614
 30
0.0
 10
110.2925848696
 20
63.3375502997
 30
0.0
 10
110.5482819293
 20
63.525783536
 30
0.0
 10
110.9566239034
 20
63.7061756622
 30
0.0
 10
111.2946683661
 20
63.7462536853
 30
0.0
 10
111.5336763815
 20
63.7003860404
 30
0.0
 10
111.6398055099
 20
63.6542887181
 30
0.0
 10
111.6886108912
 20
63.626085699
 30
0.0
  0
SPLINE
  5
313
100
AcDbEntity
  8
0
100
AcDbSpline
 62
7
  6
CONTINUOUS
 70
0
 71
3
 72
9
 73
5
 74
0
 42
0.0000001
 43
0.0000001
 44
0.0000000001
 40
0.0
 40
0.0
 40
0.0
 40
0.0
 40
0.2385575052
 40
1.0
 40
1.0
 40
1.0
 40
1.0
 10
106.9258590202
 20
109.5474442066
 30
0.0
 10
106.9258590202
 20
109.5901301679
 30
0.0
 10
106.9313401979
 20
109.769050532
 30
0.0
 10
106.9570674124
 20
109.9471081825
 30
0.0
 10
106.9855439485
 20
110.0803467473
 30
0.0
  0
SPLINE
  5
314
100
AcDbEntity
  8
0
100
AcDbSpline
 62
7
  6
CONTINUOUS
 70
0
 71
3
 72
9
 73
5
 74
0
 42
0.0000001
 43
0.0000001
 44
0.0000000001
 40
0.0
 40
0.0
 40
0.0
 40
0.0
 40
0.245858046
 40
1.0
 40
1.0
 40
1.0
 40
1.0
 10
106.9929492572
 20
110.1140459629
 30
0.0
 10
106.9991445574
 20
110.1414885479
 30
0.0
 10
107.0258971409
 20
110.2527537363
 30
0.0
 10
107.0586698082
 20
110.3625547432
 30
0.0
 10
107.0863812001
 20
110.4442797884
 30
0.0
  0
SPLINE
  5
315
100
AcDbEntity
  8
0
100
AcDbSpline
 62
7
  6
CONTINUOUS
 70
0
 71
3
 72
9
 73
5
 74
0
 42
0.0000001
 43
0.0000001
 44
0.0000000001
 40
0.0
 40
0.0
 40
0.0
 40
0.0
 40
0.5062180807
 40
1.0
 40
1.0
 40
1.0
 40
1.0
 10
107.0863812001
 20
110.4442797884
 30
0.0
 10
107.186570771
 20
110.7397538385
 30
0.0
 10
107.4613037657
 20
111.2988225023
 30
0.0
 10
107.858479674
 20
111.7800857864
 30
0.0
 10
108.0842781681
 20
111.9841295246
 30
0.0
  0
SPLINE
  5
316
100
AcDbEntity
  8
0
100
AcDbSpline
 62
7
  6
CONTINUOUS
 70
0
 71
3
 72
12
 73
8
 74
0
 42
0.0000001
 43
0.0000001
 44
0.0000000001
 40
0.0
 40
0.0
 40
0.0
 40
0.0
 40
0.3020962094
 40
0.5672355594
 40
0.795278602
 40
0.8993402334
 40
1.0
 40
1.0
 40
1.0
 40
1.0
 10
108.0842781681
 20
111.9841295246
 30
0.0
 10
108.2125888175
 20
112.1000779709
 30
0.0
 10
108.4730878694
 20
112.2980936879
 30
0.0
 10
108.8907014581
 20
112.4899297141
 30
0.0
 10
109.2377850729
 20
112.5355003222
 30
0.0
 10
109.483170744
 20
112.4902457886
 30
0.0
 10
109.5919073495
 20
112.4433522032
 30
0.0
 10
109.6417998572
 20
112.4145209696
 30
0.0
  0
SPLINE
  5
317
100
AcDbEntity
  8
0
100
AcDbSpline
 62
7
  6
CONTINUOUS
 70
0
 71
3
 72
9
 73
5
 74
0
 42
0.0000001
 43
0.0000001
 44
0.0000000001
 40
0.0
 40
0.0
 40
0.0
 40
0.0
 40
0.2385575052
 40
1.0
 40
1.0
 40
1.0
 40
1.0
 10
93.1355011339
 20
77.4185479016
 30
0.0
 10
93.1355011339
 20
77.4612338629
 30
0.0
 10
93.1409823116
 20
77.6401542269
 30
0.0
 10
93.166709526
 20
77.8182118774
 30
0.0
 10
93.1951860621
 20
77.9514504423
 30
0.0
  0
SPLINE
  5
318
100
AcDbEntity
  8
0
100
AcDbSpline
 62
7
  6
CONTINUOUS
 70
0
 71
3
 72
9
 73
5
 74
0
 42
0.0000001
 43
0.0000001
 44
0.0000000001
 40
0.0
 40
0.0
 40
0.0
 40
0.0
 40
0.245858046
 40
1.0
 40
1.0
 40
1.0
 40
1.0
 10
93.2025913709
 20
77.9851496579
 30
0.0
 10
93.208786671
 20
78.0125922429
 30
0.0
 10
93.2355392546
 20
78.1238574313
 30
0.0
 10
93.2683119219
 20
78.2336584382
 30
0.0
 10
93.2960233138
 20
78.3153834834
 30
0.0
  0
SPLINE
  5
319
100
AcDbEntity
  8
0
100
AcDbSpline
 62
7
  6
CONTINUOUS
 70
0
 71
3
 72
9
 73
5
 74
0
 42
0.0000001
 43
0.0000001
 44
0.0000000001
 40
0.0
 40
0.0
 40
0.0
 40
0.0
 40
0.5062180807
 40
1.0
 40
1.0
 40
1.0
 40
1.0
 10
93.2960233138
 20
78.3153834834
 30
0.0
 10
93.3962128847
 20
78.6108575335
 30
0.0
 10
93.6709458794
 20
79.1699261973
 30
0.0
 10
94.0681217877
 20
79.6511894814
 30
0.0
 10
94.2939202818
 20
79.8552332196
 30
0.0
  0
SPLINE
  5
31A
100
AcDbEntity
  8
0
100
AcDbSpline
 62
7
  6
CONTINUOUS
 70
0
 71
3
 72
12
 73
8
 74
0
 42
0.0000001
 43
0.0000001
 44
0.0000000001
 40
0.0
 40
0.0
 40
0.0
 40
0.0
 40
0.3020962094
 40
0.5672355594
 40
0.795278602
 40
0.8993402334
 40
1.0
 40
1.0
 40
1.0
 40
1.0
 10
94.2939202818
 20
79.8552332196
 30
0.0
 10
94.4222309312
 20
79.9711816658
 30
0.0
 10
94.6827299831
 20
80.1691973829
 30
0.0
 10
95.1003435718
 20
80.361033409
 30
0.0
 10
95.4474271866
 20
80.4066040172
 30
0.0
 10
95.6928128577
 20
80.3613494836
 30
0.0
 10
95.8015494632
 20
80.3144558982
 30
0.0
 10
95.8514419709
 20
80.2856246646
 30
0.0
  0
SPLINE
  5
31B
100
AcDbEntity
  8
0
100
AcDbSpline
 62
7
  6
CONTINUOUS
 70
0
 71
3
 72
9
 73
5
 74
0
 42
0.0000001
 43
0.0000001
 44
0.0000000001
 40
0.0
 40
0.0
 40
0.0
 40
0.0
 40
0.2393301845
 40
1.0
 40
1.0
 40
1.0
 40
1.0
 10
82.954605524
 20
89.9946244796
 30
0.0
 10
82.954605524
 20
90.0336381157
 30
0.0
 10
82.959169177
 20
90.1966393023
 30
0.0
 10
82.9807153571
 20
90.358985342
 30
0.0
 10
83.004665952
 20
90.4806484232
 30
0.0
  0
SPLINE
  5
31C
100
AcDbEntity
  8
0
100
AcDbSpline
 62
7
  6
CONTINUOUS
 70
0
 71
3
 72
9
 73
5
 74
0
 42
0.0000001
 43
0.0000001
 44
0.0000000001
 40
0.0
 40
0.0
 40
0.0
 40
0.0
 40
0.2460366322
 40
1.0
 40
1.0
 40
1.0
 40
1.0
 10
83.0195075892
 20
90.5514583523
 30
0.0
 10
83.0252146696
 20
90.5771338675
 30
0.0
 10
83.0497763053
 20
90.6811837596
 30
0.0
 10
83.0796383729
 20
90.7839689909
 30
0.0
 10
83.1048045767
 20
90.8605406547
 30
0.0
  0
SPLINE
  5
31D
100
AcDbEntity
  8
0
100
AcDbSpline
 62
7
  6
CONTINUOUS
 70
0
 71
3
 72
9
 73
5
 74
0
 42
0.0000001
 43
0.0000001
 44
0.0000000001
 40
0.0
 40
0.0
 40
0.0
 40
0.0
 40
0.5067867047
 40
1.0
 40
1.0
 40
1.0
 40
1.0
 10
83.1048045767
 20
90.8605406547
 30
0.0
 10
83.2064989319
 20
91.1699598273
 30
0.0
 10
83.4916482358
 20
91.7542558911
 30
0.0
 10
83.9097621357
 20
92.2538914522
 30
0.0
 10
84.1482771006
 20
92.462664605
 30
0.0
  0
SPLINE
  5
31E
100
AcDbEntity
  8
0
100
AcDbSpline
 62
7
  6
CONTINUOUS
 70
0
 71
3
 72
12
 73
8
 74
0
 42
0.0000001
 43
0.0000001
 44
0.0000000001
 40
0.0
 40
0.0
 40
0.0
 40
0.0
 40
0.3013102073
 40
0.5659228004
 40
0.7942518051
 40
0.8987662604
 40
1.0
 40
1.0
 40
1.0
 40
1.0
 10
84.1482771006
 20
92.462664605
 30
0.0
 10
84.2745203394
 20
92.5731658433
 30
0.0
 10
84.5302173992
 20
92.7613990796
 30
0.0
 10
84.9385593732
 20
92.9417912058
 30
0.0
 10
85.2766038359
 20
92.9818692289
 30
0.0
 10
85.5156118514
 20
92.936001584
 30
0.0
 10
85.6217409797
 20
92.8899042617
 30
0.0
 10
85.670546361
 20
92.8617012426
 30
0.0
  0
SPLINE
  5
31F
100
AcDbEntity
  8
0
100
AcDbSpline
 62
7
  6
CONTINUOUS
 70
0
 71
3
 72
9
 73
5
 74
0
 42
0.0000001
 43
0.0000001
 44
0.0000000001
 40
0.0
 40
0.0
 40
0.0
 40
0.0
 40
0.2466337179
 40
1.0
 40
1.0
 40
1.0
 40
1.0
 10
93.3176290238
 20
77.9381054438
 30
0.0
 10
93.3075665596
 20
77.9439047259
 30
0.0
 10
93.2679324951
 20
77.969419551
 30
0.0
 10
93.2336750905
 20
78.0030136589
 30
0.0
 10
93.2118575912
 20
78.0309877051
 30
0.0
  0
SPLINE
  5
320
100
AcDbEntity
  8
0
100
AcDbSpline
 62
7
  6
CONTINUOUS
 70
0
 71
3
 72
11
 73
7
 74
0
 42
0.0000001
 43
0.0000001
 44
0.0000000001
 40
0.0
 40
0.0
 40
0.0
 40
0.0
 40
0.2177651606
 40
0.4508956102
 40
0.7103690052
 40
1.0
 40
1.0
 40
1.0
 40
1.0
 10
93.6015275643
 20
76.3885698311
 30
0.0
 10
93.5273308045
 20
76.4314456899
 30
0.0
 10
93.38839327
 20
76.5480716905
 30
0.0
 10
93.2405776461
 20
76.7898660448
 30
0.0
 10
93.1528259537
 20
77.0877611572
 30
0.0
 10
93.1355011339
 20
77.3045732851
 30
0.0
 10
93.1355011339
 20
77.4185479016
 30
0.0
  0
SPLINE
  5
321
100
AcDbEntity
  8
0
100
AcDbSpline
 62
7
  6
CONTINUOUS
 70
0
 71
3
 72
11
 73
7
 74
0
 42
0.0000001
 43
0.0000001
 44
0.0000000001
 40
0.0
 40
0.0
 40
0.0
 40
0.0
 40
0.2655404918
 40
0.5252840283
 40
0.7720728887
 40
1.0
 40
1.0
 40
1.0
 40
1.0
 10
66.5508486715
 20
61.3267627912
 30
0.0
 10
66.1996779254
 20
60.7594339847
 30
0.0
 10
65.5717422569
 20
59.5942320252
 30
0.0
 10
64.8639412738
 20
57.7826249505
 30
0.0
 10
64.4199432849
 20
55.9858479279
 30
0.0
 10
64.3075266547
 20
54.7918673719
 30
0.0
 10
64.3075266547
 20
54.2191577859
 30
0.0
  0
SPLINE
  5
322
100
AcDbEntity
  8
0
100
AcDbSpline
 62
7
  6
CONTINUOUS
 70
0
 71
3
 72
9
 73
5
 74
0
 42
0.0000001
 43
0.0000001
 44
0.0000000001
 40
0.0
 40
0.0
 40
0.0
 40
0.0
 40
0.2420647825
 40
1.0
 40
1.0
 40
1.0
 40
1.0
 10
58.4670590856
 20
54.5181744977
 30
0.0
 10
58.3998901483
 20
54.5897782016
 30
0.0
 10
58.1349746683
 20
54.8973049889
 30
0.0
 10
57.9220482091
 20
55.2481586149
 30
0.0
 10
57.7898550992
 20
55.5256885056
 30
0.0
  0
SPLINE
  5
323
100
AcDbEntity
  8
0
100
AcDbSpline
 62
7
  6
CONTINUOUS
 70
0
 71
3
 72
11
 73
7
 74
0
 42
0.0000001
 43
0.0000001
 44
0.0000000001
 40
0.0
 40
0.0
 40
0.0
 40
0.0
 40
0.2655404918
 40
0.5252840283
 40
0.7720728887
 40
1.0
 40
1.0
 40
1.0
 40
1.0
 10
54.0350065364
 20
68.5526241463
 30
0.0
 10
53.6838357903
 20
67.9852953397
 30
0.0
 10
53.0559001218
 20
66.8200933802
 30
0.0
 10
52.3480991387
 20
65.0084863055
 30
0.0
 10
51.9041011498
 20
63.2117092829
 30
0.0
 10
51.7916845196
 20
62.017728727
 30
0.0
 10
51.7916845196
 20
61.4450191409
 30
0.0
  0
SPLINE
  5
324
100
AcDbEntity
  8
0
100
AcDbSpline
 62
7
  6
CONTINUOUS
 70
0
 71
3
 72
9
 73
5
 74
0
 42
0.0000001
 43
0.0000001
 44
0.0000000001
 40
0.0
 40
0.0
 40
0.0
 40
0.0
 40
0.2420647825
 40
1.0
 40
1.0
 40
1.0
 40
1.0
 10
45.9512169505
 20
61.7440358527
 30
0.0
 10
45.8840480132
 20
61.8156395566
 30
0.0
 10
45.6191325332
 20
62.1231663439
 30
0.0
 10
45.406206074
 20
62.4740199699
 30
0.0
 10
45.2740129641
 20
62.7515498606
 30
0.0
  0
SPLINE
  5
325
100
AcDbEntity
  8
0
100
AcDbSpline
 62
7
  6
CONTINUOUS
 70
0
 71
3
 72
11
 73
7
 74
0
 42
0.0000001
 43
0.0000001
 44
0.0000000001
 40
0.0
 40
0.0
 40
0.0
 40
0.0
 40
0.2655404918
 40
0.5252840283
 40
0.7720728887
 40
1.0
 40
1.0
 40
1.0
 40
1.0
 10
41.5191644013
 20
75.7784855013
 30
0.0
 10
41.1679936552
 20
75.2111566947
 30
0.0
 10
40.5400579867
 20
74.0459547352
 30
0.0
 10
39.8322570036
 20
72.2343476605
 30
0.0
 10
39.3882590147
 20
70.437570638
 30
0.0
 10
39.2758423845
 20
69.243590082
 30
0.0
 10
39.2758423845
 20
68.6708804959
 30
0.0
  0
SPLINE
  5
326
100
AcDbEntity
  8
0
100
AcDbSpline
 62
7
  6
CONTINUOUS
 70
0
 71
3
 72
9
 73
5
 74
0
 42
0.0000001
 43
0.0000001
 44
0.0000000001
 40
0.0
 40
0.0
 40
0.0
 40
0.0
 40
0.2420647825
 40
1.0
 40
1.0
 40
1.0
 40
1.0
 10
33.4353748154
 20
68.9698972077
 30
0.0
 10
33.3682058781
 20
69.0415009116
 30
0.0
 10
33.1032903981
 20
69.349027699
 30
0.0
 10
32.8903639389
 20
69.6998813249
 30
0.0
 10
32.7581708289
 20
69.9774112156
 30
0.0
  0
SPLINE
  5
327
100
AcDbEntity
  8
0
100
AcDbSpline
 62
7
  6
CONTINUOUS
 70
0
 71
3
 72
9
 73
5
 74
0
 42
0.0000001
 43
0.0000001
 44
0.0000000001
 40
0.0
 40
0.0
 40
0.0
 40
0.0
 40
0.5238468844
 40
1.0
 40
1.0
 40
1.0
 40
1.0
 10
41.5191644013
 20
75.7784855013
 30
0.0
 10
40.7711441493
 20
76.1558372445
 30
0.0
 10
39.3515075213
 20
76.8927646311
 30
0.0
 10
37.951664265
 20
77.6668991995
 30
0.0
 10
37.2921535847
 20
78.0476592544
 30
0.0
  0
SPLINE
  5
328
100
AcDbEntity
  8
0
100
AcDbSpline
 62
7
  6
CONTINUOUS
 70
0
 71
3
 72
10
 73
6
 74
0
 42
0.0000001
 43
0.0000001
 44
0.0000000001
 40
0.0
 40
0.0
 40
0.0
 40
0.0
 40
0.5698343742
 40
0.8040808958
 40
1.0
 40
1.0
 40
1.0
 40
1.0
 10
37.2921535847
 20
78.0476592544
 30
0.0
 10
36.7370513334
 20
78.3681404384
 30
0.0
 10
35.9600442586
 20
78.8319194372
 30
0.0
 10
35.0190323146
 20
79.4483862222
 30
0.0
 10
34.6239952969
 20
79.7281688716
 30
0.0
 10
34.4480671498
 20
79.8608930465
 30
0.0
  0
SPLINE
  5
329
100
AcDbEntity
  8
0
100
AcDbSpline
 62
7
  6
CONTINUOUS
 70
0
 71
3
 72
15
 73
11
 74
0
 42
0.0000001
 43
0.0000001
 44
0.0000000001
 40
0.0
 40
0.0
 40
0.0
 40
0.0
 40
0.1130700546
 40
0.2239080327
 40
0.3357486374
 40
0.4518778927
 40
0.5749225631
 40
0.7067293621
 40
0.8483961473
 40
1.0
 40
1.0
 40
1.0
 40
1.0
 10
42.3623204067
 20
63.894470922
 30
0.0
 10
42.131718812
 20
63.9339820115
 30
0.0
 10
41.6811386382
 20
64.0574964236
 30
0.0
 10
41.0608823923
 20
64.3820067754
 30
0.0
 10
40.5205407638
 20
64.8371184289
 30
0.0
 10
40.0700735123
 20
65.4128171502
 30
0.0
 10
39.7151328425
 20
66.0978293911
 30
0.0
 10
39.4600220449
 20
66.8809552281
 30
0.0
 10
39.3074734696
 20
67.7496443096
 30
0.0
 10
39.2758423845
 20
68.3571852202
 30
0.0
 10
39.2758423845
 20
68.6708804959
 30
0.0
  0
SPLINE
  5
32A
100
AcDbEntity
  8
0
100
AcDbSpline
 62
7
  6
CONTINUOUS
 70
0
 71
3
 72
9
 73
5
 74
0
 42
0.0000001
 43
0.0000001
 44
0.0000000001
 40
0.0
 40
0.0
 40
0.0
 40
0.0
 40
0.2466337179
 40
1.0
 40
1.0
 40
1.0
 40
1.0
 10
107.1079869101
 20
110.0670017488
 30
0.0
 10
107.0979244459
 20
110.072801031
 30
0.0
 10
107.0582903814
 20
110.098315856
 30
0.0
 10
107.0240329768
 20
110.1319099639
 30
0.0
 10
107.0022154775
 20
110.1598840102
 30
0.0
  0
SPLINE
  5
32B
100
AcDbEntity
  8
0
100
AcDbSpline
 62
7
  6
CONTINUOUS
 70
0
 71
3
 72
11
 73
7
 74
0
 42
0.0000001
 43
0.0000001
 44
0.0000000001
 40
0.0
 40
0.0
 40
0.0
 40
0.0
 40
0.2177651606
 40
0.4508956102
 40
0.7103690052
 40
1.0
 40
1.0
 40
1.0
 40
1.0
 10
107.3918854506
 20
108.5174661361
 30
0.0
 10
107.3176886908
 20
108.5603419949
 30
0.0
 10
107.1787511563
 20
108.6769679956
 30
0.0
 10
107.0309355325
 20
108.9187623498
 30
0.0
 10
106.9431838401
 20
109.2166574623
 30
0.0
 10
106.9258590202
 20
109.4334695902
 30
0.0
 10
106.9258590202
 20
109.5474442066
 30
0.0
  0
SPLINE
  5
32C
100
AcDbEntity
  8
0
100
AcDbSpline
 62
7
  6
CONTINUOUS
 70
0
 71
3
 72
9
 73
5
 74
0
 42
0.0000001
 43
0.0000001
 44
0.0000000001
 40
0.0
 40
0.0
 40
0.0
 40
0.0
 40
0.5238468844
 40
1.0
 40
1.0
 40
1.0
 40
1.0
 10
54.0350065364
 20
68.5526241463
 30
0.0
 10
53.2869862844
 20
68.9299758895
 30
0.0
 10
51.8673496564
 20
69.6669032761
 30
0.0
 10
50.4675064001
 20
70.4410378445
 30
0.0
 10
49.8079957198
 20
70.8217978994
 30
0.0
  0
SPLINE
  5
32D
100
AcDbEntity
  8
0
100
AcDbSpline
 62
7
  6
CONTINUOUS
 70
0
 71
3
 72
10
 73
6
 74
0
 42
0.0000001
 43
0.0000001
 44
0.0000000001
 40
0.0
 40
0.0
 40
0.0
 40
0.0
 40
0.5698343742
 40
0.8040808958
 40
1.0
 40
1.0
 40
1.0
 40
1.0
 10
49.8079957198
 20
70.8217978994
 30
0.0
 10
49.2528934685
 20
71.1422790833
 30
0.0
 10
48.4758863937
 20
71.6060580822
 30
0.0
 10
47.5348744497
 20
72.2225248672
 30
0.0
 10
47.139837432
 20
72.5023075166
 30
0.0
 10
46.9639092849
 20
72.6350316915
 30
0.0
  0
SPLINE
  5
32E
100
AcDbEntity
  8
0
100
AcDbSpline
 62
7
  6
CONTINUOUS
 70
0
 71
3
 72
15
 73
11
 74
0
 42
0.0000001
 43
0.0000001
 44
0.0000000001
 40
0.0
 40
0.0
 40
0.0
 40
0.0
 40
0.1130700546
 40
0.2239080327
 40
0.3357486374
 40
0.4518778927
 40
0.5749225631
 40
0.7067293621
 40
0.8483961473
 40
1.0
 40
1.0
 40
1.0
 40
1.0
 10
54.8781625418
 20
56.668609567
 30
0.0
 10
54.6475609471
 20
56.7081206565
 30
0.0
 10
54.1969807733
 20
56.8316350686
 30
0.0
 10
53.5767245274
 20
57.1561454204
 30
0.0
 10
53.0363828989
 20
57.6112570739
 30
0.0
 10
52.5859156474
 20
58.1869557952
 30
0.0
 10
52.2309749776
 20
58.871968036
 30
0.0
 10
51.97586418
 20
59.655093873
 30
0.0
 10
51.8233156047
 20
60.5237829546
 30
0.0
 10
51.7916845196
 20
61.1313238652
 30
0.0
 10
51.7916845196
 20
61.4450191409
 30
0.0
  0
SPLINE
  5
32F
100
AcDbEntity
  8
0
100
AcDbSpline
 62
7
  6
CONTINUOUS
 70
0
 71
3
 72
9
 73
5
 74
0
 42
0.0000001
 43
0.0000001
 44
0.0000000001
 40
0.0
 40
0.0
 40
0.0
 40
0.0
 40
0.247287922
 40
1.0
 40
1.0
 40
1.0
 40
1.0
 10
109.1297994399
 20
61.2352668235
 30
0.0
 10
109.120353563
 20
61.2407107491
 30
0.0
 10
109.083135221
 20
61.2644046719
 30
0.0
 10
109.050346475
 20
61.2948857125
 30
0.0
 10
109.0289661021
 20
61.3202656774
 30
0.0
  0
SPLINE
  5
330
100
AcDbEntity
  8
0
100
AcDbSpline
 62
7
  6
CONTINUOUS
 70
0
 71
3
 72
9
 73
5
 74
0
 42
0.0000001
 43
0.0000001
 44
0.0000000001
 40
0.0
 40
0.0
 40
0.0
 40
0.0
 40
0.5238468844
 40
1.0
 40
1.0
 40
1.0
 40
1.0
 10
66.5508486715
 20
61.3267627912
 30
0.0
 10
65.8028284195
 20
61.7041145345
 30
0.0
 10
64.3831917915
 20
62.4410419211
 30
0.0
 10
62.9833485352
 20
63.2151764895
 30
0.0
 10
62.3238378549
 20
63.5959365444
 30
0.0
  0
SPLINE
  5
331
100
AcDbEntity
  8
0
100
AcDbSpline
 62
7
  6
CONTINUOUS
 70
0
 71
3
 72
10
 73
6
 74
0
 42
0.0000001
 43
0.0000001
 44
0.0000000001
 40
0.0
 40
0.0
 40
0.0
 40
0.0
 40
0.5698343742
 40
0.8040808958
 40
1.0
 40
1.0
 40
1.0
 40
1.0
 10
62.3238378549
 20
63.5959365444
 30
0.0
 10
61.7687356036
 20
63.9164177283
 30
0.0
 10
60.9917285288
 20
64.3801967272
 30
0.0
 10
60.0507165848
 20
64.9966635122
 30
0.0
 10
59.6556795671
 20
65.2764461616
 30
0.0
 10
59.4797514201
 20
65.4091703365
 30
0.0
  0
SPLINE
  5
332
100
AcDbEntity
  8
0
100
AcDbSpline
 62
7
  6
CONTINUOUS
 70
0
 71
3
 72
11
 73
7
 74
0
 42
0.0000001
 43
0.0000001
 44
0.0000000001
 40
0.0
 40
0.0
 40
0.0
 40
0.0
 40
0.2177651606
 40
0.4508956102
 40
0.7103690052
 40
1.0
 40
1.0
 40
1.0
 40
1.0
 10
109.4386964846
 20
59.7290308655
 30
0.0
 10
109.3644997248
 20
59.7719067243
 30
0.0
 10
109.2255621903
 20
59.888532725
 30
0.0
 10
109.0777465664
 20
60.1303270792
 30
0.0
 10
108.989994874
 20
60.4282221916
 30
0.0
 10
108.9726700542
 20
60.6450343195
 30
0.0
 10
108.9726700542
 20
60.759008936
 30
0.0
  0
SPLINE
  5
333
100
AcDbEntity
  8
0
100
AcDbSpline
 62
7
  6
CONTINUOUS
 70
0
 71
3
 72
15
 73
11
 74
0
 42
0.0000001
 43
0.0000001
 44
0.0000000001
 40
0.0
 40
0.0
 40
0.0
 40
0.0
 40
0.1130700546
 40
0.2239080327
 40
0.3357486374
 40
0.4518778927
 40
0.5749225631
 40
0.7067293621
 40
0.8483961473
 40
1.0
 40
1.0
 40
1.0
 40
1.0
 10
67.3940046769
 20
49.442748212
 30
0.0
 10
67.1634030822
 20
49.4822593015
 30
0.0
 10
66.7128229084
 20
49.6057737136
 30
0.0
 10
66.0925666625
 20
49.9302840653
 30
0.0
 10
65.552225034
 20
50.3853957189
 30
0.0
 10
65.1017577825
 20
50.9610944402
 30
0.0
 10
64.7468171127
 20
51.646106681
 30
0.0
 10
64.4917063151
 20
52.429232518
 30
0.0
 10
64.3391577398
 20
53.2979215996
 30
0.0
 10
64.3075266547
 20
53.9054625102
 30
0.0
 10
64.3075266547
 20
54.2191577859
 30
0.0
  0
SPLINE
  5
334
100
AcDbEntity
  8
0
100
AcDbSpline
 62
7
  6
CONTINUOUS
 70
0
 71
3
 72
9
 73
5
 74
0
 42
0.0000001
 43
0.0000001
 44
0.0000000001
 40
0.0
 40
0.0
 40
0.0
 40
0.0
 40
0.2531882254
 40
1.0
 40
1.0
 40
1.0
 40
1.0
 10
73.3453876088
 20
57.9977949573
 30
0.0
 10
73.3536284968
 20
57.9957449214
 30
0.0
 10
73.3858963871
 20
57.9865651528
 30
0.0
 10
73.4169037137
 20
57.9729103804
 30
0.0
 10
73.4386058682
 20
57.9604028161
 30
0.0
  0
SPLINE
  5
335
100
AcDbEntity
  8
0
100
AcDbSpline
 62
7
  6
CONTINUOUS
 70
0
 71
3
 72
9
 73
5
 74
0
 42
0.0000001
 43
0.0000001
 44
0.0000000001
 40
0.0
 40
0.0
 40
0.0
 40
0.0
 40
0.2466337179
 40
1.0
 40
1.0
 40
1.0
 40
1.0
 10
85.4669619262
 20
49.4828207776
 30
0.0
 10
85.456899462
 20
49.4886200598
 30
0.0
 10
85.4172653974
 20
49.5141348848
 30
0.0
 10
85.3830079929
 20
49.5477289927
 30
0.0
 10
85.3611904935
 20
49.575703039
 30
0.0
  0
SPLINE
  5
336
100
AcDbEntity
  8
0
100
AcDbSpline
 62
7
  6
CONTINUOUS
 70
0
 71
3
 72
11
 73
7
 74
0
 42
0.0000001
 43
0.0000001
 44
0.0000000001
 40
0.0
 40
0.0
 40
0.0
 40
0.0
 40
0.2177651606
 40
0.4508956102
 40
0.7103690052
 40
1.0
 40
1.0
 40
1.0
 40
1.0
 10
85.7508604667
 20
47.9332851649
 30
0.0
 10
85.6766637068
 20
47.9761610237
 30
0.0
 10
85.5377261723
 20
48.0927870244
 30
0.0
 10
85.3899105485
 20
48.3345813786
 30
0.0
 10
85.3021588561
 20
48.6324764911
 30
0.0
 10
85.2848340362
 20
48.849288619
 30
0.0
 10
85.2848340362
 20
48.9632632354
 30
0.0
  0
SPLINE
  5
337
100
AcDbEntity
  8
0
100
AcDbSpline
 62
7
  6
CONTINUOUS
 70
0
 71
3
 72
17
 73
13
 74
0
 42
0.0000001
 43
0.0000001
 44
0.0000000001
 40
0.0
 40
0.0
 40
0.0
 40
0.0
 40
0.0449371762
 40
0.0918928787
 40
0.1420327165
 40
0.1960641297
 40
0.316142951
 40
0.450387465
 40
0.5931031038
 40
0.7369918466
 40
0.874629336
 40
1.0
 40
1.0
 40
1.0
 40
1.0
 10
78.173357678
 20
96.7675800795
 30
0.0
 10
78.2685183922
 20
96.822540865
 30
0.0
 10
78.4500094506
 20
96.9592162276
 30
0.0
 10
78.674414268
 20
97.2276533712
 30
0.0
 10
78.8511400834
 20
97.5547405578
 30
0.0
 10
79.0252328515
 20
98.0771108441
 30
0.0
 10
79.0979976833
 20
98.8371882191
 30
0.0
 10
78.9754868146
 20
99.8063237353
 30
0.0
 10
78.6567193388
 20
100.7909238811
 30
0.0
 10
78.1640367104
 20
101.7105863727
 30
0.0
 10
77.5347922694
 20
102.4891219632
 30
0.0
 10
77.024753361
 20
102.8941598239
 30
0.0
 10
76.759238231
 20
103.0474515878
 30
0.0
  0
SPLINE
  5
338
100
AcDbEntity
  8
0
100
AcDbSpline
 62
7
  6
CONTINUOUS
 70
0
 71
3
 72
17
 73
13
 74
0
 42
0.0000001
 43
0.0000001
 44
0.0000000001
 40
0.0
 40
0.0
 40
0.0
 40
0.0
 40
0.0449371819
 40
0.0918928999
 40
0.1420327474
 40
0.1960641582
 40
0.3161429959
 40
0.4503875063
 40
0.5931031439
 40
0.7369918899
 40
0.8746293552
 40
1.0
 40
1.0
 40
1.0
 40
1.0
 10
65.657515515
 20
103.9934414306
 30
0.0
 10
65.7526762419
 20
104.0484022228
 30
0.0
 10
65.9341673583
 20
104.1850776008
 30
0.0
 10
66.1585721855
 20
104.4535148386
 30
0.0
 10
66.335298051
 20
104.7806020624
 30
0.0
 10
66.5093907599
 20
105.3029724351
 30
0.0
 10
66.5821555566
 20
106.0630498428
 30
0.0
 10
66.4596445462
 20
107.0321853608
 30
0.0
 10
66.1408772218
 20
108.0167855721
 30
0.0
 10
65.6481942802
 20
108.9364478301
 30
0.0
 10
65.018950109
 20
109.7149835081
 30
0.0
 10
64.5089111863
 20
110.1200212018
 30
0.0
 10
64.2433960959
 20
110.2733129428
 30
0.0
  0
SPLINE
  5
339
100
AcDbEntity
  8
0
100
AcDbSpline
 62
7
  6
CONTINUOUS
 70
0
 71
3
 72
17
 73
13
 74
0
 42
0.0000001
 43
0.0000001
 44
0.0000000001
 40
0.0
 40
0.0
 40
0.0
 40
0.0
 40
0.0449372339
 40
0.0918929971
 40
0.1420328711
 40
0.1960642845
 40
0.3161430594
 40
0.4503875058
 40
0.5931031257
 40
0.736991913
 40
0.8746293957
 40
1.0
 40
1.0
 40
1.0
 40
1.0
 10
53.1416733592
 20
111.219302772
 30
0.0
 10
53.2368341828
 20
111.2742636517
 30
0.0
 10
53.4183254327
 20
111.4109392511
 30
0.0
 10
53.6427304321
 20
111.6793767318
 30
0.0
 10
53.8194563442
 20
112.0064641577
 30
0.0
 10
53.9935485809
 20
112.5288345936
 30
0.0
 10
54.0663135781
 20
113.2889116441
 30
0.0
 10
53.9438021276
 20
114.2580467617
 30
0.0
 10
53.6250353205
 20
115.2426470251
 30
0.0
 10
53.1323519239
 20
116.1623091764
 30
0.0
 10
52.5031079427
 20
116.9408450498
 30
0.0
 10
51.9930689662
 20
117.3458826059
 30
0.0
 10
51.7275539608
 20
117.4991742978
 30
0.0
  0
SPLINE
  5
33A
100
AcDbEntity
  8
0
100
AcDbSpline
 62
7
  6
CONTINUOUS
 70
0
 71
3
 72
17
 73
13
 74
0
 42
0.0000001
 43
0.0000001
 44
0.0000000001
 40
0.0
 40
0.0
 40
0.0
 40
0.0
 40
0.044937194
 40
0.0918929424
 40
0.1420327966
 40
0.1960641597
 40
0.3161428397
 40
0.4503871111
 40
0.593102854
 40
0.7369919631
 40
0.874629499
 40
1.0
 40
1.0
 40
1.0
 40
1.0
 10
40.6258312087
 20
118.4451641337
 30
0.0
 10
40.7209919638
 20
118.5001249378
 30
0.0
 10
40.9024831939
 20
118.636800352
 30
0.0
 10
41.1268879997
 20
118.90523777
 30
0.0
 10
41.3036139182
 20
119.2323249292
 30
0.0
 10
41.4777064276
 20
119.7546948725
 30
0.0
 10
41.5504710756
 20
120.5147711429
 30
0.0
 10
41.4279609994
 20
121.4839060612
 30
0.0
 10
41.1091932898
 20
122.4685067987
 30
0.0
 10
40.6165099965
 20
123.3881703093
 30
0.0
 10
39.9872657612
 20
124.1667069669
 30
0.0
 10
39.4772266134
 20
124.5717440866
 30
0.0
 10
39.2117118257
 20
124.7250356528
 30
0.0
  0
SPLINE
  5
33B
100
AcDbEntity
  8
0
100
AcDbSpline
 62
7
  6
CONTINUOUS
 70
0
 71
3
 72
16
 73
12
 74
0
 42
0.0000001
 43
0.0000001
 44
0.0000000001
 40
0.0
 40
0.0
 40
0.0
 40
0.0
 40
0.0445465094
 40
0.0900248497
 40
0.1866866388
 40
0.2949740273
 40
0.4165792594
 40
0.550791036
 40
0.6951968548
 40
0.8463207593
 40
1.0
 40
1.0
 40
1.0
 40
1.0
 10
101.5494082034
 20
116.97848062
 30
0.0
 10
101.5494099821
 20
116.8557742161
 30
0.0
 10
101.5269253221
 20
116.6072228142
 30
0.0
 10
101.3905247982
 20
116.1090270961
 30
0.0
 10
101.0406591591
 20
115.5007423858
 30
0.0
 10
100.3939132209
 20
114.8641138354
 30
0.0
 10
99.5434984086
 20
114.3213544992
 30
0.0
 10
98.5236488416
 20
113.891448161
 30
0.0
 10
97.3752511116
 20
113.5900118514
 30
0.0
 10
96.1454002113
 20
113.429287475
 30
0.0
 10
95.3035068173
 20
113.42023828
 30
0.0
 10
94.8806930572
 20
113.4409341789
 30
0.0
  0
SPLINE
  5
33C
100
AcDbEntity
  8
0
100
AcDbSpline
 62
7
  6
CONTINUOUS
 70
0
 71
3
 72
16
 73
12
 74
0
 42
0.0000001
 43
0.0000001
 44
0.0000000001
 40
0.0
 40
0.0
 40
0.0
 40
0.0
 40
0.0445465094
 40
0.0900248497
 40
0.1866866388
 40
0.2949740273
 40
0.4165792594
 40
0.550791036
 40
0.6951968548
 40
0.8463207593
 40
1.0
 40
1.0
 40
1.0
 40
1.0
 10
89.0335660683
 20
124.204341975
 30
0.0
 10
89.033567847
 20
124.0816355711
 30
0.0
 10
89.011083187
 20
123.8330841692
 30
0.0
 10
88.8746826631
 20
123.3348884511
 30
0.0
 10
88.524817024
 20
122.7266037409
 30
0.0
 10
87.8780710858
 20
122.0899751904
 30
0.0
 10
87.0276562735
 20
121.5472158542
 30
0.0
 10
86.0078067065
 20
121.117309516
 30
0.0
 10
84.8594089765
 20
120.8158732064
 30
0.0
 10
83.6295580762
 20
120.6551488301
 30
0.0
 10
82.7876646822
 20
120.6460996351
 30
0.0
 10
82.3648509221
 20
120.6667955339
 30
0.0
  0
SPLINE
  5
33D
100
AcDbEntity
  8
0
100
AcDbSpline
 62
7
  6
CONTINUOUS
 70
0
 71
3
 72
16
 73
12
 74
0
 42
0.0000001
 43
0.0000001
 44
0.0000000001
 40
0.0
 40
0.0
 40
0.0
 40
0.0
 40
0.0445465094
 40
0.0900248497
 40
0.1866866388
 40
0.2949740273
 40
0.4165792594
 40
0.550791036
 40
0.6951968548
 40
0.8463207593
 40
1.0
 40
1.0
 40
1.0
 40
1.0
 10
76.5177239332
 20
131.43020333
 30
0.0
 10
76.5177257119
 20
131.3074969261
 30
0.0
 10
76.4952410519
 20
131.0589455242
 30
0.0
 10
76.358840528
 20
130.5607498062
 30
0.0
 10
76.0089748889
 20
129.9524650959
 30
0.0
 10
75.3622289507
 20
129.3158365454
 30
0.0
 10
74.5118141384
 20
128.7730772092
 30
0.0
 10
73.4919645714
 20
128.343170871
 30
0.0
 10
72.3435668414
 20
128.0417345614
 30
0.0
 10
71.1137159411
 20
127.8810101851
 30
0.0
 10
70.2718225471
 20
127.8719609901
 30
0.0
 10
69.849008787
 20
127.8926568889
 30
0.0
  0
SPLINE
  5
33E
100
AcDbEntity
  8
0
100
AcDbSpline
 62
7
  6
CONTINUOUS
 70
0
 71
3
 72
16
 73
12
 74
0
 42
0.0000001
 43
0.0000001
 44
0.0000000001
 40
0.0
 40
0.0
 40
0.0
 40
0.0
 40
0.0445465094
 40
0.0900248497
 40
0.1866866388
 40
0.2949740273
 40
0.4165792594
 40
0.550791036
 40
0.6951968548
 40
0.8463207593
 40
1.0
 40
1.0
 40
1.0
 40
1.0
 10
64.0018817981
 20
138.656064685
 30
0.0
 10
64.0018835768
 20
138.5333582811
 30
0.0
 10
63.9793989168
 20
138.2848068793
 30
0.0
 10
63.8429983929
 20
137.7866111612
 30
0.0
 10
63.4931327538
 20
137.1783264509
 30
0.0
 10
62.8463868156
 20
136.5416979004
 30
0.0
 10
61.9959720033
 20
135.9989385642
 30
0.0
 10
60.9761224363
 20
135.569032226
 30
0.0
 10
59.8277247063
 20
135.2675959164
 30
0.0
 10
58.597873806
 20
135.1068715401
 30
0.0
 10
57.755980412
 20
135.0978223451
 30
0.0
 10
57.3331666519
 20
135.1185182439
 30
0.0
  0
SPLINE
  5
33F
100
AcDbEntity
  8
0
100
AcDbSpline
 62
7
  6
CONTINUOUS
 70
0
 71
3
 72
18
 73
14
 74
0
 42
0.0000001
 43
0.0000001
 44
0.0000000001
 40
0.0
 40
0.0
 40
0.0
 40
0.0
 40
0.0391541491
 40
0.0800620114
 40
0.1246145613
 40
0.1740133882
 40
0.228769184
 40
0.2888621839
 40
0.4229332318
 40
0.5700020026
 40
0.7212770215
 40
0.8673795059
 40
1.0
 40
1.0
 40
1.0
 40
1.0
 10
78.4773874517
 20
39.9356247619
 30
0.0
 10
78.5564766453
 20
39.9813056065
 30
0.0
 10
78.7054599763
 20
40.0988801989
 30
0.0
 10
78.8764320979
 20
40.3379019352
 30
0.0
 10
78.9942978192
 20
40.6322635447
 30
0.0
 10
79.0584660032
 20
40.9749361957
 30
0.0
 10
79.0693069333
 20
41.359206901
 30
0.0
 10
79.0106567814
 20
41.938155045
 30
0.0
 10
78.7991578713
 20
42.7112390631
 30
0.0
 10
78.3736438467
 20
43.6298973093
 30
0.0
 10
77.7977641298
 20
44.497146161
 30
0.0
 10
77.1170779045
 20
45.2392661274
 30
0.0
 10
76.5943579981
 20
45.6354163952
 30
0.0
 10
76.3264430964
 20
45.7900936365
 30
0.0
  0
SPLINE
  5
340
100
AcDbEntity
  8
0
100
AcDbSpline
 62
7
  6
CONTINUOUS
 70
0
 71
3
 72
11
 73
7
 74
0
 42
0.0000001
 43
0.0000001
 44
0.0000000001
 40
0.0
 40
0.0
 40
0.0
 40
0.0
 40
0.2177651606
 40
0.4508956102
 40
0.7103690052
 40
1.0
 40
1.0
 40
1.0
 40
1.0
 10
72.672567234
 20
54.592281709
 30
0.0
 10
72.5983704741
 20
54.6351575678
 30
0.0
 10
72.4594329396
 20
54.7517835685
 30
0.0
 10
72.3116173158
 20
54.9935779227
 30
0.0
 10
72.2238656234
 20
55.2914730351
 30
0.0
 10
72.2065408035
 20
55.508285163
 30
0.0
 10
72.2065408035
 20
55.6222597795
 30
0.0
  0
SPLINE
  5
341
100
AcDbEntity
  8
0
100
AcDbSpline
 62
7
  6
CONTINUOUS
 70
0
 71
3
 72
9
 73
5
 74
0
 42
0.0000001
 43
0.0000001
 44
0.0000000001
 40
0.0
 40
0.0
 40
0.0
 40
0.0
 40
0.2466337179
 40
1.0
 40
1.0
 40
1.0
 40
1.0
 10
72.3886686934
 20
56.1418173217
 30
0.0
 10
72.3786062293
 20
56.1476166038
 30
0.0
 10
72.3389721647
 20
56.1731314289
 30
0.0
 10
72.3047147601
 20
56.2067255368
 30
0.0
 10
72.2828972608
 20
56.234699583
 30
0.0
  0
SPLINE
  5
342
100
AcDbEntity
  8
0
100
AcDbSpline
 62
7
  6
CONTINUOUS
 70
0
 71
3
 72
9
 73
5
 74
0
 42
0.0000001
 43
0.0000001
 44
0.0000000001
 40
0.0
 40
0.0
 40
0.0
 40
0.0
 40
0.4499696819
 40
1.0
 40
1.0
 40
1.0
 40
1.0
 10
68.1458366764
 20
64.0160889148
 30
0.0
 10
68.1593441101
 20
64.0082905223
 30
0.0
 10
68.1962683965
 20
64.0028885518
 30
0.0
 10
68.22931998
 20
64.0164718824
 30
0.0
 10
68.245831768
 20
64.0260032409
 30
0.0
  0
SPLINE
  5
343
100
AcDbEntity
  8
0
100
AcDbSpline
 62
7
  6
CONTINUOUS
 70
0
 71
3
 72
9
 73
5
 74
0
 42
0.0000001
 43
0.0000001
 44
0.0000000001
 40
0.0
 40
0.0
 40
0.0
 40
0.0
 40
0.4499595182
 40
1.0
 40
1.0
 40
1.0
 40
1.0
 10
18.0824681282
 20
92.9195343393
 30
0.0
 10
18.0689578083
 20
92.9273343798
 30
0.0
 10
18.0458132738
 20
92.9566195999
 30
0.0
 10
18.0410531795
 20
92.9920434988
 30
0.0
 10
18.0410531795
 20
93.0111136517
 30
0.0
  0
SPLINE
  5
344
100
AcDbEntity
  8
0
100
AcDbSpline
 62
7
  6
CONTINUOUS
 70
0
 71
3
 72
8
 73
4
 74
0
 42
0.0000001
 43
0.0000001
 44
0.0000000001
 40
0.0
 40
0.0
 40
0.0
 40
0.0
 40
1.0
 40
1.0
 40
1.0
 40
1.0
 10
84.1316563935
 20
92.410413697
 30
0.0
 10
84.1594659661
 20
92.4021046325
 30
0.0
 10
84.1865221471
 20
92.3905600656
 30
0.0
 10
84.2116690929
 20
92.3760671708
 30
0.0
  0
SPLINE
  5
345
100
AcDbEntity
  8
0
100
AcDbSpline
 62
7
  6
CONTINUOUS
 70
0
 71
3
 72
9
 73
5
 74
0
 42
0.0000001
 43
0.0000001
 44
0.0000000001
 40
0.0
 40
0.0
 40
0.0
 40
0.0
 40
0.2531882254
 40
1.0
 40
1.0
 40
1.0
 40
1.0
 10
94.2743479391
 20
79.7940830794
 30
0.0
 10
94.2825888272
 20
79.7920330435
 30
0.0
 10
94.3148567175
 20
79.7828532749
 30
0.0
 10
94.3458640441
 20
79.7691985025
 30
0.0
 10
94.3675661986
 20
79.7566909382
 30
0.0
  0
SPLINE
  5
346
100
AcDbEntity
  8
0
100
AcDbSpline
 62
7
  6
CONTINUOUS
 70
0
 71
3
 72
9
 73
5
 74
0
 42
0.0000001
 43
0.0000001
 44
0.0000000001
 40
0.0
 40
0.0
 40
0.0
 40
0.0
 40
0.2531882254
 40
1.0
 40
1.0
 40
1.0
 40
1.0
 10
108.0647058254
 20
111.9229793845
 30
0.0
 10
108.0729467135
 20
111.9209293485
 30
0.0
 10
108.1052146038
 20
111.9117495799
 30
0.0
 10
108.1362219304
 20
111.8980948075
 30
0.0
 10
108.1579240849
 20
111.8855872432
 30
0.0
  0
SPLINE
  5
347
100
AcDbEntity
  8
0
100
AcDbSpline
 62
7
  6
CONTINUOUS
 70
0
 71
3
 72
8
 73
4
 74
0
 42
0.0000001
 43
0.0000001
 44
0.0000000001
 40
0.0
 40
0.0
 40
0.0
 40
0.0
 40
1.0
 40
1.0
 40
1.0
 40
1.0
 10
110.1497209237
 20
63.1747981534
 30
0.0
 10
110.1775304962
 20
63.1664890889
 30
0.0
 10
110.2045866772
 20
63.154944522
 30
0.0
 10
110.229733623
 20
63.1404516272
 30
0.0
  0
SPLINE
  5
348
100
AcDbEntity
  8
0
100
AcDbSpline
 62
7
  6
CONTINUOUS
 70
0
 71
3
 72
9
 73
5
 74
0
 42
0.0000001
 43
0.0000001
 44
0.0000000001
 40
0.0
 40
0.0
 40
0.0
 40
0.0
 40
0.2531882254
 40
1.0
 40
1.0
 40
1.0
 40
1.0
 10
86.4236808415
 20
51.3387984133
 30
0.0
 10
86.4319217295
 20
51.3367483773
 30
0.0
 10
86.4641896198
 20
51.3275686087
 30
0.0
 10
86.4951969464
 20
51.3139138363
 30
0.0
 10
86.5168991009
 20
51.301406272
 30
0.0
  0
SPLINE
  5
349
100
AcDbEntity
  8
0
100
AcDbSpline
 62
7
  6
CONTINUOUS
 70
0
 71
3
 72
11
 73
7
 74
0
 42
0.0000001
 43
0.0000001
 44
0.0000000001
 40
0.0
 40
0.0
 40
0.0
 40
0.0
 40
0.2798268063
 40
0.5354625208
 40
0.7721975581
 40
1.0
 40
1.0
 40
1.0
 40
1.0
 10
76.759238231
 20
103.0474515878
 30
0.0
 10
76.6000527316
 20
103.1393552996
 30
0.0
 10
76.2783692414
 20
103.2884950431
 30
0.0
 10
75.7771891341
 20
103.3947726921
 30
0.0
 10
75.2986266059
 20
103.3657799443
 30
0.0
 10
75.0083989202
 20
103.2541276385
 30
0.0
 10
74.8788200536
 20
103.1792904892
 30
0.0
  0
SPLINE
  5
34A
100
AcDbEntity
  8
0
100
AcDbSpline
 62
7
  6
CONTINUOUS
 70
0
 71
3
 72
11
 73
7
 74
0
 42
0.0000001
 43
0.0000001
 44
0.0000000001
 40
0.0
 40
0.0
 40
0.0
 40
0.0
 40
0.2798268119
 40
0.535462492
 40
0.7721975377
 40
1.0
 40
1.0
 40
1.0
 40
1.0
 10
64.2433960959
 20
110.2733129428
 30
0.0
 10
64.0842105954
 20
110.3652166552
 30
0.0
 10
63.7625271687
 20
110.5143564877
 30
0.0
 10
63.2613470502
 20
110.6206340417
 30
0.0
 10
62.7827845478
 20
110.5916412716
 30
0.0
 10
62.4925568287
 20
110.4799890064
 30
0.0
 10
62.3629779516
 20
110.4051518525
 30
0.0
  0
SPLINE
  5
34B
100
AcDbEntity
  8
0
100
AcDbSpline
 62
7
  6
CONTINUOUS
 70
0
 71
3
 72
11
 73
7
 74
0
 42
0.0000001
 43
0.0000001
 44
0.0000000001
 40
0.0
 40
0.0
 40
0.0
 40
0.0
 40
0.2798267686
 40
0.5354624425
 40
0.7721975112
 40
1.0
 40
1.0
 40
1.0
 40
1.0
 10
51.7275539608
 20
117.4991742978
 30
0.0
 10
51.568368487
 20
117.5910779948
 30
0.0
 10
51.2466851283
 20
117.740217893
 30
0.0
 10
50.7455050094
 20
117.8464953635
 30
0.0
 10
50.266942497
 20
117.8175026171
 30
0.0
 10
49.9767147271
 20
117.705850385
 30
0.0
 10
49.8471358412
 20
117.6310132154
 30
0.0
  0
SPLINE
  5
34C
100
AcDbEntity
  8
0
100
AcDbSpline
 62
7
  6
CONTINUOUS
 70
0
 71
3
 72
11
 73
7
 74
0
 42
0.0000001
 43
0.0000001
 44
0.0000000001
 40
0.0
 40
0.0
 40
0.0
 40
0.0
 40
0.2798273021
 40
0.5354627473
 40
0.7721975321
 40
1.0
 40
1.0
 40
1.0
 40
1.0
 10
39.2117118257
 20
124.7250356528
 30
0.0
 10
39.0525260409
 20
124.8169395294
 30
0.0
 10
38.7308424527
 20
124.966079435
 30
0.0
 10
38.2296623077
 20
125.0723570341
 30
0.0
 10
37.7511001236
 20
125.043363877
 30
0.0
 10
37.4608726208
 20
124.931711617
 30
0.0
 10
37.3312936941
 20
124.8568745312
 30
0.0
  0
SPLINE
  5
34D
100
AcDbEntity
  8
0
100
AcDbSpline
 62
7
  6
CONTINUOUS
 70
0
 71
3
 72
9
 73
5
 74
0
 42
0.0000001
 43
0.0000001
 44
0.0000000001
 40
0.0
 40
0.0
 40
0.0
 40
0.0
 40
0.5282136635
 40
1.0
 40
1.0
 40
1.0
 40
1.0
 10
76.3264430964
 20
45.7900936365
 30
0.0
 10
76.1791907941
 20
45.8751078696
 30
0.0
 10
75.8885930974
 20
46.0168983868
 30
0.0
 10
75.5759546202
 20
46.1042406963
 30
0.0
 10
75.4258046214
 20
46.1270157651
 30
0.0
  0
SPLINE
  5
34E
100
AcDbEntity
  8
0
100
AcDbSpline
 62
7
  6
CONTINUOUS
 70
0
 71
3
 72
11
 73
7
 74
0
 42
0.0000001
 43
0.0000001
 44
0.0000000001
 40
0.0
 40
0.0
 40
0.0
 40
0.0
 40
0.2177651606
 40
0.4508956102
 40
0.7103690052
 40
1.0
 40
1.0
 40
1.0
 40
1.0
 10
74.9224816405
 20
58.4893365425
 30
0.0
 10
74.9966784004
 20
58.4464606836
 30
0.0
 10
75.1356159349
 20
58.329834683
 30
0.0
 10
75.2834315587
 20
58.0880403288
 30
0.0
 10
75.3711832511
 20
57.7901452163
 30
0.0
 10
75.388508071
 20
57.5733330884
 30
0.0
 10
75.388508071
 20
57.4593584719
 30
0.0
  0
SPLINE
  5
34F
100
AcDbEntity
  8
0
100
AcDbSpline
 62
7
  6
CONTINUOUS
 70
0
 71
3
 72
15
 73
11
 74
0
 42
0.0000001
 43
0.0000001
 44
0.0000000001
 40
0.0
 40
0.0
 40
0.0
 40
0.0
 40
0.097662448
 40
0.2097241085
 40
0.3349540434
 40
0.4697297884
 40
0.6090672085
 40
0.7473676273
 40
0.8792459224
 40
1.0
 40
1.0
 40
1.0
 40
1.0
 10
72.288185489
 20
55.0008105612
 30
0.0
 10
72.4169022896
 20
55.0116060809
 30
0.0
 10
72.6895493694
 20
55.0840644658
 30
0.0
 10
73.0791142699
 20
55.301210617
 30
0.0
 10
73.4577558727
 20
55.6195045792
 30
0.0
 10
73.8041013218
 20
56.0208649196
 30
0.0
 10
74.0985438386
 20
56.4821591342
 30
0.0
 10
74.3240956162
 20
56.976686014
 30
0.0
 10
74.4673922076
 20
57.4754536094
 30
0.0
 10
74.5046209145
 20
57.8099496203
 30
0.0
 10
74.5046209145
 20
57.9696594151
 30
0.0
  0
SPLINE
  5
350
100
AcDbEntity
  8
0
100
AcDbSpline
 62
7
  6
CONTINUOUS
 70
0
 71
3
 72
11
 73
7
 74
0
 42
0.0000001
 43
0.0000001
 44
0.0000000001
 40
0.0
 40
0.0
 40
0.0
 40
0.0
 40
0.2176899422
 40
0.4508856506
 40
0.7106204681
 40
1.0
 40
1.0
 40
1.0
 40
1.0
 10
73.4386058682
 20
57.9604028161
 30
0.0
 10
73.4732412124
 20
57.9404414894
 30
0.0
 10
73.5380493064
 20
57.8859779542
 30
0.0
 10
73.607112671
 20
57.7731428625
 30
0.0
 10
73.6479275548
 20
57.6340683645
 30
0.0
 10
73.6560963099
 20
57.5329070003
 30
0.0
 10
73.6560963099
 20
57.4797664304
 30
0.0
  0
SPLINE
  5
351
100
AcDbEntity
  8
0
100
AcDbSpline
 62
7
  6
CONTINUOUS
 70
0
 71
3
 72
11
 73
7
 74
0
 42
0.0000001
 43
0.0000001
 44
0.0000000001
 40
0.0
 40
0.0
 40
0.0
 40
0.0
 40
0.2176899422
 40
0.4508856506
 40
0.7106204681
 40
1.0
 40
1.0
 40
1.0
 40
1.0
 10
84.2116690929
 20
92.3760671708
 30
0.0
 10
84.2479537392
 20
92.3551553048
 30
0.0
 10
84.3158479329
 20
92.2980982679
 30
0.0
 10
84.3882000291
 20
92.1798900766
 30
0.0
 10
84.4309584788
 20
92.0341929834
 30
0.0
 10
84.4395162222
 20
91.9282144115
 30
0.0
 10
84.4395162222
 20
91.8725433382
 30
0.0
  0
SPLINE
  5
352
100
AcDbEntity
  8
0
100
AcDbSpline
 62
7
  6
CONTINUOUS
 70
0
 71
3
 72
11
 73
7
 74
0
 42
0.0000001
 43
0.0000001
 44
0.0000000001
 40
0.0
 40
0.0
 40
0.0
 40
0.0
 40
0.2176899422
 40
0.4508856506
 40
0.7106204681
 40
1.0
 40
1.0
 40
1.0
 40
1.0
 10
108.1579240849
 20
111.8855872432
 30
0.0
 10
108.1925594291
 20
111.8656259165
 30
0.0
 10
108.2573675231
 20
111.8111623813
 30
0.0
 10
108.3264308877
 20
111.6983272896
 30
0.0
 10
108.3672457715
 20
111.5592527916
 30
0.0
 10
108.3754145266
 20
111.4580914275
 30
0.0
 10
108.3754145266
 20
111.4049508575
 30
0.0
  0
SPLINE
  5
353
100
AcDbEntity
  8
0
100
AcDbSpline
 62
7
  6
CONTINUOUS
 70
0
 71
3
 72
9
 73
5
 74
0
 42
0.0000001
 43
0.0000001
 44
0.0000000001
 40
0.0
 40
0.0
 40
0.0
 40
0.0
 40
0.550041162
 40
1.0
 40
1.0
 40
1.0
 40
1.0
 10
68.1044217199
 20
64.1076682345
 30
0.0
 10
68.1044217199
 20
64.0885980383
 30
0.0
 10
68.1091814933
 20
64.0531739683
 30
0.0
 10
68.1323263709
 20
64.0238889653
 30
0.0
 10
68.1458366764
 20
64.0160889148
 30
0.0
  0
SPLINE
  5
354
100
AcDbEntity
  8
0
100
AcDbSpline
 62
7
  6
CONTINUOUS
 70
0
 71
3
 72
9
 73
5
 74
0
 42
0.0000001
 43
0.0000001
 44
0.0000000001
 40
0.0
 40
0.0
 40
0.0
 40
0.0
 40
0.2310197142
 40
1.0
 40
1.0
 40
1.0
 40
1.0
 10
68.2458565398
 20
64.3526185084
 30
0.0
 10
68.2395093486
 20
64.3489546196
 30
0.0
 10
68.2130142511
 20
64.3314161022
 30
0.0
 10
68.1902061386
 20
64.308641991
 30
0.0
 10
68.1749184622
 20
64.2896316325
 30
0.0
  0
SPLINE
  5
355
100
AcDbEntity
  8
0
100
AcDbSpline
 62
7
  6
CONTINUOUS
 70
0
 71
3
 72
9
 73
5
 74
0
 42
0.0000001
 43
0.0000001
 44
0.0000000001
 40
0.0
 40
0.0
 40
0.0
 40
0.0
 40
0.5227358246
 40
1.0
 40
1.0
 40
1.0
 40
1.0
 10
68.1749184622
 20
64.2896316325
 30
0.0
 10
68.1533326473
 20
64.2627894839
 30
0.0
 10
68.1199669439
 20
64.2048825683
 30
0.0
 10
68.1044217199
 20
64.1391168109
 30
0.0
 10
68.1044217199
 20
64.1076682345
 30
0.0
  0
SPLINE
  5
356
100
AcDbEntity
  8
0
100
AcDbSpline
 62
7
  6
CONTINUOUS
 70
0
 71
3
 72
9
 73
5
 74
0
 42
0.0000001
 43
0.0000001
 44
0.0000000001
 40
0.0
 40
0.0
 40
0.0
 40
0.0
 40
0.2536295994
 40
1.0
 40
1.0
 40
1.0
 40
1.0
 10
68.8698997853
 20
79.0037851443
 30
0.0
 10
68.7826277209
 20
77.770818904
 30
0.0
 10
68.4777552804
 20
72.9068663084
 30
0.0
 10
68.3318576512
 20
68.0327059088
 30
0.0
 10
68.3198437704
 20
64.3953273184
 30
0.0
  0
SPLINE
  5
357
100
AcDbEntity
  8
0
100
AcDbSpline
 62
7
  6
CONTINUOUS
 70
0
 71
3
 72
11
 73
7
 74
0
 42
0.0000001
 43
0.0000001
 44
0.0000000001
 40
0.0
 40
0.0
 40
0.0
 40
0.0
 40
0.2177651606
 40
0.4508956102
 40
0.7103690052
 40
1.0
 40
1.0
 40
1.0
 40
1.0
 10
109.6417998572
 20
112.4145209696
 30
0.0
 10
109.7159966171
 20
112.3716451108
 30
0.0
 10
109.8549341516
 20
112.2550191101
 30
0.0
 10
110.0027497754
 20
112.0132247559
 30
0.0
 10
110.0905014678
 20
111.7153296434
 30
0.0
 10
110.1078262877
 20
111.4985175155
 30
0.0
 10
110.1078262877
 20
111.384542899
 30
0.0
  0
SPLINE
  5
358
100
AcDbEntity
  8
0
100
AcDbSpline
 62
7
  6
CONTINUOUS
 70
0
 71
3
 72
9
 73
5
 74
0
 42
0.0000001
 43
0.0000001
 44
0.0000000001
 40
0.0
 40
0.0
 40
0.0
 40
0.0
 40
0.25607925
 40
1.0
 40
1.0
 40
1.0
 40
1.0
 10
83.3644236687
 20
102.8037559438
 30
0.0
 10
83.2092917956
 20
101.4462954844
 30
0.0
 10
82.6737660095
 20
96.1377267044
 30
0.0
 10
82.4250285579
 20
90.798940615
 30
0.0
 10
82.4250265577
 20
86.8297945202
 30
0.0
  0
SPLINE
  5
359
100
AcDbEntity
  8
0
100
AcDbSpline
 62
7
  6
CONTINUOUS
 70
0
 71
3
 72
15
 73
11
 74
0
 42
0.0000001
 43
0.0000001
 44
0.0000000001
 40
0.0
 40
0.0
 40
0.0
 40
0.0
 40
0.1213355297
 40
0.2346988958
 40
0.3445806471
 40
0.4562065519
 40
0.5745567974
 40
0.7034022858
 40
0.845007904
 40
1.0
 40
1.0
 40
1.0
 40
1.0
 10
32.2479747437
 20
77.9881985916
 30
0.0
 10
32.3379131541
 20
78.2620733164
 30
0.0
 10
32.564659444
 20
78.7773281958
 30
0.0
 10
33.0697414417
 20
79.4327876944
 30
0.0
 10
33.7147656737
 20
79.915967118
 30
0.0
 10
34.4785702375
 20
80.2069632471
 30
0.0
 10
35.3346000137
 20
80.2972152519
 30
0.0
 10
36.2582535836
 20
80.1876128149
 30
0.0
 10
37.2268903375
 20
79.8827695981
 30
0.0
 10
37.8606141968
 20
79.5683668463
 30
0.0
 10
38.1795075349
 20
79.3842578568
 30
0.0
  0
SPLINE
  5
35A
100
AcDbEntity
  8
0
100
AcDbSpline
 62
7
  6
CONTINUOUS
 70
0
 71
3
 72
9
 73
5
 74
0
 42
0.0000001
 43
0.0000001
 44
0.0000000001
 40
0.0
 40
0.0
 40
0.0
 40
0.0
 40
0.4711084573
 40
1.0
 40
1.0
 40
1.0
 40
1.0
 10
32.7581708289
 20
69.9774112156
 30
0.0
 10
32.5658630724
 20
70.3811474669
 30
0.0
 10
32.2825757313
 20
71.2991047603
 30
0.0
 10
32.204745133
 20
72.2512406821
 30
0.0
 10
32.204745133
 20
72.7532880411
 30
0.0
  0
SPLINE
  5
35B
100
AcDbEntity
  8
0
100
AcDbSpline
 62
7
  6
CONTINUOUS
 70
0
 71
3
 72
15
 73
11
 74
0
 42
0.0000001
 43
0.0000001
 44
0.0000000001
 40
0.0
 40
0.0
 40
0.0
 40
0.0
 40
0.1213354852
 40
0.234698847
 40
0.3445805753
 40
0.4562064525
 40
0.5745566924
 40
0.7034021527
 40
0.8450077369
 40
1.0
 40
1.0
 40
1.0
 40
1.0
 10
44.7638169504
 20
70.7623371626
 30
0.0
 10
44.853755421
 20
71.0362117793
 30
0.0
 10
45.0805018083
 20
71.5514663925
 30
0.0
 10
45.5855828193
 20
72.2069267486
 30
0.0
 10
46.2306079248
 20
72.6901046754
 30
0.0
 10
46.9944113423
 20
72.9811033538
 30
0.0
 10
47.8504414316
 20
73.0713541843
 30
0.0
 10
48.7740946921
 20
72.961751769
 30
0.0
 10
49.7427322112
 20
72.656909568
 30
0.0
 10
50.376455964
 20
72.3425057037
 30
0.0
 10
50.69534967
 20
72.1583965018
 30
0.0
  0
SPLINE
  5
35C
100
AcDbEntity
  8
0
100
AcDbSpline
 62
7
  6
CONTINUOUS
 70
0
 71
3
 72
9
 73
5
 74
0
 42
0.0000001
 43
0.0000001
 44
0.0000000001
 40
0.0
 40
0.0
 40
0.0
 40
0.0
 40
0.4711084573
 40
1.0
 40
1.0
 40
1.0
 40
1.0
 10
45.2740129641
 20
62.7515498606
 30
0.0
 10
45.0817052075
 20
63.1552861119
 30
0.0
 10
44.7984178664
 20
64.0732434053
 30
0.0
 10
44.7205872681
 20
65.025379327
 30
0.0
 10
44.7205872681
 20
65.5274266861
 30
0.0
  0
SPLINE
  5
35D
100
AcDbEntity
  8
0
100
AcDbSpline
 62
7
  6
CONTINUOUS
 70
0
 71
3
 72
15
 73
11
 74
0
 42
0.0000001
 43
0.0000001
 44
0.0000000001
 40
0.0
 40
0.0
 40
0.0
 40
0.0
 40
0.1213360933
 40
0.2346980678
 40
0.344580721
 40
0.4562063078
 40
0.5745571426
 40
0.7034033782
 40
0.84500794
 40
1.0
 40
1.0
 40
1.0
 40
1.0
 10
57.2796548333
 20
63.5364800323
 30
0.0
 10
57.3695885251
 20
63.8103576199
 30
0.0
 10
57.5963223329
 20
64.3256197196
 30
0.0
 10
58.1014426328
 20
64.981048797
 30
0.0
 10
58.7464495561
 20
65.4642396987
 30
0.0
 10
59.5102534522
 20
65.7552541742
 30
0.0
 10
60.3662884102
 20
65.8454866099
 30
0.0
 10
61.289940322
 20
65.7358841413
 30
0.0
 10
62.2585798518
 20
65.4310512459
 30
0.0
 10
62.892298642
 20
65.1166440353
 30
0.0
 10
63.2111918051
 20
64.9325351468
 30
0.0
  0
SPLINE
  5
35E
100
AcDbEntity
  8
0
100
AcDbSpline
 62
7
  6
CONTINUOUS
 70
0
 71
3
 72
15
 73
11
 74
0
 42
0.0000001
 43
0.0000001
 44
0.0000000001
 40
0.0
 40
0.0
 40
0.0
 40
0.0
 40
0.097662448
 40
0.2097241085
 40
0.3349540434
 40
0.4697297884
 40
0.6090672085
 40
0.7473676273
 40
0.8792459224
 40
1.0
 40
1.0
 40
1.0
 40
1.0
 10
107.0075037057
 20
108.9259949883
 30
0.0
 10
107.1362205063
 20
108.936790508
 30
0.0
 10
107.4088675861
 20
109.0092488929
 30
0.0
 10
107.7984324866
 20
109.2263950441
 30
0.0
 10
108.1770740894
 20
109.5446890064
 30
0.0
 10
108.5234195385
 20
109.9460493467
 30
0.0
 10
108.8178620553
 20
110.4073435613
 30
0.0
 10
109.0434138329
 20
110.9018704412
 30
0.0
 10
109.1867104243
 20
111.4006380365
 30
0.0
 10
109.2239391312
 20
111.7351340474
 30
0.0
 10
109.2239391312
 20
111.8948438422
 30
0.0
  0
SPLINE
  5
35F
100
AcDbEntity
  8
0
100
AcDbSpline
 62
7
  6
CONTINUOUS
 70
0
 71
3
 72
12
 73
8
 74
0
 42
0.0000001
 43
0.0000001
 44
0.0000000001
 40
0.0
 40
0.0
 40
0.0
 40
0.0
 40
0.2910251093
 40
0.5516490461
 40
0.7850071923
 40
0.8941528829
 40
1.0
 40
1.0
 40
1.0
 40
1.0
 10
25.6636653998
 20
86.6101192118
 30
0.0
 10
25.2840716593
 20
86.8292728022
 30
0.0
 10
24.5310448886
 20
87.1919060729
 30
0.0
 10
23.3792605459
 20
87.4936110531
 30
0.0
 10
22.4585578713
 20
87.5066987056
 30
0.0
 10
21.7960447407
 20
87.3645938754
 30
0.0
 10
21.492404063
 20
87.2473647182
 30
0.0
 10
21.3489583007
 20
87.1778155926
 30
0.0
  0
SPLINE
  5
360
100
AcDbEntity
  8
0
100
AcDbSpline
 62
7
  6
CONTINUOUS
 70
0
 71
3
 72
9
 73
5
 74
0
 42
0.0000001
 43
0.0000001
 44
0.0000000001
 40
0.0
 40
0.0
 40
0.0
 40
0.0
 40
0.4711084573
 40
1.0
 40
1.0
 40
1.0
 40
1.0
 10
57.7898550992
 20
55.5256885056
 30
0.0
 10
57.5975473426
 20
55.9294247569
 30
0.0
 10
57.3142600015
 20
56.8473820502
 30
0.0
 10
57.2364294032
 20
57.799517972
 30
0.0
 10
57.2364294032
 20
58.3015653311
 30
0.0
  0
SPLINE
  5
361
100
AcDbEntity
  8
0
100
AcDbSpline
 62
7
  6
CONTINUOUS
 70
0
 71
3
 72
9
 73
5
 74
0
 42
0.0000001
 43
0.0000001
 44
0.0000000001
 40
0.0
 40
0.0
 40
0.0
 40
0.0
 40
0.4711084573
 40
1.0
 40
1.0
 40
1.0
 40
1.0
 10
20.2423286938
 20
77.2032725706
 30
0.0
 10
20.0500209373
 20
77.6070088219
 30
0.0
 10
19.7667335962
 20
78.5249661153
 30
0.0
 10
19.6889029979
 20
79.4771020371
 30
0.0
 10
19.6889029979
 20
79.9791493961
 30
0.0
  0
SPLINE
  5
362
100
AcDbEntity
  8
0
100
AcDbSpline
 62
7
  6
CONTINUOUS
 70
0
 71
3
 72
9
 73
5
 74
0
 42
0.0000001
 43
0.0000001
 44
0.0000000001
 40
0.0
 40
0.0
 40
0.0
 40
0.0
 40
0.2570371457
 40
1.0
 40
1.0
 40
1.0
 40
1.0
 10
82.4250269001
 20
48.4443193615
 30
0.0
 10
82.4251206261
 20
47.1663778925
 30
0.0
 10
82.5003162769
 20
42.195080103
 30
0.0
 10
82.8822710649
 20
37.2266235096
 30
0.0
 10
83.3644236661
 20
33.5643509697
 30
0.0
  0
SPLINE
  5
363
100
AcDbEntity
  8
0
100
AcDbSpline
 62
7
  6
CONTINUOUS
 70
0
 71
3
 72
11
 73
7
 74
0
 42
0.0000001
 43
0.0000001
 44
0.0000000001
 40
0.0
 40
0.0
 40
0.0
 40
0.0
 40
0.2667765399
 40
0.5183486852
 40
0.7605156353
 40
1.0
 40
1.0
 40
1.0
 40
1.0
 10
19.7319107547
 20
85.2132736009
 30
0.0
 10
19.8043608803
 20
85.4339451935
 30
0.0
 10
19.979302342
 20
85.8528128976
 30
0.0
 10
20.3457829371
 20
86.4093535952
 30
0.0
 10
20.8027630374
 20
86.8618566752
 30
0.0
 10
21.1613473374
 20
87.0868531393
 30
0.0
 10
21.3489583007
 20
87.1778155926
 30
0.0
  0
SPLINE
  5
364
100
AcDbEntity
  8
0
100
AcDbSpline
 62
7
  6
CONTINUOUS
 70
0
 71
3
 72
9
 73
5
 74
0
 42
0.0000001
 43
0.0000001
 44
0.0000000001
 40
0.0
 40
0.0
 40
0.0
 40
0.0
 40
0.2536442689
 40
1.0
 40
1.0
 40
1.0
 40
1.0
 10
69.9488211721
 20
51.9283756273
 30
0.0
 10
70.0105125312
 20
51.2108427426
 30
0.0
 10
70.2772073188
 20
48.3840345608
 30
0.0
 10
70.6390779599
 20
45.566056144
 30
0.0
 10
70.9664770511
 20
43.4723487914
 30
0.0
  0
SPLINE
  5
365
100
AcDbEntity
  8
0
100
AcDbSpline
 62
7
  6
CONTINUOUS
 70
0
 71
3
 72
9
 73
5
 74
0
 42
0.0000001
 43
0.0000001
 44
0.0000000001
 40
0.0
 40
0.0
 40
0.0
 40
0.0
 40
0.262629717
 40
1.0
 40
1.0
 40
1.0
 40
1.0
 10
69.6702439525
 20
55.8501930266
 30
0.0
 10
69.6297930942
 20
55.6941605613
 30
0.0
 10
69.4922324402
 20
55.096111563
 30
0.0
 10
69.4218653996
 20
54.4809904974
 30
0.0
 10
69.4218653996
 20
54.0284250266
 30
0.0
  0
SPLINE
  5
366
100
AcDbEntity
  8
0
100
AcDbSpline
 62
7
  6
CONTINUOUS
 70
0
 71
3
 72
9
 73
5
 74
0
 42
0.0000001
 43
0.0000001
 44
0.0000000001
 40
0.0
 40
0.0
 40
0.0
 40
0.0
 40
0.2524721246
 40
1.0
 40
1.0
 40
1.0
 40
1.0
 10
69.4544428708
 20
62.3604373117
 30
0.0
 10
69.4602347987
 20
61.8122552194
 30
0.0
 10
69.4952300693
 20
59.6411456934
 30
0.0
 10
69.5788943513
 20
57.4707868618
 30
0.0
 10
69.6702439525
 20
55.8501930266
 30
0.0
  0
SPLINE
  5
367
100
AcDbEntity
  8
0
100
AcDbSpline
 62
7
  6
CONTINUOUS
 70
0
 71
3
 72
17
 73
13
 74
0
 42
0.0000001
 43
0.0000001
 44
0.0000000001
 40
0.0
 40
0.0
 40
0.0
 40
0.0
 40
0.1286891333
 40
0.2702803493
 40
0.4174326844
 40
0.5617743804
 40
0.6954465661
 40
0.8127104963
 40
0.8646756522
 40
0.91250911
 40
0.9571392634
 40
1.0
 40
1.0
 40
1.0
 40
1.0
 10
75.388508071
 20
57.4593584719
 30
0.0
 10
75.388508071
 20
57.2670401956
 30
0.0
 10
75.3347044453
 20
56.8626617965
 30
0.0
 10
75.1339012184
 20
56.2689211993
 30
0.0
 10
74.8244636104
 20
55.6969648973
 30
0.0
 10
74.4312798989
 20
55.1936866719
 30
0.0
 10
73.9864716648
 20
54.7997374162
 30
0.0
 10
73.583857989
 20
54.5795828701
 30
0.0
 10
73.2689133143
 20
54.4958064887
 30
0.0
 10
73.0521536869
 20
54.4798432522
 30
0.0
 10
72.8503144127
 20
54.5094224936
 30
0.0
 10
72.7280261976
 20
54.5602338042
 30
0.0
 10
72.672567234
 20
54.592281709
 30
0.0
  0
SPLINE
  5
368
100
AcDbEntity
  8
0
100
AcDbSpline
 62
7
  6
CONTINUOUS
 70
0
 71
3
 72
17
 73
13
 74
0
 42
0.0000001
 43
0.0000001
 44
0.0000000001
 40
0.0
 40
0.0
 40
0.0
 40
0.0
 40
0.1286891333
 40
0.2702803493
 40
0.4174326844
 40
0.5617743804
 40
0.6954465661
 40
0.8127104963
 40
0.8646756522
 40
0.91250911
 40
0.9571392634
 40
1.0
 40
1.0
 40
1.0
 40
1.0
 10
88.4668013037
 20
50.8003619279
 30
0.0
 10
88.4668013037
 20
50.6080436516
 30
0.0
 10
88.412997678
 20
50.2036652524
 30
0.0
 10
88.2121944511
 20
49.6099246552
 30
0.0
 10
87.9027568431
 20
49.0379683532
 30
0.0
 10
87.5095731316
 20
48.5346901279
 30
0.0
 10
87.0647648975
 20
48.1407408722
 30
0.0
 10
86.6621512218
 20
47.920586326
 30
0.0
 10
86.347206547
 20
47.8368099447
 30
0.0
 10
86.1304469197
 20
47.8208467082
 30
0.0
 10
85.9286076455
 20
47.8504259496
 30
0.0
 10
85.8063194303
 20
47.9012372601
 30
0.0
 10
85.7508604667
 20
47.9332851649
 30
0.0
  0
SPLINE
  5
369
100
AcDbEntity
  8
0
100
AcDbSpline
 62
7
  6
CONTINUOUS
 70
0
 71
3
 72
16
 73
12
 74
0
 42
0.0000001
 43
0.0000001
 44
0.0000000001
 40
0.0
 40
0.0
 40
0.0
 40
0.0
 40
0.1287141939
 40
0.270431091
 40
0.4176105467
 40
0.5620129362
 40
0.6957424178
 40
0.8130651173
 40
0.9124757222
 40
0.9571196305
 40
1.0
 40
1.0
 40
1.0
 40
1.0
 10
84.4395162222
 20
91.8725433382
 30
0.0
 10
84.4395162222
 20
91.7785451641
 30
0.0
 10
84.413160389
 20
91.5808374047
 30
0.0
 10
84.3150725476
 20
91.2905473213
 30
0.0
 10
84.1636840925
 20
91.0109445099
 30
0.0
 10
83.9716186069
 20
90.7649216016
 30
0.0
 10
83.7538139489
 20
90.5722642475
 30
0.0
 10
83.5272378164
 20
90.4479609022
 30
0.0
 10
83.3348781108
 20
90.4103530885
 30
0.0
 10
83.19863545
 20
90.4304033126
 30
0.0
 10
83.138866437
 20
90.455245702
 30
0.0
 10
83.1117349098
 20
90.4708823671
 30
0.0
  0
SPLINE
  5
36A
100
AcDbEntity
  8
0
100
AcDbSpline
 62
7
  6
CONTINUOUS
 70
0
 71
3
 72
9
 73
5
 74
0
 42
0.0000001
 43
0.0000001
 44
0.0000000001
 40
0.0
 40
0.0
 40
0.0
 40
0.0
 40
0.2677258092
 40
1.0
 40
1.0
 40
1.0
 40
1.0
 10
85.252685635
 20
92.3420241152
 30
0.0
 10
85.252685635
 20
92.3924177088
 30
0.0
 10
85.2459020756
 20
92.5804154733
 30
0.0
 10
85.2107441975
 20
92.7686541017
 30
0.0
 10
85.1631324153
 20
92.8980045742
 30
0.0
  0
SPLINE
  5
36B
100
AcDbEntity
  8
0
100
AcDbSpline
 62
7
  6
CONTINUOUS
 70
0
 71
3
 72
11
 73
7
 74
0
 42
0.0000001
 43
0.0000001
 44
0.0000000001
 40
0.0
 40
0.0
 40
0.0
 40
0.0
 40
0.2281310034
 40
0.4747762674
 40
0.7343419526
 40
1.0
 40
1.0
 40
1.0
 40
1.0
 10
19.6889029979
 20
79.9791493961
 30
0.0
 10
19.6889029979
 20
80.5380114989
 30
0.0
 10
19.7957306627
 20
81.7022157085
 30
0.0
 10
20.2196794794
 20
83.4557132694
 30
0.0
 10
20.8968911051
 20
85.226154988
 30
0.0
 10
21.4973735251
 20
86.3680413797
 30
0.0
 10
21.8335488396
 20
86.9252833113
 30
0.0
  0
SPLINE
  5
36C
100
AcDbEntity
  8
0
100
AcDbSpline
 62
7
  6
CONTINUOUS
 70
0
 71
3
 72
17
 73
13
 74
0
 42
0.0000001
 43
0.0000001
 44
0.0000000001
 40
0.0
 40
0.0
 40
0.0
 40
0.0
 40
0.1286891333
 40
0.2702803493
 40
0.4174326844
 40
0.5617743804
 40
0.6954465661
 40
0.8127104963
 40
0.8646756522
 40
0.91250911
 40
0.9571392634
 40
1.0
 40
1.0
 40
1.0
 40
1.0
 10
112.1546373216
 20
62.5961076284
 30
0.0
 10
112.1546373216
 20
62.4037893521
 30
0.0
 10
112.1008336959
 20
61.999410953
 30
0.0
 10
111.9000304691
 20
61.4056703558
 30
0.0
 10
111.590592861
 20
60.8337140538
 30
0.0
 10
111.1974091496
 20
60.3304358284
 30
0.0
 10
110.7526009155
 20
59.9364865727
 30
0.0
 10
110.3499872397
 20
59.7163320266
 30
0.0
 10
110.035042565
 20
59.6325556452
 30
0.0
 10
109.8182829376
 20
59.6165924087
 30
0.0
 10
109.6164436634
 20
59.6461716501
 30
0.0
 10
109.4941554482
 20
59.6969829607
 30
0.0
 10
109.4386964846
 20
59.7290308655
 30
0.0
  0
SPLINE
  5
36D
100
AcDbEntity
  8
0
100
AcDbSpline
 62
7
  6
CONTINUOUS
 70
0
 71
3
 72
17
 73
13
 74
0
 42
0.0000001
 43
0.0000001
 44
0.0000000001
 40
0.0
 40
0.0
 40
0.0
 40
0.0
 40
0.1286891333
 40
0.2702803493
 40
0.4174326844
 40
0.5617743804
 40
0.6954465661
 40
0.8127104963
 40
0.8646756522
 40
0.91250911
 40
0.9571392634
 40
1.0
 40
1.0
 40
1.0
 40
1.0
 10
110.1078262877
 20
111.384542899
 30
0.0
 10
110.1078262877
 20
111.1922246228
 30
0.0
 10
110.054022662
 20
110.7878462236
 30
0.0
 10
109.8532194351
 20
110.1941056264
 30
0.0
 10
109.5437818271
 20
109.6221493244
 30
0.0
 10
109.1505981156
 20
109.118871099
 30
0.0
 10
108.7057898815
 20
108.7249218433
 30
0.0
 10
108.3031762057
 20
108.5047672972
 30
0.0
 10
107.988231531
 20
108.4209909158
 30
0.0
 10
107.7714719036
 20
108.4050276793
 30
0.0
 10
107.5696326294
 20
108.4346069207
 30
0.0
 10
107.4473444143
 20
108.4854182313
 30
0.0
 10
107.3918854506
 20
108.5174661361
 30
0.0
  0
SPLINE
  5
36E
100
AcDbEntity
  8
0
100
AcDbSpline
 62
7
  6
CONTINUOUS
 70
0
 71
3
 72
16
 73
12
 74
0
 42
0.0000001
 43
0.0000001
 44
0.0000000001
 40
0.0
 40
0.0
 40
0.0
 40
0.0
 40
0.1287141939
 40
0.270431091
 40
0.4176105467
 40
0.5620129362
 40
0.6957424178
 40
0.8130651173
 40
0.9124757222
 40
0.9571196305
 40
1.0
 40
1.0
 40
1.0
 40
1.0
 10
94.5850566403
 20
79.2760545525
 30
0.0
 10
94.5850566403
 20
79.1863290227
 30
0.0
 10
94.5598987994
 20
78.9976079796
 30
0.0
 10
94.4662694963
 20
78.7205129
 30
0.0
 10
94.3217623346
 20
78.4536193073
 30
0.0
 10
94.1384270983
 20
78.2187792585
 30
0.0
 10
93.930522652
 20
78.0348790568
 30
0.0
 10
93.7142454347
 20
77.9162258636
 30
0.0
 10
93.5306293521
 20
77.880327496
 30
0.0
 10
93.4005795395
 20
77.8994663462
 30
0.0
 10
93.3435272998
 20
77.9231795362
 30
0.0
 10
93.3176290238
 20
77.9381054438
 30
0.0
  0
SPLINE
  5
36F
100
AcDbEntity
  8
0
100
AcDbSpline
 62
7
  6
CONTINUOUS
 70
0
 71
3
 72
9
 73
5
 74
0
 42
0.0000001
 43
0.0000001
 44
0.0000000001
 40
0.0
 40
0.0
 40
0.0
 40
0.0
 40
0.2677258092
 40
1.0
 40
1.0
 40
1.0
 40
1.0
 10
95.4335812449
 20
79.7659475372
 30
0.0
 10
95.4335812449
 20
79.8163411308
 30
0.0
 10
95.4267976855
 20
80.0043388953
 30
0.0
 10
95.3916398074
 20
80.1925775237
 30
0.0
 10
95.3440280251
 20
80.3219279962
 30
0.0
  0
SPLINE
  5
370
100
AcDbEntity
  8
0
100
AcDbSpline
 62
7
  6
CONTINUOUS
 70
0
 71
3
 72
11
 73
7
 74
0
 42
0.0000001
 43
0.0000001
 44
0.0000000001
 40
0.0
 40
0.0
 40
0.0
 40
0.0
 40
0.2177651606
 40
0.4508956102
 40
0.7103690052
 40
1.0
 40
1.0
 40
1.0
 40
1.0
 10
85.670546361
 20
92.8617012426
 30
0.0
 10
85.7447431209
 20
92.8188253837
 30
0.0
 10
85.8836806554
 20
92.7021993831
 30
0.0
 10
86.0314962792
 20
92.4604050289
 30
0.0
 10
86.1192479716
 20
92.1625099164
 30
0.0
 10
86.1365727915
 20
91.9456977885
 30
0.0
 10
86.1365727915
 20
91.831723172
 30
0.0
  0
SPLINE
  5
371
100
AcDbEntity
  8
0
100
AcDbSpline
 62
7
  6
CONTINUOUS
 70
0
 71
3
 72
11
 73
7
 74
0
 42
0.0000001
 43
0.0000001
 44
0.0000000001
 40
0.0
 40
0.0
 40
0.0
 40
0.0
 40
0.2176899422
 40
0.4508856506
 40
0.7106204681
 40
1.0
 40
1.0
 40
1.0
 40
1.0
 10
110.229733623
 20
63.1404516272
 30
0.0
 10
110.2660182693
 20
63.1195397612
 30
0.0
 10
110.333912463
 20
63.0624827243
 30
0.0
 10
110.4062645593
 20
62.944274533
 30
0.0
 10
110.449023009
 20
62.7985774399
 30
0.0
 10
110.4575807524
 20
62.6925988679
 30
0.0
 10
110.4575807524
 20
62.6369277946
 30
0.0
  0
SPLINE
  5
372
100
AcDbEntity
  8
0
100
AcDbSpline
 62
7
  6
CONTINUOUS
 70
0
 71
3
 72
17
 73
13
 74
0
 42
0.0000001
 43
0.0000001
 44
0.0000000001
 40
0.0
 40
0.0
 40
0.0
 40
0.0
 40
0.1286891333
 40
0.2702803493
 40
0.4174326844
 40
0.5617743804
 40
0.6954465661
 40
0.8127104963
 40
0.8646756522
 40
0.91250911
 40
0.9571392634
 40
1.0
 40
1.0
 40
1.0
 40
1.0
 10
96.3174684013
 20
79.255646594
 30
0.0
 10
96.3174684013
 20
79.0633283177
 30
0.0
 10
96.2636647756
 20
78.6589499186
 30
0.0
 10
96.0628615488
 20
78.0652093214
 30
0.0
 10
95.7534239407
 20
77.4932530194
 30
0.0
 10
95.3602402293
 20
76.989974794
 30
0.0
 10
94.9154319952
 20
76.5960255383
 30
0.0
 10
94.5128183194
 20
76.3758709922
 30
0.0
 10
94.1978736447
 20
76.2920946108
 30
0.0
 10
93.9811140173
 20
76.2761313743
 30
0.0
 10
93.7792747431
 20
76.3057106157
 30
0.0
 10
93.6569865279
 20
76.3565219263
 30
0.0
 10
93.6015275643
 20
76.3885698311
 30
0.0
  0
SPLINE
  5
373
100
AcDbEntity
  8
0
100
AcDbSpline
 62
7
  6
CONTINUOUS
 70
0
 71
3
 72
17
 73
13
 74
0
 42
0.0000001
 43
0.0000001
 44
0.0000000001
 40
0.0
 40
0.0
 40
0.0
 40
0.0
 40
0.1286891333
 40
0.2702803493
 40
0.4174326844
 40
0.5617743804
 40
0.6954465661
 40
0.8127104963
 40
0.8646756522
 40
0.91250911
 40
0.9571392634
 40
1.0
 40
1.0
 40
1.0
 40
1.0
 10
86.1365727915
 20
91.831723172
 30
0.0
 10
86.1365727915
 20
91.6394048957
 30
0.0
 10
86.0827691658
 20
91.2350264966
 30
0.0
 10
85.8819659389
 20
90.6412858994
 30
0.0
 10
85.5725283309
 20
90.0693295974
 30
0.0
 10
85.1793446194
 20
89.566051372
 30
0.0
 10
84.7345363853
 20
89.1721021163
 30
0.0
 10
84.3319227095
 20
88.9519475702
 30
0.0
 10
84.0169780348
 20
88.8681711888
 30
0.0
 10
83.8002184074
 20
88.8522079523
 30
0.0
 10
83.5983791332
 20
88.8817871937
 30
0.0
 10
83.4760909181
 20
88.9325985043
 30
0.0
 10
83.4206319544
 20
88.9646464091
 30
0.0
  0
SPLINE
  5
374
100
AcDbEntity
  8
0
100
AcDbSpline
 62
7
  6
CONTINUOUS
 70
0
 71
3
 72
16
 73
12
 74
0
 42
0.0000001
 43
0.0000001
 44
0.0000000001
 40
0.0
 40
0.0
 40
0.0
 40
0.0
 40
0.1287141939
 40
0.270431091
 40
0.4176105467
 40
0.5620129362
 40
0.6957424178
 40
0.8130651173
 40
0.9124757222
 40
0.9571196305
 40
1.0
 40
1.0
 40
1.0
 40
1.0
 10
108.3754145266
 20
111.4049508575
 30
0.0
 10
108.3754145266
 20
111.3152253277
 30
0.0
 10
108.3502566857
 20
111.1265042847
 30
0.0
 10
108.2566273826
 20
110.849409205
 30
0.0
 10
108.1121202209
 20
110.5825156123
 30
0.0
 10
107.9287849846
 20
110.3476755635
 30
0.0
 10
107.7208805383
 20
110.1637753618
 30
0.0
 10
107.504603321
 20
110.0451221686
 30
0.0
 10
107.3209872384
 20
110.009223801
 30
0.0
 10
107.1909374258
 20
110.0283626512
 30
0.0
 10
107.1338851861
 20
110.0520758412
 30
0.0
 10
107.1079869101
 20
110.0670017488
 30
0.0
  0
SPLINE
  5
375
100
AcDbEntity
  8
0
100
AcDbSpline
 62
7
  6
CONTINUOUS
 70
0
 71
3
 72
9
 73
5
 74
0
 42
0.0000001
 43
0.0000001
 44
0.0000000001
 40
0.0
 40
0.0
 40
0.0
 40
0.0
 40
0.2677258092
 40
1.0
 40
1.0
 40
1.0
 40
1.0
 10
109.2239391312
 20
111.8948438422
 30
0.0
 10
109.2239391312
 20
111.9452374358
 30
0.0
 10
109.2171555718
 20
112.1332352003
 30
0.0
 10
109.1819976937
 20
112.3214738288
 30
0.0
 10
109.1343859114
 20
112.4508243013
 30
0.0
  0
SPLINE
  5
376
100
AcDbEntity
  8
0
100
AcDbSpline
 62
7
  6
CONTINUOUS
 70
0
 71
3
 72
10
 73
6
 74
0
 42
0.0000001
 43
0.0000001
 44
0.0000000001
 40
0.0
 40
0.0
 40
0.0
 40
0.0
 40
0.2493336263
 40
0.6248232733
 40
1.0
 40
1.0
 40
1.0
 40
1.0
 10
68.3233350807
 20
62.3547586022
 30
0.0
 10
68.3225680334
 20
62.4683266282
 30
0.0
 10
68.31924293
 20
62.752917167
 30
0.0
 10
68.3208907588
 20
63.2084220928
 30
0.0
 10
68.3187294846
 20
63.5503437433
 30
0.0
 10
68.3187294846
 20
63.7212354626
 30
0.0
  0
SPLINE
  5
377
100
AcDbEntity
  8
0
100
AcDbSpline
 62
7
  6
CONTINUOUS
 70
0
 71
3
 72
15
 73
11
 74
0
 42
0.0000001
 43
0.0000001
 44
0.0000000001
 40
0.0
 40
0.0
 40
0.0
 40
0.0
 40
0.097662448
 40
0.2097241085
 40
0.3349540434
 40
0.4697297884
 40
0.6090672085
 40
0.7473676273
 40
0.8792459224
 40
1.0
 40
1.0
 40
1.0
 40
1.0
 10
83.0362502095
 20
89.3731752613
 30
0.0
 10
83.1649670101
 20
89.383970781
 30
0.0
 10
83.4376140899
 20
89.4564291659
 30
0.0
 10
83.8271789904
 20
89.6735753171
 30
0.0
 10
84.2058205932
 20
89.9918692793
 30
0.0
 10
84.5521660423
 20
90.3932296197
 30
0.0
 10
84.8466085591
 20
90.8545238343
 30
0.0
 10
85.0721603367
 20
91.3490507141
 30
0.0
 10
85.2154569281
 20
91.8478183095
 30
0.0
 10
85.252685635
 20
92.1823143204
 30
0.0
 10
85.252685635
 20
92.3420241152
 30
0.0
  0
SPLINE
  5
378
100
AcDbEntity
  8
0
100
AcDbSpline
 62
7
  6
CONTINUOUS
 70
0
 71
3
 72
11
 73
7
 74
0
 42
0.0000001
 43
0.0000001
 44
0.0000000001
 40
0.0
 40
0.0
 40
0.0
 40
0.0
 40
0.2177651606
 40
0.4508956102
 40
0.7103690052
 40
1.0
 40
1.0
 40
1.0
 40
1.0
 10
111.6886108912
 20
63.626085699
 30
0.0
 10
111.762807651
 20
63.5832098401
 30
0.0
 10
111.9017451856
 20
63.4665838395
 30
0.0
 10
112.0495608094
 20
63.2247894853
 30
0.0
 10
112.1373125018
 20
62.9268943728
 30
0.0
 10
112.1546373216
 20
62.7100822449
 30
0.0
 10
112.1546373216
 20
62.5961076284
 30
0.0
  0
SPLINE
  5
379
100
AcDbEntity
  8
0
100
AcDbSpline
 62
7
  6
CONTINUOUS
 70
0
 71
3
 72
15
 73
11
 74
0
 42
0.0000001
 43
0.0000001
 44
0.0000000001
 40
0.0
 40
0.0
 40
0.0
 40
0.0
 40
0.097662448
 40
0.2097241085
 40
0.3349540434
 40
0.4697297884
 40
0.6090672085
 40
0.7473676273
 40
0.8792459224
 40
1.0
 40
1.0
 40
1.0
 40
1.0
 10
109.0543147397
 20
60.1375597177
 30
0.0
 10
109.1830315403
 20
60.1483552374
 30
0.0
 10
109.4556786201
 20
60.2208136223
 30
0.0
 10
109.8452435206
 20
60.4379597735
 30
0.0
 10
110.2238851233
 20
60.7562537357
 30
0.0
 10
110.5702305725
 20
61.1576140761
 30
0.0
 10
110.8646730892
 20
61.6189082907
 30
0.0
 10
111.0902248668
 20
62.1134351706
 30
0.0
 10
111.2335214583
 20
62.6122027659
 30
0.0
 10
111.2707501652
 20
62.9466987768
 30
0.0
 10
111.2707501652
 20
63.1064085716
 30
0.0
  0
SPLINE
  5
37A
100
AcDbEntity
  8
0
100
AcDbSpline
 62
7
  6
CONTINUOUS
 70
0
 71
3
 72
11
 73
7
 74
0
 42
0.0000001
 43
0.0000001
 44
0.0000000001
 40
0.0
 40
0.0
 40
0.0
 40
0.0
 40
0.2176899422
 40
0.4508856506
 40
0.7106204681
 40
1.0
 40
1.0
 40
1.0
 40
1.0
 10
94.3675661986
 20
79.7566909382
 30
0.0
 10
94.4022015428
 20
79.7367296115
 30
0.0
 10
94.4670096368
 20
79.6822660763
 30
0.0
 10
94.5360730014
 20
79.5694309846
 30
0.0
 10
94.5768878851
 20
79.4303564866
 30
0.0
 10
94.5850566403
 20
79.3291951224
 30
0.0
 10
94.5850566403
 20
79.2760545525
 30
0.0
  0
LINE
  5
37B
100
AcDbEntity
  8
0
100
AcDbLine
 62
7
  6
CONTINUOUS
 10
68.3187294846
 20
63.7212354626
 11
68.3190250571
 21
64.0682537516
  0
SPLINE
  5
37C
100
AcDbEntity
  8
0
100
AcDbSpline
 62
7
  6
CONTINUOUS
 70
0
 71
3
 72
16
 73
12
 74
0
 42
0.0000001
 43
0.0000001
 44
0.0000000001
 40
0.0
 40
0.0
 40
0.0
 40
0.0
 40
0.1287141939
 40
0.270431091
 40
0.4176105467
 40
0.5620129362
 40
0.6957424178
 40
0.8130651173
 40
0.9124757222
 40
0.9571196305
 40
1.0
 40
1.0
 40
1.0
 40
1.0
 10
110.4575807524
 20
62.6369277946
 30
0.0
 10
110.4575807524
 20
62.5429296205
 30
0.0
 10
110.4312249192
 20
62.3452218611
 30
0.0
 10
110.3331370777
 20
62.0549317777
 30
0.0
 10
110.1817486227
 20
61.7753289663
 30
0.0
 10
109.989683137
 20
61.5293060581
 30
0.0
 10
109.771878479
 20
61.3366487039
 30
0.0
 10
109.5453023465
 20
61.2123453586
 30
0.0
 10
109.352942641
 20
61.1747375449
 30
0.0
 10
109.2166999802
 20
61.194787769
 30
0.0
 10
109.1569309672
 20
61.2196301584
 30
0.0
 10
109.1297994399
 20
61.2352668235
 30
0.0
  0
SPLINE
  5
37D
100
AcDbEntity
  8
0
100
AcDbSpline
 62
7
  6
CONTINUOUS
 70
0
 71
3
 72
9
 73
5
 74
0
 42
0.0000001
 43
0.0000001
 44
0.0000000001
 40
0.0
 40
0.0
 40
0.0
 40
0.0
 40
0.2677258092
 40
1.0
 40
1.0
 40
1.0
 40
1.0
 10
111.2707501652
 20
63.1064085716
 30
0.0
 10
111.2707501652
 20
63.1568021652
 30
0.0
 10
111.2639666057
 20
63.3447999297
 30
0.0
 10
111.2288087277
 20
63.5330385581
 30
0.0
 10
111.1811969454
 20
63.6623890306
 30
0.0
  0
SPLINE
  5
37E
100
AcDbEntity
  8
0
100
AcDbSpline
 62
7
  6
CONTINUOUS
 70
0
 71
3
 72
11
 73
7
 74
0
 42
0.0000001
 43
0.0000001
 44
0.0000000001
 40
0.0
 40
0.0
 40
0.0
 40
0.0
 40
0.2559013974
 40
0.4997674718
 40
0.7436986393
 40
1.0
 40
1.0
 40
1.0
 40
1.0
 10
31.9873984138
 20
72.4089764212
 30
0.0
 10
31.8831719099
 20
72.2196674578
 30
0.0
 10
31.6405910986
 20
71.8689923372
 30
0.0
 10
31.1618925156
 20
71.4518092463
 30
0.0
 10
30.5901161184
 20
71.1746167511
 30
0.0
 10
30.17158764
 20
71.0901971976
 30
0.0
 10
29.9561304184
 20
71.06957364
 30
0.0
  0
SPLINE
  5
37F
100
AcDbEntity
  8
0
100
AcDbSpline
 62
7
  6
CONTINUOUS
 70
0
 71
3
 72
9
 73
5
 74
0
 42
0.0000001
 43
0.0000001
 44
0.0000000001
 40
0.0
 40
0.0
 40
0.0
 40
0.0
 40
0.2452599574
 40
1.0
 40
1.0
 40
1.0
 40
1.0
 10
29.850589987
 20
71.0612474686
 30
0.0
 10
29.8187090416
 20
71.0592602303
 30
0.0
 10
29.6886056663
 20
71.0530692958
 30
0.0
 10
29.5581680157
 20
71.0543981252
 30
0.0
 10
29.4599879788
 20
71.0592092715
 30
0.0
  0
SPLINE
  5
380
100
AcDbEntity
  8
0
100
AcDbSpline
 62
7
  6
CONTINUOUS
 70
0
 71
3
 72
9
 73
5
 74
0
 42
0.0000001
 43
0.0000001
 44
0.0000000001
 40
0.0
 40
0.0
 40
0.0
 40
0.0
 40
0.2677258092
 40
1.0
 40
1.0
 40
1.0
 40
1.0
 10
74.5046209145
 20
57.9696594151
 30
0.0
 10
74.5046209145
 20
58.0200530087
 30
0.0
 10
74.4978373551
 20
58.2080507732
 30
0.0
 10
74.462679477
 20
58.3962894016
 30
0.0
 10
74.4150676948
 20
58.5256398741
 30
0.0
  0
SPLINE
  5
381
100
AcDbEntity
  8
0
100
AcDbSpline
 62
7
  6
CONTINUOUS
 70
0
 71
3
 72
16
 73
12
 74
0
 42
0.0000001
 43
0.0000001
 44
0.0000000001
 40
0.0
 40
0.0
 40
0.0
 40
0.0
 40
0.1287141939
 40
0.270431091
 40
0.4176105467
 40
0.5620129362
 40
0.6957424178
 40
0.8130651173
 40
0.9124757222
 40
0.9571196305
 40
1.0
 40
1.0
 40
1.0
 40
1.0
 10
73.6560963099
 20
57.4797664304
 30
0.0
 10
73.6560963099
 20
57.3900409006
 30
0.0
 10
73.6309384691
 20
57.2013198575
 30
0.0
 10
73.5373091659
 20
56.9242247779
 30
0.0
 10
73.3928020042
 20
56.6573311852
 30
0.0
 10
73.2094667679
 20
56.4224911364
 30
0.0
 10
73.0015623217
 20
56.2385909347
 30
0.0
 10
72.7852851043
 20
56.1199377415
 30
0.0
 10
72.6016690217
 20
56.0840393739
 30
0.0
 10
72.4716192091
 20
56.1031782241
 30
0.0
 10
72.4145669695
 20
56.1268914141
 30
0.0
 10
72.3886686934
 20
56.1418173217
 30
0.0
  0
SPLINE
  5
382
100
AcDbEntity
  8
0
100
AcDbSpline
 62
7
  6
CONTINUOUS
 70
0
 71
3
 72
10
 73
6
 74
0
 42
0.0000001
 43
0.0000001
 44
0.0000000001
 40
0.0
 40
0.0
 40
0.0
 40
0.0
 40
0.2305174543
 40
0.4761829589
 40
1.0
 40
1.0
 40
1.0
 40
1.0
 10
25.6636653998
 20
86.6101192118
 30
0.0
 10
25.9968450241
 20
86.4177622177
 30
0.0
 10
26.6592219313
 20
85.97442112
 30
0.0
 10
27.9380001399
 20
84.8986536588
 30
0.0
 10
28.7939513965
 20
83.9288068798
 30
0.0
 10
29.3194714065
 20
83.2301719296
 30
0.0
  0
SPLINE
  5
383
100
AcDbEntity
  8
0
100
AcDbSpline
 62
7
  6
CONTINUOUS
 70
0
 71
3
 72
10
 73
6
 74
0
 42
0.0000001
 43
0.0000001
 44
0.0000000001
 40
0.0
 40
0.0
 40
0.0
 40
0.0
 40
0.509565531
 40
0.7596090692
 40
1.0
 40
1.0
 40
1.0
 40
1.0
 10
29.3194714065
 20
83.2301719296
 30
0.0
 10
29.931823708
 20
82.416100702
 30
0.0
 10
30.7357461896
 20
81.1153352776
 30
0.0
 10
31.5592745488
 20
79.2921848961
 30
0.0
 10
31.8824109744
 20
78.3646094875
 30
0.0
 10
32.017892807
 20
77.9035384641
 30
0.0
  0
SPLINE
  5
384
100
AcDbEntity
  8
0
100
AcDbSpline
 62
7
  6
CONTINUOUS
 70
0
 71
3
 72
12
 73
8
 74
0
 42
0.0000001
 43
0.0000001
 44
0.0000000001
 40
0.0
 40
0.0
 40
0.0
 40
0.0
 40
0.2895583766
 40
0.5486502068
 40
0.781632075
 40
0.8918384284
 40
1.0
 40
1.0
 40
1.0
 40
1.0
 10
62.2008285015
 20
141.1664721794
 30
0.0
 10
62.4707258337
 20
141.0106504071
 30
0.0
 10
62.9603069806
 20
140.6734149721
 30
0.0
 10
63.5453103241
 20
140.059103498
 30
0.0
 10
63.8592521089
 20
139.4801033705
 30
0.0
 10
63.9816976398
 20
139.0080003975
 30
0.0
 10
64.0018801106
 20
138.7724779205
 30
0.0
 10
64.0018817981
 20
138.656064685
 30
0.0
  0
SPLINE
  5
385
100
AcDbEntity
  8
0
100
AcDbSpline
 62
7
  6
CONTINUOUS
 70
0
 71
3
 72
11
 73
7
 74
0
 42
0.0000001
 43
0.0000001
 44
0.0000000001
 40
0.0
 40
0.0
 40
0.0
 40
0.0
 40
0.2177651606
 40
0.4508956102
 40
0.7103690052
 40
1.0
 40
1.0
 40
1.0
 40
1.0
 10
95.8514419709
 20
80.2856246646
 30
0.0
 10
95.9256387307
 20
80.2427488057
 30
0.0
 10
96.0645762653
 20
80.1261228051
 30
0.0
 10
96.2123918891
 20
79.8843284509
 30
0.0
 10
96.3001435815
 20
79.5864333384
 30
0.0
 10
96.3174684013
 20
79.3696212105
 30
0.0
 10
96.3174684013
 20
79.255646594
 30
0.0
  0
SPLINE
  5
386
100
AcDbEntity
  8
0
100
AcDbSpline
 62
7
  6
CONTINUOUS
 70
0
 71
3
 72
15
 73
11
 74
0
 42
0.0000001
 43
0.0000001
 44
0.0000000001
 40
0.0
 40
0.0
 40
0.0
 40
0.0
 40
0.1119940194
 40
0.2319197681
 40
0.3579802128
 40
0.4880544662
 40
0.6197404758
 40
0.7505555682
 40
0.8780804678
 40
1.0
 40
1.0
 40
1.0
 40
1.0
 10
63.2111918051
 20
64.9325351468
 30
0.0
 10
63.5797326956
 20
64.719762778
 30
0.0
 10
64.3112896927
 20
64.2230869455
 30
0.0
 10
65.3395826545
 20
63.3287075592
 30
0.0
 10
66.3151439541
 20
62.2812959098
 30
0.0
 10
67.2145486029
 20
61.1114263514
 30
0.0
 10
68.0169750311
 20
59.8517387763
 30
0.0
 10
68.7047954643
 20
58.5369675304
 30
0.0
 10
69.2640105327
 20
57.2028519422
 30
0.0
 10
69.5520196923
 20
56.2981205045
 30
0.0
 10
69.6702439525
 20
55.8501930267
 30
0.0
  0
SPLINE
  5
387
100
AcDbEntity
  8
0
100
AcDbSpline
 62
7
  6
CONTINUOUS
 70
0
 71
3
 72
12
 73
8
 74
0
 42
0.0000001
 43
0.0000001
 44
0.0000000001
 40
0.0
 40
0.0
 40
0.0
 40
0.0
 40
0.2895583766
 40
0.5486502068
 40
0.781632075
 40
0.8918384284
 40
1.0
 40
1.0
 40
1.0
 40
1.0
 10
74.7166706366
 20
133.9406108244
 30
0.0
 10
74.9865679688
 20
133.7847890521
 30
0.0
 10
75.4761491157
 20
133.4475536171
 30
0.0
 10
76.0611524592
 20
132.833242143
 30
0.0
 10
76.375094244
 20
132.2542420155
 30
0.0
 10
76.4975397749
 20
131.7821390425
 30
0.0
 10
76.5177222457
 20
131.5466165655
 30
0.0
 10
76.5177239332
 20
131.43020333
 30
0.0
  0
SPLINE
  5
388
100
AcDbEntity
  8
0
100
AcDbSpline
 62
7
  6
CONTINUOUS
 70
0
 71
3
 72
11
 73
7
 74
0
 42
0.0000001
 43
0.0000001
 44
0.0000000001
 40
0.0
 40
0.0
 40
0.0
 40
0.0
 40
0.255891403
 40
0.4997507596
 40
0.7436839089
 40
1.0
 40
1.0
 40
1.0
 40
1.0
 10
44.5031342565
 20
65.1829145795
 30
0.0
 10
44.3988786249
 20
64.9935859013
 30
0.0
 10
44.1562229172
 20
64.6428822529
 30
0.0
 10
43.677382829
 20
64.2256993865
 30
0.0
 10
43.1054363887
 20
63.9485641424
 30
0.0
 10
42.6867966163
 20
63.8642233147
 30
0.0
 10
42.4712825969
 20
63.8436446798
 30
0.0
  0
SPLINE
  5
389
100
AcDbEntity
  8
0
100
AcDbSpline
 62
7
  6
CONTINUOUS
 70
0
 71
3
 72
9
 73
5
 74
0
 42
0.0000001
 43
0.0000001
 44
0.0000000001
 40
0.0
 40
0.0
 40
0.0
 40
0.0
 40
0.2452603157
 40
1.0
 40
1.0
 40
1.0
 40
1.0
 10
42.3664085359
 20
63.8353841083
 30
0.0
 10
42.3345292972
 20
63.8333975566
 30
0.0
 10
42.2044331149
 20
63.8272092411
 30
0.0
 10
42.0740028402
 20
63.8285397689
 30
0.0
 10
41.9758284025
 20
63.8333515122
 30
0.0
  0
SPLINE
  5
38A
100
AcDbEntity
  8
0
100
AcDbSpline
 62
7
  6
CONTINUOUS
 70
0
 71
3
 72
14
 73
10
 74
0
 42
0.0000001
 43
0.0000001
 44
0.0000000001
 40
0.0
 40
0.0
 40
0.0
 40
0.0
 40
0.1116830689
 40
0.2310636418
 40
0.3564793098
 40
0.4860000782
 40
0.7481873587
 40
0.8765020245
 40
1.0
 40
1.0
 40
1.0
 40
1.0
 10
50.69534967
 20
72.1583965018
 30
0.0
 10
51.0502134905
 20
71.9535204144
 30
0.0
 10
51.7550881661
 20
71.4776860105
 30
0.0
 10
52.7490648582
 20
70.6240460187
 30
0.0
 10
53.6957807253
 20
69.6259638341
 30
0.0
 10
54.870488889
 20
68.1336521075
 30
0.0
 10
55.8554442568
 20
66.487144898
 30
0.0
 10
56.6197615671
 20
64.7616024498
 30
0.0
 10
56.9217470057
 20
63.8868635858
 30
0.0
 10
57.049488424
 20
63.4521355935
 30
0.0
  0
SPLINE
  5
38B
100
AcDbEntity
  8
0
100
AcDbSpline
 62
7
  6
CONTINUOUS
 70
0
 71
3
 72
15
 73
11
 74
0
 42
0.0000001
 43
0.0000001
 44
0.0000000001
 40
0.0
 40
0.0
 40
0.0
 40
0.0
 40
0.097662448
 40
0.2097241085
 40
0.3349540434
 40
0.4697297884
 40
0.6090672085
 40
0.7473676273
 40
0.8792459224
 40
1.0
 40
1.0
 40
1.0
 40
1.0
 10
93.2171458194
 20
76.7970986833
 30
0.0
 10
93.34586262
 20
76.807894203
 30
0.0
 10
93.6185096998
 20
76.8803525879
 30
0.0
 10
94.0080746003
 20
77.0974987391
 30
0.0
 10
94.386716203
 20
77.4157927013
 30
0.0
 10
94.7330616522
 20
77.8171530417
 30
0.0
 10
95.027504169
 20
78.2784472563
 30
0.0
 10
95.2530559465
 20
78.7729741361
 30
0.0
 10
95.396352538
 20
79.2717417315
 30
0.0
 10
95.4335812449
 20
79.6062377424
 30
0.0
 10
95.4335812449
 20
79.7659475372
 30
0.0
  0
SPLINE
  5
38C
100
AcDbEntity
  8
0
100
AcDbSpline
 62
7
  6
CONTINUOUS
 70
0
 71
3
 72
12
 73
8
 74
0
 42
0.0000001
 43
0.0000001
 44
0.0000000001
 40
0.0
 40
0.0
 40
0.0
 40
0.0
 40
0.2895583766
 40
0.5486502068
 40
0.781632075
 40
0.8918384284
 40
1.0
 40
1.0
 40
1.0
 40
1.0
 10
87.2325127717
 20
126.7147494694
 30
0.0
 10
87.5024101039
 20
126.5589276971
 30
0.0
 10
87.9919912508
 20
126.2216922621
 30
0.0
 10
88.5769945943
 20
125.607380788
 30
0.0
 10
88.8909363791
 20
125.0283806605
 30
0.0
 10
89.01338191
 20
124.5562776875
 30
0.0
 10
89.0335643808
 20
124.3207552105
 30
0.0
 10
89.0335660683
 20
124.204341975
 30
0.0
  0
SPLINE
  5
38D
100
AcDbEntity
  8
0
100
AcDbSpline
 62
7
  6
CONTINUOUS
 70
0
 71
3
 72
10
 73
6
 74
0
 42
0.0000001
 43
0.0000001
 44
0.0000000001
 40
0.0
 40
0.0
 40
0.0
 40
0.0
 40
0.2305170271
 40
0.4761827037
 40
1.0
 40
1.0
 40
1.0
 40
1.0
 10
38.1795075349
 20
79.3842578568
 30
0.0
 10
38.5126854716
 20
79.1919018371
 30
0.0
 10
39.1750640063
 20
78.7485683857
 30
0.0
 10
40.4538310085
 20
77.672795115
 30
0.0
 10
41.3097812782
 20
76.7029536822
 30
0.0
 10
41.8353027436
 20
76.0043228074
 30
0.0
  0
SPLINE
  5
38E
100
AcDbEntity
  8
0
100
AcDbSpline
 62
7
  6
CONTINUOUS
 70
0
 71
3
 72
10
 73
6
 74
0
 42
0.0000001
 43
0.0000001
 44
0.0000000001
 40
0.0
 40
0.0
 40
0.0
 40
0.0
 40
0.5095656702
 40
0.759609235
 40
1.0
 40
1.0
 40
1.0
 40
1.0
 10
41.8353027436
 20
76.0043228074
 30
0.0
 10
42.4476602514
 20
75.1902516617
 30
0.0
 10
43.2515842202
 20
73.889481525
 30
0.0
 10
44.0751179675
 20
72.0663276373
 30
0.0
 10
44.3982536626
 20
71.1387493256
 30
0.0
 10
44.5337352006
 20
70.6776771913
 30
0.0
  0
SPLINE
  5
38F
100
AcDbEntity
  8
0
100
AcDbSpline
 62
7
  6
CONTINUOUS
 70
0
 71
3
 72
12
 73
8
 74
0
 42
0.0000001
 43
0.0000001
 44
0.0000000001
 40
0.0
 40
0.0
 40
0.0
 40
0.0
 40
0.2895583766
 40
0.5486502068
 40
0.781632075
 40
0.8918384284
 40
1.0
 40
1.0
 40
1.0
 40
1.0
 10
99.7483549068
 20
119.4888881143
 30
0.0
 10
100.018252239
 20
119.3330663421
 30
0.0
 10
100.5078333859
 20
118.9958309071
 30
0.0
 10
101.0928367294
 20
118.381519433
 30
0.0
 10
101.4067785142
 20
117.8025193055
 30
0.0
 10
101.5292240451
 20
117.3304163324
 30
0.0
 10
101.5494065159
 20
117.0948938555
 30
0.0
 10
101.5494082034
 20
116.97848062
 30
0.0
  0
SPLINE
  5
390
100
AcDbEntity
  8
0
100
AcDbSpline
 62
7
  6
CONTINUOUS
 70
0
 71
3
 72
10
 73
6
 74
0
 42
0.0000001
 43
0.0000001
 44
0.0000000001
 40
0.0
 40
0.0
 40
0.0
 40
0.0
 40
0.2247367657
 40
0.5920043013
 40
1.0
 40
1.0
 40
1.0
 40
1.0
 10
69.9488211721
 20
51.9283756273
 30
0.0
 10
69.8601630503
 20
52.0664900473
 30
0.0
 10
69.6610145218
 20
52.453057937
 30
0.0
 10
69.4648585527
 20
53.1627153033
 30
0.0
 10
69.4218653996
 20
53.7304726557
 30
0.0
 10
69.4218653996
 20
54.0284250266
 30
0.0
  0
SPLINE
  5
391
100
AcDbEntity
  8
0
100
AcDbSpline
 62
7
  6
CONTINUOUS
 70
0
 71
3
 72
16
 73
12
 74
0
 42
0.0000001
 43
0.0000001
 44
0.0000000001
 40
0.0
 40
0.0
 40
0.0
 40
0.0
 40
0.1287141939
 40
0.270431091
 40
0.4176105467
 40
0.5620129362
 40
0.6957424178
 40
0.8130651173
 40
0.9124757222
 40
0.9571196305
 40
1.0
 40
1.0
 40
1.0
 40
1.0
 10
86.7343895426
 20
50.8207698864
 30
0.0
 10
86.7343895426
 20
50.7310443565
 30
0.0
 10
86.7092317018
 20
50.5423233135
 30
0.0
 10
86.6156023986
 20
50.2652282338
 30
0.0
 10
86.4710952369
 20
49.9983346411
 30
0.0
 10
86.2877600007
 20
49.7634945924
 30
0.0
 10
86.0798555544
 20
49.5795943907
 30
0.0
 10
85.863578337
 20
49.4609411974
 30
0.0
 10
85.6799622544
 20
49.4250428298
 30
0.0
 10
85.5499124419
 20
49.4441816801
 30
0.0
 10
85.4928602022
 20
49.46789487
 30
0.0
 10
85.4669619262
 20
49.4828207776
 30
0.0
  0
SPLINE
  5
392
100
AcDbEntity
  8
0
100
AcDbSpline
 62
7
  6
CONTINUOUS
 70
0
 71
3
 72
9
 73
5
 74
0
 42
0.0000001
 43
0.0000001
 44
0.0000000001
 40
0.0
 40
0.0
 40
0.0
 40
0.0
 40
0.2677258092
 40
1.0
 40
1.0
 40
1.0
 40
1.0
 10
87.5829141473
 20
51.310662871
 30
0.0
 10
87.5829141473
 20
51.3610564646
 30
0.0
 10
87.5761305878
 20
51.5490542292
 30
0.0
 10
87.5409727097
 20
51.7372928576
 30
0.0
 10
87.4933609275
 20
51.8666433301
 30
0.0
  0
SPLINE
  5
393
100
AcDbEntity
  8
0
100
AcDbSpline
 62
7
  6
CONTINUOUS
 70
0
 71
3
 72
11
 73
7
 74
0
 42
0.0000001
 43
0.0000001
 44
0.0000000001
 40
0.0
 40
0.0
 40
0.0
 40
0.0
 40
0.2837542372
 40
0.5405864865
 40
0.7756751723
 40
1.0
 40
1.0
 40
1.0
 40
1.0
 10
76.3272261475
 20
96.9192133805
 30
0.0
 10
76.4858093468
 20
96.827657399
 30
0.0
 10
76.8038984469
 20
96.6782791929
 30
0.0
 10
77.2968549001
 20
96.5670025138
 30
0.0
 10
77.7649396605
 20
96.5883971735
 30
0.0
 10
78.0480000605
 20
96.6951788456
 30
0.0
 10
78.173357678
 20
96.7675800795
 30
0.0
  0
SPLINE
  5
394
100
AcDbEntity
  8
0
100
AcDbSpline
 62
7
  6
CONTINUOUS
 70
0
 71
3
 72
11
 73
7
 74
0
 42
0.0000001
 43
0.0000001
 44
0.0000000001
 40
0.0
 40
0.0
 40
0.0
 40
0.0
 40
0.2279271155
 40
0.4747159773
 40
0.7344595132
 40
1.0
 40
1.0
 40
1.0
 40
1.0
 10
57.2364294032
 20
58.3015653311
 30
0.0
 10
57.2364294032
 20
58.8742749277
 30
0.0
 10
57.3488460425
 20
60.0682554969
 30
0.0
 10
57.7928440366
 20
61.8650325304
 30
0.0
 10
58.5006450198
 20
63.6766395932
 30
0.0
 10
59.1285806806
 20
64.8418415406
 30
0.0
 10
59.47975142
 20
65.4091703365
 30
0.0
  0
SPLINE
  5
395
100
AcDbEntity
  8
0
100
AcDbSpline
 62
7
  6
CONTINUOUS
 70
0
 71
3
 72
11
 73
7
 74
0
 42
0.0000001
 43
0.0000001
 44
0.0000000001
 40
0.0
 40
0.0
 40
0.0
 40
0.0
 40
0.283754253
 40
0.5405864528
 40
0.7756751399
 40
1.0
 40
1.0
 40
1.0
 40
1.0
 10
63.8113840124
 20
104.1450747356
 30
0.0
 10
63.9699672185
 20
104.0535187501
 30
0.0
 10
64.288056273
 20
103.904140506
 30
0.0
 10
64.7810127137
 20
103.7928638666
 30
0.0
 10
65.2490974482
 20
103.8142585475
 30
0.0
 10
65.5321578806
 20
103.9210401878
 30
0.0
 10
65.657515515
 20
103.9934414306
 30
0.0
  0
SPLINE
  5
396
100
AcDbEntity
  8
0
100
AcDbSpline
 62
7
  6
CONTINUOUS
 70
0
 71
3
 72
11
 73
7
 74
0
 42
0.0000001
 43
0.0000001
 44
0.0000000001
 40
0.0
 40
0.0
 40
0.0
 40
0.0
 40
0.2837540863
 40
0.5405863271
 40
0.7756750911
 40
1.0
 40
1.0
 40
1.0
 40
1.0
 10
51.2955418773
 20
111.3709360906
 30
0.0
 10
51.454124987
 20
111.2793801607
 30
0.0
 10
51.7722139312
 20
111.1300018856
 30
0.0
 10
52.2651703472
 20
111.0187253139
 30
0.0
 10
52.7332551663
 20
111.0401198901
 30
0.0
 10
53.0163157182
 20
111.1469014837
 30
0.0
 10
53.1416733592
 20
111.219302772
 30
0.0
  0
SPLINE
  5
397
100
AcDbEntity
  8
0
100
AcDbSpline
 62
7
  6
CONTINUOUS
 70
0
 71
3
 72
11
 73
7
 74
0
 42
0.0000001
 43
0.0000001
 44
0.0000000001
 40
0.0
 40
0.0
 40
0.0
 40
0.0
 40
0.2561024739
 40
0.5001386854
 40
0.7440420824
 40
1.0
 40
1.0
 40
1.0
 40
1.0
 10
57.0202516632
 20
57.9593698418
 30
0.0
 10
56.9167403258
 20
57.771045777
 30
0.0
 10
56.6760282397
 20
57.4220741084
 30
0.0
 10
56.2015943403
 20
57.0058739874
 30
0.0
 10
55.6351040099
 20
56.7276538883
 30
0.0
 10
55.2200788997
 20
56.641308277
 30
0.0
 10
55.0064047178
 20
56.6195878695
 30
0.0
  0
SPLINE
  5
398
100
AcDbEntity
  8
0
100
AcDbSpline
 62
7
  6
CONTINUOUS
 70
0
 71
3
 72
9
 73
5
 74
0
 42
0.0000001
 43
0.0000001
 44
0.0000000001
 40
0.0
 40
0.0
 40
0.0
 40
0.0
 40
0.2452486828
 40
1.0
 40
1.0
 40
1.0
 40
1.0
 10
54.8828948797
 20
56.6094840208
 30
0.0
 10
54.8509646362
 20
56.6074934478
 30
0.0
 10
54.7206536938
 20
56.6012973716
 30
0.0
 10
54.5900078658
 20
56.6026510075
 30
0.0
 10
54.4916709111
 20
56.6074890288
 30
0.0
  0
SPLINE
  5
399
100
AcDbEntity
  8
0
100
AcDbSpline
 62
7
  6
CONTINUOUS
 70
0
 71
3
 72
11
 73
7
 74
0
 42
0.0000001
 43
0.0000001
 44
0.0000000001
 40
0.0
 40
0.0
 40
0.0
 40
0.0
 40
0.2837542481
 40
0.5405863588
 40
0.7756750708
 40
1.0
 40
1.0
 40
1.0
 40
1.0
 10
38.7796997422
 20
118.5967974456
 30
0.0
 10
38.9382829429
 20
118.5052414633
 30
0.0
 10
39.2563719003
 20
118.3558631655
 30
0.0
 10
39.7493283086
 20
118.2445865889
 30
0.0
 10
40.2174130251
 20
118.2659812744
 30
0.0
 10
40.5004735354
 20
118.3727628742
 30
0.0
 10
40.6258312087
 20
118.4451641337
 30
0.0
  0
SPLINE
  5
39A
100
AcDbEntity
  8
0
100
AcDbSpline
 62
7
  6
CONTINUOUS
 70
0
 71
3
 72
15
 73
11
 74
0
 42
0.0000001
 43
0.0000001
 44
0.0000000001
 40
0.0
 40
0.0
 40
0.0
 40
0.0
 40
0.1441095083
 40
0.278875256
 40
0.4054309088
 40
0.5257372325
 40
0.6423628511
 40
0.758263238
 40
0.8765246503
 40
1.0
 40
1.0
 40
1.0
 40
1.0
 10
69.9488211721
 20
51.9283756272
 30
0.0
 10
69.9146714373
 20
51.7496851805
 30
0.0
 10
69.8304654179
 20
51.4069185779
 30
0.0
 10
69.6474651622
 20
50.9273714527
 30
0.0
 10
69.4123142455
 20
50.5047388024
 30
0.0
 10
69.1260628962
 20
50.1432520587
 30
0.0
 10
68.7900724855
 20
49.8470459874
 30
0.0
 10
68.4070781728
 20
49.619571393
 30
0.0
 10
67.9807879089
 20
49.463834884
 30
0.0
 10
67.6788278756
 20
49.409728298
 30
0.0
 10
67.5237590639
 20
49.3938881451
 30
0.0
  0
SPLINE
  5
39B
100
AcDbEntity
  8
0
100
AcDbSpline
 62
7
  6
CONTINUOUS
 70
0
 71
3
 72
9
 73
5
 74
0
 42
0.0000001
 43
0.0000001
 44
0.0000000001
 40
0.0
 40
0.0
 40
0.0
 40
0.0
 40
0.2452476872
 40
1.0
 40
1.0
 40
1.0
 40
1.0
 10
67.3987899394
 20
49.3836333592
 30
0.0
 10
67.3668552674
 20
49.3816419573
 30
0.0
 10
67.2365256703
 20
49.3754430677
 30
0.0
 10
67.1058609799
 20
49.3767962199
 30
0.0
 10
67.0075097544
 20
49.3816349946
 30
0.0
  0
SPLINE
  5
39C
100
AcDbEntity
  8
0
100
AcDbSpline
 62
7
  6
CONTINUOUS
 70
0
 71
3
 72
11
 73
7
 74
0
 42
0.0000001
 43
0.0000001
 44
0.0000000001
 40
0.0
 40
0.0
 40
0.0
 40
0.0
 40
0.3009593576
 40
0.5645484696
 40
0.7937245993
 40
1.0
 40
1.0
 40
1.0
 40
1.0
 10
76.7577263802
 20
40.1602762668
 30
0.0
 10
76.9148131587
 20
40.0695842247
 30
0.0
 10
77.2222258539
 20
39.91961375
 30
0.0
 10
77.687440746
 20
39.7933456281
 30
0.0
 10
78.1144147714
 20
39.7875661222
 30
0.0
 10
78.3697329115
 20
39.8734449608
 30
0.0
 10
78.4773874517
 20
39.9356247619
 30
0.0
  0
SPLINE
  5
39D
100
AcDbEntity
  8
0
100
AcDbSpline
 62
7
  6
CONTINUOUS
 70
0
 71
3
 72
11
 73
7
 74
0
 42
0.0000001
 43
0.0000001
 44
0.0000000001
 40
0.0
 40
0.0
 40
0.0
 40
0.0
 40
0.2279271155
 40
0.4747159773
 40
0.7344595132
 40
1.0
 40
1.0
 40
1.0
 40
1.0
 10
44.7205872681
 20
65.5274266861
 30
0.0
 10
44.7205872681
 20
66.1001362827
 30
0.0
 10
44.8330039074
 20
67.2941168519
 30
0.0
 10
45.2770019015
 20
69.0908938854
 30
0.0
 10
45.9848028847
 20
70.9025009482
 30
0.0
 10
46.6127385455
 20
72.0677028956
 30
0.0
 10
46.9639092849
 20
72.6350316915
 30
0.0
  0
SPLINE
  5
39E
100
AcDbEntity
  8
0
100
AcDbSpline
 62
7
  6
CONTINUOUS
 70
0
 71
3
 72
11
 73
7
 74
0
 42
0.0000001
 43
0.0000001
 44
0.0000000001
 40
0.0
 40
0.0
 40
0.0
 40
0.0
 40
0.2176899422
 40
0.4508856506
 40
0.7106204681
 40
1.0
 40
1.0
 40
1.0
 40
1.0
 10
86.5168991009
 20
51.301406272
 30
0.0
 10
86.5515344451
 20
51.2814449454
 30
0.0
 10
86.6163425391
 20
51.2269814102
 30
0.0
 10
86.6854059037
 20
51.1141463185
 30
0.0
 10
86.7262207875
 20
50.9750718205
 30
0.0
 10
86.7343895426
 20
50.8739104563
 30
0.0
 10
86.7343895426
 20
50.8207698864
 30
0.0
  0
SPLINE
  5
39F
100
AcDbEntity
  8
0
100
AcDbSpline
 62
7
  6
CONTINUOUS
 70
0
 71
3
 72
11
 73
7
 74
0
 42
0.0000001
 43
0.0000001
 44
0.0000000001
 40
0.0
 40
0.0
 40
0.0
 40
0.0
 40
0.2177651606
 40
0.4508956102
 40
0.7103690052
 40
1.0
 40
1.0
 40
1.0
 40
1.0
 10
88.0007748733
 20
51.8303399984
 30
0.0
 10
88.0749716331
 20
51.7874641396
 30
0.0
 10
88.2139091676
 20
51.6708381389
 30
0.0
 10
88.3617247915
 20
51.4290437847
 30
0.0
 10
88.4494764838
 20
51.1311486722
 30
0.0
 10
88.4668013037
 20
50.9143365443
 30
0.0
 10
88.4668013037
 20
50.8003619279
 30
0.0
  0
SPLINE
  5
3A0
100
AcDbEntity
  8
0
100
AcDbSpline
 62
7
  6
CONTINUOUS
 70
0
 71
3
 72
15
 73
11
 74
0
 42
0.0000001
 43
0.0000001
 44
0.0000000001
 40
0.0
 40
0.0
 40
0.0
 40
0.0
 40
0.097662448
 40
0.2097241085
 40
0.3349540434
 40
0.4697297884
 40
0.6090672085
 40
0.7473676273
 40
0.8792459224
 40
1.0
 40
1.0
 40
1.0
 40
1.0
 10
85.3664787217
 20
48.3418140172
 30
0.0
 10
85.4951955223
 20
48.3526095368
 30
0.0
 10
85.7678426021
 20
48.4250679217
 30
0.0
 10
86.1574075026
 20
48.642214073
 30
0.0
 10
86.5360491054
 20
48.9605080352
 30
0.0
 10
86.8823945545
 20
49.3618683756
 30
0.0
 10
87.1768370713
 20
49.8231625901
 30
0.0
 10
87.4023888489
 20
50.31768947
 30
0.0
 10
87.5456854403
 20
50.8164570653
 30
0.0
 10
87.5829141473
 20
51.1509530762
 30
0.0
 10
87.5829141473
 20
51.310662871
 30
0.0
  0
SPLINE
  5
3A1
100
AcDbEntity
  8
0
100
AcDbSpline
 62
7
  6
CONTINUOUS
 70
0
 71
3
 72
17
 73
13
 74
0
 42
0.0000001
 43
0.0000001
 44
0.0000000001
 40
0.0
 40
0.0
 40
0.0
 40
0.0
 40
0.0462061034
 40
0.0942057905
 40
0.1450297933
 40
0.1993448631
 40
0.3189843438
 40
0.4521466367
 40
0.5938904831
 40
0.7372900594
 40
0.8748292888
 40
1.0
 40
1.0
 40
1.0
 40
1.0
 10
74.8788200536
 20
103.1792904892
 30
0.0
 10
74.7805520309
 20
103.122536646
 30
0.0
 10
74.5931682979
 20
102.982816468
 30
0.0
 10
74.3598956974
 20
102.7103453621
 30
0.0
 10
74.1754815742
 20
102.3799795823
 30
0.0
 10
73.9941380614
 20
101.8560941452
 30
0.0
 10
73.9184607292
 20
101.0951929535
 30
0.0
 10
74.0506903423
 20
100.1284872689
 30
0.0
 10
74.388335963
 20
99.1517239762
 30
0.0
 10
74.9021391957
 20
98.2430163568
 30
0.0
 10
75.5470286729
 20
97.4749302707
 30
0.0
 10
76.0609979952
 20
97.0729167987
 30
0.0
 10
76.3272261475
 20
96.9192133805
 30
0.0
  0
SPLINE
  5
3A2
100
AcDbEntity
  8
0
100
AcDbSpline
 62
7
  6
CONTINUOUS
 70
0
 71
3
 72
17
 73
13
 74
0
 42
0.0000001
 43
0.0000001
 44
0.0000000001
 40
0.0
 40
0.0
 40
0.0
 40
0.0
 40
0.0462061108
 40
0.0942058108
 40
0.1450298215
 40
0.1993448912
 40
0.3189843867
 40
0.452146679
 40
0.5938905245
 40
0.7372901049
 40
0.8748293112
 40
1.0
 40
1.0
 40
1.0
 40
1.0
 10
62.3629779516
 20
110.4051518525
 30
0.0
 10
62.2647099125
 20
110.3483980008
 30
0.0
 10
62.0773261211
 20
110.208677811
 30
0.0
 10
61.8440535164
 20
109.9362066119
 30
0.0
 10
61.6596393614
 20
109.6058407932
 30
0.0
 10
61.4782958583
 20
109.0819552871
 30
0.0
 10
61.4026186189
 20
108.3210540467
 30
0.0
 10
61.5348482814
 20
107.3543483402
 30
0.0
 10
61.872493921
 20
106.377585033
 30
0.0
 10
62.3862972716
 20
105.4688775377
 30
0.0
 10
63.0311866267
 20
104.7007914784
 30
0.0
 10
63.5451559067
 20
104.2987781268
 30
0.0
 10
63.8113840124
 20
104.1450747356
 30
0.0
  0
SPLINE
  5
3A3
100
AcDbEntity
  8
0
100
AcDbSpline
 62
7
  6
CONTINUOUS
 70
0
 71
3
 72
17
 73
13
 74
0
 42
0.0000001
 43
0.0000001
 44
0.0000000001
 40
0.0
 40
0.0
 40
0.0
 40
0.0
 40
0.0462061313
 40
0.0942058497
 40
0.1450298721
 40
0.199344945
 40
0.3189844312
 40
0.4521467096
 40
0.5938905515
 40
0.7372901446
 40
0.8748293376
 40
1.0
 40
1.0
 40
1.0
 40
1.0
 10
49.8471358412
 20
117.6310132154
 30
0.0
 10
49.7488677616
 20
117.5742593323
 30
0.0
 10
49.5614838956
 20
117.4345390781
 30
0.0
 10
49.3282112478
 20
117.1620677497
 30
0.0
 10
49.1437970679
 20
116.8317018487
 30
0.0
 10
48.9624536644
 20
116.3078162889
 30
0.0
 10
48.8867765086
 20
115.5469150971
 30
0.0
 10
49.0190062082
 20
114.5802094633
 30
0.0
 10
49.3566518499
 20
113.6034461601
 30
0.0
 10
49.8704553136
 20
112.6947387414
 30
0.0
 10
50.5153445844
 20
111.9266526954
 30
0.0
 10
51.0293138268
 20
111.52463945
 30
0.0
 10
51.2955418773
 20
111.3709360906
 30
0.0
  0
SPLINE
  5
3A4
100
AcDbEntity
  8
0
100
AcDbSpline
 62
7
  6
CONTINUOUS
 70
0
 71
3
 72
11
 73
7
 74
0
 42
0.0000001
 43
0.0000001
 44
0.0000000001
 40
0.0
 40
0.0
 40
0.0
 40
0.0
 40
0.2279271155
 40
0.4747159773
 40
0.7344595132
 40
1.0
 40
1.0
 40
1.0
 40
1.0
 10
32.204745133
 20
72.7532880411
 30
0.0
 10
32.204745133
 20
73.3259976378
 30
0.0
 10
32.3171617723
 20
74.5199782069
 30
0.0
 10
32.7611597664
 20
76.3167552404
 30
0.0
 10
33.4689607496
 20
78.1283623032
 30
0.0
 10
34.0968964104
 20
79.2935642507
 30
0.0
 10
34.4480671498
 20
79.8608930465
 30
0.0
  0
SPLINE
  5
3A5
100
AcDbEntity
  8
0
100
AcDbSpline
 62
7
  6
CONTINUOUS
 70
0
 71
3
 72
17
 73
13
 74
0
 42
0.0000001
 43
0.0000001
 44
0.0000000001
 40
0.0
 40
0.0
 40
0.0
 40
0.0
 40
0.0462060512
 40
0.0942057389
 40
0.1450297297
 40
0.199344748
 40
0.3189841986
 40
0.4521464147
 40
0.5938903094
 40
0.7372901157
 40
0.8748293955
 40
1.0
 40
1.0
 40
1.0
 40
1.0
 10
37.3312936941
 20
124.8568745312
 30
0.0
 10
37.2330257497
 20
124.8001208077
 30
0.0
 10
37.045641891
 20
124.6604009754
 30
0.0
 10
36.8123696855
 20
124.3879296932
 30
0.0
 10
36.6279555704
 20
124.0575641449
 30
0.0
 10
36.4466114883
 20
123.533679131
 30
0.0
 10
36.3709343162
 20
122.7727782339
 30
0.0
 10
36.5031637805
 20
121.8060727415
 30
0.0
 10
36.8408091087
 20
120.82930878
 30
0.0
 10
37.3546129127
 20
119.920600545
 30
0.0
 10
37.9995024124
 20
119.1525138891
 30
0.0
 10
38.5134718153
 20
118.7505007336
 30
0.0
 10
38.7796997422
 20
118.5967974456
 30
0.0
  0
SPLINE
  5
3A6
100
AcDbEntity
  8
0
100
AcDbSpline
 62
7
  6
CONTINUOUS
 70
0
 71
3
 72
18
 73
14
 74
0
 42
0.0000001
 43
0.0000001
 44
0.0000000001
 40
0.0
 40
0.0
 40
0.0
 40
0.0
 40
0.0428706379
 40
0.0874905405
 40
0.1353077186
 40
0.187258621
 40
0.2437515905
 40
0.3047570642
 40
0.4383894143
 40
0.5826927524
 40
0.7298058646
 40
0.8713477753
 40
1.0
 40
1.0
 40
1.0
 40
1.0
 10
89.2509721043
 20
116.978480782
 30
0.0
 10
89.2510119611
 20
117.1536258472
 30
0.0
 10
89.2976808398
 20
117.512599363
 30
0.0
 10
89.5036547731
 20
118.0308108727
 30
0.0
 10
89.8377116738
 20
118.5219245558
 30
0.0
 10
90.290301037
 20
118.9764777315
 30
0.0
 10
90.8512441248
 20
119.3862868633
 30
0.0
 10
91.7547843351
 20
119.8774226672
 30
0.0
 10
93.0786890587
 20
120.3195696851
 30
0.0
 10
94.8061715318
 20
120.5621120793
 30
0.0
 10
96.5829925484
 20
120.5129590504
 30
0.0
 10
98.2625718416
 20
120.1768934749
 30
0.0
 10
99.2931694699
 20
119.7516836036
 30
0.0
 10
99.7483549068
 20
119.4888881143
 30
0.0
  0
SPLINE
  5
3A7
100
AcDbEntity
  8
0
100
AcDbSpline
 62
7
  6
CONTINUOUS
 70
0
 71
3
 72
18
 73
14
 74
0
 42
0.0000001
 43
0.0000001
 44
0.0000000001
 40
0.0
 40
0.0
 40
0.0
 40
0.0
 40
0.0428706379
 40
0.0874905405
 40
0.1353077186
 40
0.187258621
 40
0.2437515905
 40
0.3047570642
 40
0.4383894143
 40
0.5826927524
 40
0.7298058646
 40
0.8713477753
 40
1.0
 40
1.0
 40
1.0
 40
1.0
 10
76.7351299692
 20
124.204342137
 30
0.0
 10
76.735169826
 20
124.3794872022
 30
0.0
 10
76.7818387047
 20
124.738460718
 30
0.0
 10
76.987812638
 20
125.2566722277
 30
0.0
 10
77.3218695387
 20
125.7477859108
 30
0.0
 10
77.7744589019
 20
126.2023390865
 30
0.0
 10
78.3354019897
 20
126.6121482183
 30
0.0
 10
79.2389422
 20
127.1032840222
 30
0.0
 10
80.5628469236
 20
127.5454310401
 30
0.0
 10
82.2903293967
 20
127.7879734344
 30
0.0
 10
84.0671504133
 20
127.7388204054
 30
0.0
 10
85.7467297065
 20
127.4027548299
 30
0.0
 10
86.7773273348
 20
126.9775449587
 30
0.0
 10
87.2325127717
 20
126.7147494694
 30
0.0
  0
SPLINE
  5
3A8
100
AcDbEntity
  8
0
100
AcDbSpline
 62
7
  6
CONTINUOUS
 70
0
 71
3
 72
18
 73
14
 74
0
 42
0.0000001
 43
0.0000001
 44
0.0000000001
 40
0.0
 40
0.0
 40
0.0
 40
0.0
 40
0.0428706379
 40
0.0874905405
 40
0.1353077186
 40
0.187258621
 40
0.2437515905
 40
0.3047570642
 40
0.4383894143
 40
0.5826927524
 40
0.7298058646
 40
0.8713477753
 40
1.0
 40
1.0
 40
1.0
 40
1.0
 10
64.2192878341
 20
131.4302034921
 30
0.0
 10
64.2193276909
 20
131.6053485572
 30
0.0
 10
64.2659965696
 20
131.964322073
 30
0.0
 10
64.4719705029
 20
132.4825335827
 30
0.0
 10
64.8060274036
 20
132.9736472658
 30
0.0
 10
65.2586167668
 20
133.4282004415
 30
0.0
 10
65.8195598546
 20
133.8380095733
 30
0.0
 10
66.7231000649
 20
134.3291453773
 30
0.0
 10
68.0470047885
 20
134.7712923951
 30
0.0
 10
69.7744872616
 20
135.0138347894
 30
0.0
 10
71.5513082782
 20
134.9646817604
 30
0.0
 10
73.2308875714
 20
134.628616185
 30
0.0
 10
74.2614851997
 20
134.2034063137
 30
0.0
 10
74.7166706366
 20
133.9406108244
 30
0.0
  0
SPLINE
  5
3A9
100
AcDbEntity
  8
0
100
AcDbSpline
 62
7
  6
CONTINUOUS
 70
0
 71
3
 72
18
 73
14
 74
0
 42
0.0000001
 43
0.0000001
 44
0.0000000001
 40
0.0
 40
0.0
 40
0.0
 40
0.0
 40
0.0428706379
 40
0.0874905405
 40
0.1353077186
 40
0.187258621
 40
0.2437515905
 40
0.3047570642
 40
0.4383894143
 40
0.5826927524
 40
0.7298058646
 40
0.8713477753
 40
1.0
 40
1.0
 40
1.0
 40
1.0
 10
51.703445699
 20
138.6560648471
 30
0.0
 10
51.7034855558
 20
138.8312099122
 30
0.0
 10
51.7501544345
 20
139.190183428
 30
0.0
 10
51.9561283678
 20
139.7083949377
 30
0.0
 10
52.2901852685
 20
140.1995086208
 30
0.0
 10
52.7427746317
 20
140.6540617965
 30
0.0
 10
53.3037177195
 20
141.0638709283
 30
0.0
 10
54.2072579298
 20
141.5550067323
 30
0.0
 10
55.5311626534
 20
141.9971537501
 30
0.0
 10
57.2586451265
 20
142.2396961444
 30
0.0
 10
59.0354661431
 20
142.1905431155
 30
0.0
 10
60.7150454363
 20
141.85447754
 30
0.0
 10
61.7456430645
 20
141.4292676687
 30
0.0
 10
62.2008285015
 20
141.1664721794
 30
0.0
  0
SPLINE
  5
3AA
100
AcDbEntity
  8
0
100
AcDbSpline
 62
7
  6
CONTINUOUS
 70
0
 71
3
 72
15
 73
11
 74
0
 42
0.0000001
 43
0.0000001
 44
0.0000000001
 40
0.0
 40
0.0
 40
0.0
 40
0.0
 40
0.09373503
 40
0.2030431747
 40
0.3268555896
 40
0.4615986613
 40
0.6021888457
 40
0.742738659
 40
0.8771745196
 40
1.0
 40
1.0
 40
1.0
 40
1.0
 10
74.0716743715
 20
45.3754667551
 30
0.0
 10
74.0033438592
 20
45.1933933152
 30
0.0
 10
73.9292600794
 20
44.7709535823
 30
0.0
 10
73.9816194659
 20
44.0904769196
 30
0.0
 10
74.1809525683
 20
43.3499079421
 30
0.0
 10
74.5157734616
 20
42.5895756248
 30
0.0
 10
74.9660952365
 20
41.8508170779
 30
0.0
 10
75.5051748229
 20
41.1748758171
 30
0.0
 10
76.1005882404
 20
40.6000428221
 30
0.0
 10
76.5370381204
 20
40.2876878106
 30
0.0
 10
76.7577263802
 20
40.1602762668
 30
0.0
  0
ELLIPSE
  5
3AB
100
AcDbEntity
  8
0
100
AcDbEllipse
 62
7
  6
CONTINUOUS
 10
71.4958504565
 20
134.3866694598
 30
0.0
 11
-10.6181495476
 21
16.2036140087
 31
0.0
 40
0.535815383
 41
5.1696791611
 42
5.7677003779
  0
ELLIPSE
  5
3AC
100
AcDbEntity
  8
0
100
AcDbEllipse
 62
7
  6
CONTINUOUS
 10
68.4321231539
 20
145.3906881066
 30
0.0
 11
-0.7717439985
 21
1.3464672017
 31
0.0
 40
0.5779938537
 41
5.5330161882
 42
7.0716647293
  0
ELLIPSE
  5
3AD
100
AcDbEntity
  8
0
100
AcDbEllipse
 62
7
  6
CONTINUOUS
 10
109.0433768619
 20
112.7090853947
 30
0.0
 11
-10.6181495476
 21
16.2036140087
 31
0.0
 40
0.535815383
 41
5.1696791611
 42
5.7677003779
  0
ELLIPSE
  5
3AE
100
AcDbEntity
  8
0
100
AcDbEllipse
 62
7
  6
CONTINUOUS
 10
105.9796495592
 20
123.7131040415
 30
0.0
 11
-0.7717439985
 21
1.3464672017
 31
0.0
 40
0.5779938537
 41
5.5330161882
 42
7.0716647293
  0
ENDSEC
  0
SECTION
  2
OBJECTS
  0
DICTIONARY
  5
C
100
AcDbDictionary
280
0
281
1
  3
ACAD_GROUP
350
D
  3
ACAD_MLINESTYLE
350
17
  3
ACAD_LAYOUT
350
1A
  3
ACAD_PLOTSETTINGS
350
19
  3
ACAD_PLOTSTYLENAME
350
E
  0
DICTIONARY
  5
D
102
{ACAD_REACTORS
330
C
102
}
100
AcDbDictionary
280
0
281
1
  0
ACDBDICTIONARYWDFLT
  5
E
102
{ACAD_REACTORS
330
C
102
}
100
AcDbDictionary
281
1
  3
Normal
350
F
100
AcDbDictionaryWithDefault
340
F
  0
DICTIONARY
  5
17
102
{ACAD_REACTORS
330
C
102
}
100
AcDbDictionary
280
0
281
1
  3
Standard
350
18
  0
DICTIONARY
  5
19
102
{ACAD_REACTORS
330
C
102
}
100
AcDbDictionary
281
1
  0
DICTIONARY
  5
1A
102
{ACAD_REACTORS
330
C
102
}
100
AcDbDictionary
281
1
  3
Model
350
3AF
  3
Layout1
350
3B0
  0
ACDBPLACEHOLDER
  5
F
102
{ACAD_REACTORS
330
E
102
}
  0
MLINESTYLE
  5
18
102
{ACAD_REACTORS
330
17
102
}
100
AcDbMlineStyle
  2
STANDARD
 70
0
  3

 62
256
 51
90.0
 52
90.0
 71
2
 49
0.5
 62
256
  6
BYLAYER
 49
-0.5
 62
256
  6
BYLAYER
  0
LAYOUT
  5
3AF
102
{ACAD_REACTORS
330
1A
102
}
100
AcDbPlotSettings
  1

  2
none_device
  4

  6

 40
0.0
 41
0.0
 42
0.0
 43
0.0
 44
210.0
 45
297.0
 46
0.0
 47
0.0
 48
0.0
 49
0.0
140
0.0
141
0.0
142
1.0
143
1.0
 70
1024
 72
1
 73
0
 74
0
  7

 75
0
147
1.0
148
0.0
149
0.0
100
AcDbLayout
  1
Model
 70
0
 71
0
 10
0.0
 20
0.0
 11
210.0
 21
297.0
 12
0.0
 22
0.0
 32
0.0
 14
0.0
 24
0.0
 34
0.0
 15
0.0
 25
0.0
 35
0.0
146
0.0
 13
0.0
 23
0.0
 33
0.0
 16
1.0
 26
0.0
 36
0.0
 17
0.0
 27
1.0
 37
0.0
 76
0
330
210
345
0
346
0
  0
LAYOUT
  5
3B0
102
{ACAD_REACTORS
330
1A
102
}
100
AcDbPlotSettings
  1

  2
none_device
  4

  6

 40
0.0
 41
0.0
 42
0.0
 43
0.0
 44
210.0
 45
297.0
 46
0.0
 47
0.0
 48
0.0
 49
0.0
140
0.0
141
0.0
142
1.0
143
1.0
 70
0
 72
1
 73
0
 74
0
  7

 75
0
147
1.0
148
0.0
149
0.0
100
AcDbLayout
  1
Layout1
 70
0
 71
1
 10
0.0
 20
0.0
 11
210.0
 21
297.0
 12
0.0
 22
0.0
 32
0.0
 14
0.0
 24
0.0
 34
0.0
 15
0.0
 25
0.0
 35
0.0
146
0.0
 13
0.0
 23
0.0
 33
0.0
 16
1.0
 26
0.0
 36
0.0
 17
0.0
 27
1.0
 37
0.0
 76
0
330
211
345
0
346
0
  0
ENDSEC
  0
EOF
