999
DXF file: C:\Users\sesa63760\Documents\7-Dev\_Creo\CAD\MCADFD0001114_3D-CAD\drw0001_1.dxf
999
Pro/ENGINEER 2019471 by Parametric Technology Corporation
  0
SECTION
  2
HEADER
  9
$ACADVER
  1
AC1024
  9
$DWGCODEPAGE
  3
ANSI_1252
  9
$EXTMAX
 10
79.5741026351
 20
112.5405165839
 30
0.0
  9
$EXTMIN
 10
0.0
 20
0.0
 30
0.0
  9
$LIMMIN
 10
0.0
 20
0.0
  9
$LIMMAX
 10
79.5741026351
 20
112.5405165839
  9
$VIEWCTR
 10
39.7870513176
 20
56.270258292
  9
$VIEWSIZE
 40
112.5405165839
  9
$CLAYER
  8
0
  9
$LTSCALE
 40
7.3359744144
  9
$CELTYPE
  6
BYLAYER
  9
$DIMSCALE
 40
1.0
  9
$DIMASZ
 40
0.9473107457
  9
$DIMEXO
 40
1.0
  9
$DIMDLI
 40
5.0684914136
  9
$DIMEXE
 40
1.0
  9
$DIMCEN
 40
1.2004321769
  9
$DIMLFAC
 40
1.0
  9
$DIMBLK
  1
_FILLED
  9
$DIMALT
 70
0
  9
$DIMALTF
 40
0.0393700787
  9
$DIMTXT
 40
1.3262350439
  9
$DIMTOL
 70
1
  9
$DIMLIM
 70
0
  9
$DIMTFAC
 40
1.0
  9
$DIMTP
 40
0.01
  9
$DIMTM
 40
0.01
  9
$DIMGAP
 40
0.625
  9
$DIMDSEP
 70
46
  9
$AUNITS
 70
0
  9
$PDMODE
 70
3
  9
$PDSIZE
 40
0.3125
  9
$HANDSEED
  5
333
  9
$TILEMODE
 70
1
  9
$MEASUREMENT
 70
1
  9
$INSUNITS
 70
4
  0
ENDSEC
  0
SECTION
  2
CLASSES
  0
CLASS
  1
ACDBDICTIONARYWDFLT
  2
AcDbDictionaryWithDefault
  3
AutoCAD 2000
 90
0
 91
1
280
0
281
0
  0
CLASS
  1
ACDBPLACEHOLDER
  2
AcDbPlaceHolder
  3
AutoCAD 2000
 90
0
 91
1
280
0
281
0
  0
CLASS
  1
LAYOUT
  2
AcDbLayout
  3
AutoCAD 2000
 90
0
 91
0
280
0
281
0
  0
ENDSEC
  0
SECTION
  2
TABLES
  0
TABLE
  2
VPORT
  5
8
100
AcDbSymbolTable
 70
2
  0
VPORT
  5
1F4
100
AcDbSymbolTableRecord
100
AcDbViewportTableRecord
  2
*ACTIVE
 70
0
 10
0.0
 20
0.0
 11
1.0
 21
1.0
 12
39.7870513176
 22
56.270258292
 13
0.0
 23
0.0
 14
1.0
 24
1.0
 15
0.0
 25
0.0
 16
0.0
 26
0.0
 36
1.0
 17
0.0
 27
0.0
 37
0.0
 40
112.5405165839
 41
0.7070707071
 42
50.0
 43
0.0
 44
0.0
 50
0.0
 51
0.0
 71
0
 72
100
 73
1
 74
1
 75
0
 76
0
 77
0
 78
0
  0
ENDTAB
  0
TABLE
  2
LTYPE
  5
5
100
AcDbSymbolTable
 70
6
  0
LTYPE
  5
14
100
AcDbSymbolTableRecord
100
AcDbLinetypeTableRecord
  2
BYBLOCK
 70
0
  3

 72
65
 73
0
 40
0.0
  0
LTYPE
  5
15
100
AcDbSymbolTableRecord
100
AcDbLinetypeTableRecord
  2
BYLAYER
 70
0
  3

 72
65
 73
0
 40
0.0
  0
LTYPE
  5
16
100
AcDbSymbolTableRecord
100
AcDbLinetypeTableRecord
  2
CONTINUOUS
 70
64
  3
Solid line
 72
65
 73
0
 40
0.0
  0
LTYPE
  5
1F5
100
AcDbSymbolTableRecord
100
AcDbLinetypeTableRecord
  2
CENTER
 70
64
  3
____ _ ____ _ ____ _ ____ _ ____ _ ____ _ ____
 72
65
 73
4
 40
0.6
 49
0.375
 74
0
 49
-0.075
 74
0
 49
0.075
 74
0
 49
-0.075
 74
0
  0
LTYPE
  5
1F6
100
AcDbSymbolTableRecord
100
AcDbLinetypeTableRecord
  2
HIDDEN
 70
64
  3
- - - - - - - - - - - - - - - - - - - -
 72
65
 73
2
 40
0.2
 49
0.1
 74
0
 49
-0.1
 74
0
  0
LTYPE
  5
1F7
100
AcDbSymbolTableRecord
100
AcDbLinetypeTableRecord
  2
PHANTOM
 70
64
  3
_____ _ _ _____ _ _ _____ _ _ _____
 72
65
 73
6
 40
0.8
 49
0.45
 74
0
 49
-0.05
 74
0
 49
0.1
 74
0
 49
-0.05
 74
0
 49
0.1
 74
0
 49
-0.05
 74
0
  0
LTYPE
  5
1F8
100
AcDbSymbolTableRecord
100
AcDbLinetypeTableRecord
  2
DOT
 70
64
  3
. . . . . . . . . . . . . . . . . . . .
 72
65
 73
2
 40
0.2
 49
0.1
 74
0
 49
-0.1
 74
0
  0
LTYPE
  5
1F9
100
AcDbSymbolTableRecord
100
AcDbLinetypeTableRecord
  2
DASHED
 70
64
  3
- - - - - - - - - - - - - - - - - - - -
 72
65
 73
2
 40
0.2
 49
0.1
 74
0
 49
-0.1
 74
0
  0
ENDTAB
  0
TABLE
  2
LAYER
  5
2
100
AcDbSymbolTable
 70
36
  0
LAYER
  5
10
100
AcDbSymbolTableRecord
100
AcDbLayerTableRecord
  2
0
 70
0
 62
7
  6
CONTINUOUS
370
-3
390
F
  0
LAYER
  5
1FA
100
AcDbSymbolTableRecord
100
AcDbLayerTableRecord
  2
DEFAULT_1
 70
0
 62
7
  6
CENTER
370
-3
390
F
  0
LAYER
  5
1FB
100
AcDbSymbolTableRecord
100
AcDbLayerTableRecord
  2
DEFAULT_2
 70
0
 62
8
  6
HIDDEN
370
-3
390
F
  0
LAYER
  5
1FC
100
AcDbSymbolTableRecord
100
AcDbLayerTableRecord
  2
DEFAULT_3
 70
0
 62
7
  6
PHANTOM
370
-3
390
F
  0
LAYER
  5
1FD
100
AcDbSymbolTableRecord
100
AcDbLayerTableRecord
  2
00_COMPONENTS
 70
0
 62
7
  6
CONTINUOUS
370
-3
390
F
  0
LAYER
  5
1FE
100
AcDbSymbolTableRecord
100
AcDbLayerTableRecord
  2
01_1_DEFAULT_DATUMS
 70
0
 62
7
  6
CONTINUOUS
370
-3
390
F
  0
LAYER
  5
1FF
100
AcDbSymbolTableRecord
100
AcDbLayerTableRecord
  2
01_PLANES
 70
0
 62
7
  6
CONTINUOUS
370
-3
390
F
  0
LAYER
  5
200
100
AcDbSymbolTableRecord
100
AcDbLayerTableRecord
  2
02_COORD_SYS
 70
0
 62
7
  6
CONTINUOUS
370
-3
390
F
  0
LAYER
  5
201
100
AcDbSymbolTableRecord
100
AcDbLayerTableRecord
  2
03_AXES
 70
0
 62
7
  6
CONTINUOUS
370
-3
390
F
  0
LAYER
  5
202
100
AcDbSymbolTableRecord
100
AcDbLayerTableRecord
  2
04_POINTS
 70
0
 62
7
  6
CONTINUOUS
370
-3
390
F
  0
LAYER
  5
203
100
AcDbSymbolTableRecord
100
AcDbLayerTableRecord
  2
05_CURVES
 70
0
 62
7
  6
CONTINUOUS
370
-3
390
F
  0
LAYER
  5
204
100
AcDbSymbolTableRecord
100
AcDbLayerTableRecord
  2
06_SURFS
 70
0
 62
7
  6
CONTINUOUS
370
-3
390
F
  0
LAYER
  5
205
100
AcDbSymbolTableRecord
100
AcDbLayerTableRecord
  2
07_COSMETICS
 70
0
 62
7
  6
CONTINUOUS
370
-3
390
F
  0
LAYER
  5
206
100
AcDbSymbolTableRecord
100
AcDbLayerTableRecord
  2
10_NOTES
 70
0
 62
7
  6
CONTINUOUS
370
-3
390
F
  0
LAYER
  5
207
100
AcDbSymbolTableRecord
100
AcDbLayerTableRecord
  2
11_NOTES_PUB
 70
0
 62
7
  6
CONTINUOUS
370
-3
390
F
  0
LAYER
  5
208
100
AcDbSymbolTableRecord
100
AcDbLayerTableRecord
  2
13_REF_GTOL
 70
0
 62
7
  6
CONTINUOUS
370
-3
390
F
  0
LAYER
  5
209
100
AcDbSymbolTableRecord
100
AcDbLayerTableRecord
  2
16_MISC
 70
0
 62
7
  6
CONTINUOUS
370
-3
390
F
  0
LAYER
  5
20A
100
AcDbSymbolTableRecord
100
AcDbLayerTableRecord
  2
17_NO_PRINT
 70
0
 62
7
  6
CONTINUOUS
370
-3
390
F
  0
LAYER
  5
20B
100
AcDbSymbolTableRecord
100
AcDbLayerTableRecord
  2
18_DATUM_CAMS_JOINTS
 70
0
 62
7
  6
CONTINUOUS
370
-3
390
F
  0
LAYER
  5
20C
100
AcDbSymbolTableRecord
100
AcDbLayerTableRecord
  2
19_DATUM_FUNCTIONAL
 70
0
 62
7
  6
CONTINUOUS
370
-3
390
F
  0
LAYER
  5
20D
100
AcDbSymbolTableRecord
100
AcDbLayerTableRecord
  2
20_DATUM_KINEMATIC_SCHEME
 70
0
 62
7
  6
CONTINUOUS
370
-3
390
F
  0
ENDTAB
  0
TABLE
  2
STYLE
  5
3
100
AcDbSymbolTable
 70
1
  0
STYLE
  5
11
100
AcDbSymbolTableRecord
100
AcDbTextStyleTableRecord
  2
STANDARD
 70
0
 40
0.0
 41
0.8
 50
0.0
 71
0
 42
0.2
  3
txt
  4

  0
STYLE
  5
20E
100
AcDbSymbolTableRecord
100
AcDbTextStyleTableRecord
  2
TEXTSTYLE_1
 70
0
 40
0.0
 41
0.8
 50
0.0
 71
0
 42
0.2
  3
gdt
  4

  0
ENDTAB
  0
TABLE
  2
VIEW
  5
6
100
AcDbSymbolTable
 70
0
  0
ENDTAB
  0
TABLE
  2
UCS
  5
7
100
AcDbSymbolTable
 70
0
  0
ENDTAB
  0
TABLE
  2
APPID
  5
9
100
AcDbSymbolTable
 70
1
  0
APPID
  5
20F
100
AcDbSymbolTableRecord
100
AcDbRegAppTableRecord
  2
ACAD
 70
0
  0
ENDTAB
  0
TABLE
  2
BLOCK_RECORD
  5
1
100
AcDbSymbolTable
 70
0
  0
BLOCK_RECORD
  5
210
100
AcDbSymbolTableRecord
100
AcDbBlockTableRecord
  2
*Model_Space
  0
BLOCK_RECORD
  5
211
100
AcDbSymbolTableRecord
100
AcDbBlockTableRecord
  2
*Paper_Space
  0
BLOCK_RECORD
  5
212
100
AcDbSymbolTableRecord
100
AcDbBlockTableRecord
  2
_FILLED
  0
ENDTAB
  0
TABLE
  2
DIMSTYLE
  5
A
100
AcDbSymbolTable
 70
1
100
AcDbDimStyleTable
 71
0
  0
DIMSTYLE
105
213
100
AcDbSymbolTableRecord
100
AcDbDimStyleTableRecord
  2
STANDARD
 70
0
  3

  4

 40
1.0
 41
0.9473107457
 42
1.0
 43
0.38
 44
1.0
 45
0.0
 46
0.0
 47
0.01
 48
0.01
140
1.3262350439
141
0.09
142
0.0
143
25.4
144
1.0
145
0.0
146
1.0
147
0.625
 71
1
 72
0
 73
0
 74
0
 75
0
 76
0
 77
1
 78
8
 79
2
170
0
171
1
172
0
173
0
174
0
175
0
176
0
177
0
178
0
270
2
179
2
271
2
272
2
273
2
274
2
275
0
280
0
281
0
282
0
283
1
284
8
285
0
286
0
287
3
288
0
340
11
278
46
341
212
342
212
343
212
344
212
  0
ENDTAB
  0
ENDSEC
  0
SECTION
  2
BLOCKS
  0
BLOCK
  5
20
100
AcDbEntity
  8
0
100
AcDbBlockBegin
  2
*Model_Space
 70
0
 10
0.0
 20
0.0
 30
0.0
  3
*Model_Space
  1

  0
ENDBLK
  5
21
100
AcDbEntity
  8
0
100
AcDbBlockEnd
  0
BLOCK
  5
1C
100
AcDbEntity
  8
0
100
AcDbBlockBegin
  2
*Paper_Space
 70
0
 10
0.0
 20
0.0
 30
0.0
  3
*Paper_Space
  1

  0
ENDBLK
  5
1D
100
AcDbEntity
  8
0
100
AcDbBlockEnd
  0
BLOCK
  5
214
100
AcDbEntity
  8
0
100
AcDbBlockBegin
  2
_FILLED
 70
64
 10
0.0
 20
0.0
  3
_FILLED
  1

  0
SOLID
  5
215
100
AcDbEntity
  8
0
  6
BYBLOCK
 62
0
100
AcDbTrace
 10
0.0
 20
0.0
 11
-1.0
 21
0.25
 12
-1.0
 22
-0.25
 13
-1.0
 23
-0.25
  0
ENDBLK
  5
216
100
AcDbEntity
  8
0
  6
BYBLOCK
 62
0
100
AcDbBlockEnd
  0
ENDSEC
  0
SECTION
  2
ENTITIES
  0
LINE
  5
217
100
AcDbEntity
  8
0
100
AcDbLine
 62
7
  6
CONTINUOUS
 10
37.2502689258
 20
8.6860130249
 11
24.5930048457
 21
15.9935225308
  0
LINE
  5
218
100
AcDbEntity
  8
0
100
AcDbLine
 62
7
  6
CONTINUOUS
 10
23.4368705179
 20
17.8574421005
 11
10.7796064378
 21
25.1649516064
  0
LINE
  5
219
100
AcDbEntity
  8
0
100
AcDbLine
 62
7
  6
CONTINUOUS
 10
13.2075411465
 20
25.4738222873
 11
20.6129893019
 21
21.1983815247
  0
LINE
  5
21A
100
AcDbEntity
  8
0
100
AcDbLine
 62
7
  6
CONTINUOUS
 10
20.51802943
 20
21.3356412676
 11
13.2842969418
 21
25.5119441864
  0
LINE
  5
21B
100
AcDbEntity
  8
0
100
AcDbLine
 62
7
  6
CONTINUOUS
 10
25.0725786468
 20
18.8018129919
 11
24.8138133429
 21
18.95120783
  0
LINE
  5
21C
100
AcDbEntity
  8
0
100
AcDbLine
 62
7
  6
CONTINUOUS
 10
26.2392756319
 20
19.4754017895
 11
25.9805103281
 21
19.6247966276
  0
LINE
  5
21D
100
AcDbEntity
  8
0
100
AcDbLine
 62
7
  6
CONTINUOUS
 10
13.0078193483
 20
28.4468648871
 11
20.2415518366
 21
24.2705619684
  0
LINE
  5
21E
100
AcDbEntity
  8
0
100
AcDbLine
 62
7
  6
CONTINUOUS
 10
27.4059726171
 20
20.1489905872
 11
27.1472073132
 21
20.2983854253
  0
LINE
  5
21F
100
AcDbEntity
  8
0
100
AcDbLine
 62
7
  6
CONTINUOUS
 10
20.3206284514
 20
24.3128809964
 11
12.915180296
 21
28.588321759
  0
LINE
  5
220
100
AcDbEntity
  8
0
100
AcDbLine
 62
7
  6
CONTINUOUS
 10
28.5726696022
 20
20.8225793848
 11
28.3139042983
 21
20.9719742229
  0
LINE
  5
221
100
AcDbEntity
  8
0
100
AcDbLine
 62
7
  6
CONTINUOUS
 10
29.7393665873
 20
21.4961681824
 11
29.4806012834
 21
21.6455630205
  0
LINE
  5
222
100
AcDbEntity
  8
0
100
AcDbLine
 62
7
  6
CONTINUOUS
 10
30.9060635724
 20
22.1697569801
 11
30.6472982685
 21
22.3191518182
  0
LINE
  5
223
100
AcDbEntity
  8
0
100
AcDbLine
 62
7
  6
CONTINUOUS
 10
13.2075411465
 20
25.4738222873
 11
13.2044437334
 21
25.5039107539
  0
LINE
  5
224
100
AcDbEntity
  8
0
100
AcDbLine
 62
7
  6
CONTINUOUS
 10
12.9282174524
 20
28.4398739946
 11
12.915180296
 21
28.588321759
  0
LINE
  5
225
100
AcDbEntity
  8
0
100
AcDbLine
 62
7
  6
CONTINUOUS
 10
24.4737903033
 20
85.1640993661
 11
57.3224351372
 21
104.1291600973
  0
LINE
  5
226
100
AcDbEntity
  8
0
100
AcDbLine
 62
7
  6
CONTINUOUS
 10
35.5790381542
 20
20.6314622131
 11
36.3568588519
 21
20.1823973832
  0
LINE
  5
227
100
AcDbEntity
  8
0
100
AcDbLine
 62
7
  6
CONTINUOUS
 10
32.0727605575
 20
22.8433457777
 11
31.8139952536
 21
22.9927406158
  0
LINE
  5
228
100
AcDbEntity
  8
0
100
AcDbLine
 62
7
  6
CONTINUOUS
 10
36.4047404811
 20
20.5230722444
 11
35.6622752697
 21
20.9517250366
  0
LINE
  5
229
100
AcDbEntity
  8
0
100
AcDbLine
 62
7
  6
CONTINUOUS
 10
33.2394575426
 20
23.5169345753
 11
32.9806922387
 21
23.6663294134
  0
LINE
  5
22A
100
AcDbEntity
  8
0
100
AcDbLine
 62
7
  6
CONTINUOUS
 10
34.4061545277
 20
24.190523373
 11
34.1473892238
 21
24.3399182111
  0
LINE
  5
22B
100
AcDbEntity
  8
0
100
AcDbLine
 62
7
  6
CONTINUOUS
 10
12.9278558079
 20
28.4396258359
 11
12.915180296
 21
28.588321759
  0
LINE
  5
22C
100
AcDbEntity
  8
0
100
AcDbLine
 62
7
  6
CONTINUOUS
 10
12.4152119167
 20
62.3639325729
 11
12.4152119167
 21
62.6627247371
  0
LINE
  5
22D
100
AcDbEntity
  8
0
100
AcDbLine
 62
7
  6
CONTINUOUS
 10
13.5819089018
 20
63.0375213706
 11
13.5819089018
 21
63.3363135348
  0
LINE
  5
22E
100
AcDbEntity
  8
0
100
AcDbLine
 62
7
  6
CONTINUOUS
 10
43.9934225957
 20
91.4122939614
 11
44.6654134113
 21
91.8002657238
  0
LINE
  5
22F
100
AcDbEntity
  8
0
100
AcDbLine
 62
7
  6
CONTINUOUS
 10
20.5944070746
 20
21.3796827166
 11
20.6129893019
 21
21.1983815247
  0
LINE
  5
230
100
AcDbEntity
  8
0
100
AcDbLine
 62
7
  6
CONTINUOUS
 10
20.5948350157
 20
21.3799847285
 11
20.6129893019
 21
21.1983815247
  0
LINE
  5
231
100
AcDbEntity
  8
0
100
AcDbLine
 62
7
  6
CONTINUOUS
 10
14.7486058869
 20
63.7111101682
 11
14.7486058869
 21
64.0099023324
  0
LINE
  5
232
100
AcDbEntity
  8
0
100
AcDbLine
 62
7
  6
CONTINUOUS
 10
15.915302872
 20
64.3846989658
 11
15.915302872
 21
64.68349113
  0
LINE
  5
233
100
AcDbEntity
  8
0
100
AcDbLine
 62
7
  6
CONTINUOUS
 10
17.0819998571
 20
65.0582877635
 11
17.0819998571
 21
65.3570799277
  0
LINE
  5
234
100
AcDbEntity
  8
0
100
AcDbLine
 62
7
  6
CONTINUOUS
 10
27.3306228938
 20
78.3589444396
 11
27.7447038337
 21
78.5980127546
  0
LINE
  5
235
100
AcDbEntity
  8
0
100
AcDbLine
 62
7
  6
CONTINUOUS
 10
48.6252278721
 20
89.5141174985
 11
47.9532370565
 21
89.1261457361
  0
LINE
  5
236
100
AcDbEntity
  8
0
100
AcDbLine
 62
7
  6
CONTINUOUS
 10
23.7473737509
 20
74.0279987622
 11
24.0144594662
 21
74.1821998514
  0
LINE
  5
237
100
AcDbEntity
  8
0
100
AcDbLine
 62
7
  6
CONTINUOUS
 10
24.2791974949
 20
18.6408229558
 11
24.2810225051
 21
18.6235645766
  0
LINE
  5
238
100
AcDbEntity
  8
0
100
AcDbLine
 62
7
  6
CONTINUOUS
 10
18.2486968422
 20
65.7318765611
 11
18.2486968422
 21
66.0306687253
  0
LINE
  5
239
100
AcDbEntity
  8
0
100
AcDbLine
 62
7
  6
CONTINUOUS
 10
19.4153938273
 20
66.4054653587
 11
19.4153938273
 21
66.7042575229
  0
LINE
  5
23A
100
AcDbEntity
  8
0
100
AcDbLine
 62
7
  6
CONTINUOUS
 10
20.5820908124
 20
67.0790541564
 11
20.5820908124
 21
67.3778463205
  0
LINE
  5
23B
100
AcDbEntity
  8
0
100
AcDbLine
 62
7
  6
CONTINUOUS
 10
21.7487877975
 20
67.752642954
 11
21.7487877975
 21
68.0514351182
  0
LINE
  5
23C
100
AcDbEntity
  8
0
100
AcDbLine
 62
7
  6
CONTINUOUS
 10
11.5973578523
 20
62.1905392914
 11
10.170550089
 21
61.2630987041
  0
LINE
  5
23D
100
AcDbEntity
  8
0
100
AcDbLine
 62
7
  6
CONTINUOUS
 10
37.1310543834
 20
77.8565898602
 11
69.9796992173
 21
96.8216505914
  0
LINE
  5
23E
100
AcDbEntity
  8
0
100
AcDbLine
 62
7
  6
CONTINUOUS
 10
12.4152119167
 20
62.6627247371
 11
12.7640548374
 21
62.8641280891
  0
LINE
  5
23F
100
AcDbEntity
  8
0
100
AcDbLine
 62
7
  6
CONTINUOUS
 10
13.5819089018
 20
63.3363135348
 11
13.9307518225
 21
63.5377168867
  0
LINE
  5
240
100
AcDbEntity
  8
0
100
AcDbLine
 62
7
  6
CONTINUOUS
 10
14.7486058869
 20
64.0099023324
 11
15.0974488076
 21
64.2113056843
  0
LINE
  5
241
100
AcDbEntity
  8
0
100
AcDbLine
 62
7
  6
CONTINUOUS
 10
15.915302872
 20
64.68349113
 11
16.2641457927
 21
64.884894482
  0
LINE
  5
242
100
AcDbEntity
  8
0
100
AcDbLine
 62
7
  6
CONTINUOUS
 10
17.0819998571
 20
65.3570799277
 11
17.4308427778
 21
65.5584832796
  0
LINE
  5
243
100
AcDbEntity
  8
0
100
AcDbLine
 62
7
  6
CONTINUOUS
 10
18.2486968422
 20
66.0306687253
 11
18.5975397629
 21
66.2320720772
  0
LINE
  5
244
100
AcDbEntity
  8
0
100
AcDbLine
 62
7
  6
CONTINUOUS
 10
19.4153938273
 20
66.7042575229
 11
19.764236748
 21
66.9056608748
  0
LINE
  5
245
100
AcDbEntity
  8
0
100
AcDbLine
 62
7
  6
CONTINUOUS
 10
20.5820908124
 20
67.3778463205
 11
20.9309337331
 21
67.5792496725
  0
LINE
  5
246
100
AcDbEntity
  8
0
100
AcDbLine
 62
7
  6
CONTINUOUS
 10
21.7487877975
 20
68.0514351182
 11
23.7473737509
 21
69.2053123686
  0
LINE
  5
247
100
AcDbEntity
  8
0
100
AcDbLine
 62
7
  6
CONTINUOUS
 10
11.8561231561
 20
62.0411444533
 11
12.4152119167
 21
62.3639325729
  0
LINE
  5
248
100
AcDbEntity
  8
0
100
AcDbLine
 62
7
  6
CONTINUOUS
 10
13.0228201413
 20
62.714733251
 11
13.5819089018
 21
63.0375213706
  0
LINE
  5
249
100
AcDbEntity
  8
0
100
AcDbLine
 62
7
  6
CONTINUOUS
 10
14.1895171264
 20
63.3883220486
 11
14.7486058869
 21
63.7111101682
  0
LINE
  5
24A
100
AcDbEntity
  8
0
100
AcDbLine
 62
7
  6
CONTINUOUS
 10
15.3562141115
 20
64.0619108462
 11
15.915302872
 21
64.3846989658
  0
LINE
  5
24B
100
AcDbEntity
  8
0
100
AcDbLine
 62
7
  6
CONTINUOUS
 10
16.5229110966
 20
64.7354996439
 11
17.0819998571
 21
65.0582877635
  0
LINE
  5
24C
100
AcDbEntity
  8
0
100
AcDbLine
 62
7
  6
CONTINUOUS
 10
17.6896080817
 20
65.4090884415
 11
18.2486968422
 21
65.7318765611
  0
LINE
  5
24D
100
AcDbEntity
  8
0
100
AcDbLine
 62
7
  6
CONTINUOUS
 10
18.8563050668
 20
66.0826772391
 11
19.4153938273
 21
66.4054653587
  0
LINE
  5
24E
100
AcDbEntity
  8
0
100
AcDbLine
 62
7
  6
CONTINUOUS
 10
20.0230020519
 20
66.7562660367
 11
20.5820908124
 21
67.0790541564
  0
LINE
  5
24F
100
AcDbEntity
  8
0
100
AcDbLine
 62
7
  6
CONTINUOUS
 10
21.189699037
 20
67.4298548344
 11
21.7487877975
 21
67.752642954
  0
LINE
  5
250
100
AcDbEntity
  8
0
100
AcDbLine
 62
7
  6
CONTINUOUS
 10
24.4898389623
 20
68.7766595764
 11
24.5396981504
 21
68.8054456202
  0
LINE
  5
251
100
AcDbEntity
  8
0
100
AcDbLine
 62
7
  6
CONTINUOUS
 10
24.2921965469
 20
18.65005403
 11
24.2941408873
 21
18.6328829557
  0
LINE
  5
252
100
AcDbEntity
  8
0
100
AcDbLine
 62
7
  6
CONTINUOUS
 10
23.7473737509
 20
69.2053123686
 11
23.7473737509
 21
74.0279987622
  0
LINE
  5
253
100
AcDbEntity
  8
0
100
AcDbLine
 62
7
  6
CONTINUOUS
 10
24.2546219324
 20
54.8830297855
 11
24.2546219324
 21
54.5842376213
  0
LINE
  5
254
100
AcDbEntity
  8
0
100
AcDbLine
 62
7
  6
CONTINUOUS
 10
24.2547245824
 20
18.6284197104
 11
24.2547245824
 21
18.3296275462
  0
LINE
  5
255
100
AcDbEntity
  8
0
100
AcDbLine
 62
7
  6
CONTINUOUS
 10
24.4898389623
 20
68.7766595764
 11
24.4898389623
 21
68.8342311846
  0
LINE
  5
256
100
AcDbEntity
  8
0
100
AcDbLine
 62
7
  6
CONTINUOUS
 10
25.0724759968
 20
55.056423067
 11
25.0724759968
 21
55.3552152312
  0
LINE
  5
257
100
AcDbEntity
  8
0
100
AcDbLine
 62
7
  6
CONTINUOUS
 10
25.0725786468
 20
18.8018129919
 11
25.0725786468
 21
19.1006051561
  0
LINE
  5
258
100
AcDbEntity
  8
0
100
AcDbLine
 62
7
  6
CONTINUOUS
 10
25.4213189175
 20
55.5566185831
 11
25.4213189175
 21
55.257826419
  0
LINE
  5
259
100
AcDbEntity
  8
0
100
AcDbLine
 62
7
  6
CONTINUOUS
 10
25.4214215675
 20
19.302008508
 11
25.4214215675
 21
19.0032163438
  0
LINE
  5
25A
100
AcDbEntity
  8
0
100
AcDbLine
 62
7
  6
CONTINUOUS
 10
32.2391473145
 20
68.9530579775
 11
32.7025490952
 21
69.2206015233
  0
LINE
  5
25B
100
AcDbEntity
  8
0
100
AcDbLine
 62
7
  6
CONTINUOUS
 10
26.2391729819
 20
55.7300118647
 11
26.2391729819
 21
56.0288040288
  0
LINE
  5
25C
100
AcDbEntity
  8
0
100
AcDbLine
 62
7
  6
CONTINUOUS
 10
26.2392756319
 20
19.4754017895
 11
26.2392756319
 21
19.7741939537
  0
LINE
  5
25D
100
AcDbEntity
  8
0
100
AcDbLine
 62
7
  6
CONTINUOUS
 10
26.5880159026
 20
56.2302073808
 11
26.5880159026
 21
55.9314152166
  0
LINE
  5
25E
100
AcDbEntity
  8
0
100
AcDbLine
 62
7
  6
CONTINUOUS
 10
26.5881185526
 20
19.9755973057
 11
26.5881185526
 21
19.6768051415
  0
LINE
  5
25F
100
AcDbEntity
  8
0
100
AcDbLine
 62
7
  6
CONTINUOUS
 10
27.405869967
 20
56.4036006623
 11
27.405869967
 21
56.7023928265
  0
LINE
  5
260
100
AcDbEntity
  8
0
100
AcDbLine
 62
7
  6
CONTINUOUS
 10
27.4059726171
 20
20.1489905872
 11
27.4059726171
 21
20.4477827514
  0
LINE
  5
261
100
AcDbEntity
  8
0
100
AcDbLine
 62
7
  6
CONTINUOUS
 10
27.7547128877
 20
56.9037961784
 11
27.7547128877
 21
56.6050040142
  0
LINE
  5
262
100
AcDbEntity
  8
0
100
AcDbLine
 62
7
  6
CONTINUOUS
 10
27.7548155377
 20
20.6491861033
 11
27.7548155377
 21
20.3503939391
  0
LINE
  5
263
100
AcDbEntity
  8
0
100
AcDbLine
 62
7
  6
CONTINUOUS
 10
28.5725669521
 20
57.0771894599
 11
28.5725669521
 21
57.3759816241
  0
LINE
  5
264
100
AcDbEntity
  8
0
100
AcDbLine
 62
7
  6
CONTINUOUS
 10
28.5726696022
 20
20.8225793848
 11
28.5726696022
 21
21.121371549
  0
LINE
  5
265
100
AcDbEntity
  8
0
100
AcDbLine
 62
7
  6
CONTINUOUS
 10
28.9214098728
 20
57.577384976
 11
28.9214098728
 21
57.2785928119
  0
LINE
  5
266
100
AcDbEntity
  8
0
100
AcDbLine
 62
7
  6
CONTINUOUS
 10
28.9215125228
 20
21.3227749009
 11
28.9215125228
 21
21.0239827367
  0
LINE
  5
267
100
AcDbEntity
  8
0
100
AcDbLine
 62
7
  6
CONTINUOUS
 10
35.6621726196
 20
67.1491420486
 11
35.9292583349
 21
67.3033431377
  0
LINE
  5
268
100
AcDbEntity
  8
0
100
AcDbLine
 62
7
  6
CONTINUOUS
 10
36.404637831
 20
66.7204892563
 11
60.3051877157
 21
80.5193957976
  0
LINE
  5
269
100
AcDbEntity
  8
0
100
AcDbLine
 62
7
  6
CONTINUOUS
 10
60.3479791976
 20
80.7365674183
 11
36.3795378099
 21
67.0433800427
  0
LINE
  5
26A
100
AcDbEntity
  8
0
100
AcDbLine
 62
7
  6
CONTINUOUS
 10
10.170550089
 20
61.2630987041
 11
22.8278141691
 21
53.9555891982
  0
LINE
  5
26B
100
AcDbEntity
  8
0
100
AcDbLine
 62
7
  6
CONTINUOUS
 10
29.7392639372
 20
57.7507782576
 11
29.7392639372
 21
58.0495704217
  0
LINE
  5
26C
100
AcDbEntity
  8
0
100
AcDbLine
 62
7
  6
CONTINUOUS
 10
29.7393665873
 20
21.4961681824
 11
29.7393665873
 21
21.7949603466
  0
LINE
  5
26D
100
AcDbEntity
  8
0
100
AcDbLine
 62
7
  6
CONTINUOUS
 10
30.0881068579
 20
58.2509737737
 11
30.0881068579
 21
57.9521816095
  0
LINE
  5
26E
100
AcDbEntity
  8
0
100
AcDbLine
 62
7
  6
CONTINUOUS
 10
30.0882095079
 20
21.9963636985
 11
30.0882095079
 21
21.6975715344
  0
LINE
  5
26F
100
AcDbEntity
  8
0
100
AcDbLine
 62
7
  6
CONTINUOUS
 10
30.9059609224
 20
58.4243670552
 11
30.9059609224
 21
58.7231592194
  0
LINE
  5
270
100
AcDbEntity
  8
0
100
AcDbLine
 62
7
  6
CONTINUOUS
 10
30.9060635724
 20
22.1697569801
 11
30.9060635724
 21
22.4685491442
  0
LINE
  5
271
100
AcDbEntity
  8
0
100
AcDbLine
 62
7
  6
CONTINUOUS
 10
31.254803843
 20
58.9245625713
 11
31.254803843
 21
58.6257704071
  0
LINE
  5
272
100
AcDbEntity
  8
0
100
AcDbLine
 62
7
  6
CONTINUOUS
 10
31.254906493
 20
22.6699524962
 11
31.254906493
 21
22.371160332
  0
LINE
  5
273
100
AcDbEntity
  8
0
100
AcDbLine
 62
7
  6
CONTINUOUS
 10
32.0726579075
 20
59.0979558528
 11
32.0726579075
 21
59.396748017
  0
LINE
  5
274
100
AcDbEntity
  8
0
100
AcDbLine
 62
7
  6
CONTINUOUS
 10
32.0727605575
 20
22.8433457777
 11
32.0727605575
 21
23.1421379419
  0
LINE
  5
275
100
AcDbEntity
  8
0
100
AcDbLine
 62
7
  6
CONTINUOUS
 10
32.4215008281
 20
59.5981513689
 11
32.4215008281
 21
59.2993592047
  0
LINE
  5
276
100
AcDbEntity
  8
0
100
AcDbLine
 62
7
  6
CONTINUOUS
 10
32.4216034781
 20
23.3435412938
 11
32.4216034781
 21
23.0447491296
  0
LINE
  5
277
100
AcDbEntity
  8
0
100
AcDbLine
 62
7
  6
CONTINUOUS
 10
33.2393548926
 20
59.7715446504
 11
33.2393548926
 21
60.0703368146
  0
LINE
  5
278
100
AcDbEntity
  8
0
100
AcDbLine
 62
7
  6
CONTINUOUS
 10
33.2394575426
 20
23.5169345753
 11
33.2394575426
 21
23.8157267395
  0
LINE
  5
279
100
AcDbEntity
  8
0
100
AcDbLine
 62
7
  6
CONTINUOUS
 10
22.8278141691
 20
53.9555891982
 11
24.2546219324
 21
54.8830297855
  0
LINE
  5
27A
100
AcDbEntity
  8
0
100
AcDbLine
 62
7
  6
CONTINUOUS
 10
35.6621726196
 20
62.5206669876
 11
35.5432145709
 21
62.4527061709
  0
LINE
  5
27B
100
AcDbEntity
  8
0
100
AcDbLine
 62
7
  6
CONTINUOUS
 10
24.2546219324
 20
54.8830297855
 11
11.5973578523
 21
62.1905392914
  0
LINE
  5
27C
100
AcDbEntity
  8
0
100
AcDbLine
 62
7
  6
CONTINUOUS
 10
60.3479791976
 20
34.1786477215
 11
60.2025044866
 21
34.262635685
  0
LINE
  5
27D
100
AcDbEntity
  8
0
100
AcDbLine
 62
7
  6
CONTINUOUS
 10
25.0724759968
 20
55.056423067
 11
12.4152119167
 21
62.3639325729
  0
LINE
  5
27E
100
AcDbEntity
  8
0
100
AcDbLine
 62
7
  6
CONTINUOUS
 10
25.0724759968
 20
55.3552152312
 11
12.4152119167
 21
62.6627247371
  0
LINE
  5
27F
100
AcDbEntity
  8
0
100
AcDbLine
 62
7
  6
CONTINUOUS
 10
25.4213189175
 20
55.5566185831
 11
12.7640548374
 21
62.8641280891
  0
LINE
  5
280
100
AcDbEntity
  8
0
100
AcDbLine
 62
7
  6
CONTINUOUS
 10
26.2391729819
 20
55.7300118647
 11
13.5819089018
 21
63.0375213706
  0
LINE
  5
281
100
AcDbEntity
  8
0
100
AcDbLine
 62
7
  6
CONTINUOUS
 10
26.2391729819
 20
56.0288040288
 11
13.5819089018
 21
63.3363135348
  0
LINE
  5
282
100
AcDbEntity
  8
0
100
AcDbLine
 62
7
  6
CONTINUOUS
 10
61.7771532848
 20
35.8289202175
 11
61.6005187463
 21
35.9308979088
  0
LINE
  5
283
100
AcDbEntity
  8
0
100
AcDbLine
 62
7
  6
CONTINUOUS
 10
33.5881978132
 20
60.2717401666
 11
33.5881978132
 21
59.9729480024
  0
LINE
  5
284
100
AcDbEntity
  8
0
100
AcDbLine
 62
7
  6
CONTINUOUS
 10
33.5883004632
 20
24.0171300914
 11
33.5883004632
 21
23.7183379273
  0
LINE
  5
285
100
AcDbEntity
  8
0
100
AcDbLine
 62
7
  6
CONTINUOUS
 10
34.4060518777
 20
60.4451334481
 11
34.4060518777
 21
60.7439256123
  0
LINE
  5
286
100
AcDbEntity
  8
0
100
AcDbLine
 62
7
  6
CONTINUOUS
 10
34.4061545277
 20
24.190523373
 11
34.4061545277
 21
24.4893155371
  0
LINE
  5
287
100
AcDbEntity
  8
0
100
AcDbLine
 62
7
  6
CONTINUOUS
 10
35.6621726196
 20
62.326455655
 11
35.6621726196
 21
67.1491420486
  0
LINE
  5
288
100
AcDbEntity
  8
0
100
AcDbLine
 62
7
  6
CONTINUOUS
 10
35.6622752697
 20
24.9157406925
 11
35.6622752697
 21
20.9517250366
  0
LINE
  5
289
100
AcDbEntity
  8
0
100
AcDbLine
 62
7
  6
CONTINUOUS
 10
36.404637831
 20
61.8978028627
 11
36.404637831
 21
66.7204892563
  0
LINE
  5
28A
100
AcDbEntity
  8
0
100
AcDbLine
 62
7
  6
CONTINUOUS
 10
36.4047404811
 20
20.5230722444
 11
36.4047404811
 21
25.3444006234
  0
LINE
  5
28B
100
AcDbEntity
  8
0
100
AcDbLine
 62
7
  6
CONTINUOUS
 10
25.0724759968
 20
55.3552152312
 11
25.4213189175
 21
55.5566185831
  0
LINE
  5
28C
100
AcDbEntity
  8
0
100
AcDbLine
 62
7
  6
CONTINUOUS
 10
26.2391729819
 20
56.0288040288
 11
26.5880159026
 21
56.2302073808
  0
LINE
  5
28D
100
AcDbEntity
  8
0
100
AcDbLine
 62
7
  6
CONTINUOUS
 10
27.405869967
 20
56.7023928265
 11
27.7547128877
 21
56.9037961784
  0
LINE
  5
28E
100
AcDbEntity
  8
0
100
AcDbLine
 62
7
  6
CONTINUOUS
 10
28.5725669521
 20
57.3759816241
 11
28.9214098728
 21
57.577384976
  0
LINE
  5
28F
100
AcDbEntity
  8
0
100
AcDbLine
 62
7
  6
CONTINUOUS
 10
29.7392639372
 20
58.0495704217
 11
30.0881068579
 21
58.2509737737
  0
LINE
  5
290
100
AcDbEntity
  8
0
100
AcDbLine
 62
7
  6
CONTINUOUS
 10
30.9059609224
 20
58.7231592194
 11
31.254803843
 21
58.9245625713
  0
LINE
  5
291
100
AcDbEntity
  8
0
100
AcDbLine
 62
7
  6
CONTINUOUS
 10
32.0726579075
 20
59.396748017
 11
32.4215008281
 21
59.5981513689
  0
LINE
  5
292
100
AcDbEntity
  8
0
100
AcDbLine
 62
7
  6
CONTINUOUS
 10
33.2393548926
 20
60.0703368146
 11
33.5881978132
 21
60.2717401666
  0
LINE
  5
293
100
AcDbEntity
  8
0
100
AcDbLine
 62
7
  6
CONTINUOUS
 10
34.4060518777
 20
60.7439256123
 11
36.404637831
 21
61.8978028627
  0
LINE
  5
294
100
AcDbEntity
  8
0
100
AcDbLine
 62
7
  6
CONTINUOUS
 10
24.2546219324
 20
54.5842376213
 11
25.0724759968
 21
55.056423067
  0
LINE
  5
295
100
AcDbEntity
  8
0
100
AcDbLine
 62
7
  6
CONTINUOUS
 10
25.4213189175
 20
55.257826419
 11
26.2391729819
 21
55.7300118647
  0
LINE
  5
296
100
AcDbEntity
  8
0
100
AcDbLine
 62
7
  6
CONTINUOUS
 10
26.5880159026
 20
55.9314152166
 11
27.405869967
 21
56.4036006623
  0
LINE
  5
297
100
AcDbEntity
  8
0
100
AcDbLine
 62
7
  6
CONTINUOUS
 10
27.7547128877
 20
56.6050040142
 11
28.5725669521
 21
57.0771894599
  0
LINE
  5
298
100
AcDbEntity
  8
0
100
AcDbLine
 62
7
  6
CONTINUOUS
 10
28.9214098728
 20
57.2785928119
 11
29.7392639372
 21
57.7507782576
  0
LINE
  5
299
100
AcDbEntity
  8
0
100
AcDbLine
 62
7
  6
CONTINUOUS
 10
30.0881068579
 20
57.9521816095
 11
30.9059609224
 21
58.4243670552
  0
LINE
  5
29A
100
AcDbEntity
  8
0
100
AcDbLine
 62
7
  6
CONTINUOUS
 10
31.254803843
 20
58.6257704071
 11
32.0726579075
 21
59.0979558528
  0
LINE
  5
29B
100
AcDbEntity
  8
0
100
AcDbLine
 62
7
  6
CONTINUOUS
 10
32.4215008281
 20
59.2993592047
 11
33.2393548926
 21
59.7715446504
  0
LINE
  5
29C
100
AcDbEntity
  8
0
100
AcDbLine
 62
7
  6
CONTINUOUS
 10
33.5881978132
 20
59.9729480024
 11
34.4060518777
 21
60.4451334481
  0
LINE
  5
29D
100
AcDbEntity
  8
0
100
AcDbLine
 62
7
  6
CONTINUOUS
 10
26.5880159026
 20
56.2302073808
 11
13.9307518225
 21
63.5377168867
  0
LINE
  5
29E
100
AcDbEntity
  8
0
100
AcDbLine
 62
7
  6
CONTINUOUS
 10
27.405869967
 20
56.4036006623
 11
14.7486058869
 21
63.7111101682
  0
LINE
  5
29F
100
AcDbEntity
  8
0
100
AcDbLine
 62
7
  6
CONTINUOUS
 10
27.405869967
 20
56.7023928265
 11
14.7486058869
 21
64.0099023324
  0
LINE
  5
2A0
100
AcDbEntity
  8
0
100
AcDbLine
 62
7
  6
CONTINUOUS
 10
27.7547128877
 20
56.9037961784
 11
15.0974488076
 21
64.2113056843
  0
LINE
  5
2A1
100
AcDbEntity
  8
0
100
AcDbLine
 62
7
  6
CONTINUOUS
 10
28.5725669521
 20
57.0771894599
 11
15.915302872
 21
64.3846989658
  0
LINE
  5
2A2
100
AcDbEntity
  8
0
100
AcDbLine
 62
7
  6
CONTINUOUS
 10
28.5725669521
 20
57.3759816241
 11
15.915302872
 21
64.68349113
  0
LINE
  5
2A3
100
AcDbEntity
  8
0
100
AcDbLine
 62
7
  6
CONTINUOUS
 10
28.9214098728
 20
57.577384976
 11
16.2641457927
 21
64.884894482
  0
LINE
  5
2A4
100
AcDbEntity
  8
0
100
AcDbLine
 62
7
  6
CONTINUOUS
 10
29.7392639372
 20
57.7507782576
 11
17.0819998571
 21
65.0582877635
  0
LINE
  5
2A5
100
AcDbEntity
  8
0
100
AcDbLine
 62
7
  6
CONTINUOUS
 10
29.7392639372
 20
58.0495704217
 11
17.0819998571
 21
65.3570799277
  0
LINE
  5
2A6
100
AcDbEntity
  8
0
100
AcDbLine
 62
7
  6
CONTINUOUS
 10
30.0881068579
 20
58.2509737737
 11
17.4308427778
 21
65.5584832796
  0
LINE
  5
2A7
100
AcDbEntity
  8
0
100
AcDbLine
 62
7
  6
CONTINUOUS
 10
68.1283829495
 20
76.2636598622
 11
67.2925632151
 21
75.7558291123
  0
LINE
  5
2A8
100
AcDbEntity
  8
0
100
AcDbLine
 62
7
  6
CONTINUOUS
 10
71.1817757406
 20
76.0449365195
 11
69.1498857522
 21
74.8103925455
  0
LINE
  5
2A9
100
AcDbEntity
  8
0
100
AcDbLine
 62
7
  6
CONTINUOUS
 10
30.9059609224
 20
58.4243670552
 11
18.2486968422
 21
65.7318765611
  0
LINE
  5
2AA
100
AcDbEntity
  8
0
100
AcDbLine
 62
7
  6
CONTINUOUS
 10
30.9059609224
 20
58.7231592194
 11
18.2486968422
 21
66.0306687253
  0
LINE
  5
2AB
100
AcDbEntity
  8
0
100
AcDbLine
 62
7
  6
CONTINUOUS
 10
31.254803843
 20
58.9245625713
 11
18.5975397629
 21
66.2320720772
  0
LINE
  5
2AC
100
AcDbEntity
  8
0
100
AcDbLine
 62
7
  6
CONTINUOUS
 10
32.0726579075
 20
59.0979558528
 11
19.4153938273
 21
66.4054653587
  0
LINE
  5
2AD
100
AcDbEntity
  8
0
100
AcDbLine
 62
7
  6
CONTINUOUS
 10
32.0726579075
 20
59.396748017
 11
19.4153938273
 21
66.7042575229
  0
LINE
  5
2AE
100
AcDbEntity
  8
0
100
AcDbLine
 62
7
  6
CONTINUOUS
 10
32.4215008281
 20
59.5981513689
 11
19.764236748
 21
66.9056608748
  0
LINE
  5
2AF
100
AcDbEntity
  8
0
100
AcDbLine
 62
7
  6
CONTINUOUS
 10
33.2393548926
 20
59.7715446504
 11
20.5820908124
 21
67.0790541564
  0
LINE
  5
2B0
100
AcDbEntity
  8
0
100
AcDbLine
 62
7
  6
CONTINUOUS
 10
33.2393548926
 20
60.0703368146
 11
20.5820908124
 21
67.3778463205
  0
LINE
  5
2B1
100
AcDbEntity
  8
0
100
AcDbLine
 62
7
  6
CONTINUOUS
 10
33.5881978132
 20
60.2717401666
 11
20.9309337331
 21
67.5792496725
  0
LINE
  5
2B2
100
AcDbEntity
  8
0
100
AcDbLine
 62
7
  6
CONTINUOUS
 10
34.4060518777
 20
60.4451334481
 11
21.7487877975
 21
67.752642954
  0
LINE
  5
2B3
100
AcDbEntity
  8
0
100
AcDbLine
 62
7
  6
CONTINUOUS
 10
44.6654134113
 20
91.0243286601
 11
44.6654134113
 21
91.8002657238
  0
LINE
  5
2B4
100
AcDbEntity
  8
0
100
AcDbLine
 62
7
  6
CONTINUOUS
 10
34.4060518777
 20
60.7439256123
 11
21.7487877975
 21
68.0514351182
  0
LINE
  5
2B5
100
AcDbEntity
  8
0
100
AcDbLine
 62
7
  6
CONTINUOUS
 10
36.404637831
 20
61.8978028627
 11
35.6621726196
 21
62.326455655
  0
LINE
  5
2B6
100
AcDbEntity
  8
0
100
AcDbLine
 62
7
  6
CONTINUOUS
 10
24.4898389623
 20
68.7766595764
 11
23.7473737509
 21
69.2053123686
  0
LINE
  5
2B7
100
AcDbEntity
  8
0
100
AcDbLine
 62
7
  6
CONTINUOUS
 10
35.5432145709
 20
62.4527061709
 11
24.4415918861
 21
68.8620860169
  0
LINE
  5
2B8
100
AcDbEntity
  8
0
100
AcDbLine
 62
7
  6
CONTINUOUS
 10
57.5345302616
 20
63.6243689512
 11
61.7771532848
 21
66.9376623101
  0
LINE
  5
2B9
100
AcDbEntity
  8
0
100
AcDbLine
 62
7
  6
CONTINUOUS
 10
61.6005187463
 20
66.9860465894
 11
57.5289636578
 21
63.8068704661
  0
LINE
  5
2BA
100
AcDbEntity
  8
0
100
AcDbLine
 62
7
  6
CONTINUOUS
 10
61.6005187463
 20
49.3526942934
 11
61.3806611848
 21
49.4796262442
  0
LINE
  5
2BB
100
AcDbEntity
  8
0
100
AcDbLine
 62
7
  6
CONTINUOUS
 10
36.404637831
 20
66.7204892563
 11
35.6621726196
 21
67.1491420486
  0
LINE
  5
2BC
100
AcDbEntity
  8
0
100
AcDbLine
 62
7
  6
CONTINUOUS
 10
24.4898389623
 20
73.59934597
 11
23.7473737509
 21
74.0279987622
  0
LINE
  5
2BD
100
AcDbEntity
  8
0
100
AcDbLine
 62
7
  6
CONTINUOUS
 10
36.3795378099
 20
67.0433800427
 11
35.6017171123
 21
67.4924448727
  0
LINE
  5
2BE
100
AcDbEntity
  8
0
100
AcDbLine
 62
7
  6
CONTINUOUS
 10
24.5000944275
 20
73.9018247187
 11
23.7222737298
 21
74.3508895486
  0
LINE
  5
2BF
100
AcDbEntity
  8
0
100
AcDbLine
 62
7
  6
CONTINUOUS
 10
67.71680962
 20
49.144620381
 11
68.0350078187
 21
48.9609127214
  0
LINE
  5
2C0
100
AcDbEntity
  8
0
100
AcDbLine
 62
7
  6
CONTINUOUS
 10
67.2925632151
 20
49.8726503133
 11
67.71680962
 21
49.6277045339
  0
LINE
  5
2C1
100
AcDbEntity
  8
0
100
AcDbLine
 62
7
  6
CONTINUOUS
 10
13.0078193483
 20
28.4468648871
 11
13.0840072038
 21
28.4908517034
  0
LINE
  5
2C2
100
AcDbEntity
  8
0
100
AcDbLine
 62
7
  6
CONTINUOUS
 10
67.2925632151
 20
50.8524218515
 11
68.2117734742
 21
50.3217003871
  0
LINE
  5
2C3
100
AcDbEntity
  8
0
100
AcDbLine
 62
7
  6
CONTINUOUS
 10
71.1817757406
 20
48.7345268167
 11
68.3886923262
 21
50.347077797
  0
LINE
  5
2C4
100
AcDbEntity
  8
0
100
AcDbLine
 62
7
  6
CONTINUOUS
 10
44.6263439515
 20
92.1471431355
 11
44.6654134113
 21
91.8002657238
  0
LINE
  5
2C5
100
AcDbEntity
  8
0
100
AcDbLine
 62
7
  6
CONTINUOUS
 10
13.2075411465
 20
25.4738222873
 11
13.281615382
 21
25.5165888118
  0
LINE
  5
2C6
100
AcDbEntity
  8
0
100
AcDbLine
 62
7
  6
CONTINUOUS
 10
57.5289636578
 20
47.8284102792
 11
61.6005187463
 21
49.3526942934
  0
LINE
  5
2C7
100
AcDbEntity
  8
0
100
AcDbLine
 62
7
  6
CONTINUOUS
 10
61.7771532848
 20
49.627811067
 11
57.5345302616
 21
48.0421745794
  0
LINE
  5
2C8
100
AcDbEntity
  8
0
100
AcDbLine
 62
7
  6
CONTINUOUS
 10
57.5289636578
 20
63.8068704661
 11
57.5289636578
 21
47.8284102792
  0
LINE
  5
2C9
100
AcDbEntity
  8
0
100
AcDbLine
 62
7
  6
CONTINUOUS
 10
57.5345302616
 20
48.0421745794
 11
57.5345302616
 21
63.6243689512
  0
LINE
  5
2CA
100
AcDbEntity
  8
0
100
AcDbLine
 62
7
  6
CONTINUOUS
 10
20.2415518366
 20
24.2705619684
 11
20.317739692
 21
24.3145487846
  0
LINE
  5
2CB
100
AcDbEntity
  8
0
100
AcDbLine
 62
7
  6
CONTINUOUS
 10
68.3886923262
 20
50.347077797
 11
67.4039708549
 21
49.8083272434
  0
LINE
  5
2CC
100
AcDbEntity
  8
0
100
AcDbLine
 62
7
  6
CONTINUOUS
 10
24.4737903033
 20
85.1640993661
 11
37.1310543834
 21
77.8565898602
  0
LINE
  5
2CD
100
AcDbEntity
  8
0
100
AcDbLine
 62
7
  6
CONTINUOUS
 10
61.6005187463
 20
80.4981023682
 11
61.6005187463
 21
66.9860465894
  0
LINE
  5
2CE
100
AcDbEntity
  8
0
100
AcDbLine
 62
7
  6
CONTINUOUS
 10
61.6005187463
 20
49.3526942934
 11
61.6005187463
 21
35.8406385146
  0
LINE
  5
2CF
100
AcDbEntity
  8
0
100
AcDbLine
 62
7
  6
CONTINUOUS
 10
61.7771532848
 20
35.8289202175
 11
61.7771532848
 21
49.627811067
  0
LINE
  5
2D0
100
AcDbEntity
  8
0
100
AcDbLine
 62
7
  6
CONTINUOUS
 10
61.7771532848
 20
66.9376623101
 11
61.7771532848
 21
80.7365531596
  0
LINE
  5
2D1
100
AcDbEntity
  8
0
100
AcDbLine
 62
7
  6
CONTINUOUS
 10
67.2925632151
 20
48.6495325064
 11
67.71680962
 21
48.8944698204
  0
LINE
  5
2D2
100
AcDbEntity
  8
0
100
AcDbLine
 62
7
  6
CONTINUOUS
 10
20.51802943
 20
21.3356412676
 11
20.5948350157
 21
21.3799847285
  0
LINE
  5
2D3
100
AcDbEntity
  8
0
100
AcDbLine
 62
7
  6
CONTINUOUS
 10
68.0350078187
 20
48.9609127214
 11
67.2925632151
 21
48.5547141638
  0
LINE
  5
2D4
100
AcDbEntity
  8
0
100
AcDbLine
 62
7
  6
CONTINUOUS
 10
67.2925632151
 20
46.6067013731
 11
71.1817757406
 21
48.7345268167
  0
LINE
  5
2D5
100
AcDbEntity
  8
0
100
AcDbLine
 62
7
  6
CONTINUOUS
 10
61.7771532848
 20
66.9376623101
 11
61.6005187463
 21
67.0396400014
  0
LINE
  5
2D6
100
AcDbEntity
  8
0
100
AcDbLine
 62
7
  6
CONTINUOUS
 10
67.2925632151
 20
75.7558291123
 11
67.2925632151
 21
46.6067013731
  0
LINE
  5
2D7
100
AcDbEntity
  8
0
100
AcDbLine
 62
7
  6
CONTINUOUS
 10
34.4061545277
 20
24.4893155371
 11
33.5883004632
 21
24.0171300914
  0
LINE
  5
2D8
100
AcDbEntity
  8
0
100
AcDbLine
 62
7
  6
CONTINUOUS
 10
33.2394575426
 20
23.8157267395
 11
32.4216034781
 21
23.3435412938
  0
LINE
  5
2D9
100
AcDbEntity
  8
0
100
AcDbLine
 62
7
  6
CONTINUOUS
 10
32.0727605575
 20
23.1421379419
 11
31.254906493
 21
22.6699524962
  0
LINE
  5
2DA
100
AcDbEntity
  8
0
100
AcDbLine
 62
7
  6
CONTINUOUS
 10
30.9060635724
 20
22.4685491442
 11
30.0882095079
 21
21.9963636985
  0
LINE
  5
2DB
100
AcDbEntity
  8
0
100
AcDbLine
 62
7
  6
CONTINUOUS
 10
29.7393665873
 20
21.7949603466
 11
28.9215125228
 21
21.3227749009
  0
LINE
  5
2DC
100
AcDbEntity
  8
0
100
AcDbLine
 62
7
  6
CONTINUOUS
 10
28.5726696022
 20
21.121371549
 11
27.7548155377
 21
20.6491861033
  0
LINE
  5
2DD
100
AcDbEntity
  8
0
100
AcDbLine
 62
7
  6
CONTINUOUS
 10
27.4059726171
 20
20.4477827514
 11
26.5881185526
 21
19.9755973057
  0
LINE
  5
2DE
100
AcDbEntity
  8
0
100
AcDbLine
 62
7
  6
CONTINUOUS
 10
26.2392756319
 20
19.7741939537
 11
25.4214215675
 21
19.302008508
  0
LINE
  5
2DF
100
AcDbEntity
  8
0
100
AcDbLine
 62
7
  6
CONTINUOUS
 10
25.0725786468
 20
19.1006051561
 11
24.2547245824
 21
18.6284197104
  0
LINE
  5
2E0
100
AcDbEntity
  8
0
100
AcDbLine
 62
7
  6
CONTINUOUS
 10
36.4047404811
 20
25.3444006234
 11
34.4061545277
 21
24.190523373
  0
LINE
  5
2E1
100
AcDbEntity
  8
0
100
AcDbLine
 62
7
  6
CONTINUOUS
 10
33.5883004632
 20
23.7183379273
 11
33.2394575426
 21
23.5169345753
  0
LINE
  5
2E2
100
AcDbEntity
  8
0
100
AcDbLine
 62
7
  6
CONTINUOUS
 10
32.4216034781
 20
23.0447491296
 11
32.0727605575
 21
22.8433457777
  0
LINE
  5
2E3
100
AcDbEntity
  8
0
100
AcDbLine
 62
7
  6
CONTINUOUS
 10
31.254906493
 20
22.371160332
 11
30.9060635724
 21
22.1697569801
  0
LINE
  5
2E4
100
AcDbEntity
  8
0
100
AcDbLine
 62
7
  6
CONTINUOUS
 10
30.0882095079
 20
21.6975715344
 11
29.7393665873
 21
21.4961681824
  0
LINE
  5
2E5
100
AcDbEntity
  8
0
100
AcDbLine
 62
7
  6
CONTINUOUS
 10
28.9215125228
 20
21.0239827367
 11
28.5726696022
 21
20.8225793848
  0
LINE
  5
2E6
100
AcDbEntity
  8
0
100
AcDbLine
 62
7
  6
CONTINUOUS
 10
27.7548155377
 20
20.3503939391
 11
27.4059726171
 21
20.1489905872
  0
LINE
  5
2E7
100
AcDbEntity
  8
0
100
AcDbLine
 62
7
  6
CONTINUOUS
 10
26.5881185526
 20
19.6768051415
 11
26.2392756319
 21
19.4754017895
  0
LINE
  5
2E8
100
AcDbEntity
  8
0
100
AcDbLine
 62
7
  6
CONTINUOUS
 10
25.4214215675
 20
19.0032163438
 11
25.0725786468
 21
18.8018129919
  0
LINE
  5
2E9
100
AcDbEntity
  8
0
100
AcDbLine
 62
7
  6
CONTINUOUS
 10
24.2547245824
 20
18.3296275462
 11
23.4368705179
 21
17.8574421005
  0
LINE
  5
2EA
100
AcDbEntity
  8
0
100
AcDbLine
 62
7
  6
CONTINUOUS
 10
61.7771532848
 20
80.7365531596
 11
60.3479791976
 21
80.7365674183
  0
LINE
  5
2EB
100
AcDbEntity
  8
0
100
AcDbLine
 62
7
  6
CONTINUOUS
 10
60.3051877157
 20
80.5193957976
 11
61.6005187463
 21
80.4981023682
  0
LINE
  5
2EC
100
AcDbEntity
  8
0
100
AcDbLine
 62
7
  6
CONTINUOUS
 10
67.71680962
 20
48.8944698204
 11
67.71680962
 21
49.6277045339
  0
LINE
  5
2ED
100
AcDbEntity
  8
0
100
AcDbLine
 62
7
  6
CONTINUOUS
 10
68.2117734742
 20
50.2502837976
 11
68.2117734742
 21
50.3217003871
  0
LINE
  5
2EE
100
AcDbEntity
  8
0
100
AcDbLine
 62
7
  6
CONTINUOUS
 10
71.1817757406
 20
89.6436196193
 11
71.1817757406
 21
76.0449365195
  0
LINE
  5
2EF
100
AcDbEntity
  8
0
100
AcDbLine
 62
7
  6
CONTINUOUS
 10
71.1817757406
 20
48.7345268167
 11
71.1817757406
 21
28.2762606804
  0
LINE
  5
2F0
100
AcDbEntity
  8
0
100
AcDbLine
 62
7
  6
CONTINUOUS
 10
61.6005187463
 20
35.8406385146
 11
60.3035381743
 21
34.3209671636
  0
LINE
  5
2F1
100
AcDbEntity
  8
0
100
AcDbLine
 62
7
  6
CONTINUOUS
 10
60.3479791976
 20
34.1786477215
 11
61.7771532848
 21
35.8289202175
  0
LINE
  5
2F2
100
AcDbEntity
  8
0
100
AcDbLine
 62
7
  6
CONTINUOUS
 10
35.896354549
 20
20.816582359
 11
35.5790381542
 21
20.6314622131
  0
LINE
  5
2F3
100
AcDbEntity
  8
0
100
AcDbLine
 62
7
  6
CONTINUOUS
 10
36.3568588519
 20
20.1823973832
 11
60.3479791976
 21
34.1786477215
  0
LINE
  5
2F4
100
AcDbEntity
  8
0
100
AcDbLine
 62
7
  6
CONTINUOUS
 10
60.3035381743
 20
34.3209671636
 11
36.4047404811
 21
20.5230722444
  0
LINE
  5
2F5
100
AcDbEntity
  8
0
100
AcDbLine
 62
7
  6
CONTINUOUS
 10
69.1498857522
 20
74.8103925455
 11
67.3996292661
 21
75.8208807386
  0
LINE
  5
2F6
100
AcDbEntity
  8
0
100
AcDbLine
 62
7
  6
CONTINUOUS
 10
32.4279653635
 20
15.9894143647
 11
32.9941126084
 21
16.3162776779
  0
LINE
  5
2F7
100
AcDbEntity
  8
0
100
AcDbLine
 62
7
  6
CONTINUOUS
 10
60.3051877157
 20
80.5193957976
 11
60.1374021886
 21
80.6162646254
  0
LINE
  5
2F8
100
AcDbEntity
  8
0
100
AcDbLine
 62
7
  6
CONTINUOUS
 10
61.6005187463
 20
80.4981023682
 11
61.1874903272
 21
80.7365590426
  0
LINE
  5
2F9
100
AcDbEntity
  8
0
100
AcDbLine
 62
7
  6
CONTINUOUS
 10
47.9532370565
 20
89.1261457361
 11
43.9934225957
 21
91.4122939614
  0
LINE
  5
2FA
100
AcDbEntity
  8
0
100
AcDbLine
 62
7
  6
CONTINUOUS
 10
69.1498857522
 20
74.8103925455
 11
68.1283829495
 21
76.2636598622
  0
LINE
  5
2FB
100
AcDbEntity
  8
0
100
AcDbLine
 62
7
  6
CONTINUOUS
 10
69.9796992173
 20
96.8216505914
 11
71.1817757406
 21
89.6436196193
  0
LINE
  5
2FC
100
AcDbEntity
  8
0
100
AcDbLine
 62
7
  6
CONTINUOUS
 10
71.1817757406
 20
28.2762606804
 11
37.2502689258
 21
8.6860130249
  0
LINE
  5
2FD
100
AcDbEntity
  8
0
100
AcDbLine
 62
7
  6
CONTINUOUS
 10
57.3224351372
 20
104.1291600973
 11
69.9796992173
 21
96.8216505914
  0
ARC
  5
2FE
100
AcDbEntity
  8
0
100
AcDbCircle
 62
7
  6
CONTINUOUS
 10
193.524131768
 20
38.9999594381
 40
173.825095525
100
AcDbArc
 50
184.8468957222
 51
185.8179429698
  0
ARC
  5
2FF
100
AcDbEntity
  8
0
100
AcDbCircle
 62
7
  6
CONTINUOUS
 10
185.9478625489
 20
43.2578092699
 40
173.5731045287
100
AcDbArc
 50
184.8949853112
 51
185.8680916266
  0
ARC
  5
300
100
AcDbEntity
  8
0
100
AcDbCircle
 62
7
  6
CONTINUOUS
 10
192.3521935851
 20
39.0033744556
 40
172.740061268
100
AcDbArc
 50
184.8926388396
 51
185.8704380981
  0
ARC
  5
301
100
AcDbEntity
  8
0
100
AcDbCircle
 62
7
  6
CONTINUOUS
 10
185.0349263799
 20
43.1737789965
 40
172.7366174563
100
AcDbArc
 50
184.8931829412
 51
185.871267467
  0
ARC
  5
302
100
AcDbEntity
  8
0
100
AcDbCircle
 62
7
  6
CONTINUOUS
 10
169.5927996223
 20
63.3660582581
 40
134.0546055109
100
AcDbArc
 50
178.2360778445
 51
178.3824121558
  0
ARC
  5
303
100
AcDbEntity
  8
0
100
AcDbCircle
 62
7
  6
CONTINUOUS
 10
155.866676799
 20
69.8475243255
 40
131.4291303922
100
AcDbArc
 50
178.232270442
 51
179.988198259
  0
ARC
  5
304
100
AcDbEntity
  8
0
100
AcDbCircle
 62
7
  6
CONTINUOUS
 10
165.5628978869
 20
63.4576456252
 40
130.0237262276
100
AcDbArc
 50
178.3726264363
 51
179.9966639996
  0
ARC
  5
305
100
AcDbEntity
  8
0
100
AcDbCircle
 62
7
  6
CONTINUOUS
 10
163.5125062543
 20
24.024281552
 40
127.9793790923
100
AcDbArc
 50
179.633599541
 51
179.9998307919
  0
ARC
  5
306
100
AcDbEntity
  8
0
100
AcDbCircle
 62
7
  6
CONTINUOUS
 10
161.8965984787
 20
63.4634657093
 40
126.3574266111
100
AcDbArc
 50
179.9992062758
 51
180.4583258367
  0
ARC
  5
307
100
AcDbEntity
  8
0
100
AcDbCircle
 62
7
  6
CONTINUOUS
 10
159.4798908634
 20
24.0047876861
 40
123.9467652939
100
AcDbArc
 50
179.9908140289
 51
181.5595500238
  0
ARC
  5
308
100
AcDbEntity
  8
0
100
AcDbCircle
 62
7
  6
CONTINUOUS
 10
129.7536339409
 20
29.7854923661
 40
106.0615877454
100
AcDbArc
 50
186.0409975781
 51
186.2019376118
  0
ARC
  5
309
100
AcDbEntity
  8
0
100
AcDbCircle
 62
7
  6
CONTINUOUS
 10
127.8557626231
 20
29.5756292916
 40
104.1521520079
100
AcDbArc
 50
186.1999560244
 51
187.4930769995
  0
ARC
  5
30A
100
AcDbEntity
  8
0
100
AcDbCircle
 62
7
  6
CONTINUOUS
 10
24.6204852826
 20
17.4284551873
 40
9.3930532471
100
AcDbArc
 50
35.9026341626
 51
36.0399319748
  0
ARC
  5
30B
100
AcDbEntity
  8
0
100
AcDbCircle
 62
7
  6
CONTINUOUS
 10
24.6852830037
 20
17.4760675838
 40
9.3126440893
100
AcDbArc
 50
36.1379120384
 51
37.510230614
  0
ARC
  5
30C
100
AcDbEntity
  8
0
100
AcDbCircle
 62
7
  6
CONTINUOUS
 10
34.7676813166
 20
23.9679125544
 40
9.0847694242
100
AcDbArc
 50
205.9324047369
 51
207.5373539128
  0
ARC
  5
30D
100
AcDbEntity
  8
0
100
AcDbCircle
 62
7
  6
CONTINUOUS
 10
65.0227986727
 20
48.8932577895
 40
2.6940112199
100
AcDbArc
 50
357.2759927274
 51
0.0257772704
  0
SPLINE
  5
30E
100
AcDbEntity
  8
0
100
AcDbSpline
 62
7
  6
CONTINUOUS
 70
0
 71
3
 72
9
 73
5
 74
0
 42
0.0000001
 43
0.0000001
 44
0.0000000001
 40
0.0
 40
0.0
 40
0.0
 40
0.0
 40
0.2537793994
 40
1.0
 40
1.0
 40
1.0
 40
1.0
 10
10.170550089
 20
61.2630987041
 30
0.0
 10
10.0806621916
 20
59.9831653394
 30
0.0
 10
9.7687439586
 20
54.9368333075
 30
0.0
 10
9.6282813171
 20
49.8796187223
 30
0.0
 10
9.6282813171
 20
46.1067944416
 30
0.0
  0
SPLINE
  5
30F
100
AcDbEntity
  8
0
100
AcDbSpline
 62
7
  6
CONTINUOUS
 70
0
 71
3
 72
9
 73
5
 74
0
 42
0.0000001
 43
0.0000001
 44
0.0000000001
 40
0.0
 40
0.0
 40
0.0
 40
0.0
 40
0.5081173723
 40
1.0
 40
1.0
 40
1.0
 40
1.0
 10
9.6282813171
 20
46.1067944416
 30
0.0
 10
9.6282813171
 20
42.5530385069
 30
0.0
 10
9.811269123
 20
35.5576098878
 30
0.0
 10
10.3898822909
 20
28.5830160542
 30
0.0
 10
10.7796064378
 20
25.1649516064
 30
0.0
  0
SPLINE
  5
310
100
AcDbEntity
  8
0
100
AcDbSpline
 62
7
  6
CONTINUOUS
 70
0
 71
3
 72
9
 73
5
 74
0
 42
0.0000001
 43
0.0000001
 44
0.0000000001
 40
0.0
 40
0.0
 40
0.0
 40
0.0
 40
0.4918826277
 40
1.0
 40
1.0
 40
1.0
 40
1.0
 10
23.4368705179
 20
17.8574421005
 30
0.0
 10
23.047146371
 20
21.2755065482
 30
0.0
 10
22.4685332031
 20
28.2501003819
 30
0.0
 10
22.2855453972
 20
35.245529001
 30
0.0
 10
22.2855453972
 20
38.7992849357
 30
0.0
  0
SPLINE
  5
311
100
AcDbEntity
  8
0
100
AcDbSpline
 62
7
  6
CONTINUOUS
 70
0
 71
3
 72
9
 73
5
 74
0
 42
0.0000001
 43
0.0000001
 44
0.0000000001
 40
0.0
 40
0.0
 40
0.0
 40
0.0
 40
0.2462229937
 40
1.0
 40
1.0
 40
1.0
 40
1.0
 10
22.2855453972
 20
38.7992849357
 30
0.0
 10
22.2855453972
 20
40.0441691485
 30
0.0
 10
22.3319407687
 20
45.1000188457
 30
0.0
 10
22.5608280087
 20
50.1539150638
 30
0.0
 10
22.8278141691
 20
53.9555891982
 30
0.0
  0
SPLINE
  5
312
100
AcDbEntity
  8
0
100
AcDbSpline
 62
7
  6
CONTINUOUS
 70
0
 71
3
 72
9
 73
5
 74
0
 42
0.0000001
 43
0.0000001
 44
0.0000000001
 40
0.0
 40
0.0
 40
0.0
 40
0.0
 40
0.2540260576
 40
1.0
 40
1.0
 40
1.0
 40
1.0
 10
24.4737903033
 20
85.1640993662
 30
0.0
 10
24.3763358754
 20
84.2513447623
 30
0.0
 10
24.0250813802
 20
80.6548395873
 30
0.0
 10
23.8052465526
 20
77.0452457521
 30
0.0
 10
23.7222737298
 20
74.3508895486
 30
0.0
  0
SPLINE
  5
313
100
AcDbEntity
  8
0
100
AcDbSpline
 62
7
  6
CONTINUOUS
 70
0
 71
3
 72
13
 73
9
 74
0
 42
0.0000001
 43
0.0000001
 44
0.0000000001
 40
0.0
 40
0.0
 40
0.0
 40
0.0
 40
0.1131426195
 40
0.2271839469
 40
0.3436506506
 40
0.4638904943
 40
0.7195288682
 40
1.0
 40
1.0
 40
1.0
 40
1.0
 10
28.0979570664
 20
76.8389583813
 30
0.0
 10
28.1621252877
 20
76.8760055455
 30
0.0
 10
28.29700114
 20
76.9404890044
 30
0.0
 10
28.5135314591
 20
77.0048852425
 30
0.0
 10
28.741906739
 20
77.0365301387
 30
0.0
 10
29.0653049223
 20
77.0345037773
 30
0.0
 10
29.490245317
 20
76.9433622692
 30
0.0
 10
29.8109743206
 20
76.794145916
 30
0.0
 10
29.970042494
 20
76.7023099409
 30
0.0
  0
SPLINE
  5
314
100
AcDbEntity
  8
0
100
AcDbSpline
 62
7
  6
CONTINUOUS
 70
0
 71
3
 72
18
 73
14
 74
0
 42
0.0000001
 43
0.0000001
 44
0.0000000001
 40
0.0
 40
0.0
 40
0.0
 40
0.0
 40
0.1526455149
 40
0.3035461756
 40
0.4482657702
 40
0.5830221001
 40
0.705110722
 40
0.7611111091
 40
0.8137834685
 40
0.8634174882
 40
0.9105023807
 40
0.9557395358
 40
1.0
 40
1.0
 40
1.0
 40
1.0
 10
48.6252278721
 20
89.5141174985
 30
0.0
 10
48.9497749546
 20
89.4894341451
 30
0.0
 10
49.5988749484
 20
89.4803448191
 30
0.0
 10
50.5514636439
 20
89.5834289881
 30
0.0
 10
51.4464737408
 20
89.7988297932
 30
0.0
 10
52.2447523673
 20
90.1171352417
 30
0.0
 10
52.8176749907
 20
90.467784279
 30
0.0
 10
53.1905313513
 20
90.7903962076
 30
0.0
 10
53.4177572722
 20
91.0412970806
 30
0.0
 10
53.5980004432
 20
91.3052999493
 30
0.0
 10
53.7287183852
 20
91.5798033979
 30
0.0
 10
53.8081974622
 20
91.8614775442
 30
0.0
 10
53.8259664726
 20
92.0527668743
 30
0.0
 10
53.8259698455
 20
92.1471429811
 30
0.0
  0
SPLINE
  5
315
100
AcDbEntity
  8
0
100
AcDbSpline
 62
7
  6
CONTINUOUS
 70
0
 71
3
 72
11
 73
7
 74
0
 42
0.0000001
 43
0.0000001
 44
0.0000000001
 40
0.0
 40
0.0
 40
0.0
 40
0.0
 40
0.2492102224
 40
0.4367419204
 40
0.6247907918
 40
1.0
 40
1.0
 40
1.0
 40
1.0
 10
24.4415918861
 20
68.8620860169
 30
0.0
 10
24.4409186785
 20
68.9461938056
 30
0.0
 10
24.4390159109
 20
69.0935868067
 30
0.0
 10
24.4382740401
 20
69.3044600088
 30
0.0
 10
24.4391868254
 20
69.5578575434
 30
0.0
 10
24.4375491949
 20
69.747959829
 30
0.0
 10
24.4375491949
 20
69.8745959973
 30
0.0
  0
SPLINE
  5
316
100
AcDbEntity
  8
0
100
AcDbSpline
 62
7
  6
CONTINUOUS
 70
0
 71
3
 72
21
 73
17
 74
0
 42
0.0000001
 43
0.0000001
 44
0.0000000001
 40
0.0
 40
0.0
 40
0.0
 40
0.0
 40
0.0461262274
 40
0.0939775316
 40
0.1445944466
 40
0.1986598752
 40
0.2564878746
 40
0.3180647313
 40
0.3830979955
 40
0.4510661063
 40
0.5927243322
 40
0.7363061065
 40
0.8065047192
 40
0.8743526172
 40
0.9390852536
 40
1.0
 40
1.0
 40
1.0
 40
1.0
 10
27.330620698
 20
78.3589314545
 30
0.0
 10
27.1863769406
 20
78.2756707354
 30
0.0
 10
26.9116329453
 20
78.0706095367
 30
0.0
 10
26.5700492801
 20
77.6708589408
 30
0.0
 10
26.3015556112
 20
77.1861509073
 30
0.0
 10
26.1114941148
 20
76.6281846507
 30
0.0
 10
26.0030811138
 20
76.0090536254
 30
0.0
 10
25.9782537354
 20
75.3417481485
 30
0.0
 10
26.0372811379
 20
74.6400781495
 30
0.0
 10
26.2282371091
 20
73.6652521222
 30
0.0
 10
26.6630421227
 20
72.4574702858
 30
0.0
 10
27.3111276882
 20
71.3411948253
 30
0.0
 10
27.9386539591
 20
70.5394031174
 30
0.0
 10
28.444224479
 20
70.0080210843
 30
0.0
 10
28.9766537947
 20
69.5537005369
 30
0.0
 10
29.3543846165
 20
69.2999348013
 30
0.0
 10
29.5448648574
 20
69.1899634708
 30
0.0
  0
SPLINE
  5
317
100
AcDbEntity
  8
0
100
AcDbSpline
 62
7
  6
CONTINUOUS
 70
0
 71
3
 72
12
 73
8
 74
0
 42
0.0000001
 43
0.0000001
 44
0.0000000001
 40
0.0
 40
0.0
 40
0.0
 40
0.0
 40
0.2624604246
 40
0.5231511943
 40
0.7719367839
 40
0.889114728
 40
1.0
 40
1.0
 40
1.0
 40
1.0
 10
26.7121289793
 20
19.7677801716
 30
0.0
 10
26.9038853777
 20
19.3999218124
 30
0.0
 10
27.3357425708
 20
18.6915182919
 30
0.0
 10
28.0987768783
 20
17.7357193409
 30
0.0
 10
28.8145809591
 20
17.0458574349
 30
0.0
 10
29.4135430912
 20
16.5873278662
 30
0.0
 10
29.7172232514
 20
16.3920775988
 30
0.0
 10
29.869005614
 20
16.3044479934
 30
0.0
  0
SPLINE
  5
318
100
AcDbEntity
  8
0
100
AcDbSpline
 62
7
  6
CONTINUOUS
 70
0
 71
3
 72
12
 73
8
 74
0
 42
0.0000001
 43
0.0000001
 44
0.0000000001
 40
0.0
 40
0.0
 40
0.0
 40
0.0
 40
0.2864333843
 40
0.5456089239
 40
0.7803992883
 40
0.8914410502
 40
1.0
 40
1.0
 40
1.0
 40
1.0
 10
32.2936111703
 20
72.1650483318
 30
0.0
 10
32.2818887099
 20
71.9749393423
 30
0.0
 10
32.2311819695
 20
71.6133980033
 30
0.0
 10
32.0588987192
 20
71.119824488
 30
0.0
 10
31.8345653413
 20
70.7791337134
 30
0.0
 10
31.6153459967
 20
70.5696758242
 30
0.0
 10
31.4946095369
 20
70.4862062108
 30
0.0
 10
31.4320921832
 20
70.4501122109
 30
0.0
  0
SPLINE
  5
319
100
AcDbEntity
  8
0
100
AcDbSpline
 62
7
  6
CONTINUOUS
 70
0
 71
3
 72
15
 73
11
 74
0
 42
0.0000001
 43
0.0000001
 44
0.0000000001
 40
0.0
 40
0.0
 40
0.0
 40
0.0
 40
0.1131545325
 40
0.2348419424
 40
0.3629903958
 40
0.4949520654
 40
0.6276711647
 40
0.7579920209
 40
0.8829676853
 40
1.0
 40
1.0
 40
1.0
 40
1.0
 10
29.970042494
 20
76.7023099409
 30
0.0
 10
30.1439169981
 20
76.6019257201
 30
0.0
 10
30.4849650451
 20
76.3582561554
 30
0.0
 10
30.9454205637
 20
75.9049229239
 30
0.0
 10
31.3594894715
 20
75.3662540161
 30
0.0
 10
31.7124312133
 20
74.7632118753
 30
0.0
 10
31.992036856
 20
74.1187323967
 30
0.0
 10
32.1889386019
 20
73.4571848314
 30
0.0
 10
32.2963733932
 20
72.8035651755
 30
0.0
 10
32.3063911072
 20
72.3723069461
 30
0.0
 10
32.2936111703
 20
72.1650483318
 30
0.0
  0
SPLINE
  5
31A
100
AcDbEntity
  8
0
100
AcDbSpline
 62
7
  6
CONTINUOUS
 70
0
 71
3
 72
13
 73
9
 74
0
 42
0.0000001
 43
0.0000001
 44
0.0000000001
 40
0.0
 40
0.0
 40
0.0
 40
0.0
 40
0.2853761654
 40
0.5424876625
 40
0.6621094886
 40
0.7771557681
 40
0.889175439
 40
1.0
 40
1.0
 40
1.0
 40
1.0
 10
29.5448648574
 20
69.1899634708
 30
0.0
 10
29.778011898
 20
69.0553590094
 30
0.0
 10
30.243770917
 20
68.8352508742
 30
0.0
 10
30.858796974
 20
68.6929972339
 30
0.0
 10
31.3240244743
 20
68.682183262
 30
0.0
 10
31.6499035538
 20
68.7222482563
 30
0.0
 10
31.9575867461
 20
68.8103824754
 30
0.0
 10
32.1485949113
 20
68.9008031599
 30
0.0
 10
32.2391415031
 20
68.9530675779
 30
0.0
  0
SPLINE
  5
31B
100
AcDbEntity
  8
0
100
AcDbSpline
 62
7
  6
CONTINUOUS
 70
0
 71
3
 72
14
 73
10
 74
0
 42
0.0000001
 43
0.0000001
 44
0.0000000001
 40
0.0
 40
0.0
 40
0.0
 40
0.0
 40
0.2954304665
 40
0.4299508126
 40
0.5558894706
 40
0.674204271
 40
0.7863270231
 40
0.8941555874
 40
1.0
 40
1.0
 40
1.0
 40
1.0
 10
32.1559187075
 20
19.0128949073
 30
0.0
 10
32.1636715477
 20
18.8361322998
 30
0.0
 10
32.1552983424
 20
18.5767475383
 30
0.0
 10
32.0914734582
 20
18.2494042764
 30
0.0
 10
32.0215720552
 20
18.032928131
 30
0.0
 10
31.9286454304
 20
17.8399613074
 30
0.0
 10
31.8132082006
 20
17.6723831724
 30
0.0
 10
31.6762650989
 20
17.5320359418
 30
0.0
 10
31.5710660448
 20
17.4576902661
 30
0.0
 10
31.5161685992
 20
17.4259955383
 30
0.0
  0
SPLINE
  5
31C
100
AcDbEntity
  8
0
100
AcDbSpline
 62
7
  6
CONTINUOUS
 70
0
 71
3
 72
12
 73
8
 74
0
 42
0.0000001
 43
0.0000001
 44
0.0000000001
 40
0.0
 40
0.0
 40
0.0
 40
0.0
 40
0.2639698192
 40
0.5260365459
 40
0.7746083289
 40
0.8907925736
 40
1.0
 40
1.0
 40
1.0
 40
1.0
 10
30.8747881388
 20
22.1517451419
 30
0.0
 10
31.0622917
 20
21.9142883649
 30
0.0
 10
31.4019639689
 20
21.413253241
 30
0.0
 10
31.7966136281
 20
20.6151627771
 30
0.0
 10
32.0218113654
 20
19.9295074705
 30
0.0
 10
32.1249567754
 20
19.3955512193
 30
0.0
 10
32.1504338634
 20
19.1379478359
 30
0.0
 10
32.1559187075
 20
19.0128949073
 30
0.0
  0
SPLINE
  5
31D
100
AcDbEntity
  8
0
100
AcDbSpline
 62
7
  6
CONTINUOUS
 70
0
 71
3
 72
13
 73
9
 74
0
 42
0.0000001
 43
0.0000001
 44
0.0000000001
 40
0.0
 40
0.0
 40
0.0
 40
0.0
 40
0.297802077
 40
0.559775211
 40
0.6784179616
 40
0.7901301793
 40
0.8965946512
 40
1.0
 40
1.0
 40
1.0
 40
1.0
 10
29.869005614
 20
16.3044479934
 30
0.0
 10
30.100543327
 20
16.1707726566
 30
0.0
 10
30.5548509388
 20
15.9501213998
 30
0.0
 10
31.149189404
 20
15.792717193
 30
0.0
 10
31.5917037647
 20
15.7657457253
 30
0.0
 10
31.894217181
 20
15.7918353012
 30
0.0
 10
32.1751990338
 20
15.8638652937
 30
0.0
 10
32.3475510057
 20
15.9430132698
 30
0.0
 10
32.4279523536
 20
15.9894207106
 30
0.0
  0
SPLINE
  5
31E
100
AcDbEntity
  8
0
100
AcDbSpline
 62
7
  6
CONTINUOUS
 70
0
 71
3
 72
21
 73
17
 74
0
 42
0.0000001
 43
0.0000001
 44
0.0000000001
 40
0.0
 40
0.0
 40
0.0
 40
0.0
 40
0.0442526201
 40
0.0905603686
 40
0.1401635306
 40
0.1938018062
 40
0.2517299489
 40
0.3138055958
 40
0.3795784828
 40
0.4483720711
 40
0.5914727378
 40
0.7357916442
 40
0.8061159321
 40
0.8740150752
 40
0.9388324557
 40
1.0
 40
1.0
 40
1.0
 40
1.0
 10
32.2391415031
 20
68.9530675779
 30
0.0
 10
32.3766514326
 20
69.0324397143
 30
0.0
 10
32.6386252771
 20
69.2308801743
 30
0.0
 10
32.9610449491
 20
69.6217635707
 30
0.0
 10
33.2129450744
 20
70.0991890302
 30
0.0
 10
33.3909137215
 20
70.6519401593
 30
0.0
 10
33.4930403847
 20
71.2684732305
 30
0.0
 10
33.5180427681
 20
71.936096227
 30
0.0
 10
33.4657276992
 20
72.6410333059
 30
0.0
 10
33.2919736891
 20
73.6234078565
 30
0.0
 10
32.891709869
 20
74.8449781852
 30
0.0
 10
32.2810662416
 20
75.9825754193
 30
0.0
 10
31.6784329974
 20
76.799515291
 30
0.0
 10
31.1874834073
 20
77.3396789715
 30
0.0
 10
30.6639641933
 20
77.7999938729
 30
0.0
 10
30.2887306031
 20
78.054897607
 30
0.0
 10
30.0986699419
 20
78.1646266985
 30
0.0
  0
SPLINE
  5
31F
100
AcDbEntity
  8
0
100
AcDbSpline
 62
7
  6
CONTINUOUS
 70
0
 71
3
 72
13
 73
9
 74
0
 42
0.0000001
 43
0.0000001
 44
0.0000000001
 40
0.0
 40
0.0
 40
0.0
 40
0.0
 40
0.113095598
 40
0.227147814
 40
0.3436664173
 40
0.463966892
 40
0.7196212641
 40
1.0
 40
1.0
 40
1.0
 40
1.0
 10
27.7447022372
 20
78.5979979911
 30
0.0
 10
27.8391937587
 20
78.6525404353
 30
0.0
 10
28.0378617213
 20
78.7474701499
 30
0.0
 10
28.356798899
 20
78.8424841105
 30
0.0
 10
28.6933279246
 20
78.8891681274
 30
0.0
 10
29.1698390075
 20
78.88652201
 30
0.0
 10
29.7959175703
 20
78.752748108
 30
0.0
 10
30.2684011556
 20
78.533099399
 30
0.0
 10
30.5026461233
 20
78.3978610633
 30
0.0
  0
SPLINE
  5
320
100
AcDbEntity
  8
0
100
AcDbSpline
 62
7
  6
CONTINUOUS
 70
0
 71
3
 72
9
 73
5
 74
0
 42
0.0000001
 43
0.0000001
 44
0.0000000001
 40
0.0
 40
0.0
 40
0.0
 40
0.0
 40
0.2545078079
 40
1.0
 40
1.0
 40
1.0
 40
1.0
 10
52.4786851285
 20
90.718231275
 30
0.0
 10
52.5045836975
 20
90.7032790675
 30
0.0
 10
52.6057260664
 20
90.6434701736
 30
0.0
 10
52.7043495811
 20
90.579378391
 30
0.0
 10
52.7760828005
 20
90.5291049545
 30
0.0
  0
SPLINE
  5
321
100
AcDbEntity
  8
0
100
AcDbSpline
 62
7
  6
CONTINUOUS
 70
0
 71
3
 72
13
 73
9
 74
0
 42
0.0000001
 43
0.0000001
 44
0.0000000001
 40
0.0
 40
0.0
 40
0.0
 40
0.0
 40
0.1080949482
 40
0.2182345225
 40
0.3322574032
 40
0.4516855296
 40
0.7106259001
 40
1.0
 40
1.0
 40
1.0
 40
1.0
 10
53.8259698455
 20
92.1471429811
 30
0.0
 10
53.8259729577
 20
92.2342264754
 30
0.0
 10
53.8109001729
 20
92.4104023785
 30
0.0
 10
53.7433099661
 20
92.6705798373
 30
0.0
 10
53.6319419028
 20
92.9251854442
 30
0.0
 10
53.4211409711
 20
93.2626519893
 30
0.0
 10
53.0467081298
 20
93.6565452675
 30
0.0
 10
52.6805790274
 20
93.9085052045
 30
0.0
 10
52.4786851285
 20
94.0250660644
 30
0.0
  0
SPLINE
  5
322
100
AcDbEntity
  8
0
100
AcDbSpline
 62
7
  6
CONTINUOUS
 70
0
 71
3
 72
12
 73
8
 74
0
 42
0.0000001
 43
0.0000001
 44
0.0000000001
 40
0.0
 40
0.0
 40
0.0
 40
0.0
 40
0.2826416082
 40
0.5406012277
 40
0.7769448413
 40
0.8895711046
 40
1.0
 40
1.0
 40
1.0
 40
1.0
 10
27.2024210709
 20
75.1043817116
 30
0.0
 10
27.2141896316
 20
75.2952383274
 30
0.0
 10
27.2669729506
 20
75.6596796786
 30
0.0
 10
27.4474781174
 20
76.1577154683
 30
0.0
 10
27.6811051813
 20
76.5021699471
 30
0.0
 10
27.908275862
 20
76.7157397805
 30
0.0
 10
28.0332562664
 20
76.8016037358
 30
0.0
 10
28.0979570664
 20
76.8389583813
 30
0.0
  0
SPLINE
  5
323
100
AcDbEntity
  8
0
100
AcDbSpline
 62
7
  6
CONTINUOUS
 70
0
 71
3
 72
15
 73
11
 74
0
 42
0.0000001
 43
0.0000001
 44
0.0000000001
 40
0.0
 40
0.0
 40
0.0
 40
0.0
 40
0.1133653977
 40
0.2354983007
 40
0.3640505014
 40
0.4961882622
 40
0.6287785055
 40
0.7587147046
 40
0.8832257693
 40
1.0
 40
1.0
 40
1.0
 40
1.0
 10
29.5940291102
 20
70.6064024051
 30
0.0
 10
29.41993212
 20
70.7069150753
 30
0.0
 10
29.0771757929
 20
70.9493410195
 30
0.0
 10
28.6097903465
 20
71.3974069177
 30
0.0
 10
28.184637467
 20
71.929029652
 30
0.0
 10
27.8182457232
 20
72.5244176003
 30
0.0
 10
27.5250460671
 20
73.1617748767
 30
0.0
 10
27.3166140372
 20
73.8176819521
 30
0.0
 10
27.2014946558
 20
74.4678049145
 30
0.0
 10
27.1896767487
 20
74.8977006862
 30
0.0
 10
27.2024210709
 20
75.1043817116
 30
0.0
  0
SPLINE
  5
324
100
AcDbEntity
  8
0
100
AcDbSpline
 62
7
  6
CONTINUOUS
 70
0
 71
3
 72
22
 73
18
 74
0
 42
0.0000001
 43
0.0000001
 44
0.0000000001
 40
0.0
 40
0.0
 40
0.0
 40
0.0
 40
0.0613223937
 40
0.126324229
 40
0.1944245974
 40
0.264952069
 40
0.4096352193
 40
0.4820312724
 40
0.5531068137
 40
0.6219293674
 40
0.6876642693
 40
0.749629718
 40
0.8073750567
 40
0.8607647248
 40
0.9100693609
 40
0.9560554114
 40
1.0
 40
1.0
 40
1.0
 40
1.0
 10
30.5026461233
 20
78.3978610633
 30
0.0
 10
30.6926793849
 20
78.2881477906
 30
0.0
 10
31.0680558058
 20
78.03349063
 30
0.0
 10
31.592452334
 20
77.5741126106
 30
0.0
 10
32.0851021237
 20
77.0352805835
 30
0.0
 10
32.6908904431
 20
76.2208319416
 30
0.0
 10
33.18570051
 20
75.3106203786
 30
0.0
 10
33.5549115339
 20
74.3468694295
 30
0.0
 10
33.7621120436
 20
73.614831852
 30
0.0
 10
33.8956340651
 20
72.8900864519
 30
0.0
 10
33.9530697978
 20
72.1879043931
 30
0.0
 10
33.9332361779
 20
71.5230711013
 30
0.0
 10
33.8362444524
 20
70.9093568814
 30
0.0
 10
33.6632737064
 20
70.3593657949
 30
0.0
 10
33.4161175142
 20
69.8845515513
 30
0.0
 10
33.0980314585
 20
69.4960844628
 30
0.0
 10
32.8387303586
 20
69.2992213232
 30
0.0
 10
32.7025420246
 20
69.2206120987
 30
0.0
  0
SPLINE
  5
325
100
AcDbEntity
  8
0
100
AcDbSpline
 62
7
  6
CONTINUOUS
 70
0
 71
3
 72
9
 73
5
 74
0
 42
0.0000001
 43
0.0000001
 44
0.0000000001
 40
0.0
 40
0.0
 40
0.0
 40
0.0
 40
0.2459662479
 40
1.0
 40
1.0
 40
1.0
 40
1.0
 10
36.3795378099
 20
67.0433800427
 30
0.0
 10
36.4068961015
 20
67.9317791598
 30
0.0
 10
36.5539683728
 20
71.5424906735
 30
0.0
 10
36.8417764251
 20
75.1472230944
 30
0.0
 10
37.1310543834
 20
77.8565898602
 30
0.0
  0
SPLINE
  5
326
100
AcDbEntity
  8
0
100
AcDbSpline
 62
7
  6
CONTINUOUS
 70
0
 71
3
 72
13
 73
9
 74
0
 42
0.0000001
 43
0.0000001
 44
0.0000000001
 40
0.0
 40
0.0
 40
0.0
 40
0.0
 40
0.2795816977
 40
0.5349274978
 40
0.6552931693
 40
0.7720262533
 40
0.8864326377
 40
1.0
 40
1.0
 40
1.0
 40
1.0
 10
30.0986699419
 20
78.1646266985
 30
0.0
 10
29.8642563079
 20
78.2999624115
 30
0.0
 10
29.3908157748
 20
78.5195776182
 30
0.0
 10
28.7631389132
 20
78.6521737367
 30
0.0
 10
28.2849504514
 20
78.6535945448
 30
0.0
 10
27.9467272073
 20
78.6058575798
 30
0.0
 10
27.6258666374
 20
78.5096435339
 30
0.0
 10
27.4258453227
 20
78.4138972351
 30
0.0
 10
27.330620698
 20
78.3589314545
 30
0.0
  0
SPLINE
  5
327
100
AcDbEntity
  8
0
100
AcDbSpline
 62
7
  6
CONTINUOUS
 70
0
 71
3
 72
12
 73
8
 74
0
 42
0.0000001
 43
0.0000001
 44
0.0000000001
 40
0.0
 40
0.0
 40
0.0
 40
0.0
 40
0.1040170153
 40
0.2110213517
 40
0.4413402972
 40
0.703139408
 40
1.0
 40
1.0
 40
1.0
 40
1.0
 10
31.5161685992
 20
17.4259955383
 30
0.0
 10
31.4610316413
 20
17.3941625295
 30
0.0
 10
31.3429411202
 20
17.3397878494
 30
0.0
 10
31.0802592326
 20
17.2717861239
 30
0.0
 10
30.707545781
 20
17.2712271135
 30
0.0
 10
30.2369530168
 20
17.3947018108
 30
0.0
 10
29.927335384
 20
17.5444783882
 30
0.0
 10
29.7699761265
 20
17.6353277425
 30
0.0
  0
SPLINE
  5
328
100
AcDbEntity
  8
0
100
AcDbSpline
 62
7
  6
CONTINUOUS
 70
0
 71
3
 72
11
 73
7
 74
0
 42
0.0000001
 43
0.0000001
 44
0.0000000001
 40
0.0
 40
0.0
 40
0.0
 40
0.0
 40
0.2281522097
 40
0.4779489133
 40
0.7390915683
 40
1.0
 40
1.0
 40
1.0
 40
1.0
 10
29.7699761265
 20
17.6353277425
 30
0.0
 10
29.5423735889
 20
17.7667311561
 30
0.0
 10
29.0941076303
 20
18.092380949
 30
0.0
 10
28.4903147732
 20
18.6964785241
 30
0.0
 10
27.9534404471
 20
19.4085406194
 30
0.0
 10
27.6584947884
 20
19.9352577793
 30
0.0
 10
27.5312840836
 20
20.2075515113
 30
0.0
  0
SPLINE
  5
329
100
AcDbEntity
  8
0
100
AcDbSpline
 62
7
  6
CONTINUOUS
 70
0
 71
3
 72
15
 73
11
 74
0
 42
0.0000001
 43
0.0000001
 44
0.0000000001
 40
0.0
 40
0.0
 40
0.0
 40
0.0
 40
0.1092739609
 40
0.2294826305
 40
0.3581363884
 40
0.4918328436
 40
0.6266895804
 40
0.7587090659
 40
0.8841785387
 40
1.0
 40
1.0
 40
1.0
 40
1.0
 10
45.6010795722
 20
90.4752717391
 30
0.0
 10
45.8120029382
 20
90.631147755
 30
0.0
 10
46.2910713966
 20
90.9106151466
 30
0.0
 10
47.0974780471
 20
91.2165867203
 30
0.0
 10
47.9958016112
 20
91.4195666544
 30
0.0
 10
48.9471763368
 20
91.5107210157
 30
0.0
 10
49.9106214578
 20
91.4862108325
 30
0.0
 10
50.8445615367
 20
91.3470688616
 30
0.0
 10
51.7083520377
 20
91.0993542204
 30
0.0
 10
52.2379411319
 20
90.8572217418
 30
0.0
 10
52.4786851285
 20
90.718231275
 30
0.0
  0
SPLINE
  5
32A
100
AcDbEntity
  8
0
100
AcDbSpline
 62
7
  6
CONTINUOUS
 70
0
 71
3
 72
19
 73
15
 74
0
 42
0.0000001
 43
0.0000001
 44
0.0000000001
 40
0.0
 40
0.0
 40
0.0
 40
0.0
 40
0.0413536227
 40
0.0837638372
 40
0.1283910018
 40
0.1761289459
 40
0.2275707952
 40
0.2830162168
 40
0.3425301134
 40
0.4059698017
 40
0.5432449931
 40
0.6912981624
 40
0.8453156022
 40
1.0
 40
1.0
 40
1.0
 40
1.0
 10
32.4279523536
 20
15.9894207106
 30
0.0
 10
32.5184411674
 20
16.0416506095
 30
0.0
 10
32.6910626408
 20
16.1672095233
 30
0.0
 10
32.9100869688
 20
16.4092377085
 30
0.0
 10
33.087865634
 20
16.701799328
 30
0.0
 10
33.223025078
 20
17.0405989161
 30
0.0
 10
33.3147327445
 20
17.4215173877
 30
0.0
 10
33.3626106584
 20
17.8400986516
 30
0.0
 10
33.3662931205
 20
18.291550979
 30
0.0
 10
33.3110220501
 20
18.9474564343
 30
0.0
 10
33.1273791411
 20
19.8130246325
 30
0.0
 10
32.7519630409
 20
20.8606606817
 30
0.0
 10
32.2313126884
 20
21.8935515004
 30
0.0
 10
31.7980537447
 20
22.5448825164
 30
0.0
 10
31.5613065884
 20
22.8558249482
 30
0.0
  0
SPLINE
  5
32B
100
AcDbEntity
  8
0
100
AcDbSpline
 62
7
  6
CONTINUOUS
 70
0
 71
3
 72
11
 73
7
 74
0
 42
0.0000001
 43
0.0000001
 44
0.0000000001
 40
0.0
 40
0.0
 40
0.0
 40
0.0
 40
0.2297155018
 40
0.4753459525
 40
0.7335188396
 40
1.0
 40
1.0
 40
1.0
 40
1.0
 10
52.4786851285
 20
94.0250660644
 30
0.0
 10
52.2944561742
 20
94.1314282945
 30
0.0
 10
51.8968277192
 20
94.3237533255
 30
0.0
 10
51.2529277591
 20
94.5443111908
 30
0.0
 10
50.5559089048
 20
94.7016913656
 30
0.0
 10
50.0728513628
 20
94.7614540527
 30
0.0
 10
49.8267870825
 20
94.7801684147
 30
0.0
  0
LINE
  5
32C
100
AcDbEntity
  8
0
100
AcDbLine
 62
7
  6
CONTINUOUS
 10
32.2061728967
 20
22.9680212573
 11
32.2157752447
 21
22.9548481968
  0
SPLINE
  5
32D
100
AcDbEntity
  8
0
100
AcDbSpline
 62
7
  6
CONTINUOUS
 70
0
 71
3
 72
19
 73
15
 74
0
 42
0.0000001
 43
0.0000001
 44
0.0000000001
 40
0.0
 40
0.0
 40
0.0
 40
0.0
 40
0.1567668971
 40
0.3117016162
 40
0.4597477441
 40
0.5964060103
 40
0.659416159
 40
0.7184757461
 40
0.7734846504
 40
0.8245406778
 40
0.8719731954
 40
0.9163892571
 40
0.9586837988
 40
1.0
 40
1.0
 40
1.0
 40
1.0
 10
32.2289963143
 20
22.9366317624
 30
0.0
 10
32.4522299164
 20
22.628276754
 30
0.0
 10
32.8595989671
 20
21.9879137734
 30
0.0
 10
33.3473902894
 20
20.9809787943
 30
0.0
 10
33.6956272549
 20
19.9690137677
 30
0.0
 10
33.862721144
 20
19.1378382108
 30
0.0
 10
33.9093272999
 20
18.5105761178
 30
0.0
 10
33.9016942416
 20
18.0799426224
 30
0.0
 10
33.8523670993
 20
17.6811586086
 30
0.0
 10
33.761631876
 20
17.3185186208
 30
0.0
 10
33.6298830439
 20
16.9960201525
 30
0.0
 10
33.4578353565
 20
16.7173990359
 30
0.0
 10
33.2467901587
 20
16.4865354339
 30
0.0
 10
33.0809914186
 20
16.3664376133
 30
0.0
 10
32.99409858
 20
16.3162834493
 30
0.0
  0
SPLINE
  5
32E
100
AcDbEntity
  8
0
100
AcDbSpline
 62
7
  6
CONTINUOUS
 70
0
 71
3
 72
18
 73
14
 74
0
 42
0.0000001
 43
0.0000001
 44
0.0000000001
 40
0.0
 40
0.0
 40
0.0
 40
0.0
 40
0.1526371274
 40
0.3035334494
 40
0.4482456876
 40
0.5829979055
 40
0.7050833565
 40
0.7610844721
 40
0.8137568561
 40
0.8633891913
 40
0.9104666253
 40
0.9557099881
 40
1.0
 40
1.0
 40
1.0
 40
1.0
 10
49.8267870825
 20
94.7801684147
 30
0.0
 10
49.5022576635
 20
94.8048504246
 30
0.0
 10
48.8531849044
 20
94.8139374368
 30
0.0
 10
47.9006369618
 20
94.7108703562
 30
0.0
 10
47.0056583723
 20
94.4954839405
 30
0.0
 10
46.2073996086
 20
94.1772105071
 30
0.0
 10
45.6344801065
 20
93.8265899713
 30
0.0
 10
45.2615949662
 20
93.5040155636
 30
0.0
 10
45.0343851112
 20
93.2531039337
 30
0.0
 10
44.8541002086
 20
92.9891566443
 30
0.0
 10
44.7233251787
 20
92.7146859142
 30
0.0
 10
44.6438124449
 20
92.4329530793
 30
0.0
 10
44.6260783158
 20
92.2415822903
 30
0.0
 10
44.6260841425
 20
92.1471431301
 30
0.0
  0
SPLINE
  5
32F
100
AcDbEntity
  8
0
100
AcDbSpline
 62
7
  6
CONTINUOUS
 70
0
 71
3
 72
13
 73
9
 74
0
 42
0.0000001
 43
0.0000001
 44
0.0000000001
 40
0.0
 40
0.0
 40
0.0
 40
0.0
 40
0.1112804202
 40
0.2237014929
 40
0.3390219479
 40
0.4587573776
 40
0.7155947142
 40
1.0
 40
1.0
 40
1.0
 40
1.0
 10
31.4320921832
 20
70.4501122109
 30
0.0
 10
31.3700815427
 20
70.4143107587
 30
0.0
 10
31.2393621765
 20
70.3522837196
 30
0.0
 10
31.0289105047
 20
70.2916128965
 30
0.0
 10
30.8062272602
 20
70.2635087105
 30
0.0
 10
30.4888069539
 20
70.2698640253
 30
0.0
 10
30.069699846
 20
70.3654590264
 30
0.0
 10
29.7525134456
 20
70.5149035014
 30
0.0
 10
29.5940291102
 20
70.6064024051
 30
0.0
  0
SPLINE
  5
330
100
AcDbEntity
  8
0
100
AcDbSpline
 62
7
  6
CONTINUOUS
 70
0
 71
3
 72
9
 73
5
 74
0
 42
0.0000001
 43
0.0000001
 44
0.0000000001
 40
0.0
 40
0.0
 40
0.0
 40
0.0
 40
0.2445137518
 40
1.0
 40
1.0
 40
1.0
 40
1.0
 10
37.2502689258
 20
8.6860130249
 30
0.0
 10
37.1275760277
 20
9.6180448673
 30
0.0
 10
36.6785785219
 20
13.4366679194
 30
0.0
 10
36.4360675182
 20
17.2788880611
 30
0.0
 10
36.3568588519
 20
20.1823973832
 30
0.0
  0
ENDSEC
  0
SECTION
  2
OBJECTS
  0
DICTIONARY
  5
C
100
AcDbDictionary
280
0
281
1
  3
ACAD_GROUP
350
D
  3
ACAD_MLINESTYLE
350
17
  3
ACAD_LAYOUT
350
1A
  3
ACAD_PLOTSETTINGS
350
19
  3
ACAD_PLOTSTYLENAME
350
E
  0
DICTIONARY
  5
D
102
{ACAD_REACTORS
330
C
102
}
100
AcDbDictionary
280
0
281
1
  0
ACDBDICTIONARYWDFLT
  5
E
102
{ACAD_REACTORS
330
C
102
}
100
AcDbDictionary
281
1
  3
Normal
350
F
100
AcDbDictionaryWithDefault
340
F
  0
DICTIONARY
  5
17
102
{ACAD_REACTORS
330
C
102
}
100
AcDbDictionary
280
0
281
1
  3
Standard
350
18
  0
DICTIONARY
  5
19
102
{ACAD_REACTORS
330
C
102
}
100
AcDbDictionary
281
1
  0
DICTIONARY
  5
1A
102
{ACAD_REACTORS
330
C
102
}
100
AcDbDictionary
281
1
  3
Model
350
331
  3
Layout1
350
332
  0
ACDBPLACEHOLDER
  5
F
102
{ACAD_REACTORS
330
E
102
}
  0
MLINESTYLE
  5
18
102
{ACAD_REACTORS
330
17
102
}
100
AcDbMlineStyle
  2
STANDARD
 70
0
  3

 62
256
 51
90.0
 52
90.0
 71
2
 49
0.5
 62
256
  6
BYLAYER
 49
-0.5
 62
256
  6
BYLAYER
  0
LAYOUT
  5
331
102
{ACAD_REACTORS
330
1A
102
}
100
AcDbPlotSettings
  1

  2
none_device
  4

  6

 40
0.0
 41
0.0
 42
0.0
 43
0.0
 44
210.0
 45
297.0
 46
0.0
 47
0.0
 48
0.0
 49
0.0
140
0.0
141
0.0
142
1.0
143
1.0
 70
1024
 72
1
 73
0
 74
0
  7

 75
0
147
1.0
148
0.0
149
0.0
100
AcDbLayout
  1
Model
 70
0
 71
0
 10
0.0
 20
0.0
 11
210.0
 21
297.0
 12
0.0
 22
0.0
 32
0.0
 14
0.0
 24
0.0
 34
0.0
 15
0.0
 25
0.0
 35
0.0
146
0.0
 13
0.0
 23
0.0
 33
0.0
 16
1.0
 26
0.0
 36
0.0
 17
0.0
 27
1.0
 37
0.0
 76
0
330
210
345
0
346
0
  0
LAYOUT
  5
332
102
{ACAD_REACTORS
330
1A
102
}
100
AcDbPlotSettings
  1

  2
none_device
  4

  6

 40
0.0
 41
0.0
 42
0.0
 43
0.0
 44
210.0
 45
297.0
 46
0.0
 47
0.0
 48
0.0
 49
0.0
140
0.0
141
0.0
142
1.0
143
1.0
 70
0
 72
1
 73
0
 74
0
  7

 75
0
147
1.0
148
0.0
149
0.0
100
AcDbLayout
  1
Layout1
 70
0
 71
1
 10
0.0
 20
0.0
 11
210.0
 21
297.0
 12
0.0
 22
0.0
 32
0.0
 14
0.0
 24
0.0
 34
0.0
 15
0.0
 25
0.0
 35
0.0
146
0.0
 13
0.0
 23
0.0
 33
0.0
 16
1.0
 26
0.0
 36
0.0
 17
0.0
 27
1.0
 37
0.0
 76
0
330
211
345
0
346
0
  0
ENDSEC
  0
EOF
