999
DXF file: C:\Users\sesa63760\Documents\7-Dev\_Creo\CAD\MCADFD0001115_3D-CAD\drw0001_1.dxf
999
Pro/ENGINEER 2019471 by Parametric Technology Corporation
  0
SECTION
  2
HEADER
  9
$ACADVER
  1
AC1024
  9
$DWGCODEPAGE
  3
ANSI_1252
  9
$EXTMAX
 10
94.8512584872
 20
134.1467798605
 30
0.0
  9
$EXTMIN
 10
0.0
 20
0.0
 30
0.0
  9
$LIMMIN
 10
0.0
 20
0.0
  9
$LIMMAX
 10
94.8512584872
 20
134.1467798605
  9
$VIEWCTR
 10
47.4256292436
 20
67.0733899302
  9
$VIEWSIZE
 40
134.1467798605
  9
$CLAYER
  8
0
  9
$LTSCALE
 40
8.7443826872
  9
$CELTYPE
  6
BYLAYER
  9
$DIMSCALE
 40
1.0
  9
$DIMASZ
 40
1.1291816487
  9
$DIMEXO
 40
1.0
  9
$DIMDLI
 40
6.041573493
  9
$DIMEXE
 40
1.0
  9
$DIMCEN
 40
1.4308989852
  9
$DIMLFAC
 40
1.0
  9
$DIMBLK
  1
_FILLED
  9
$DIMALT
 70
0
  9
$DIMALTF
 40
0.0393700787
  9
$DIMTXT
 40
1.5808543081
  9
$DIMTOL
 70
1
  9
$DIMLIM
 70
0
  9
$DIMTFAC
 40
1.0
  9
$DIMTP
 40
0.01
  9
$DIMTM
 40
0.01
  9
$DIMGAP
 40
0.625
  9
$DIMDSEP
 70
46
  9
$AUNITS
 70
0
  9
$PDMODE
 70
3
  9
$PDSIZE
 40
0.3125
  9
$HANDSEED
  5
3C9
  9
$TILEMODE
 70
1
  9
$MEASUREMENT
 70
1
  9
$INSUNITS
 70
4
  0
ENDSEC
  0
SECTION
  2
CLASSES
  0
CLASS
  1
ACDBDICTIONARYWDFLT
  2
AcDbDictionaryWithDefault
  3
AutoCAD 2000
 90
0
 91
1
280
0
281
0
  0
CLASS
  1
ACDBPLACEHOLDER
  2
AcDbPlaceHolder
  3
AutoCAD 2000
 90
0
 91
1
280
0
281
0
  0
CLASS
  1
LAYOUT
  2
AcDbLayout
  3
AutoCAD 2000
 90
0
 91
0
280
0
281
0
  0
ENDSEC
  0
SECTION
  2
TABLES
  0
TABLE
  2
VPORT
  5
8
100
AcDbSymbolTable
 70
2
  0
VPORT
  5
1F4
100
AcDbSymbolTableRecord
100
AcDbViewportTableRecord
  2
*ACTIVE
 70
0
 10
0.0
 20
0.0
 11
1.0
 21
1.0
 12
47.4256292436
 22
67.0733899302
 13
0.0
 23
0.0
 14
1.0
 24
1.0
 15
0.0
 25
0.0
 16
0.0
 26
0.0
 36
1.0
 17
0.0
 27
0.0
 37
0.0
 40
134.1467798605
 41
0.7070707071
 42
50.0
 43
0.0
 44
0.0
 50
0.0
 51
0.0
 71
0
 72
100
 73
1
 74
1
 75
0
 76
0
 77
0
 78
0
  0
ENDTAB
  0
TABLE
  2
LTYPE
  5
5
100
AcDbSymbolTable
 70
6
  0
LTYPE
  5
14
100
AcDbSymbolTableRecord
100
AcDbLinetypeTableRecord
  2
BYBLOCK
 70
0
  3

 72
65
 73
0
 40
0.0
  0
LTYPE
  5
15
100
AcDbSymbolTableRecord
100
AcDbLinetypeTableRecord
  2
BYLAYER
 70
0
  3

 72
65
 73
0
 40
0.0
  0
LTYPE
  5
16
100
AcDbSymbolTableRecord
100
AcDbLinetypeTableRecord
  2
CONTINUOUS
 70
64
  3
Solid line
 72
65
 73
0
 40
0.0
  0
LTYPE
  5
1F5
100
AcDbSymbolTableRecord
100
AcDbLinetypeTableRecord
  2
CENTER
 70
64
  3
____ _ ____ _ ____ _ ____ _ ____ _ ____ _ ____
 72
65
 73
4
 40
0.6
 49
0.375
 74
0
 49
-0.075
 74
0
 49
0.075
 74
0
 49
-0.075
 74
0
  0
LTYPE
  5
1F6
100
AcDbSymbolTableRecord
100
AcDbLinetypeTableRecord
  2
HIDDEN
 70
64
  3
- - - - - - - - - - - - - - - - - - - -
 72
65
 73
2
 40
0.2
 49
0.1
 74
0
 49
-0.1
 74
0
  0
LTYPE
  5
1F7
100
AcDbSymbolTableRecord
100
AcDbLinetypeTableRecord
  2
PHANTOM
 70
64
  3
_____ _ _ _____ _ _ _____ _ _ _____
 72
65
 73
6
 40
0.8
 49
0.45
 74
0
 49
-0.05
 74
0
 49
0.1
 74
0
 49
-0.05
 74
0
 49
0.1
 74
0
 49
-0.05
 74
0
  0
LTYPE
  5
1F8
100
AcDbSymbolTableRecord
100
AcDbLinetypeTableRecord
  2
DOT
 70
64
  3
. . . . . . . . . . . . . . . . . . . .
 72
65
 73
2
 40
0.2
 49
0.1
 74
0
 49
-0.1
 74
0
  0
LTYPE
  5
1F9
100
AcDbSymbolTableRecord
100
AcDbLinetypeTableRecord
  2
DASHED
 70
64
  3
- - - - - - - - - - - - - - - - - - - -
 72
65
 73
2
 40
0.2
 49
0.1
 74
0
 49
-0.1
 74
0
  0
ENDTAB
  0
TABLE
  2
LAYER
  5
2
100
AcDbSymbolTable
 70
36
  0
LAYER
  5
10
100
AcDbSymbolTableRecord
100
AcDbLayerTableRecord
  2
0
 70
0
 62
7
  6
CONTINUOUS
370
-3
390
F
  0
LAYER
  5
1FA
100
AcDbSymbolTableRecord
100
AcDbLayerTableRecord
  2
DEFAULT_1
 70
0
 62
7
  6
CENTER
370
-3
390
F
  0
LAYER
  5
1FB
100
AcDbSymbolTableRecord
100
AcDbLayerTableRecord
  2
DEFAULT_2
 70
0
 62
8
  6
HIDDEN
370
-3
390
F
  0
LAYER
  5
1FC
100
AcDbSymbolTableRecord
100
AcDbLayerTableRecord
  2
DEFAULT_3
 70
0
 62
7
  6
PHANTOM
370
-3
390
F
  0
LAYER
  5
1FD
100
AcDbSymbolTableRecord
100
AcDbLayerTableRecord
  2
00_COMPONENTS
 70
0
 62
7
  6
CONTINUOUS
370
-3
390
F
  0
LAYER
  5
1FE
100
AcDbSymbolTableRecord
100
AcDbLayerTableRecord
  2
01_1_DEFAULT_DATUMS
 70
0
 62
7
  6
CONTINUOUS
370
-3
390
F
  0
LAYER
  5
1FF
100
AcDbSymbolTableRecord
100
AcDbLayerTableRecord
  2
01_PLANES
 70
0
 62
7
  6
CONTINUOUS
370
-3
390
F
  0
LAYER
  5
200
100
AcDbSymbolTableRecord
100
AcDbLayerTableRecord
  2
02_COORD_SYS
 70
0
 62
7
  6
CONTINUOUS
370
-3
390
F
  0
LAYER
  5
201
100
AcDbSymbolTableRecord
100
AcDbLayerTableRecord
  2
03_AXES
 70
0
 62
7
  6
CONTINUOUS
370
-3
390
F
  0
LAYER
  5
202
100
AcDbSymbolTableRecord
100
AcDbLayerTableRecord
  2
04_POINTS
 70
0
 62
7
  6
CONTINUOUS
370
-3
390
F
  0
LAYER
  5
203
100
AcDbSymbolTableRecord
100
AcDbLayerTableRecord
  2
05_CURVES
 70
0
 62
7
  6
CONTINUOUS
370
-3
390
F
  0
LAYER
  5
204
100
AcDbSymbolTableRecord
100
AcDbLayerTableRecord
  2
06_SURFS
 70
0
 62
7
  6
CONTINUOUS
370
-3
390
F
  0
LAYER
  5
205
100
AcDbSymbolTableRecord
100
AcDbLayerTableRecord
  2
07_COSMETICS
 70
0
 62
7
  6
CONTINUOUS
370
-3
390
F
  0
LAYER
  5
206
100
AcDbSymbolTableRecord
100
AcDbLayerTableRecord
  2
10_NOTES
 70
0
 62
7
  6
CONTINUOUS
370
-3
390
F
  0
LAYER
  5
207
100
AcDbSymbolTableRecord
100
AcDbLayerTableRecord
  2
11_NOTES_PUB
 70
0
 62
7
  6
CONTINUOUS
370
-3
390
F
  0
LAYER
  5
208
100
AcDbSymbolTableRecord
100
AcDbLayerTableRecord
  2
13_REF_GTOL
 70
0
 62
7
  6
CONTINUOUS
370
-3
390
F
  0
LAYER
  5
209
100
AcDbSymbolTableRecord
100
AcDbLayerTableRecord
  2
16_MISC
 70
0
 62
7
  6
CONTINUOUS
370
-3
390
F
  0
LAYER
  5
20A
100
AcDbSymbolTableRecord
100
AcDbLayerTableRecord
  2
17_NO_PRINT
 70
0
 62
7
  6
CONTINUOUS
370
-3
390
F
  0
LAYER
  5
20B
100
AcDbSymbolTableRecord
100
AcDbLayerTableRecord
  2
18_DATUM_CAMS_JOINTS
 70
0
 62
7
  6
CONTINUOUS
370
-3
390
F
  0
LAYER
  5
20C
100
AcDbSymbolTableRecord
100
AcDbLayerTableRecord
  2
19_DATUM_FUNCTIONAL
 70
0
 62
7
  6
CONTINUOUS
370
-3
390
F
  0
LAYER
  5
20D
100
AcDbSymbolTableRecord
100
AcDbLayerTableRecord
  2
20_DATUM_KINEMATIC_SCHEME
 70
0
 62
7
  6
CONTINUOUS
370
-3
390
F
  0
ENDTAB
  0
TABLE
  2
STYLE
  5
3
100
AcDbSymbolTable
 70
1
  0
STYLE
  5
11
100
AcDbSymbolTableRecord
100
AcDbTextStyleTableRecord
  2
STANDARD
 70
0
 40
0.0
 41
0.8
 50
0.0
 71
0
 42
0.2
  3
txt
  4

  0
STYLE
  5
20E
100
AcDbSymbolTableRecord
100
AcDbTextStyleTableRecord
  2
TEXTSTYLE_1
 70
0
 40
0.0
 41
0.8
 50
0.0
 71
0
 42
0.2
  3
gdt
  4

  0
ENDTAB
  0
TABLE
  2
VIEW
  5
6
100
AcDbSymbolTable
 70
0
  0
ENDTAB
  0
TABLE
  2
UCS
  5
7
100
AcDbSymbolTable
 70
0
  0
ENDTAB
  0
TABLE
  2
APPID
  5
9
100
AcDbSymbolTable
 70
1
  0
APPID
  5
20F
100
AcDbSymbolTableRecord
100
AcDbRegAppTableRecord
  2
ACAD
 70
0
  0
ENDTAB
  0
TABLE
  2
BLOCK_RECORD
  5
1
100
AcDbSymbolTable
 70
0
  0
BLOCK_RECORD
  5
210
100
AcDbSymbolTableRecord
100
AcDbBlockTableRecord
  2
*Model_Space
  0
BLOCK_RECORD
  5
211
100
AcDbSymbolTableRecord
100
AcDbBlockTableRecord
  2
*Paper_Space
  0
BLOCK_RECORD
  5
212
100
AcDbSymbolTableRecord
100
AcDbBlockTableRecord
  2
_FILLED
  0
ENDTAB
  0
TABLE
  2
DIMSTYLE
  5
A
100
AcDbSymbolTable
 70
1
100
AcDbDimStyleTable
 71
0
  0
DIMSTYLE
105
213
100
AcDbSymbolTableRecord
100
AcDbDimStyleTableRecord
  2
STANDARD
 70
0
  3

  4

 40
1.0
 41
1.1291816487
 42
1.0
 43
0.38
 44
1.0
 45
0.0
 46
0.0
 47
0.01
 48
0.01
140
1.5808543081
141
0.09
142
0.0
143
25.4
144
1.0
145
0.0
146
1.0
147
0.625
 71
1
 72
0
 73
0
 74
0
 75
0
 76
0
 77
1
 78
8
 79
2
170
0
171
1
172
0
173
0
174
0
175
0
176
0
177
0
178
0
270
2
179
2
271
2
272
2
273
2
274
2
275
0
280
0
281
0
282
0
283
1
284
8
285
0
286
0
287
3
288
0
340
11
278
46
341
212
342
212
343
212
344
212
  0
ENDTAB
  0
ENDSEC
  0
SECTION
  2
BLOCKS
  0
BLOCK
  5
20
100
AcDbEntity
  8
0
100
AcDbBlockBegin
  2
*Model_Space
 70
0
 10
0.0
 20
0.0
 30
0.0
  3
*Model_Space
  1

  0
ENDBLK
  5
21
100
AcDbEntity
  8
0
100
AcDbBlockEnd
  0
BLOCK
  5
1C
100
AcDbEntity
  8
0
100
AcDbBlockBegin
  2
*Paper_Space
 70
0
 10
0.0
 20
0.0
 30
0.0
  3
*Paper_Space
  1

  0
ENDBLK
  5
1D
100
AcDbEntity
  8
0
100
AcDbBlockEnd
  0
BLOCK
  5
214
100
AcDbEntity
  8
0
100
AcDbBlockBegin
  2
_FILLED
 70
64
 10
0.0
 20
0.0
  3
_FILLED
  1

  0
SOLID
  5
215
100
AcDbEntity
  8
0
  6
BYBLOCK
 62
0
100
AcDbTrace
 10
0.0
 20
0.0
 11
-1.0
 21
0.25
 12
-1.0
 22
-0.25
 13
-1.0
 23
-0.25
  0
ENDBLK
  5
216
100
AcDbEntity
  8
0
  6
BYBLOCK
 62
0
100
AcDbBlockEnd
  0
ENDSEC
  0
SECTION
  2
ENTITIES
  0
LINE
  5
217
100
AcDbEntity
  8
0
100
AcDbLine
 62
7
  6
CONTINUOUS
 10
51.3891554218
 20
15.8581469878
 11
25.9332053165
 21
30.5548141506
  0
LINE
  5
218
100
AcDbEntity
  8
0
100
AcDbLine
 62
7
  6
CONTINUOUS
 10
37.5404015277
 20
25.0499881012
 11
24.8831374475
 21
32.3574976071
  0
LINE
  5
219
100
AcDbEntity
  8
0
100
AcDbLine
 62
7
  6
CONTINUOUS
 10
24.812426475
 20
32.3983216825
 11
12.1551623949
 21
39.7058311884
  0
LINE
  5
21A
100
AcDbEntity
  8
0
100
AcDbLine
 62
7
  6
CONTINUOUS
 10
25.8139907741
 20
99.7253909859
 11
55.9754996058
 21
117.1390422835
  0
LINE
  5
21B
100
AcDbEntity
  8
0
100
AcDbLine
 62
7
  6
CONTINUOUS
 10
58.675100433
 20
118.6160197668
 11
55.9754996058
 21
117.1390422835
  0
LINE
  5
21C
100
AcDbEntity
  8
0
100
AcDbLine
 62
7
  6
CONTINUOUS
 10
14.5830971036
 20
40.0147018693
 11
21.988545259
 21
35.7392611067
  0
LINE
  5
21D
100
AcDbEntity
  8
0
100
AcDbLine
 62
7
  6
CONTINUOUS
 10
27.3110721562
 20
32.6663682879
 11
34.7165203117
 21
28.3909275253
  0
LINE
  5
21E
100
AcDbEntity
  8
0
100
AcDbLine
 62
7
  6
CONTINUOUS
 10
34.6215604398
 20
28.5281872683
 11
27.3878279515
 21
32.704490187
  0
LINE
  5
21F
100
AcDbEntity
  8
0
100
AcDbLine
 62
7
  6
CONTINUOUS
 10
21.8935853871
 20
35.8765208496
 11
14.6598528989
 21
40.0528237684
  0
LINE
  5
220
100
AcDbEntity
  8
0
100
AcDbLine
 62
7
  6
CONTINUOUS
 10
39.1761096566
 20
25.9943589926
 11
38.9173443527
 21
26.1437538307
  0
LINE
  5
221
100
AcDbEntity
  8
0
100
AcDbLine
 62
7
  6
CONTINUOUS
 10
40.3428066417
 20
26.6679477902
 11
40.0840413378
 21
26.8173426283
  0
LINE
  5
222
100
AcDbEntity
  8
0
100
AcDbLine
 62
7
  6
CONTINUOUS
 10
14.3833753054
 20
42.9877444691
 11
21.6171077937
 21
38.8114415504
  0
LINE
  5
223
100
AcDbEntity
  8
0
100
AcDbLine
 62
7
  6
CONTINUOUS
 10
27.111350358
 20
35.6394108877
 11
34.3450828463
 21
31.463107969
  0
LINE
  5
224
100
AcDbEntity
  8
0
100
AcDbLine
 62
7
  6
CONTINUOUS
 10
41.5095036268
 20
27.3415365878
 11
41.2507383229
 21
27.4909314259
  0
LINE
  5
225
100
AcDbEntity
  8
0
100
AcDbLine
 62
7
  6
CONTINUOUS
 10
34.4241594611
 20
31.505426997
 11
27.0187113057
 21
35.7808677596
  0
LINE
  5
226
100
AcDbEntity
  8
0
100
AcDbLine
 62
7
  6
CONTINUOUS
 10
21.6961844085
 20
38.8537605784
 11
14.2907362531
 21
43.129201341
  0
LINE
  5
227
100
AcDbEntity
  8
0
100
AcDbLine
 62
7
  6
CONTINUOUS
 10
14.5830971036
 20
40.0147018693
 11
14.5799996905
 21
40.0447903359
  0
LINE
  5
228
100
AcDbEntity
  8
0
100
AcDbLine
 62
7
  6
CONTINUOUS
 10
14.3037734094
 20
42.9807535766
 11
14.2907362531
 21
43.129201341
  0
LINE
  5
229
100
AcDbEntity
  8
0
100
AcDbLine
 62
7
  6
CONTINUOUS
 10
14.303411765
 20
42.9805054179
 11
14.2907362531
 21
43.129201341
  0
LINE
  5
22A
100
AcDbEntity
  8
0
100
AcDbLine
 62
7
  6
CONTINUOUS
 10
13.7907678738
 20
76.9048121549
 11
13.7907678738
 21
77.2036043191
  0
LINE
  5
22B
100
AcDbEntity
  8
0
100
AcDbLine
 62
7
  6
CONTINUOUS
 10
45.3689785528
 20
105.9531735434
 11
46.0409693683
 21
106.3411453058
  0
LINE
  5
22C
100
AcDbEntity
  8
0
100
AcDbLine
 62
7
  6
CONTINUOUS
 10
42.6762006119
 20
28.0151253854
 11
42.417435308
 21
28.1645202235
  0
LINE
  5
22D
100
AcDbEntity
  8
0
100
AcDbLine
 62
7
  6
CONTINUOUS
 10
43.842897597
 20
28.6887141831
 11
43.5841322931
 21
28.8381090212
  0
LINE
  5
22E
100
AcDbEntity
  8
0
100
AcDbLine
 62
7
  6
CONTINUOUS
 10
45.0095945821
 20
29.3623029807
 11
44.7508292782
 21
29.5116978188
  0
LINE
  5
22F
100
AcDbEntity
  8
0
100
AcDbLine
 62
7
  6
CONTINUOUS
 10
49.7179246502
 20
27.8035961761
 11
50.4957453478
 21
27.3545313461
  0
LINE
  5
230
100
AcDbEntity
  8
0
100
AcDbLine
 62
7
  6
CONTINUOUS
 10
21.9699630316
 20
35.9205622986
 11
21.988545259
 21
35.7392611067
  0
LINE
  5
231
100
AcDbEntity
  8
0
100
AcDbLine
 62
7
  6
CONTINUOUS
 10
21.9703909728
 20
35.9208643105
 11
21.988545259
 21
35.7392611067
  0
LINE
  5
232
100
AcDbEntity
  8
0
100
AcDbLine
 62
7
  6
CONTINUOUS
 10
14.9574648589
 20
77.5784009526
 11
14.9574648589
 21
77.8771931168
  0
LINE
  5
233
100
AcDbEntity
  8
0
100
AcDbLine
 62
7
  6
CONTINUOUS
 10
16.124161844
 20
78.2519897502
 11
16.124161844
 21
78.5507819144
  0
LINE
  5
234
100
AcDbEntity
  8
0
100
AcDbLine
 62
7
  6
CONTINUOUS
 10
17.2908588291
 20
78.9255785478
 11
17.2908588291
 21
79.224370712
  0
LINE
  5
235
100
AcDbEntity
  8
0
100
AcDbLine
 62
7
  6
CONTINUOUS
 10
18.4575558142
 20
79.5991673455
 11
18.4575558142
 21
79.8979595097
  0
LINE
  5
236
100
AcDbEntity
  8
0
100
AcDbLine
 62
7
  6
CONTINUOUS
 10
28.7061788509
 20
92.8998240216
 11
29.1202597908
 21
93.1388923366
  0
LINE
  5
237
100
AcDbEntity
  8
0
100
AcDbLine
 62
7
  6
CONTINUOUS
 10
50.0007838292
 20
104.0549970805
 11
49.3287930136
 21
103.6670253181
  0
LINE
  5
238
100
AcDbEntity
  8
0
100
AcDbLine
 62
7
  6
CONTINUOUS
 10
25.122929708
 20
88.5688783442
 11
25.3900154232
 21
88.7230794334
  0
LINE
  5
239
100
AcDbEntity
  8
0
100
AcDbLine
 62
7
  6
CONTINUOUS
 10
46.1762915672
 20
30.0358917783
 11
45.9175262633
 21
30.1852866164
  0
LINE
  5
23A
100
AcDbEntity
  8
0
100
AcDbLine
 62
7
  6
CONTINUOUS
 10
50.5082714908
 20
27.715618245
 11
49.7658062794
 21
28.1442710373
  0
LINE
  5
23B
100
AcDbEntity
  8
0
100
AcDbLine
 62
7
  6
CONTINUOUS
 10
47.3429885523
 20
30.709480576
 11
47.0842232484
 21
30.8588754141
  0
LINE
  5
23C
100
AcDbEntity
  8
0
100
AcDbLine
 62
7
  6
CONTINUOUS
 10
48.5096855374
 20
31.3830693736
 11
48.2509202335
 21
31.5324642117
  0
LINE
  5
23D
100
AcDbEntity
  8
0
100
AcDbLine
 62
7
  6
CONTINUOUS
 10
24.8758699275
 20
32.4349505582
 11
24.8831374475
 21
32.3574976071
  0
LINE
  5
23E
100
AcDbEntity
  8
0
100
AcDbLine
 62
7
  6
CONTINUOUS
 10
19.6242527993
 20
80.2727561431
 11
19.6242527993
 21
80.5715483073
  0
LINE
  5
23F
100
AcDbEntity
  8
0
100
AcDbLine
 62
7
  6
CONTINUOUS
 10
20.7909497844
 20
80.9463449407
 11
20.7909497844
 21
81.2451371049
  0
LINE
  5
240
100
AcDbEntity
  8
0
100
AcDbLine
 62
7
  6
CONTINUOUS
 10
21.9576467695
 20
81.6199337384
 11
21.9576467695
 21
81.9187259025
  0
LINE
  5
241
100
AcDbEntity
  8
0
100
AcDbLine
 62
7
  6
CONTINUOUS
 10
23.1243437546
 20
82.293522536
 11
23.1243437546
 21
82.5923147002
  0
LINE
  5
242
100
AcDbEntity
  8
0
100
AcDbLine
 62
7
  6
CONTINUOUS
 10
12.9729138093
 20
76.7314188734
 11
11.5461060461
 21
75.8039782861
  0
LINE
  5
243
100
AcDbEntity
  8
0
100
AcDbLine
 62
7
  6
CONTINUOUS
 10
13.7907678738
 20
77.2036043191
 11
14.1396107944
 21
77.4050076711
  0
LINE
  5
244
100
AcDbEntity
  8
0
100
AcDbLine
 62
7
  6
CONTINUOUS
 10
14.9574648589
 20
77.8771931168
 11
15.3063077795
 21
78.0785964687
  0
LINE
  5
245
100
AcDbEntity
  8
0
100
AcDbLine
 62
7
  6
CONTINUOUS
 10
16.124161844
 20
78.5507819144
 11
16.4730047647
 21
78.7521852663
  0
LINE
  5
246
100
AcDbEntity
  8
0
100
AcDbLine
 62
7
  6
CONTINUOUS
 10
17.2908588291
 20
79.224370712
 11
17.6397017498
 21
79.425774064
  0
LINE
  5
247
100
AcDbEntity
  8
0
100
AcDbLine
 62
7
  6
CONTINUOUS
 10
18.4575558142
 20
79.8979595097
 11
18.8063987349
 21
80.0993628616
  0
LINE
  5
248
100
AcDbEntity
  8
0
100
AcDbLine
 62
7
  6
CONTINUOUS
 10
19.6242527993
 20
80.5715483073
 11
19.97309572
 21
80.7729516592
  0
LINE
  5
249
100
AcDbEntity
  8
0
100
AcDbLine
 62
7
  6
CONTINUOUS
 10
20.7909497844
 20
81.2451371049
 11
21.1397927051
 21
81.4465404568
  0
LINE
  5
24A
100
AcDbEntity
  8
0
100
AcDbLine
 62
7
  6
CONTINUOUS
 10
21.9576467695
 20
81.9187259025
 11
22.3064896902
 21
82.1201292545
  0
LINE
  5
24B
100
AcDbEntity
  8
0
100
AcDbLine
 62
7
  6
CONTINUOUS
 10
23.1243437546
 20
82.5923147002
 11
25.122929708
 21
83.7461919506
  0
LINE
  5
24C
100
AcDbEntity
  8
0
100
AcDbLine
 62
7
  6
CONTINUOUS
 10
13.2316791132
 20
76.5820240353
 11
13.7907678738
 21
76.9048121549
  0
LINE
  5
24D
100
AcDbEntity
  8
0
100
AcDbLine
 62
7
  6
CONTINUOUS
 10
14.3983760983
 20
77.255612833
 11
14.9574648589
 21
77.5784009526
  0
LINE
  5
24E
100
AcDbEntity
  8
0
100
AcDbLine
 62
7
  6
CONTINUOUS
 10
15.5650730834
 20
77.9292016306
 11
16.124161844
 21
78.2519897502
  0
LINE
  5
24F
100
AcDbEntity
  8
0
100
AcDbLine
 62
7
  6
CONTINUOUS
 10
16.7317700686
 20
78.6027904282
 11
17.2908588291
 21
78.9255785478
  0
LINE
  5
250
100
AcDbEntity
  8
0
100
AcDbLine
 62
7
  6
CONTINUOUS
 10
17.8984670537
 20
79.2763792259
 11
18.4575558142
 21
79.5991673455
  0
LINE
  5
251
100
AcDbEntity
  8
0
100
AcDbLine
 62
7
  6
CONTINUOUS
 10
19.0651640388
 20
79.9499680235
 11
19.6242527993
 21
80.2727561431
  0
LINE
  5
252
100
AcDbEntity
  8
0
100
AcDbLine
 62
7
  6
CONTINUOUS
 10
20.2318610239
 20
80.6235568211
 11
20.7909497844
 21
80.9463449407
  0
LINE
  5
253
100
AcDbEntity
  8
0
100
AcDbLine
 62
7
  6
CONTINUOUS
 10
21.398558009
 20
81.2971456187
 11
21.9576467695
 21
81.6199337384
  0
LINE
  5
254
100
AcDbEntity
  8
0
100
AcDbLine
 62
7
  6
CONTINUOUS
 10
22.5652549941
 20
81.9707344164
 11
23.1243437546
 21
82.293522536
  0
LINE
  5
255
100
AcDbEntity
  8
0
100
AcDbLine
 62
7
  6
CONTINUOUS
 10
25.8653949194
 20
83.3175391584
 11
25.9152541075
 21
83.3463252022
  0
LINE
  5
256
100
AcDbEntity
  8
0
100
AcDbLine
 62
7
  6
CONTINUOUS
 10
24.8744413062
 20
32.4339227512
 11
24.8831374475
 21
32.3574976071
  0
LINE
  5
257
100
AcDbEntity
  8
0
100
AcDbLine
 62
7
  6
CONTINUOUS
 10
27.3110721562
 20
32.6663682879
 11
27.3079747432
 21
32.6964567545
  0
LINE
  5
258
100
AcDbEntity
  8
0
100
AcDbLine
 62
7
  6
CONTINUOUS
 10
27.0317484621
 20
35.6324199952
 11
27.0187113057
 21
35.7808677596
  0
LINE
  5
259
100
AcDbEntity
  8
0
100
AcDbLine
 62
7
  6
CONTINUOUS
 10
27.0313868177
 20
35.6321718366
 11
27.0187113057
 21
35.7808677596
  0
LINE
  5
25A
100
AcDbEntity
  8
0
100
AcDbLine
 62
7
  6
CONTINUOUS
 10
23.6618556344
 20
53.2980864185
 11
23.6611013543
 21
53.3401645177
  0
LINE
  5
25B
100
AcDbEntity
  8
0
100
AcDbLine
 62
7
  6
CONTINUOUS
 10
23.6611057963
 20
53.2976532929
 11
23.6611013543
 21
53.3401645177
  0
LINE
  5
25C
100
AcDbEntity
  8
0
100
AcDbLine
 62
7
  6
CONTINUOUS
 10
25.122929708
 20
83.7461919506
 11
25.122929708
 21
88.5688783442
  0
LINE
  5
25D
100
AcDbEntity
  8
0
100
AcDbLine
 62
7
  6
CONTINUOUS
 10
25.6301778895
 20
69.4239093675
 11
25.6301778895
 21
69.3371223897
  0
LINE
  5
25E
100
AcDbEntity
  8
0
100
AcDbLine
 62
7
  6
CONTINUOUS
 10
25.8653949194
 20
83.3175391584
 11
25.8653949194
 21
83.3751107666
  0
LINE
  5
25F
100
AcDbEntity
  8
0
100
AcDbLine
 62
7
  6
CONTINUOUS
 10
26.4480319539
 20
69.597302649
 11
26.4480319539
 21
69.8960948132
  0
LINE
  5
260
100
AcDbEntity
  8
0
100
AcDbLine
 62
7
  6
CONTINUOUS
 10
26.5187429264
 20
69.5564785736
 11
26.5187429264
 21
69.8552707378
  0
LINE
  5
261
100
AcDbEntity
  8
0
100
AcDbLine
 62
7
  6
CONTINUOUS
 10
26.7968748746
 20
70.0974981652
 11
26.7968748746
 21
70.0158493344
  0
LINE
  5
262
100
AcDbEntity
  8
0
100
AcDbLine
 62
7
  6
CONTINUOUS
 10
24.2012189854
 20
68.4599348747
 11
24.2033701262
 21
68.4964687802
  0
LINE
  5
263
100
AcDbEntity
  8
0
100
AcDbLine
 62
7
  6
CONTINUOUS
 10
24.2007930038
 20
68.4597304108
 11
24.2033701262
 21
68.4964687802
  0
LINE
  5
264
100
AcDbEntity
  8
0
100
AcDbLine
 62
7
  6
CONTINUOUS
 10
58.0969536054
 20
98.6048399621
 11
58.768944421
 21
98.9928117244
  0
LINE
  5
265
100
AcDbEntity
  8
0
100
AcDbLine
 62
7
  6
CONTINUOUS
 10
33.6147032716
 20
83.4939375595
 11
34.0781050523
 21
83.7614811053
  0
LINE
  5
266
100
AcDbEntity
  8
0
100
AcDbLine
 62
7
  6
CONTINUOUS
 10
34.6979380843
 20
28.5722287173
 11
34.7165203117
 21
28.3909275253
  0
LINE
  5
267
100
AcDbEntity
  8
0
100
AcDbLine
 62
7
  6
CONTINUOUS
 10
34.6983660255
 20
28.5725307291
 11
34.7165203117
 21
28.3909275253
  0
LINE
  5
268
100
AcDbEntity
  8
0
100
AcDbLine
 62
7
  6
CONTINUOUS
 10
27.614728939
 20
70.2708914467
 11
27.614728939
 21
70.5696836108
  0
LINE
  5
269
100
AcDbEntity
  8
0
100
AcDbLine
 62
7
  6
CONTINUOUS
 10
27.6854399115
 20
70.2300673712
 11
27.6854399115
 21
70.5288595354
  0
LINE
  5
26A
100
AcDbEntity
  8
0
100
AcDbLine
 62
7
  6
CONTINUOUS
 10
27.9635718597
 20
70.7710869628
 11
27.9635718597
 21
70.689438132
  0
LINE
  5
26B
100
AcDbEntity
  8
0
100
AcDbLine
 62
7
  6
CONTINUOUS
 10
28.7814259241
 20
70.9444802443
 11
28.7814259241
 21
71.2432724085
  0
LINE
  5
26C
100
AcDbEntity
  8
0
100
AcDbLine
 62
7
  6
CONTINUOUS
 10
28.8521368966
 20
70.9036561688
 11
28.8521368966
 21
71.202448333
  0
LINE
  5
26D
100
AcDbEntity
  8
0
100
AcDbLine
 62
7
  6
CONTINUOUS
 10
29.1302688448
 20
71.4446757604
 11
29.1302688448
 21
71.3630269296
  0
LINE
  5
26E
100
AcDbEntity
  8
0
100
AcDbLine
 62
7
  6
CONTINUOUS
 10
29.9481229092
 20
71.6180690419
 11
29.9481229092
 21
71.9168612061
  0
LINE
  5
26F
100
AcDbEntity
  8
0
100
AcDbLine
 62
7
  6
CONTINUOUS
 10
30.0188338817
 20
71.5772449665
 11
30.0188338817
 21
71.8760371307
  0
LINE
  5
270
100
AcDbEntity
  8
0
100
AcDbLine
 62
7
  6
CONTINUOUS
 10
30.2969658299
 20
72.118264558
 11
30.2969658299
 21
72.0366157273
  0
LINE
  5
271
100
AcDbEntity
  8
0
100
AcDbLine
 62
7
  6
CONTINUOUS
 10
31.1148198943
 20
72.2916578396
 11
31.1148198943
 21
72.5904500037
  0
LINE
  5
272
100
AcDbEntity
  8
0
100
AcDbLine
 62
7
  6
CONTINUOUS
 10
31.1855308668
 20
72.2508337641
 11
31.1855308668
 21
72.5496259283
  0
LINE
  5
273
100
AcDbEntity
  8
0
100
AcDbLine
 62
7
  6
CONTINUOUS
 10
31.463662815
 20
72.7918533557
 11
31.463662815
 21
72.7102045249
  0
LINE
  5
274
100
AcDbEntity
  8
0
100
AcDbLine
 62
7
  6
CONTINUOUS
 10
41.4341539035
 20
85.5514904402
 11
41.8482348434
 21
85.7905587553
  0
LINE
  5
275
100
AcDbEntity
  8
0
100
AcDbLine
 62
7
  6
CONTINUOUS
 10
62.7287588818
 20
96.7066634991
 11
62.0567680662
 21
96.3186917368
  0
LINE
  5
276
100
AcDbEntity
  8
0
100
AcDbLine
 62
7
  6
CONTINUOUS
 10
37.0377285767
 20
81.6900216306
 11
37.6264937386
 21
82.0299433262
  0
LINE
  5
277
100
AcDbEntity
  8
0
100
AcDbLine
 62
7
  6
CONTINUOUS
 10
37.7801937881
 20
81.2613688383
 11
38.36895895
 21
81.6012905339
  0
LINE
  5
278
100
AcDbEntity
  8
0
100
AcDbLine
 62
7
  6
CONTINUOUS
 10
37.8509047606
 20
81.2205447629
 11
38.4396699225
 21
81.5604664585
  0
LINE
  5
279
100
AcDbEntity
  8
0
100
AcDbLine
 62
7
  6
CONTINUOUS
 10
38.593369972
 20
80.7918919706
 11
38.6697540187
 21
80.8359920573
  0
LINE
  5
27A
100
AcDbEntity
  8
0
100
AcDbLine
 62
7
  6
CONTINUOUS
 10
32.2815168794
 20
72.9652466372
 11
32.2815168794
 21
73.2640388014
  0
LINE
  5
27B
100
AcDbEntity
  8
0
100
AcDbLine
 62
7
  6
CONTINUOUS
 10
32.352227852
 20
72.9244225617
 11
32.352227852
 21
73.2232147259
  0
LINE
  5
27C
100
AcDbEntity
  8
0
100
AcDbLine
 62
7
  6
CONTINUOUS
 10
32.6303598001
 20
73.4654421533
 11
32.6303598001
 21
73.3837933225
  0
LINE
  5
27D
100
AcDbEntity
  8
0
100
AcDbLine
 62
7
  6
CONTINUOUS
 10
33.4482138645
 20
73.6388354348
 11
33.4482138645
 21
73.937627599
  0
LINE
  5
27E
100
AcDbEntity
  8
0
100
AcDbLine
 62
7
  6
CONTINUOUS
 10
33.5189248371
 20
73.5980113594
 11
33.5189248371
 21
73.8968035236
  0
LINE
  5
27F
100
AcDbEntity
  8
0
100
AcDbLine
 62
7
  6
CONTINUOUS
 10
33.7970567852
 20
74.1390309509
 11
33.7970567852
 21
74.0573821202
  0
LINE
  5
280
100
AcDbEntity
  8
0
100
AcDbLine
 62
7
  6
CONTINUOUS
 10
34.6149108496
 20
74.3124242324
 11
34.6149108496
 21
74.6112163966
  0
LINE
  5
281
100
AcDbEntity
  8
0
100
AcDbLine
 62
7
  6
CONTINUOUS
 10
34.6856218222
 20
74.271600157
 11
34.6856218222
 21
74.5703923212
  0
LINE
  5
282
100
AcDbEntity
  8
0
100
AcDbLine
 62
7
  6
CONTINUOUS
 10
34.9637537703
 20
74.8126197486
 11
34.9637537703
 21
74.7309709178
  0
LINE
  5
283
100
AcDbEntity
  8
0
100
AcDbLine
 62
7
  6
CONTINUOUS
 10
35.7816078348
 20
74.9860130301
 11
35.7816078348
 21
75.2848051943
  0
LINE
  5
284
100
AcDbEntity
  8
0
100
AcDbLine
 62
7
  6
CONTINUOUS
 10
35.8523188073
 20
74.9451889546
 11
35.8523188073
 21
75.2439811188
  0
LINE
  5
285
100
AcDbEntity
  8
0
100
AcDbLine
 62
7
  6
CONTINUOUS
 10
24.2033701262
 20
68.4964687802
 11
25.6301778895
 21
69.4239093675
  0
LINE
  5
286
100
AcDbEntity
  8
0
100
AcDbLine
 62
7
  6
CONTINUOUS
 10
25.700888862
 20
69.3830852921
 11
24.2740810987
 21
68.4556447047
  0
LINE
  5
287
100
AcDbEntity
  8
0
100
AcDbLine
 62
7
  6
CONTINUOUS
 10
51.2699408794
 20
85.0287238231
 11
81.4314497111
 21
102.4423751208
  0
LINE
  5
288
100
AcDbEntity
  8
0
100
AcDbLine
 62
7
  6
CONTINUOUS
 10
26.4480319539
 20
69.8960948132
 11
26.7968748746
 21
70.0974981652
  0
LINE
  5
289
100
AcDbEntity
  8
0
100
AcDbLine
 62
7
  6
CONTINUOUS
 10
27.614728939
 20
70.5696836108
 11
27.9635718597
 21
70.7710869628
  0
LINE
  5
28A
100
AcDbEntity
  8
0
100
AcDbLine
 62
7
  6
CONTINUOUS
 10
28.7814259241
 20
71.2432724085
 11
29.1302688448
 21
71.4446757604
  0
LINE
  5
28B
100
AcDbEntity
  8
0
100
AcDbLine
 62
7
  6
CONTINUOUS
 10
29.9481229092
 20
71.9168612061
 11
30.2969658299
 21
72.118264558
  0
LINE
  5
28C
100
AcDbEntity
  8
0
100
AcDbLine
 62
7
  6
CONTINUOUS
 10
31.1148198943
 20
72.5904500037
 11
31.463662815
 21
72.7918533557
  0
LINE
  5
28D
100
AcDbEntity
  8
0
100
AcDbLine
 62
7
  6
CONTINUOUS
 10
32.2815168794
 20
73.2640388014
 11
32.6303598001
 21
73.4654421533
  0
LINE
  5
28E
100
AcDbEntity
  8
0
100
AcDbLine
 62
7
  6
CONTINUOUS
 10
33.4482138645
 20
73.937627599
 11
33.7970567852
 21
74.1390309509
  0
LINE
  5
28F
100
AcDbEntity
  8
0
100
AcDbLine
 62
7
  6
CONTINUOUS
 10
34.6149108496
 20
74.6112163966
 11
34.9637537703
 21
74.8126197486
  0
LINE
  5
290
100
AcDbEntity
  8
0
100
AcDbLine
 62
7
  6
CONTINUOUS
 10
35.7816078348
 20
75.2848051943
 11
37.7801937881
 21
76.4386824447
  0
LINE
  5
291
100
AcDbEntity
  8
0
100
AcDbLine
 62
7
  6
CONTINUOUS
 10
26.5187429264
 20
69.8552707378
 11
26.8675858471
 21
70.0566740897
  0
LINE
  5
292
100
AcDbEntity
  8
0
100
AcDbLine
 62
7
  6
CONTINUOUS
 10
27.6854399115
 20
70.5288595354
 11
28.0342828322
 21
70.7302628873
  0
LINE
  5
293
100
AcDbEntity
  8
0
100
AcDbLine
 62
7
  6
CONTINUOUS
 10
28.8521368966
 20
71.202448333
 11
29.2009798173
 21
71.403851685
  0
LINE
  5
294
100
AcDbEntity
  8
0
100
AcDbLine
 62
7
  6
CONTINUOUS
 10
30.0188338817
 20
71.8760371307
 11
30.3676768024
 21
72.0774404826
  0
LINE
  5
295
100
AcDbEntity
  8
0
100
AcDbLine
 62
7
  6
CONTINUOUS
 10
31.1855308668
 20
72.5496259283
 11
31.5343737875
 21
72.7510292802
  0
LINE
  5
296
100
AcDbEntity
  8
0
100
AcDbLine
 62
7
  6
CONTINUOUS
 10
32.352227852
 20
73.2232147259
 11
32.7010707726
 21
73.4246180779
  0
LINE
  5
297
100
AcDbEntity
  8
0
100
AcDbLine
 62
7
  6
CONTINUOUS
 10
33.5189248371
 20
73.8968035236
 11
33.8677677577
 21
74.0982068755
  0
LINE
  5
298
100
AcDbEntity
  8
0
100
AcDbLine
 62
7
  6
CONTINUOUS
 10
34.6856218222
 20
74.5703923212
 11
35.0344647428
 21
74.7717956731
  0
LINE
  5
299
100
AcDbEntity
  8
0
100
AcDbLine
 62
7
  6
CONTINUOUS
 10
35.8523188073
 20
75.2439811188
 11
37.8509047606
 21
76.3978583693
  0
LINE
  5
29A
100
AcDbEntity
  8
0
100
AcDbLine
 62
7
  6
CONTINUOUS
 10
25.8889431934
 20
69.2745145294
 11
26.4480319539
 21
69.597302649
  0
LINE
  5
29B
100
AcDbEntity
  8
0
100
AcDbLine
 62
7
  6
CONTINUOUS
 10
27.0556401785
 20
69.948103327
 11
27.614728939
 21
70.2708914467
  0
LINE
  5
29C
100
AcDbEntity
  8
0
100
AcDbLine
 62
7
  6
CONTINUOUS
 10
28.2223371636
 20
70.6216921247
 11
28.7814259241
 21
70.9444802443
  0
LINE
  5
29D
100
AcDbEntity
  8
0
100
AcDbLine
 62
7
  6
CONTINUOUS
 10
29.3890341487
 20
71.2952809223
 11
29.9481229092
 21
71.6180690419
  0
LINE
  5
29E
100
AcDbEntity
  8
0
100
AcDbLine
 62
7
  6
CONTINUOUS
 10
30.5557311338
 20
71.9688697199
 11
31.1148198943
 21
72.2916578396
  0
LINE
  5
29F
100
AcDbEntity
  8
0
100
AcDbLine
 62
7
  6
CONTINUOUS
 10
31.7224281189
 20
72.6424585176
 11
32.2815168794
 21
72.9652466372
  0
LINE
  5
2A0
100
AcDbEntity
  8
0
100
AcDbLine
 62
7
  6
CONTINUOUS
 10
32.889125104
 20
73.3160473152
 11
33.4482138645
 21
73.6388354348
  0
LINE
  5
2A1
100
AcDbEntity
  8
0
100
AcDbLine
 62
7
  6
CONTINUOUS
 10
34.0558220891
 20
73.9896361128
 11
34.6149108496
 21
74.3124242324
  0
LINE
  5
2A2
100
AcDbEntity
  8
0
100
AcDbLine
 62
7
  6
CONTINUOUS
 10
35.2225190742
 20
74.6632249105
 11
35.7816078348
 21
74.9860130301
  0
LINE
  5
2A3
100
AcDbEntity
  8
0
100
AcDbLine
 62
7
  6
CONTINUOUS
 10
25.9596541659
 20
69.233690454
 11
26.5187429264
 21
69.5564785736
  0
LINE
  5
2A4
100
AcDbEntity
  8
0
100
AcDbLine
 62
7
  6
CONTINUOUS
 10
27.126351151
 20
69.9072792516
 11
27.6854399115
 21
70.2300673712
  0
LINE
  5
2A5
100
AcDbEntity
  8
0
100
AcDbLine
 62
7
  6
CONTINUOUS
 10
28.2930481361
 20
70.5808680492
 11
28.8521368966
 21
70.9036561688
  0
LINE
  5
2A6
100
AcDbEntity
  8
0
100
AcDbLine
 62
7
  6
CONTINUOUS
 10
29.4597451212
 20
71.2544568469
 11
30.0188338817
 21
71.5772449665
  0
LINE
  5
2A7
100
AcDbEntity
  8
0
100
AcDbLine
 62
7
  6
CONTINUOUS
 10
30.6264421063
 20
71.9280456445
 11
31.1855308668
 21
72.2508337641
  0
LINE
  5
2A8
100
AcDbEntity
  8
0
100
AcDbLine
 62
7
  6
CONTINUOUS
 10
31.7931390914
 20
72.6016344421
 11
32.352227852
 21
72.9244225617
  0
LINE
  5
2A9
100
AcDbEntity
  8
0
100
AcDbLine
 62
7
  6
CONTINUOUS
 10
32.9598360765
 20
73.2752232398
 11
33.5189248371
 21
73.5980113594
  0
LINE
  5
2AA
100
AcDbEntity
  8
0
100
AcDbLine
 62
7
  6
CONTINUOUS
 10
34.1265330616
 20
73.9488120374
 11
34.6856218222
 21
74.271600157
  0
LINE
  5
2AB
100
AcDbEntity
  8
0
100
AcDbLine
 62
7
  6
CONTINUOUS
 10
35.2932300467
 20
74.622400835
 11
35.8523188073
 21
74.9451889546
  0
LINE
  5
2AC
100
AcDbEntity
  8
0
100
AcDbLine
 62
7
  6
CONTINUOUS
 10
38.593369972
 20
75.969205577
 11
38.6432291601
 21
75.9979916208
  0
LINE
  5
2AD
100
AcDbEntity
  8
0
100
AcDbLine
 62
7
  6
CONTINUOUS
 10
37.0377285767
 20
77.0615465696
 11
36.918770528
 21
76.9935857529
  0
LINE
  5
2AE
100
AcDbEntity
  8
0
100
AcDbLine
 62
7
  6
CONTINUOUS
 10
81.4314497111
 20
102.4423751208
 11
84.1310505383
 21
103.919352604
  0
LINE
  5
2AF
100
AcDbEntity
  8
0
100
AcDbLine
 62
7
  6
CONTINUOUS
 10
37.0377285767
 20
76.867335237
 11
37.0377285767
 21
81.6900216306
  0
LINE
  5
2B0
100
AcDbEntity
  8
0
100
AcDbLine
 62
7
  6
CONTINUOUS
 10
37.7801937881
 20
76.4386824447
 11
37.7801937881
 21
81.2613688383
  0
LINE
  5
2B1
100
AcDbEntity
  8
0
100
AcDbLine
 62
7
  6
CONTINUOUS
 10
37.8509047606
 20
76.3978583693
 11
37.8509047606
 21
81.2205447629
  0
LINE
  5
2B2
100
AcDbEntity
  8
0
100
AcDbLine
 62
7
  6
CONTINUOUS
 10
38.3581529421
 20
62.0755757861
 11
38.3581529421
 21
61.776783622
  0
LINE
  5
2B3
100
AcDbEntity
  8
0
100
AcDbLine
 62
7
  6
CONTINUOUS
 10
38.3582555921
 20
25.820965711
 11
38.3582555921
 21
25.5221735469
  0
LINE
  5
2B4
100
AcDbEntity
  8
0
100
AcDbLine
 62
7
  6
CONTINUOUS
 10
38.593369972
 20
75.969205577
 11
38.593369972
 21
80.7918919706
  0
LINE
  5
2B5
100
AcDbEntity
  8
0
100
AcDbLine
 62
7
  6
CONTINUOUS
 10
39.1760070066
 20
62.2489690677
 11
39.1760070066
 21
62.5477612319
  0
LINE
  5
2B6
100
AcDbEntity
  8
0
100
AcDbLine
 62
7
  6
CONTINUOUS
 10
39.1761096566
 20
25.9943589926
 11
39.1761096566
 21
26.2931511567
  0
LINE
  5
2B7
100
AcDbEntity
  8
0
100
AcDbLine
 62
7
  6
CONTINUOUS
 10
39.5248499272
 20
62.7491645838
 11
39.5248499272
 21
62.4503724196
  0
LINE
  5
2B8
100
AcDbEntity
  8
0
100
AcDbLine
 62
7
  6
CONTINUOUS
 10
39.5249525772
 20
26.4945545087
 11
39.5249525772
 21
26.1957623445
  0
LINE
  5
2B9
100
AcDbEntity
  8
0
100
AcDbLine
 62
7
  6
CONTINUOUS
 10
46.3426783243
 20
76.1456039781
 11
46.8060801049
 21
76.4131475239
  0
LINE
  5
2BA
100
AcDbEntity
  8
0
100
AcDbLine
 62
7
  6
CONTINUOUS
 10
11.5461060461
 20
75.8039782861
 11
24.2033701262
 21
68.4964687802
  0
LINE
  5
2BB
100
AcDbEntity
  8
0
100
AcDbLine
 62
7
  6
CONTINUOUS
 10
24.2740810987
 20
68.4556447047
 11
36.9313451788
 21
61.1481351988
  0
LINE
  5
2BC
100
AcDbEntity
  8
0
100
AcDbLine
 62
7
  6
CONTINUOUS
 10
38.3581529421
 20
62.0755757861
 11
25.700888862
 21
69.3830852921
  0
LINE
  5
2BD
100
AcDbEntity
  8
0
100
AcDbLine
 62
7
  6
CONTINUOUS
 10
25.6301778895
 20
69.4239093675
 11
12.9729138093
 21
76.7314188734
  0
LINE
  5
2BE
100
AcDbEntity
  8
0
100
AcDbLine
 62
7
  6
CONTINUOUS
 10
74.4868656936
 20
41.3507816844
 11
74.3060354964
 21
41.4551816856
  0
LINE
  5
2BF
100
AcDbEntity
  8
0
100
AcDbLine
 62
7
  6
CONTINUOUS
 10
39.1760070066
 20
62.2489690677
 11
26.5187429264
 21
69.5564785736
  0
LINE
  5
2C0
100
AcDbEntity
  8
0
100
AcDbLine
 62
7
  6
CONTINUOUS
 10
26.4480319539
 20
69.597302649
 11
13.7907678738
 21
76.9048121549
  0
LINE
  5
2C1
100
AcDbEntity
  8
0
100
AcDbLine
 62
7
  6
CONTINUOUS
 10
39.1760070066
 20
62.5477612319
 11
26.5187429264
 21
69.8552707378
  0
LINE
  5
2C2
100
AcDbEntity
  8
0
100
AcDbLine
 62
7
  6
CONTINUOUS
 10
26.4480319539
 20
69.8960948132
 11
13.7907678738
 21
77.2036043191
  0
LINE
  5
2C3
100
AcDbEntity
  8
0
100
AcDbLine
 62
7
  6
CONTINUOUS
 10
39.5248499272
 20
62.7491645838
 11
26.8675858471
 21
70.0566740897
  0
LINE
  5
2C4
100
AcDbEntity
  8
0
100
AcDbLine
 62
7
  6
CONTINUOUS
 10
26.7968748746
 20
70.0974981652
 11
14.1396107944
 21
77.4050076711
  0
LINE
  5
2C5
100
AcDbEntity
  8
0
100
AcDbLine
 62
7
  6
CONTINUOUS
 10
40.3427039917
 20
62.9225578653
 11
40.3427039917
 21
63.2213500295
  0
LINE
  5
2C6
100
AcDbEntity
  8
0
100
AcDbLine
 62
7
  6
CONTINUOUS
 10
40.3428066417
 20
26.6679477902
 11
40.3428066417
 21
26.9667399544
  0
LINE
  5
2C7
100
AcDbEntity
  8
0
100
AcDbLine
 62
7
  6
CONTINUOUS
 10
40.6915469123
 20
63.4227533814
 11
40.6915469123
 21
63.1239612172
  0
LINE
  5
2C8
100
AcDbEntity
  8
0
100
AcDbLine
 62
7
  6
CONTINUOUS
 10
40.6916495623
 20
27.1681433063
 11
40.6916495623
 21
26.8693511421
  0
LINE
  5
2C9
100
AcDbEntity
  8
0
100
AcDbLine
 62
7
  6
CONTINUOUS
 10
41.5094009768
 20
63.5961466629
 11
41.5094009768
 21
63.8949388271
  0
LINE
  5
2CA
100
AcDbEntity
  8
0
100
AcDbLine
 62
7
  6
CONTINUOUS
 10
41.5095036268
 20
27.3415365878
 11
41.5095036268
 21
27.640328752
  0
LINE
  5
2CB
100
AcDbEntity
  8
0
100
AcDbLine
 62
7
  6
CONTINUOUS
 10
41.8582438974
 20
64.096342179
 11
41.8582438974
 21
63.7975500149
  0
LINE
  5
2CC
100
AcDbEntity
  8
0
100
AcDbLine
 62
7
  6
CONTINUOUS
 10
41.8583465474
 20
27.8417321039
 11
41.8583465474
 21
27.5429399397
  0
LINE
  5
2CD
100
AcDbEntity
  8
0
100
AcDbLine
 62
7
  6
CONTINUOUS
 10
42.6760979619
 20
64.2697354606
 11
42.6760979619
 21
64.5685276247
  0
LINE
  5
2CE
100
AcDbEntity
  8
0
100
AcDbLine
 62
7
  6
CONTINUOUS
 10
42.6762006119
 20
28.0151253854
 11
42.6762006119
 21
28.3139175496
  0
LINE
  5
2CF
100
AcDbEntity
  8
0
100
AcDbLine
 62
7
  6
CONTINUOUS
 10
43.0249408825
 20
64.7699309767
 11
43.0249408825
 21
64.4711388125
  0
LINE
  5
2D0
100
AcDbEntity
  8
0
100
AcDbLine
 62
7
  6
CONTINUOUS
 10
43.0250435325
 20
28.5153209016
 11
43.0250435325
 21
28.2165287374
  0
LINE
  5
2D1
100
AcDbEntity
  8
0
100
AcDbLine
 62
7
  6
CONTINUOUS
 10
43.842794947
 20
64.9433242582
 11
43.842794947
 21
65.2421164224
  0
LINE
  5
2D2
100
AcDbEntity
  8
0
100
AcDbLine
 62
7
  6
CONTINUOUS
 10
43.842897597
 20
28.6887141831
 11
43.842897597
 21
28.9875063473
  0
LINE
  5
2D3
100
AcDbEntity
  8
0
100
AcDbLine
 62
7
  6
CONTINUOUS
 10
44.1916378676
 20
65.4435197743
 11
44.1916378676
 21
65.1447276101
  0
LINE
  5
2D4
100
AcDbEntity
  8
0
100
AcDbLine
 62
7
  6
CONTINUOUS
 10
44.1917405177
 20
29.1889096992
 11
44.1917405177
 21
28.890117535
  0
LINE
  5
2D5
100
AcDbEntity
  8
0
100
AcDbLine
 62
7
  6
CONTINUOUS
 10
49.7657036294
 20
74.3416880492
 11
50.0327893446
 21
74.4958891383
  0
LINE
  5
2D6
100
AcDbEntity
  8
0
100
AcDbLine
 62
7
  6
CONTINUOUS
 10
50.5081688408
 20
73.9130352569
 11
74.4087187254
 21
87.7119417983
  0
LINE
  5
2D7
100
AcDbEntity
  8
0
100
AcDbLine
 62
7
  6
CONTINUOUS
 10
74.4868656936
 20
87.9087013812
 11
50.5184243059
 21
74.2155140056
  0
LINE
  5
2D8
100
AcDbEntity
  8
0
100
AcDbLine
 62
7
  6
CONTINUOUS
 10
40.3427039917
 20
62.9225578653
 11
27.6854399115
 21
70.2300673712
  0
LINE
  5
2D9
100
AcDbEntity
  8
0
100
AcDbLine
 62
7
  6
CONTINUOUS
 10
27.614728939
 20
70.2708914467
 11
14.9574648589
 21
77.5784009526
  0
LINE
  5
2DA
100
AcDbEntity
  8
0
100
AcDbLine
 62
7
  6
CONTINUOUS
 10
40.3427039917
 20
63.2213500295
 11
27.6854399115
 21
70.5288595354
  0
LINE
  5
2DB
100
AcDbEntity
  8
0
100
AcDbLine
 62
7
  6
CONTINUOUS
 10
27.614728939
 20
70.5696836108
 11
14.9574648589
 21
77.8771931168
  0
LINE
  5
2DC
100
AcDbEntity
  8
0
100
AcDbLine
 62
7
  6
CONTINUOUS
 10
75.9160397808
 20
43.0010541804
 11
75.704049756
 21
43.1234439094
  0
LINE
  5
2DD
100
AcDbEntity
  8
0
100
AcDbLine
 62
7
  6
CONTINUOUS
 10
40.6915469123
 20
63.4227533814
 11
28.0342828322
 21
70.7302628873
  0
LINE
  5
2DE
100
AcDbEntity
  8
0
100
AcDbLine
 62
7
  6
CONTINUOUS
 10
27.9635718597
 20
70.7710869628
 11
15.3063077795
 21
78.0785964687
  0
LINE
  5
2DF
100
AcDbEntity
  8
0
100
AcDbLine
 62
7
  6
CONTINUOUS
 10
41.5094009768
 20
63.5961466629
 11
28.8521368966
 21
70.9036561688
  0
LINE
  5
2E0
100
AcDbEntity
  8
0
100
AcDbLine
 62
7
  6
CONTINUOUS
 10
28.7814259241
 20
70.9444802443
 11
16.124161844
 21
78.2519897502
  0
LINE
  5
2E1
100
AcDbEntity
  8
0
100
AcDbLine
 62
7
  6
CONTINUOUS
 10
41.5094009768
 20
63.8949388271
 11
28.8521368966
 21
71.202448333
  0
LINE
  5
2E2
100
AcDbEntity
  8
0
100
AcDbLine
 62
7
  6
CONTINUOUS
 10
28.7814259241
 20
71.2432724085
 11
16.124161844
 21
78.5507819144
  0
LINE
  5
2E3
100
AcDbEntity
  8
0
100
AcDbLine
 62
7
  6
CONTINUOUS
 10
41.8582438974
 20
64.096342179
 11
29.2009798173
 21
71.403851685
  0
LINE
  5
2E4
100
AcDbEntity
  8
0
100
AcDbLine
 62
7
  6
CONTINUOUS
 10
29.1302688448
 20
71.4446757604
 11
16.4730047647
 21
78.7521852663
  0
LINE
  5
2E5
100
AcDbEntity
  8
0
100
AcDbLine
 62
7
  6
CONTINUOUS
 10
42.6760979619
 20
64.2697354606
 11
30.0188338817
 21
71.5772449665
  0
LINE
  5
2E6
100
AcDbEntity
  8
0
100
AcDbLine
 62
7
  6
CONTINUOUS
 10
29.9481229092
 20
71.6180690419
 11
17.2908588291
 21
78.9255785478
  0
LINE
  5
2E7
100
AcDbEntity
  8
0
100
AcDbLine
 62
7
  6
CONTINUOUS
 10
42.6760979619
 20
64.5685276247
 11
30.0188338817
 21
71.8760371307
  0
LINE
  5
2E8
100
AcDbEntity
  8
0
100
AcDbLine
 62
7
  6
CONTINUOUS
 10
29.9481229092
 20
71.9168612061
 11
17.2908588291
 21
79.224370712
  0
LINE
  5
2E9
100
AcDbEntity
  8
0
100
AcDbLine
 62
7
  6
CONTINUOUS
 10
43.0249408825
 20
64.7699309767
 11
30.3676768024
 21
72.0774404826
  0
LINE
  5
2EA
100
AcDbEntity
  8
0
100
AcDbLine
 62
7
  6
CONTINUOUS
 10
30.2969658299
 20
72.118264558
 11
17.6397017498
 21
79.425774064
  0
LINE
  5
2EB
100
AcDbEntity
  8
0
100
AcDbLine
 62
7
  6
CONTINUOUS
 10
43.842794947
 20
64.9433242582
 11
31.1855308668
 21
72.2508337641
  0
LINE
  5
2EC
100
AcDbEntity
  8
0
100
AcDbLine
 62
7
  6
CONTINUOUS
 10
31.1148198943
 20
72.2916578396
 11
18.4575558142
 21
79.5991673455
  0
LINE
  5
2ED
100
AcDbEntity
  8
0
100
AcDbLine
 62
7
  6
CONTINUOUS
 10
43.842794947
 20
65.2421164224
 11
31.1855308668
 21
72.5496259283
  0
LINE
  5
2EE
100
AcDbEntity
  8
0
100
AcDbLine
 62
7
  6
CONTINUOUS
 10
31.1148198943
 20
72.5904500037
 11
18.4575558142
 21
79.8979595097
  0
LINE
  5
2EF
100
AcDbEntity
  8
0
100
AcDbLine
 62
7
  6
CONTINUOUS
 10
45.0094919321
 20
65.6169130558
 11
45.0094919321
 21
65.91570522
  0
LINE
  5
2F0
100
AcDbEntity
  8
0
100
AcDbLine
 62
7
  6
CONTINUOUS
 10
45.0095945821
 20
29.3623029807
 11
45.0095945821
 21
29.6610951449
  0
LINE
  5
2F1
100
AcDbEntity
  8
0
100
AcDbLine
 62
7
  6
CONTINUOUS
 10
45.3583348527
 20
66.1171085719
 11
45.3583348527
 21
65.8183164078
  0
LINE
  5
2F2
100
AcDbEntity
  8
0
100
AcDbLine
 62
7
  6
CONTINUOUS
 10
45.3584375028
 20
29.8624984968
 11
45.3584375028
 21
29.5637063326
  0
LINE
  5
2F3
100
AcDbEntity
  8
0
100
AcDbLine
 62
7
  6
CONTINUOUS
 10
46.0409693683
 20
105.5652082421
 11
46.0409693683
 21
106.3411453058
  0
LINE
  5
2F4
100
AcDbEntity
  8
0
100
AcDbLine
 62
7
  6
CONTINUOUS
 10
46.1761889172
 20
66.2905018535
 11
46.1761889172
 21
66.5892940176
  0
LINE
  5
2F5
100
AcDbEntity
  8
0
100
AcDbLine
 62
7
  6
CONTINUOUS
 10
46.1762915672
 20
30.0358917783
 11
46.1762915672
 21
30.3346839425
  0
LINE
  5
2F6
100
AcDbEntity
  8
0
100
AcDbLine
 62
7
  6
CONTINUOUS
 10
46.5250318378
 20
66.7906973696
 11
46.5250318378
 21
66.4919052054
  0
LINE
  5
2F7
100
AcDbEntity
  8
0
100
AcDbLine
 62
7
  6
CONTINUOUS
 10
46.5251344879
 20
30.5360872944
 11
46.5251344879
 21
30.2372951303
  0
LINE
  5
2F8
100
AcDbEntity
  8
0
100
AcDbLine
 62
7
  6
CONTINUOUS
 10
47.3428859023
 20
66.9640906511
 11
47.3428859023
 21
67.2628828153
  0
LINE
  5
2F9
100
AcDbEntity
  8
0
100
AcDbLine
 62
7
  6
CONTINUOUS
 10
47.3429885523
 20
30.709480576
 11
47.3429885523
 21
31.0082727401
  0
LINE
  5
2FA
100
AcDbEntity
  8
0
100
AcDbLine
 62
7
  6
CONTINUOUS
 10
47.691728823
 20
67.4642861672
 11
47.691728823
 21
67.165494003
  0
LINE
  5
2FB
100
AcDbEntity
  8
0
100
AcDbLine
 62
7
  6
CONTINUOUS
 10
47.691831473
 20
31.2096760921
 11
47.691831473
 21
30.9108839279
  0
LINE
  5
2FC
100
AcDbEntity
  8
0
100
AcDbLine
 62
7
  6
CONTINUOUS
 10
48.5095828874
 20
67.6376794487
 11
48.5095828874
 21
67.9364716129
  0
LINE
  5
2FD
100
AcDbEntity
  8
0
100
AcDbLine
 62
7
  6
CONTINUOUS
 10
48.5096855374
 20
31.3830693736
 11
48.5096855374
 21
31.6818615378
  0
LINE
  5
2FE
100
AcDbEntity
  8
0
100
AcDbLine
 62
7
  6
CONTINUOUS
 10
36.9313451788
 20
61.1481351988
 11
38.3581529421
 21
62.0755757861
  0
LINE
  5
2FF
100
AcDbEntity
  8
0
100
AcDbLine
 62
7
  6
CONTINUOUS
 10
39.1760070066
 20
62.5477612319
 11
39.5248499272
 21
62.7491645838
  0
LINE
  5
300
100
AcDbEntity
  8
0
100
AcDbLine
 62
7
  6
CONTINUOUS
 10
40.3427039917
 20
63.2213500295
 11
40.6915469123
 21
63.4227533814
  0
LINE
  5
301
100
AcDbEntity
  8
0
100
AcDbLine
 62
7
  6
CONTINUOUS
 10
41.5094009768
 20
63.8949388271
 11
41.8582438974
 21
64.096342179
  0
LINE
  5
302
100
AcDbEntity
  8
0
100
AcDbLine
 62
7
  6
CONTINUOUS
 10
42.6760979619
 20
64.5685276247
 11
43.0249408825
 21
64.7699309767
  0
LINE
  5
303
100
AcDbEntity
  8
0
100
AcDbLine
 62
7
  6
CONTINUOUS
 10
43.842794947
 20
65.2421164224
 11
44.1916378676
 21
65.4435197743
  0
LINE
  5
304
100
AcDbEntity
  8
0
100
AcDbLine
 62
7
  6
CONTINUOUS
 10
45.0094919321
 20
65.91570522
 11
45.3583348527
 21
66.1171085719
  0
LINE
  5
305
100
AcDbEntity
  8
0
100
AcDbLine
 62
7
  6
CONTINUOUS
 10
46.1761889172
 20
66.5892940176
 11
46.5250318378
 21
66.7906973696
  0
LINE
  5
306
100
AcDbEntity
  8
0
100
AcDbLine
 62
7
  6
CONTINUOUS
 10
47.3428859023
 20
67.2628828153
 11
47.691728823
 21
67.4642861672
  0
LINE
  5
307
100
AcDbEntity
  8
0
100
AcDbLine
 62
7
  6
CONTINUOUS
 10
48.5095828874
 20
67.9364716129
 11
50.5081688408
 21
69.0903488634
  0
LINE
  5
308
100
AcDbEntity
  8
0
100
AcDbLine
 62
7
  6
CONTINUOUS
 10
38.3581529421
 20
61.776783622
 11
39.1760070066
 21
62.2489690677
  0
LINE
  5
309
100
AcDbEntity
  8
0
100
AcDbLine
 62
7
  6
CONTINUOUS
 10
39.5248499272
 20
62.4503724196
 11
40.3427039917
 21
62.9225578653
  0
LINE
  5
30A
100
AcDbEntity
  8
0
100
AcDbLine
 62
7
  6
CONTINUOUS
 10
40.6915469123
 20
63.1239612172
 11
41.5094009768
 21
63.5961466629
  0
LINE
  5
30B
100
AcDbEntity
  8
0
100
AcDbLine
 62
7
  6
CONTINUOUS
 10
41.8582438974
 20
63.7975500149
 11
42.6760979619
 21
64.2697354606
  0
LINE
  5
30C
100
AcDbEntity
  8
0
100
AcDbLine
 62
7
  6
CONTINUOUS
 10
43.0249408825
 20
64.4711388125
 11
43.842794947
 21
64.9433242582
  0
LINE
  5
30D
100
AcDbEntity
  8
0
100
AcDbLine
 62
7
  6
CONTINUOUS
 10
44.1916378676
 20
65.1447276101
 11
45.0094919321
 21
65.6169130558
  0
LINE
  5
30E
100
AcDbEntity
  8
0
100
AcDbLine
 62
7
  6
CONTINUOUS
 10
45.3583348527
 20
65.8183164078
 11
46.1761889172
 21
66.2905018535
  0
LINE
  5
30F
100
AcDbEntity
  8
0
100
AcDbLine
 62
7
  6
CONTINUOUS
 10
46.5250318378
 20
66.4919052054
 11
47.3428859023
 21
66.9640906511
  0
LINE
  5
310
100
AcDbEntity
  8
0
100
AcDbLine
 62
7
  6
CONTINUOUS
 10
47.691728823
 20
67.165494003
 11
48.5095828874
 21
67.6376794487
  0
LINE
  5
311
100
AcDbEntity
  8
0
100
AcDbLine
 62
7
  6
CONTINUOUS
 10
49.7657036294
 20
69.6726023364
 11
49.6821010669
 21
69.6248401339
  0
LINE
  5
312
100
AcDbEntity
  8
0
100
AcDbLine
 62
7
  6
CONTINUOUS
 10
44.1916378676
 20
65.4435197743
 11
31.5343737875
 21
72.7510292802
  0
LINE
  5
313
100
AcDbEntity
  8
0
100
AcDbLine
 62
7
  6
CONTINUOUS
 10
31.463662815
 20
72.7918533557
 11
18.8063987349
 21
80.0993628616
  0
LINE
  5
314
100
AcDbEntity
  8
0
100
AcDbLine
 62
7
  6
CONTINUOUS
 10
45.0094919321
 20
65.6169130558
 11
32.352227852
 21
72.9244225617
  0
LINE
  5
315
100
AcDbEntity
  8
0
100
AcDbLine
 62
7
  6
CONTINUOUS
 10
32.2815168794
 20
72.9652466372
 11
19.6242527993
 21
80.2727561431
  0
LINE
  5
316
100
AcDbEntity
  8
0
100
AcDbLine
 62
7
  6
CONTINUOUS
 10
45.0094919321
 20
65.91570522
 11
32.352227852
 21
73.2232147259
  0
LINE
  5
317
100
AcDbEntity
  8
0
100
AcDbLine
 62
7
  6
CONTINUOUS
 10
32.2815168794
 20
73.2640388014
 11
19.6242527993
 21
80.5715483073
  0
LINE
  5
318
100
AcDbEntity
  8
0
100
AcDbLine
 62
7
  6
CONTINUOUS
 10
45.3583348527
 20
66.1171085719
 11
32.7010707726
 21
73.4246180779
  0
LINE
  5
319
100
AcDbEntity
  8
0
100
AcDbLine
 62
7
  6
CONTINUOUS
 10
32.6303598001
 20
73.4654421533
 11
19.97309572
 21
80.7729516592
  0
LINE
  5
31A
100
AcDbEntity
  8
0
100
AcDbLine
 62
7
  6
CONTINUOUS
 10
46.1761889172
 20
66.2905018535
 11
33.5189248371
 21
73.5980113594
  0
LINE
  5
31B
100
AcDbEntity
  8
0
100
AcDbLine
 62
7
  6
CONTINUOUS
 10
33.4482138645
 20
73.6388354348
 11
20.7909497844
 21
80.9463449407
  0
LINE
  5
31C
100
AcDbEntity
  8
0
100
AcDbLine
 62
7
  6
CONTINUOUS
 10
46.1761889172
 20
66.5892940176
 11
33.5189248371
 21
73.8968035236
  0
LINE
  5
31D
100
AcDbEntity
  8
0
100
AcDbLine
 62
7
  6
CONTINUOUS
 10
33.4482138645
 20
73.937627599
 11
20.7909497844
 21
81.2451371049
  0
LINE
  5
31E
100
AcDbEntity
  8
0
100
AcDbLine
 62
7
  6
CONTINUOUS
 10
46.5250318378
 20
66.7906973696
 11
33.8677677577
 21
74.0982068755
  0
LINE
  5
31F
100
AcDbEntity
  8
0
100
AcDbLine
 62
7
  6
CONTINUOUS
 10
33.7970567852
 20
74.1390309509
 11
21.1397927051
 21
81.4465404568
  0
LINE
  5
320
100
AcDbEntity
  8
0
100
AcDbLine
 62
7
  6
CONTINUOUS
 10
47.3428859023
 20
66.9640906511
 11
34.6856218222
 21
74.271600157
  0
LINE
  5
321
100
AcDbEntity
  8
0
100
AcDbLine
 62
7
  6
CONTINUOUS
 10
34.6149108496
 20
74.3124242324
 11
21.9576467695
 21
81.6199337384
  0
LINE
  5
322
100
AcDbEntity
  8
0
100
AcDbLine
 62
7
  6
CONTINUOUS
 10
47.3428859023
 20
67.2628828153
 11
34.6856218222
 21
74.5703923212
  0
LINE
  5
323
100
AcDbEntity
  8
0
100
AcDbLine
 62
7
  6
CONTINUOUS
 10
34.6149108496
 20
74.6112163966
 11
21.9576467695
 21
81.9187259025
  0
LINE
  5
324
100
AcDbEntity
  8
0
100
AcDbLine
 62
7
  6
CONTINUOUS
 10
47.691728823
 20
67.4642861672
 11
35.0344647428
 21
74.7717956731
  0
LINE
  5
325
100
AcDbEntity
  8
0
100
AcDbLine
 62
7
  6
CONTINUOUS
 10
34.9637537703
 20
74.8126197486
 11
22.3064896902
 21
82.1201292545
  0
LINE
  5
326
100
AcDbEntity
  8
0
100
AcDbLine
 62
7
  6
CONTINUOUS
 10
48.5095828874
 20
67.6376794487
 11
35.8523188073
 21
74.9451889546
  0
LINE
  5
327
100
AcDbEntity
  8
0
100
AcDbLine
 62
7
  6
CONTINUOUS
 10
35.7816078348
 20
74.9860130301
 11
23.1243437546
 21
82.293522536
  0
LINE
  5
328
100
AcDbEntity
  8
0
100
AcDbLine
 62
7
  6
CONTINUOUS
 10
49.7657036294
 20
69.5190016556
 11
49.7657036294
 21
74.3416880492
  0
LINE
  5
329
100
AcDbEntity
  8
0
100
AcDbLine
 62
7
  6
CONTINUOUS
 10
49.7658062794
 20
32.1082866931
 11
49.7658062794
 21
28.1442710373
  0
LINE
  5
32A
100
AcDbEntity
  8
0
100
AcDbLine
 62
7
  6
CONTINUOUS
 10
50.5081688408
 20
69.0903488634
 11
50.5081688408
 21
73.9130352569
  0
LINE
  5
32B
100
AcDbEntity
  8
0
100
AcDbLine
 62
7
  6
CONTINUOUS
 10
50.5082714908
 20
27.715618245
 11
50.5082714908
 21
32.5369466241
  0
LINE
  5
32C
100
AcDbEntity
  8
0
100
AcDbLine
 62
7
  6
CONTINUOUS
 10
82.2672694455
 20
83.4357938251
 11
81.4314497111
 21
82.9279630752
  0
LINE
  5
32D
100
AcDbEntity
  8
0
100
AcDbLine
 62
7
  6
CONTINUOUS
 10
14.3833753054
 20
42.9877444691
 11
14.4595631609
 21
43.0317312854
  0
LINE
  5
32E
100
AcDbEntity
  8
0
100
AcDbLine
 62
7
  6
CONTINUOUS
 10
48.5095828874
 20
67.9364716129
 11
35.8523188073
 21
75.2439811188
  0
LINE
  5
32F
100
AcDbEntity
  8
0
100
AcDbLine
 62
7
  6
CONTINUOUS
 10
35.7816078348
 20
75.2848051943
 11
23.1243437546
 21
82.5923147002
  0
LINE
  5
330
100
AcDbEntity
  8
0
100
AcDbLine
 62
7
  6
CONTINUOUS
 10
71.6734167575
 20
55.2143085424
 11
71.6324946675
 21
55.2379343876
  0
LINE
  5
331
100
AcDbEntity
  8
0
100
AcDbLine
 62
7
  6
CONTINUOUS
 10
50.5081688408
 20
69.0903488634
 11
49.7657036294
 21
69.5190016556
  0
LINE
  5
332
100
AcDbEntity
  8
0
100
AcDbLine
 62
7
  6
CONTINUOUS
 10
38.593369972
 20
75.969205577
 11
37.8509047606
 21
76.3978583693
  0
LINE
  5
333
100
AcDbEntity
  8
0
100
AcDbLine
 62
7
  6
CONTINUOUS
 10
37.7801937881
 20
76.4386824447
 11
37.0377285767
 21
76.867335237
  0
LINE
  5
334
100
AcDbEntity
  8
0
100
AcDbLine
 62
7
  6
CONTINUOUS
 10
25.8653949194
 20
83.3175391584
 11
25.122929708
 21
83.7461919506
  0
LINE
  5
335
100
AcDbEntity
  8
0
100
AcDbLine
 62
7
  6
CONTINUOUS
 10
49.6821010669
 20
69.6248401338
 11
38.6158338684
 21
76.0138079421
  0
LINE
  5
336
100
AcDbEntity
  8
0
100
AcDbLine
 62
7
  6
CONTINUOUS
 10
36.918770528
 20
76.9935857529
 11
25.7817923569
 21
83.4233776366
  0
LINE
  5
337
100
AcDbEntity
  8
0
100
AcDbLine
 62
7
  6
CONTINUOUS
 10
75.704049756
 20
56.5452402941
 11
75.5195476808
 21
56.6517602071
  0
LINE
  5
338
100
AcDbEntity
  8
0
100
AcDbLine
 62
7
  6
CONTINUOUS
 10
46.0018999086
 20
106.6880227175
 11
46.0409693683
 21
106.3411453058
  0
LINE
  5
339
100
AcDbEntity
  8
0
100
AcDbLine
 62
7
  6
CONTINUOUS
 10
85.3206622365
 20
83.2170704824
 11
83.2887722481
 21
81.9825265084
  0
LINE
  5
33A
100
AcDbEntity
  8
0
100
AcDbLine
 62
7
  6
CONTINUOUS
 10
14.5830971036
 20
40.0147018693
 11
14.6571713391
 21
40.0574683938
  0
LINE
  5
33B
100
AcDbEntity
  8
0
100
AcDbLine
 62
7
  6
CONTINUOUS
 10
50.5081688408
 20
73.9130352569
 11
49.7657036294
 21
74.3416880492
  0
LINE
  5
33C
100
AcDbEntity
  8
0
100
AcDbLine
 62
7
  6
CONTINUOUS
 10
38.593369972
 20
80.7918919706
 11
37.8509047606
 21
81.2205447629
  0
LINE
  5
33D
100
AcDbEntity
  8
0
100
AcDbLine
 62
7
  6
CONTINUOUS
 10
37.7801937881
 20
81.2613688383
 11
37.0377285767
 21
81.6900216306
  0
LINE
  5
33E
100
AcDbEntity
  8
0
100
AcDbLine
 62
7
  6
CONTINUOUS
 10
25.8324743019
 20
88.1592318494
 11
25.122929708
 21
88.5688783442
  0
LINE
  5
33F
100
AcDbEntity
  8
0
100
AcDbLine
 62
7
  6
CONTINUOUS
 10
50.5184243059
 20
74.2155140056
 11
49.7406036082
 21
74.6645788356
  0
LINE
  5
340
100
AcDbEntity
  8
0
100
AcDbLine
 62
7
  6
CONTINUOUS
 10
25.8402948983
 20
88.4631163384
 11
25.0624742006
 21
88.9121811684
  0
LINE
  5
341
100
AcDbEntity
  8
0
100
AcDbLine
 62
7
  6
CONTINUOUS
 10
38.6860612854
 20
81.418215557
 11
36.988997945
 21
82.3979933678
  0
LINE
  5
342
100
AcDbEntity
  8
0
100
AcDbLine
 62
7
  6
CONTINUOUS
 10
85.3206622365
 20
55.9066607796
 11
81.4314497111
 21
58.1520478807
  0
LINE
  5
343
100
AcDbEntity
  8
0
100
AcDbLine
 62
7
  6
CONTINUOUS
 10
58.768944421
 20
98.2168746608
 11
58.768944421
 21
98.9928117244
  0
LINE
  5
344
100
AcDbEntity
  8
0
100
AcDbLine
 62
7
  6
CONTINUOUS
 10
71.6734167575
 20
70.7965029141
 11
75.9160397808
 21
74.109796273
  0
LINE
  5
345
100
AcDbEntity
  8
0
100
AcDbLine
 62
7
  6
CONTINUOUS
 10
75.704049756
 20
74.17859259
 11
71.6324946675
 21
70.9994164667
  0
LINE
  5
346
100
AcDbEntity
  8
0
100
AcDbLine
 62
7
  6
CONTINUOUS
 10
21.6171077937
 20
38.8114415504
 11
21.6932956491
 21
38.8554283666
  0
LINE
  5
347
100
AcDbEntity
  8
0
100
AcDbLine
 62
7
  6
CONTINUOUS
 10
21.8935853871
 20
35.8765208496
 11
21.9703909728
 21
35.9208643105
  0
LINE
  5
348
100
AcDbEntity
  8
0
100
AcDbLine
 62
7
  6
CONTINUOUS
 10
27.111350358
 20
35.6394108877
 11
27.1875382135
 21
35.683397704
  0
LINE
  5
349
100
AcDbEntity
  8
0
100
AcDbLine
 62
7
  6
CONTINUOUS
 10
71.6734167575
 20
70.7965029141
 11
71.6324946675
 21
70.8201287593
  0
LINE
  5
34A
100
AcDbEntity
  8
0
100
AcDbLine
 62
7
  6
CONTINUOUS
 10
25.8139907741
 20
99.7253909859
 11
51.2699408794
 21
85.0287238231
  0
LINE
  5
34B
100
AcDbEntity
  8
0
100
AcDbLine
 62
7
  6
CONTINUOUS
 10
58.7298749613
 20
99.3396891361
 11
58.768944421
 21
98.9928117244
  0
LINE
  5
34C
100
AcDbEntity
  8
0
100
AcDbLine
 62
7
  6
CONTINUOUS
 10
24.8758699275
 20
32.4349505582
 11
24.812426475
 21
32.3983216825
  0
LINE
  5
34D
100
AcDbEntity
  8
0
100
AcDbLine
 62
7
  6
CONTINUOUS
 10
27.3110721562
 20
32.6663682879
 11
27.3851463917
 21
32.7091348125
  0
LINE
  5
34E
100
AcDbEntity
  8
0
100
AcDbLine
 62
7
  6
CONTINUOUS
 10
71.6324946675
 20
55.0209562798
 11
75.704049756
 21
56.5452402941
  0
LINE
  5
34F
100
AcDbEntity
  8
0
100
AcDbLine
 62
7
  6
CONTINUOUS
 10
75.9160397808
 20
56.7999450299
 11
71.6734167575
 21
55.2143085424
  0
LINE
  5
350
100
AcDbEntity
  8
0
100
AcDbLine
 62
7
  6
CONTINUOUS
 10
75.9160397808
 20
87.9086871225
 11
74.4868656936
 21
87.9087013812
  0
LINE
  5
351
100
AcDbEntity
  8
0
100
AcDbLine
 62
7
  6
CONTINUOUS
 10
74.4087187254
 20
87.7119417983
 11
75.704049756
 21
87.6906483689
  0
LINE
  5
352
100
AcDbEntity
  8
0
100
AcDbLine
 62
7
  6
CONTINUOUS
 10
75.9160397808
 20
74.109796273
 11
75.704049756
 21
74.2321860021
  0
LINE
  5
353
100
AcDbEntity
  8
0
100
AcDbLine
 62
7
  6
CONTINUOUS
 10
71.6324946675
 20
70.9994164667
 11
71.6324946675
 21
55.0209562798
  0
LINE
  5
354
100
AcDbEntity
  8
0
100
AcDbLine
 62
7
  6
CONTINUOUS
 10
71.6734167575
 20
55.2143085424
 11
71.6734167575
 21
70.7965029141
  0
LINE
  5
355
100
AcDbEntity
  8
0
100
AcDbLine
 62
7
  6
CONTINUOUS
 10
34.3450828463
 20
31.463107969
 11
34.4212707018
 21
31.5070947853
  0
LINE
  5
356
100
AcDbEntity
  8
0
100
AcDbLine
 62
7
  6
CONTINUOUS
 10
75.704049756
 20
87.6906483689
 11
75.704049756
 21
74.17859259
  0
LINE
  5
357
100
AcDbEntity
  8
0
100
AcDbLine
 62
7
  6
CONTINUOUS
 10
75.704049756
 20
56.5452402941
 11
75.704049756
 21
43.0331845152
  0
LINE
  5
358
100
AcDbEntity
  8
0
100
AcDbLine
 62
7
  6
CONTINUOUS
 10
75.9160397808
 20
43.0010541804
 11
75.9160397808
 21
56.7999450299
  0
LINE
  5
359
100
AcDbEntity
  8
0
100
AcDbLine
 62
7
  6
CONTINUOUS
 10
75.9160397808
 20
74.109796273
 11
75.9160397808
 21
87.9086871225
  0
LINE
  5
35A
100
AcDbEntity
  8
0
100
AcDbLine
 62
7
  6
CONTINUOUS
 10
34.6215604398
 20
28.5281872683
 11
34.6983660255
 21
28.5725307291
  0
LINE
  5
35B
100
AcDbEntity
  8
0
100
AcDbLine
 62
7
  6
CONTINUOUS
 10
81.4314497111
 20
53.7788353361
 11
85.3206622365
 21
55.9066607796
  0
LINE
  5
35C
100
AcDbEntity
  8
0
100
AcDbLine
 62
7
  6
CONTINUOUS
 10
81.4314497111
 20
82.9279630752
 11
81.4314497111
 21
53.7788353361
  0
LINE
  5
35D
100
AcDbEntity
  8
0
100
AcDbLine
 62
7
  6
CONTINUOUS
 10
48.5096855374
 20
31.6818615378
 11
47.691831473
 21
31.2096760921
  0
LINE
  5
35E
100
AcDbEntity
  8
0
100
AcDbLine
 62
7
  6
CONTINUOUS
 10
47.3429885523
 20
31.0082727401
 11
46.5251344879
 21
30.5360872944
  0
LINE
  5
35F
100
AcDbEntity
  8
0
100
AcDbLine
 62
7
  6
CONTINUOUS
 10
46.1762915672
 20
30.3346839425
 11
45.3584375028
 21
29.8624984968
  0
LINE
  5
360
100
AcDbEntity
  8
0
100
AcDbLine
 62
7
  6
CONTINUOUS
 10
45.0095945821
 20
29.6610951449
 11
44.1917405177
 21
29.1889096992
  0
LINE
  5
361
100
AcDbEntity
  8
0
100
AcDbLine
 62
7
  6
CONTINUOUS
 10
43.842897597
 20
28.9875063473
 11
43.0250435325
 21
28.5153209016
  0
LINE
  5
362
100
AcDbEntity
  8
0
100
AcDbLine
 62
7
  6
CONTINUOUS
 10
42.6762006119
 20
28.3139175496
 11
41.8583465474
 21
27.8417321039
  0
LINE
  5
363
100
AcDbEntity
  8
0
100
AcDbLine
 62
7
  6
CONTINUOUS
 10
41.5095036268
 20
27.640328752
 11
40.6916495623
 21
27.1681433063
  0
LINE
  5
364
100
AcDbEntity
  8
0
100
AcDbLine
 62
7
  6
CONTINUOUS
 10
40.3428066417
 20
26.9667399544
 11
39.5249525772
 21
26.4945545087
  0
LINE
  5
365
100
AcDbEntity
  8
0
100
AcDbLine
 62
7
  6
CONTINUOUS
 10
39.1761096566
 20
26.2931511567
 11
38.3582555921
 21
25.820965711
  0
LINE
  5
366
100
AcDbEntity
  8
0
100
AcDbLine
 62
7
  6
CONTINUOUS
 10
50.5082714908
 20
32.5369466241
 11
48.5096855374
 21
31.3830693736
  0
LINE
  5
367
100
AcDbEntity
  8
0
100
AcDbLine
 62
7
  6
CONTINUOUS
 10
47.691831473
 20
30.9108839279
 11
47.3429885523
 21
30.709480576
  0
LINE
  5
368
100
AcDbEntity
  8
0
100
AcDbLine
 62
7
  6
CONTINUOUS
 10
46.5251344879
 20
30.2372951303
 11
46.1762915672
 21
30.0358917783
  0
LINE
  5
369
100
AcDbEntity
  8
0
100
AcDbLine
 62
7
  6
CONTINUOUS
 10
45.3584375028
 20
29.5637063326
 11
45.0095945821
 21
29.3623029807
  0
LINE
  5
36A
100
AcDbEntity
  8
0
100
AcDbLine
 62
7
  6
CONTINUOUS
 10
44.1917405177
 20
28.890117535
 11
43.842897597
 21
28.6887141831
  0
LINE
  5
36B
100
AcDbEntity
  8
0
100
AcDbLine
 62
7
  6
CONTINUOUS
 10
43.0250435325
 20
28.2165287374
 11
42.6762006119
 21
28.0151253854
  0
LINE
  5
36C
100
AcDbEntity
  8
0
100
AcDbLine
 62
7
  6
CONTINUOUS
 10
41.8583465474
 20
27.5429399397
 11
41.5095036268
 21
27.3415365878
  0
LINE
  5
36D
100
AcDbEntity
  8
0
100
AcDbLine
 62
7
  6
CONTINUOUS
 10
40.6916495623
 20
26.8693511421
 11
40.3428066417
 21
26.6679477902
  0
LINE
  5
36E
100
AcDbEntity
  8
0
100
AcDbLine
 62
7
  6
CONTINUOUS
 10
39.5249525772
 20
26.1957623445
 11
39.1761096566
 21
25.9943589926
  0
LINE
  5
36F
100
AcDbEntity
  8
0
100
AcDbLine
 62
7
  6
CONTINUOUS
 10
38.3582555921
 20
25.5221735469
 11
37.5404015277
 21
25.0499881012
  0
LINE
  5
370
100
AcDbEntity
  8
0
100
AcDbLine
 62
7
  6
CONTINUOUS
 10
83.2887722481
 20
81.9825265084
 11
81.5385157621
 21
82.9930147015
  0
LINE
  5
371
100
AcDbEntity
  8
0
100
AcDbLine
 62
7
  6
CONTINUOUS
 10
74.4087187254
 20
87.7119417983
 11
74.2762886846
 21
87.7883985883
  0
LINE
  5
372
100
AcDbEntity
  8
0
100
AcDbLine
 62
7
  6
CONTINUOUS
 10
75.704049756
 20
87.6906483689
 11
75.3263768231
 21
87.9086930055
  0
LINE
  5
373
100
AcDbEntity
  8
0
100
AcDbLine
 62
7
  6
CONTINUOUS
 10
62.0567680662
 20
96.3186917368
 11
58.0969536054
 21
98.6048399621
  0
LINE
  5
374
100
AcDbEntity
  8
0
100
AcDbLine
 62
7
  6
CONTINUOUS
 10
49.3287930136
 20
103.6670253181
 11
45.3689785528
 21
105.9531735434
  0
LINE
  5
375
100
AcDbEntity
  8
0
100
AcDbLine
 62
7
  6
CONTINUOUS
 10
85.3206622365
 20
96.8157535822
 11
85.3206622365
 21
83.2170704824
  0
LINE
  5
376
100
AcDbEntity
  8
0
100
AcDbLine
 62
7
  6
CONTINUOUS
 10
85.3206622365
 20
55.9066607796
 11
85.3206622365
 21
35.5659936949
  0
LINE
  5
377
100
AcDbEntity
  8
0
100
AcDbLine
 62
7
  6
CONTINUOUS
 10
75.704049756
 20
43.0331845152
 11
74.407069184
 21
41.5135131642
  0
LINE
  5
378
100
AcDbEntity
  8
0
100
AcDbLine
 62
7
  6
CONTINUOUS
 10
74.4868656936
 20
41.3507816844
 11
75.9160397808
 21
43.0010541804
  0
LINE
  5
379
100
AcDbEntity
  8
0
100
AcDbLine
 62
7
  6
CONTINUOUS
 10
50.035241045
 20
27.9887163219
 11
49.7179246502
 21
27.8035961761
  0
LINE
  5
37A
100
AcDbEntity
  8
0
100
AcDbLine
 62
7
  6
CONTINUOUS
 10
50.4957453478
 20
27.3545313461
 11
74.4868656936
 21
41.3507816844
  0
LINE
  5
37B
100
AcDbEntity
  8
0
100
AcDbLine
 62
7
  6
CONTINUOUS
 10
74.407069184
 20
41.5135131642
 11
50.5082714908
 21
27.715618245
  0
LINE
  5
37C
100
AcDbEntity
  8
0
100
AcDbLine
 62
7
  6
CONTINUOUS
 10
83.2887722481
 20
81.9825265084
 11
82.2672694455
 21
83.4357938251
  0
LINE
  5
37D
100
AcDbEntity
  8
0
100
AcDbLine
 62
7
  6
CONTINUOUS
 10
84.1310505383
 20
103.919352604
 11
85.3206622365
 21
96.8157535822
  0
LINE
  5
37E
100
AcDbEntity
  8
0
100
AcDbLine
 62
7
  6
CONTINUOUS
 10
85.3206622365
 20
35.5659936949
 11
81.4314497111
 21
33.2029701482
  0
LINE
  5
37F
100
AcDbEntity
  8
0
100
AcDbLine
 62
7
  6
CONTINUOUS
 10
81.4314497111
 20
33.2029701482
 11
51.3891554218
 21
15.8581469878
  0
LINE
  5
380
100
AcDbEntity
  8
0
100
AcDbLine
 62
7
  6
CONTINUOUS
 10
81.431449711
 20
102.4423751208
 11
55.9754996058
 21
117.1390422835
  0
LINE
  5
381
100
AcDbEntity
  8
0
100
AcDbLine
 62
7
  6
CONTINUOUS
 10
84.1310505383
 20
103.919352604
 11
58.675100433
 21
118.6160197668
  0
ARC
  5
382
100
AcDbEntity
  8
0
100
AcDbCircle
 62
7
  6
CONTINUOUS
 10
194.8996877254
 20
53.5408390202
 40
173.8250955253
100
AcDbArc
 50
184.8468957222
 51
185.8179429698
  0
ARC
  5
383
100
AcDbEntity
  8
0
100
AcDbCircle
 62
7
  6
CONTINUOUS
 10
207.6276627777
 20
46.1925054388
 40
173.825095525
100
AcDbArc
 50
184.8468957222
 51
185.8179429698
  0
ARC
  5
384
100
AcDbEntity
  8
0
100
AcDbCircle
 62
7
  6
CONTINUOUS
 10
187.3234185062
 20
57.7986888519
 40
173.5731045289
100
AcDbArc
 50
184.8949853112
 51
185.8680916266
  0
ARC
  5
385
100
AcDbEntity
  8
0
100
AcDbCircle
 62
7
  6
CONTINUOUS
 10
200.0513935588
 20
50.4503552705
 40
173.5731045289
100
AcDbArc
 50
184.8949853112
 51
185.8680916266
  0
ARC
  5
386
100
AcDbEntity
  8
0
100
AcDbCircle
 62
7
  6
CONTINUOUS
 10
193.7277495426
 20
53.5442540377
 40
172.7400612685
100
AcDbArc
 50
184.8926388396
 51
185.8704380981
  0
ARC
  5
387
100
AcDbEntity
  8
0
100
AcDbCircle
 62
7
  6
CONTINUOUS
 10
206.4557245953
 20
46.1959204563
 40
172.7400612685
100
AcDbArc
 50
184.8926388396
 51
185.8704380981
  0
ARC
  5
388
100
AcDbEntity
  8
0
100
AcDbCircle
 62
7
  6
CONTINUOUS
 10
186.4104823372
 20
57.7146585786
 40
172.7366174564
100
AcDbArc
 50
184.8931829412
 51
185.871267467
  0
ARC
  5
389
100
AcDbEntity
  8
0
100
AcDbCircle
 62
7
  6
CONTINUOUS
 10
199.1384573893
 20
50.3663249971
 40
172.7366174559
100
AcDbArc
 50
184.8931829412
 51
185.871267467
  0
ARC
  5
38A
100
AcDbEntity
  8
0
100
AcDbCircle
 62
7
  6
CONTINUOUS
 10
171.1827643532
 20
77.9007395754
 40
134.2691037971
100
AcDbArc
 50
178.0805571933
 51
178.3824642875
  0
ARC
  5
38B
100
AcDbEntity
  8
0
100
AcDbCircle
 62
7
  6
CONTINUOUS
 10
183.7484659682
 20
70.5376893684
 40
134.0713928881
100
AcDbArc
 50
178.2360837815
 51
178.3740557899
  0
ARC
  5
38C
100
AcDbEntity
  8
0
100
AcDbCircle
 62
7
  6
CONTINUOUS
 10
157.2068772697
 20
84.4088159452
 40
131.4291303921
100
AcDbArc
 50
178.232270442
 51
179.988198259
  0
ARC
  5
38D
100
AcDbEntity
  8
0
100
AcDbCircle
 62
7
  6
CONTINUOUS
 10
179.7156830374
 20
70.6296998823
 40
130.0376248867
100
AcDbArc
 50
178.3641624341
 51
179.9966292371
  0
ARC
  5
38E
100
AcDbEntity
  8
0
100
AcDbCircle
 62
7
  6
CONTINUOUS
 10
166.9383140044
 20
77.998525156
 40
130.0235863881
100
AcDbArc
 50
178.3727416702
 51
179.9966639735
  0
ARC
  5
38F
100
AcDbEntity
  8
0
100
AcDbCircle
 62
7
  6
CONTINUOUS
 10
177.68087247
 20
31.1963768036
 40
128.0088588122
100
AcDbArc
 50
179.6153241992
 51
179.9998135039
  0
ARC
  5
390
100
AcDbEntity
  8
0
100
AcDbCircle
 62
7
  6
CONTINUOUS
 10
163.2721544377
 20
78.0043452913
 40
126.357426613
100
AcDbArc
 50
179.9992062758
 51
180.4583258367
  0
ARC
  5
391
100
AcDbEntity
  8
0
100
AcDbCircle
 62
7
  6
CONTINUOUS
 10
176.0354849743
 20
70.6355996722
 40
126.3574266108
100
AcDbArc
 50
179.9992062758
 51
180.4583258367
  0
ARC
  5
392
100
AcDbEntity
  8
0
100
AcDbCircle
 62
7
  6
CONTINUOUS
 10
173.963698609
 20
31.1807150444
 40
124.2916859904
100
AcDbArc
 50
179.9925881941
 51
181.4007572992
  0
ARC
  5
393
100
AcDbEntity
  8
0
100
AcDbCircle
 62
7
  6
CONTINUOUS
 10
171.4802767027
 20
31.1251755878
 40
121.8076486398
100
AcDbArc
 50
181.4031963851
 51
181.5625954341
  0
ARC
  5
394
100
AcDbEntity
  8
0
100
AcDbCircle
 62
7
  6
CONTINUOUS
 10
128.1537477011
 20
44.0077359763
 40
103.1019902381
100
AcDbArc
 50
186.7862243779
 51
187.4974281585
  0
SPLINE
  5
395
100
AcDbEntity
  8
0
100
AcDbSpline
 62
7
  6
CONTINUOUS
 70
0
 71
3
 72
9
 73
5
 74
0
 42
0.0000001
 43
0.0000001
 44
0.0000000001
 40
0.0
 40
0.0
 40
0.0
 40
0.0
 40
0.2537793994
 40
1.0
 40
1.0
 40
1.0
 40
1.0
 10
11.5461060461
 20
75.8039782861
 30
0.0
 10
11.4562181486
 20
74.5240449214
 30
0.0
 10
11.1442999157
 20
69.4777128895
 30
0.0
 10
11.0038372742
 20
64.4204983043
 30
0.0
 10
11.0038372742
 20
60.6476740236
 30
0.0
  0
SPLINE
  5
396
100
AcDbEntity
  8
0
100
AcDbSpline
 62
7
  6
CONTINUOUS
 70
0
 71
3
 72
9
 73
5
 74
0
 42
0.0000001
 43
0.0000001
 44
0.0000000001
 40
0.0
 40
0.0
 40
0.0
 40
0.0
 40
0.5081173723
 40
1.0
 40
1.0
 40
1.0
 40
1.0
 10
11.0038372742
 20
60.6476740236
 30
0.0
 10
11.0038372742
 20
57.0939180889
 30
0.0
 10
11.1868250801
 20
50.0984894698
 30
0.0
 10
11.765438248
 20
43.1238956362
 30
0.0
 10
12.1551623949
 20
39.7058311884
 30
0.0
  0
SPLINE
  5
397
100
AcDbEntity
  8
0
100
AcDbSpline
 62
7
  6
CONTINUOUS
 70
0
 71
3
 72
9
 73
5
 74
0
 42
0.0000001
 43
0.0000001
 44
0.0000000001
 40
0.0
 40
0.0
 40
0.0
 40
0.0
 40
0.4918976928
 40
1.0
 40
1.0
 40
1.0
 40
1.0
 10
24.812426475
 20
32.3983216825
 30
0.0
 10
24.4234797345
 20
35.8095679093
 30
0.0
 10
23.8456139375
 20
42.769983139
 30
0.0
 10
23.6618469794
 20
49.751200102
 30
0.0
 10
23.6611057963
 20
53.2976532929
 30
0.0
  0
SPLINE
  5
398
100
AcDbEntity
  8
0
100
AcDbSpline
 62
7
  6
CONTINUOUS
 70
0
 71
3
 72
9
 73
5
 74
0
 42
0.0000001
 43
0.0000001
 44
0.0000000001
 40
0.0
 40
0.0
 40
0.0
 40
0.0
 40
0.246231531
 40
1.0
 40
1.0
 40
1.0
 40
1.0
 10
23.6611013543
 20
53.3401645177
 30
0.0
 10
23.6611013543
 20
54.5820698677
 30
0.0
 10
23.7072733388
 20
59.6256469089
 30
0.0
 10
23.935066299
 20
64.6672850129
 30
0.0
 10
24.2007930038
 20
68.4597304108
 30
0.0
  0
SPLINE
  5
399
100
AcDbEntity
  8
0
100
AcDbSpline
 62
7
  6
CONTINUOUS
 70
0
 71
3
 72
9
 73
5
 74
0
 42
0.0000001
 43
0.0000001
 44
0.0000000001
 40
0.0
 40
0.0
 40
0.0
 40
0.0
 40
0.2537793994
 40
1.0
 40
1.0
 40
1.0
 40
1.0
 10
24.2740810987
 20
68.4556447047
 30
0.0
 10
24.1841932013
 20
67.17571134
 30
0.0
 10
23.8722749684
 20
62.1293793081
 30
0.0
 10
23.7318123268
 20
57.072164723
 30
0.0
 10
23.7318123268
 20
53.2993404423
 30
0.0
  0
SPLINE
  5
39A
100
AcDbEntity
  8
0
100
AcDbSpline
 62
7
  6
CONTINUOUS
 70
0
 71
3
 72
9
 73
5
 74
0
 42
0.0000001
 43
0.0000001
 44
0.0000000001
 40
0.0
 40
0.0
 40
0.0
 40
0.0
 40
0.5080850101
 40
1.0
 40
1.0
 40
1.0
 40
1.0
 10
23.7318123268
 20
53.2993404423
 30
0.0
 10
23.7318123268
 20
49.758832279
 30
0.0
 10
23.9134513165
 20
42.7890492729
 30
0.0
 10
24.4876833844
 20
35.8398641452
 30
0.0
 10
24.8744413062
 20
32.4339227512
 30
0.0
  0
SPLINE
  5
39B
100
AcDbEntity
  8
0
100
AcDbSpline
 62
7
  6
CONTINUOUS
 70
0
 71
3
 72
9
 73
5
 74
0
 42
0.0000001
 43
0.0000001
 44
0.0000000001
 40
0.0
 40
0.0
 40
0.0
 40
0.0
 40
0.4918826277
 40
1.0
 40
1.0
 40
1.0
 40
1.0
 10
37.5404015277
 20
25.0499881012
 30
0.0
 10
37.1506773807
 20
28.4680525489
 30
0.0
 10
36.5720642128
 20
35.4426463825
 30
0.0
 10
36.3890764069
 20
42.4380750016
 30
0.0
 10
36.3890764069
 20
45.9918309364
 30
0.0
  0
SPLINE
  5
39C
100
AcDbEntity
  8
0
100
AcDbSpline
 62
7
  6
CONTINUOUS
 70
0
 71
3
 72
9
 73
5
 74
0
 42
0.0000001
 43
0.0000001
 44
0.0000000001
 40
0.0
 40
0.0
 40
0.0
 40
0.0
 40
0.2462229937
 40
1.0
 40
1.0
 40
1.0
 40
1.0
 10
36.3890764069
 20
45.9918309364
 30
0.0
 10
36.3890764069
 20
47.2367151491
 30
0.0
 10
36.4354717784
 20
52.2925648463
 30
0.0
 10
36.6643590184
 20
57.3464610644
 30
0.0
 10
36.9313451788
 20
61.1481351988
 30
0.0
  0
SPLINE
  5
39D
100
AcDbEntity
  8
0
100
AcDbSpline
 62
7
  6
CONTINUOUS
 70
0
 71
3
 72
9
 73
5
 74
0
 42
0.0000001
 43
0.0000001
 44
0.0000000001
 40
0.0
 40
0.0
 40
0.0
 40
0.0
 40
0.2540260576
 40
1.0
 40
1.0
 40
1.0
 40
1.0
 10
25.8139907741
 20
99.7253909859
 30
0.0
 10
25.7165363462
 20
98.812636382
 30
0.0
 10
25.3652818511
 20
95.216131207
 30
0.0
 10
25.1454470235
 20
91.6065373718
 30
0.0
 10
25.0624742006
 20
88.9121811684
 30
0.0
  0
SPLINE
  5
39E
100
AcDbEntity
  8
0
100
AcDbSpline
 62
7
  6
CONTINUOUS
 70
0
 71
3
 72
12
 73
8
 74
0
 42
0.0000001
 43
0.0000001
 44
0.0000000001
 40
0.0
 40
0.0
 40
0.0
 40
0.0
 40
0.1132143148
 40
0.2273226593
 40
0.4635595977
 40
0.7193591907
 40
1.0
 40
1.0
 40
1.0
 40
1.0
 10
42.2014889757
 20
84.0315021356
 30
0.0
 10
42.265658733
 20
84.0685502961
 30
0.0
 10
42.4005571536
 20
84.1330218005
 30
0.0
 10
42.6923186406
 20
84.2199235724
 30
0.0
 10
43.0945109882
 20
84.2433356426
 30
0.0
 10
43.5935494636
 20
84.1358429631
 30
0.0
 10
43.9145059675
 20
83.9866915488
 30
0.0
 10
44.0735735037
 20
83.8948559415
 30
0.0
  0
SPLINE
  5
39F
100
AcDbEntity
  8
0
100
AcDbSpline
 62
7
  6
CONTINUOUS
 70
0
 71
3
 72
20
 73
16
 74
0
 42
0.0000001
 43
0.0000001
 44
0.0000000001
 40
0.0
 40
0.0
 40
0.0
 40
0.0
 40
0.0461390849
 40
0.0940037432
 40
0.1446348118
 40
0.1987153741
 40
0.3178733869
 40
0.382924877
 40
0.4509120443
 40
0.5926099064
 40
0.7362320107
 40
0.8064504561
 40
0.8743174235
 40
0.9390681877
 40
1.0
 40
1.0
 40
1.0
 40
1.0
 10
41.4341516942
 20
85.5514774868
 30
0.0
 10
41.2899081841
 20
85.4682168514
 30
0.0
 10
41.0151627141
 20
85.2631538006
 30
0.0
 10
40.6735876415
 20
84.8634145509
 30
0.0
 10
40.4050607964
 20
84.3786637573
 30
0.0
 10
40.1434973293
 20
83.6104862259
 30
0.0
 10
40.0643847825
 20
82.7408351382
 30
0.0
 10
40.1408000032
 20
81.8328272857
 30
0.0
 10
40.3317747796
 20
80.8576770195
 30
0.0
 10
40.7665693701
 20
79.6500625073
 30
0.0
 10
41.4146580806
 20
78.5337369565
 30
0.0
 10
42.0421844416
 20
77.7319505989
 30
0.0
 10
42.5477554753
 20
77.2005668024
 30
0.0
 10
43.0801848946
 20
76.7462465399
 30
0.0
 10
43.4579156496
 20
76.4924807885
 30
0.0
 10
43.6483958672
 20
76.3825094715
 30
0.0
  0
SPLINE
  5
3A0
100
AcDbEntity
  8
0
100
AcDbSpline
 62
7
  6
CONTINUOUS
 70
0
 71
3
 72
11
 73
7
 74
0
 42
0.0000001
 43
0.0000001
 44
0.0000000001
 40
0.0
 40
0.0
 40
0.0
 40
0.0
 40
0.2492102224
 40
0.4367419204
 40
0.6247907918
 40
1.0
 40
1.0
 40
1.0
 40
1.0
 10
38.6158338684
 20
76.0138079421
 30
0.0
 10
38.6151606608
 20
76.0979157308
 30
0.0
 10
38.6132578932
 20
76.2453087319
 30
0.0
 10
38.6125160224
 20
76.456181934
 30
0.0
 10
38.6134288076
 20
76.7095794686
 30
0.0
 10
38.6117911771
 20
76.8996817541
 30
0.0
 10
38.6117911771
 20
77.0263179225
 30
0.0
  0
SPLINE
  5
3A1
100
AcDbEntity
  8
0
100
AcDbSpline
 62
7
  6
CONTINUOUS
 70
0
 71
3
 72
11
 73
7
 74
0
 42
0.0000001
 43
0.0000001
 44
0.0000000001
 40
0.0
 40
0.0
 40
0.0
 40
0.0
 40
0.2492102224
 40
0.4367419204
 40
0.6247907918
 40
1.0
 40
1.0
 40
1.0
 40
1.0
 10
25.7817923569
 20
83.4233776366
 30
0.0
 10
25.7811191494
 20
83.5074854253
 30
0.0
 10
25.7792163817
 20
83.6548784265
 30
0.0
 10
25.778474511
 20
83.8657516285
 30
0.0
 10
25.7793872962
 20
84.1191491631
 30
0.0
 10
25.7777496657
 20
84.3092514487
 30
0.0
 10
25.7777496657
 20
84.4358876171
 30
0.0
  0
SPLINE
  5
3A2
100
AcDbEntity
  8
0
100
AcDbSpline
 62
7
  6
CONTINUOUS
 70
0
 71
3
 72
9
 73
5
 74
0
 42
0.0000001
 43
0.0000001
 44
0.0000000001
 40
0.0
 40
0.0
 40
0.0
 40
0.0
 40
0.2518119933
 40
1.0
 40
1.0
 40
1.0
 40
1.0
 10
38.6860612854
 20
81.418215557
 30
0.0
 10
38.6737138988
 20
81.0497158427
 30
0.0
 10
38.6306760194
 20
79.5861299735
 30
0.0
 10
38.6117911771
 20
78.1218249001
 30
0.0
 10
38.6117911771
 20
77.0263179225
 30
0.0
  0
SPLINE
  5
3A3
100
AcDbEntity
  8
0
100
AcDbSpline
 62
7
  6
CONTINUOUS
 70
0
 71
3
 72
12
 73
8
 74
0
 42
0.0000001
 43
0.0000001
 44
0.0000000001
 40
0.0
 40
0.0
 40
0.0
 40
0.0
 40
0.1132143148
 40
0.2273226593
 40
0.4635595977
 40
0.7193591907
 40
1.0
 40
1.0
 40
1.0
 40
1.0
 10
29.473513923
 20
91.379835717
 30
0.0
 10
29.5376836803
 20
91.4168838774
 30
0.0
 10
29.672582101
 20
91.4813553819
 30
0.0
 10
29.9643435879
 20
91.5682571538
 30
0.0
 10
30.3665359356
 20
91.591669224
 30
0.0
 10
30.865574411
 20
91.4841765445
 30
0.0
 10
31.1865309148
 20
91.3350251302
 30
0.0
 10
31.345598451
 20
91.2431895229
 30
0.0
  0
SPLINE
  5
3A4
100
AcDbEntity
  8
0
100
AcDbSpline
 62
7
  6
CONTINUOUS
 70
0
 71
3
 72
18
 73
14
 74
0
 42
0.0000001
 43
0.0000001
 44
0.0000000001
 40
0.0
 40
0.0
 40
0.0
 40
0.0
 40
0.1526455149
 40
0.3035461756
 40
0.4482657702
 40
0.5830221001
 40
0.705110722
 40
0.7611111091
 40
0.8137834685
 40
0.8634174882
 40
0.9105023807
 40
0.9557395358
 40
1.0
 40
1.0
 40
1.0
 40
1.0
 10
50.0007838292
 20
104.0549970805
 30
0.0
 10
50.3253309117
 20
104.0303137271
 30
0.0
 10
50.9744309054
 20
104.0212244011
 30
0.0
 10
51.927019601
 20
104.1243085701
 30
0.0
 10
52.8220296979
 20
104.3397093753
 30
0.0
 10
53.6203083244
 20
104.6580148237
 30
0.0
 10
54.1932309477
 20
105.008663861
 30
0.0
 10
54.5660873084
 20
105.3312757896
 30
0.0
 10
54.7933132292
 20
105.5821766626
 30
0.0
 10
54.9735564003
 20
105.8461795313
 30
0.0
 10
55.1042743423
 20
106.1206829799
 30
0.0
 10
55.1837534192
 20
106.4023571262
 30
0.0
 10
55.2015224297
 20
106.5936464563
 30
0.0
 10
55.2015258026
 20
106.6880225631
 30
0.0
  0
SPLINE
  5
3A5
100
AcDbEntity
  8
0
100
AcDbSpline
 62
7
  6
CONTINUOUS
 70
0
 71
3
 72
18
 73
14
 74
0
 42
0.0000001
 43
0.0000001
 44
0.0000000001
 40
0.0
 40
0.0
 40
0.0
 40
0.0
 40
0.1526455149
 40
0.3035461756
 40
0.4482657702
 40
0.5830221001
 40
0.705110722
 40
0.7611111091
 40
0.8137834685
 40
0.8634174882
 40
0.9105023807
 40
0.9557395358
 40
1.0
 40
1.0
 40
1.0
 40
1.0
 10
62.7287588818
 20
96.7066634991
 30
0.0
 10
63.0533059644
 20
96.6819801458
 30
0.0
 10
63.7024059581
 20
96.6728908198
 30
0.0
 10
64.6549946536
 20
96.7759749887
 30
0.0
 10
65.5500047505
 20
96.9913757939
 30
0.0
 10
66.348283377
 20
97.3096812423
 30
0.0
 10
66.9212060004
 20
97.6603302796
 30
0.0
 10
67.2940623611
 20
97.9829422082
 30
0.0
 10
67.5212882819
 20
98.2338430812
 30
0.0
 10
67.701531453
 20
98.4978459499
 30
0.0
 10
67.8322493949
 20
98.7723493985
 30
0.0
 10
67.9117284719
 20
99.0540235448
 30
0.0
 10
67.9294974823
 20
99.2453128749
 30
0.0
 10
67.9295008552
 20
99.3396889817
 30
0.0
  0
SPLINE
  5
3A6
100
AcDbEntity
  8
0
100
AcDbSpline
 62
7
  6
CONTINUOUS
 70
0
 71
3
 72
20
 73
16
 74
0
 42
0.0000001
 43
0.0000001
 44
0.0000000001
 40
0.0
 40
0.0
 40
0.0
 40
0.0
 40
0.0461390849
 40
0.0940037432
 40
0.1446348118
 40
0.1987153741
 40
0.3178733869
 40
0.382924877
 40
0.4509120443
 40
0.5926099064
 40
0.7362320107
 40
0.8064504561
 40
0.8743174235
 40
0.9390681877
 40
1.0
 40
1.0
 40
1.0
 40
1.0
 10
28.7061766416
 20
92.8998110682
 30
0.0
 10
28.5619331314
 20
92.8165504327
 30
0.0
 10
28.2871876615
 20
92.611487382
 30
0.0
 10
27.9456125888
 20
92.2117481323
 30
0.0
 10
27.6770857438
 20
91.7269973386
 30
0.0
 10
27.4155222767
 20
90.9588198072
 30
0.0
 10
27.3364097298
 20
90.0891687195
 30
0.0
 10
27.4128249505
 20
89.1811608671
 30
0.0
 10
27.6037997269
 20
88.2060106009
 30
0.0
 10
28.0385943174
 20
86.9983960886
 30
0.0
 10
28.686683028
 20
85.8820705379
 30
0.0
 10
29.3142093889
 20
85.0802841802
 30
0.0
 10
29.8197804226
 20
84.5489003838
 30
0.0
 10
30.3522098419
 20
84.0945801213
 30
0.0
 10
30.7299405969
 20
83.8408143698
 30
0.0
 10
30.9204208145
 20
83.7308430528
 30
0.0
  0
SPLINE
  5
3A7
100
AcDbEntity
  8
0
100
AcDbSpline
 62
7
  6
CONTINUOUS
 70
0
 71
3
 72
12
 73
8
 74
0
 42
0.0000001
 43
0.0000001
 44
0.0000000001
 40
0.0
 40
0.0
 40
0.0
 40
0.0
 40
0.2864309871
 40
0.545609389
 40
0.7803986266
 40
0.8914390888
 40
1.0
 40
1.0
 40
1.0
 40
1.0
 10
46.3971420672
 20
79.3575942598
 30
0.0
 10
46.3854197051
 20
79.1674868715
 30
0.0
 10
46.3347163891
 20
78.8059442003
 30
0.0
 10
46.1624265553
 20
78.3123743329
 30
0.0
 10
45.9381010783
 20
77.9716777965
 30
0.0
 10
45.7188781578
 20
77.7622235114
 30
0.0
 10
45.5981405114
 20
77.6787551981
 30
0.0
 10
45.5356220898
 20
77.6426604469
 30
0.0
  0
SPLINE
  5
3A8
100
AcDbEntity
  8
0
100
AcDbSpline
 62
7
  6
CONTINUOUS
 70
0
 71
3
 72
15
 73
11
 74
0
 42
0.0000001
 43
0.0000001
 44
0.0000000001
 40
0.0
 40
0.0
 40
0.0
 40
0.0
 40
0.1131550878
 40
0.2348424149
 40
0.3629913856
 40
0.4949520975
 40
0.6276707696
 40
0.7579918145
 40
0.8829662046
 40
1.0
 40
1.0
 40
1.0
 40
1.0
 10
44.0735735037
 20
83.8948559415
 30
0.0
 10
44.2474488626
 20
83.7944712273
 30
0.0
 10
44.5884973643
 20
83.5508009164
 30
0.0
 10
45.0489547889
 20
83.0974669225
 30
0.0
 10
45.4630203186
 20
82.5587967302
 30
0.0
 10
45.8159646572
 20
81.9557578259
 30
0.0
 10
46.0955650629
 20
81.3112784281
 30
0.0
 10
46.292470708
 20
80.6497348671
 30
0.0
 10
46.3999029054
 20
79.9961139954
 30
0.0
 10
46.4099221663
 20
79.5648554982
 30
0.0
 10
46.3971420672
 20
79.3575942598
 30
0.0
  0
SPLINE
  5
3A9
100
AcDbEntity
  8
0
100
AcDbSpline
 62
7
  6
CONTINUOUS
 70
0
 71
3
 72
13
 73
9
 74
0
 42
0.0000001
 43
0.0000001
 44
0.0000000001
 40
0.0
 40
0.0
 40
0.0
 40
0.0
 40
0.2853762086
 40
0.5424876121
 40
0.6621095004
 40
0.7771558917
 40
0.8891755686
 40
1.0
 40
1.0
 40
1.0
 40
1.0
 10
43.6483958672
 20
76.3825094715
 30
0.0
 10
43.8815429428
 20
76.2479049898
 30
0.0
 10
44.3473019328
 20
76.0277969473
 30
0.0
 10
44.9623279765
 20
75.8855431118
 30
0.0
 10
45.4275555626
 20
75.8747293819
 30
0.0
 10
45.7534348018
 20
75.9147943725
 30
0.0
 10
46.0611180182
 20
76.0029284866
 30
0.0
 10
46.2521260573
 20
76.093349173
 30
0.0
 10
46.3426725317
 20
76.1456135496
 30
0.0
  0
SPLINE
  5
3AA
100
AcDbEntity
  8
0
100
AcDbSpline
 62
7
  6
CONTINUOUS
 70
0
 71
3
 72
12
 73
8
 74
0
 42
0.0000001
 43
0.0000001
 44
0.0000000001
 40
0.0
 40
0.0
 40
0.0
 40
0.0
 40
0.2864309871
 40
0.545609389
 40
0.7803986266
 40
0.8914390888
 40
1.0
 40
1.0
 40
1.0
 40
1.0
 10
33.6691670145
 20
86.7059278412
 30
0.0
 10
33.6574446525
 20
86.5158204529
 30
0.0
 10
33.6067413364
 20
86.1542777817
 30
0.0
 10
33.4344515026
 20
85.6607079142
 30
0.0
 10
33.2101260256
 20
85.3200113778
 30
0.0
 10
32.9909031051
 20
85.1105570928
 30
0.0
 10
32.8701654588
 20
85.0270887795
 30
0.0
 10
32.8076470371
 20
84.9909940283
 30
0.0
  0
SPLINE
  5
3AB
100
AcDbEntity
  8
0
100
AcDbSpline
 62
7
  6
CONTINUOUS
 70
0
 71
3
 72
15
 73
11
 74
0
 42
0.0000001
 43
0.0000001
 44
0.0000000001
 40
0.0
 40
0.0
 40
0.0
 40
0.0
 40
0.1131550878
 40
0.2348424149
 40
0.3629913856
 40
0.4949520975
 40
0.6276707696
 40
0.7579918145
 40
0.8829662046
 40
1.0
 40
1.0
 40
1.0
 40
1.0
 10
31.345598451
 20
91.2431895229
 30
0.0
 10
31.51947381
 20
91.1428048086
 30
0.0
 10
31.8605223117
 20
90.8991344978
 30
0.0
 10
32.3209797362
 20
90.4458005039
 30
0.0
 10
32.735045266
 20
89.9071303116
 30
0.0
 10
33.0879896045
 20
89.3040914073
 30
0.0
 10
33.3675900102
 20
88.6596120094
 30
0.0
 10
33.5644956553
 20
87.9980684485
 30
0.0
 10
33.6719278527
 20
87.3444475768
 30
0.0
 10
33.6819471137
 20
86.9131890796
 30
0.0
 10
33.6691670145
 20
86.7059278412
 30
0.0
  0
SPLINE
  5
3AC
100
AcDbEntity
  8
0
100
AcDbSpline
 62
7
  6
CONTINUOUS
 70
0
 71
3
 72
13
 73
9
 74
0
 42
0.0000001
 43
0.0000001
 44
0.0000000001
 40
0.0
 40
0.0
 40
0.0
 40
0.0
 40
0.2853762086
 40
0.5424876121
 40
0.6621095004
 40
0.7771558917
 40
0.8891755686
 40
1.0
 40
1.0
 40
1.0
 40
1.0
 10
30.9204208145
 20
83.7308430528
 30
0.0
 10
31.1535678901
 20
83.5962385711
 30
0.0
 10
31.6193268801
 20
83.3761305286
 30
0.0
 10
32.2343529238
 20
83.2338766932
 30
0.0
 10
32.6995805099
 20
83.2230629633
 30
0.0
 10
33.0254597491
 20
83.2631279539
 30
0.0
 10
33.3331429656
 20
83.3512620679
 30
0.0
 10
33.5241510046
 20
83.4416827544
 30
0.0
 10
33.6146974791
 20
83.493947131
 30
0.0
  0
SPLINE
  5
3AD
100
AcDbEntity
  8
0
100
AcDbSpline
 62
7
  6
CONTINUOUS
 70
0
 71
3
 72
11
 73
7
 74
0
 42
0.0000001
 43
0.0000001
 44
0.0000000001
 40
0.0
 40
0.0
 40
0.0
 40
0.0
 40
0.2297155018
 40
0.4753459525
 40
0.7335188396
 40
1.0
 40
1.0
 40
1.0
 40
1.0
 10
66.5822161382
 20
101.217612065
 30
0.0
 10
66.3979871839
 20
101.3239742951
 30
0.0
 10
66.0003587289
 20
101.5162993261
 30
0.0
 10
65.3564587688
 20
101.7368571914
 30
0.0
 10
64.6594399145
 20
101.8942373663
 30
0.0
 10
64.1763823725
 20
101.9540000533
 30
0.0
 10
63.9303180922
 20
101.9727144153
 30
0.0
  0
SPLINE
  5
3AE
100
AcDbEntity
  8
0
100
AcDbSpline
 62
7
  6
CONTINUOUS
 70
0
 71
3
 72
17
 73
13
 74
0
 42
0.0000001
 43
0.0000001
 44
0.0000000001
 40
0.0
 40
0.0
 40
0.0
 40
0.0
 40
0.1526678827
 40
0.3035946091
 40
0.4483360057
 40
0.5831153752
 40
0.7052254255
 40
0.8137193295
 40
0.8633616653
 40
0.910448585
 40
0.955701064
 40
1.0
 40
1.0
 40
1.0
 40
1.0
 10
63.9303180922
 20
101.9727144153
 30
0.0
 10
63.6057886733
 20
101.9973964253
 30
0.0
 10
62.9567213657
 20
102.0064884555
 30
0.0
 10
62.0041494547
 20
101.9033993126
 30
0.0
 10
61.1092531575
 20
101.6880886448
 30
0.0
 10
60.3107192207
 20
101.3695619219
 30
0.0
 10
59.6425935384
 20
100.9609498063
 30
0.0
 10
59.2052284816
 20
100.5441993948
 30
0.0
 10
58.9576363687
 20
100.1817101249
 30
0.0
 10
58.8268548906
 20
99.9072300299
 30
0.0
 10
58.7473438109
 20
99.6254995973
 30
0.0
 10
58.7296093255
 20
99.4341282909
 30
0.0
 10
58.7296151522
 20
99.3396891308
 30
0.0
  0
SPLINE
  5
3AF
100
AcDbEntity
  8
0
100
AcDbSpline
 62
7
  6
CONTINUOUS
 70
0
 71
3
 72
13
 73
9
 74
0
 42
0.0000001
 43
0.0000001
 44
0.0000000001
 40
0.0
 40
0.0
 40
0.0
 40
0.0
 40
0.1130955382
 40
0.2271478679
 40
0.3436667037
 40
0.4639673285
 40
0.7196215875
 40
1.0
 40
1.0
 40
1.0
 40
1.0
 10
29.1202582037
 20
93.1388775222
 30
0.0
 10
29.2147496602
 20
93.1934199628
 30
0.0
 10
29.4134175628
 20
93.2883499642
 30
0.0
 10
29.7323551793
 20
93.3833634728
 30
0.0
 10
30.0688846374
 20
93.4300476338
 30
0.0
 10
30.5453960037
 20
93.4274016098
 30
0.0
 10
31.1714742069
 20
93.2936273269
 30
0.0
 10
31.6439573836
 20
93.0739788246
 30
0.0
 10
31.8782020804
 20
92.9387406453
 30
0.0
  0
SPLINE
  5
3B0
100
AcDbEntity
  8
0
100
AcDbSpline
 62
7
  6
CONTINUOUS
 70
0
 71
3
 72
20
 73
16
 74
0
 42
0.0000001
 43
0.0000001
 44
0.0000000001
 40
0.0
 40
0.0
 40
0.0
 40
0.0
 40
0.126129624
 40
0.1942566785
 40
0.264811866
 40
0.4095515326
 40
0.552931874
 40
0.6217813647
 40
0.6875420005
 40
0.7495317171
 40
0.8072996702
 40
0.86071025
 40
0.9100341976
 40
0.9560382277
 40
1.0
 40
1.0
 40
1.0
 40
1.0
 10
44.606177133
 20
85.5904070639
 30
0.0
 10
44.9968899899
 20
85.364833994
 30
0.0
 10
45.5489078958
 20
84.9275400348
 30
0.0
 10
46.1884849242
 20
84.2279907805
 30
0.0
 10
46.7945657305
 20
83.4131846497
 30
0.0
 10
47.4107307138
 20
82.2795817538
 30
0.0
 10
47.8186744526
 20
81.0618756256
 30
0.0
 10
47.9991747455
 20
80.0826575139
 30
0.0
 10
48.0565983919
 20
79.38044473
 30
0.0
 10
48.0367678668
 20
78.7156187968
 30
0.0
 10
47.9397753492
 20
78.10190257
 30
0.0
 10
47.7668046441
 20
77.5519117652
 30
0.0
 10
47.5196484222
 20
77.0770973505
 30
0.0
 10
47.2015624379
 20
76.6886302619
 30
0.0
 10
46.9422612883
 20
76.491767371
 30
0.0
 10
46.8060730099
 20
76.413158146
 30
0.0
  0
SPLINE
  5
3B1
100
AcDbEntity
  8
0
100
AcDbSpline
 62
7
  6
CONTINUOUS
 70
0
 71
3
 72
12
 73
8
 74
0
 42
0.0000001
 43
0.0000001
 44
0.0000000001
 40
0.0
 40
0.0
 40
0.0
 40
0.0
 40
0.111350634
 40
0.2238396112
 40
0.4584210426
 40
0.7154209799
 40
1.0
 40
1.0
 40
1.0
 40
1.0
 10
45.5356220898
 20
77.6426604469
 30
0.0
 10
45.4736106563
 20
77.6068584033
 30
0.0
 10
45.3428717606
 20
77.5448440039
 30
0.0
 10
45.0586041141
 20
77.4627647575
 30
0.0
 10
44.6643465518
 20
77.4456239393
 30
0.0
 10
44.173469705
 20
77.5580693523
 30
0.0
 10
43.8560434473
 20
77.707450084
 30
0.0
 10
43.6975601199
 20
77.7989484057
 30
0.0
  0
SPLINE
  5
3B2
100
AcDbEntity
  8
0
100
AcDbSpline
 62
7
  6
CONTINUOUS
 70
0
 71
3
 72
20
 73
16
 74
0
 42
0.0000001
 43
0.0000001
 44
0.0000000001
 40
0.0
 40
0.0
 40
0.0
 40
0.0
 40
0.0442635023
 40
0.0905826485
 40
0.140198062
 40
0.1938496169
 40
0.2517921078
 40
0.3138831249
 40
0.3796723095
 40
0.4484829611
 40
0.5916191098
 40
0.7359739386
 40
0.8063158689
 40
0.8742319331
 40
1.0
 40
1.0
 40
1.0
 40
1.0
 10
46.3426725317
 20
76.1456135496
 30
0.0
 10
46.4801821454
 20
76.2249855438
 30
0.0
 10
46.74215562
 20
76.4234253648
 30
0.0
 10
47.0645747099
 20
76.8143081089
 30
0.0
 10
47.3164752176
 20
77.291732637
 30
0.0
 10
47.4944440698
 20
77.844483335
 30
0.0
 10
47.5965709199
 20
78.461016112
 30
0.0
 10
47.6215739762
 20
79.1286386343
 30
0.0
 10
47.5692585593
 20
79.833576365
 30
0.0
 10
47.3955091813
 20
80.8159465301
 30
0.0
 10
46.9952129583
 20
82.0375521224
 30
0.0
 10
46.3846833067
 20
83.1750301459
 30
0.0
 10
45.7818236075
 20
83.9922085143
 30
0.0
 10
45.1444145164
 20
84.6935565932
 30
0.0
 10
44.5928923497
 20
85.1316120181
 30
0.0
 10
44.2022009516
 20
85.3571726991
 30
0.0
  0
SPLINE
  5
3B3
100
AcDbEntity
  8
0
100
AcDbSpline
 62
7
  6
CONTINUOUS
 70
0
 71
3
 72
13
 73
9
 74
0
 42
0.0000001
 43
0.0000001
 44
0.0000000001
 40
0.0
 40
0.0
 40
0.0
 40
0.0
 40
0.279581667
 40
0.5349273803
 40
0.6552931576
 40
0.7720263979
 40
0.8864327908
 40
1.0
 40
1.0
 40
1.0
 40
1.0
 10
44.2022009516
 20
85.3571726991
 30
0.0
 10
43.9677873445
 20
85.4925083966
 30
0.0
 10
43.4943469099
 20
85.7121234791
 30
0.0
 10
42.866670098
 20
85.8447198758
 30
0.0
 10
42.3884814558
 20
85.8461404009
 30
0.0
 10
42.0502579767
 20
85.7984033777
 30
0.0
 10
41.7293973147
 20
85.7021895775
 30
0.0
 10
41.5293761731
 20
85.6064432223
 30
0.0
 10
41.4341516942
 20
85.5514774868
 30
0.0
  0
SPLINE
  5
3B4
100
AcDbEntity
  8
0
100
AcDbSpline
 62
7
  6
CONTINUOUS
 70
0
 71
3
 72
13
 73
9
 74
0
 42
0.0000001
 43
0.0000001
 44
0.0000000001
 40
0.0
 40
0.0
 40
0.0
 40
0.0
 40
0.1080949482
 40
0.2182345225
 40
0.3322574032
 40
0.4516855296
 40
0.7106259001
 40
1.0
 40
1.0
 40
1.0
 40
1.0
 10
67.9295008552
 20
99.3396889817
 30
0.0
 10
67.9295039675
 20
99.426772476
 30
0.0
 10
67.9144311826
 20
99.6029483791
 30
0.0
 10
67.8468409758
 20
99.8631258379
 30
0.0
 10
67.7354729125
 20
100.1177314448
 30
0.0
 10
67.5246719808
 20
100.4551979899
 30
0.0
 10
67.1502391395
 20
100.8490912681
 30
0.0
 10
66.7841100371
 20
101.1010512051
 30
0.0
 10
66.5822161382
 20
101.217612065
 30
0.0
  0
SPLINE
  5
3B5
100
AcDbEntity
  8
0
100
AcDbSpline
 62
7
  6
CONTINUOUS
 70
0
 71
3
 72
12
 73
8
 74
0
 42
0.0000001
 43
0.0000001
 44
0.0000000001
 40
0.0
 40
0.0
 40
0.0
 40
0.0
 40
0.111350634
 40
0.2238396112
 40
0.4584210426
 40
0.7154209799
 40
1.0
 40
1.0
 40
1.0
 40
1.0
 10
32.8076470371
 20
84.9909940283
 30
0.0
 10
32.7456356037
 20
84.9551919846
 30
0.0
 10
32.6148967079
 20
84.8931775853
 30
0.0
 10
32.3306290615
 20
84.8110983389
 30
0.0
 10
31.9363714992
 20
84.7939575206
 30
0.0
 10
31.4454946524
 20
84.9064029336
 30
0.0
 10
31.1280683947
 20
85.0557836653
 30
0.0
 10
30.9695850673
 20
85.1472819871
 30
0.0
  0
SPLINE
  5
3B6
100
AcDbEntity
  8
0
100
AcDbSpline
 62
7
  6
CONTINUOUS
 70
0
 71
3
 72
15
 73
11
 74
0
 42
0.0000001
 43
0.0000001
 44
0.0000000001
 40
0.0
 40
0.0
 40
0.0
 40
0.0
 40
0.1092739609
 40
0.2294826305
 40
0.3581363884
 40
0.4918328436
 40
0.6266895804
 40
0.7587090659
 40
0.8841785387
 40
1.0
 40
1.0
 40
1.0
 40
1.0
 10
59.7046105819
 20
97.6678177397
 30
0.0
 10
59.915533948
 20
97.8236937556
 30
0.0
 10
60.3946024063
 20
98.1031611473
 30
0.0
 10
61.2010090569
 20
98.4091327209
 30
0.0
 10
62.0993326209
 20
98.612112655
 30
0.0
 10
63.0507073465
 20
98.7032670164
 30
0.0
 10
64.0141524676
 20
98.6787568332
 30
0.0
 10
64.9480925464
 20
98.5396148622
 30
0.0
 10
65.8118830474
 20
98.291900221
 30
0.0
 10
66.3414721417
 20
98.0497677425
 30
0.0
 10
66.5822161382
 20
97.9107772757
 30
0.0
  0
SPLINE
  5
3B7
100
AcDbEntity
  8
0
100
AcDbSpline
 62
7
  6
CONTINUOUS
 70
0
 71
3
 72
13
 73
9
 74
0
 42
0.0000001
 43
0.0000001
 44
0.0000000001
 40
0.0
 40
0.0
 40
0.0
 40
0.0
 40
0.1080949482
 40
0.2182345225
 40
0.3322574032
 40
0.4516855296
 40
0.7106259001
 40
1.0
 40
1.0
 40
1.0
 40
1.0
 10
55.2015258026
 20
106.6880225631
 30
0.0
 10
55.2015289148
 20
106.7751060574
 30
0.0
 10
55.18645613
 20
106.9512819605
 30
0.0
 10
55.1188659232
 20
107.2114594193
 30
0.0
 10
55.0074978599
 20
107.4660650262
 30
0.0
 10
54.7966969282
 20
107.8035315713
 30
0.0
 10
54.4222640869
 20
108.1974248495
 30
0.0
 10
54.0561349845
 20
108.4493847865
 30
0.0
 10
53.8542410856
 20
108.5659456464
 30
0.0
  0
SPLINE
  5
3B8
100
AcDbEntity
  8
0
100
AcDbSpline
 62
7
  6
CONTINUOUS
 70
0
 71
3
 72
12
 73
8
 74
0
 42
0.0000001
 43
0.0000001
 44
0.0000000001
 40
0.0
 40
0.0
 40
0.0
 40
0.0
 40
0.2826404331
 40
0.5406053731
 40
0.7769445777
 40
0.8895680769
 40
1.0
 40
1.0
 40
1.0
 40
1.0
 10
28.5779769928
 20
89.6452612733
 30
0.0
 10
28.5897454937
 20
89.8361169186
 30
0.0
 10
28.6425274497
 20
90.2005619963
 30
0.0
 10
28.8230453752
 20
90.6985909626
 30
0.0
 10
29.05665838
 20
91.043052626
 30
0.0
 10
29.2838299656
 20
91.2566178956
 30
0.0
 10
29.4088114569
 20
91.3424799991
 30
0.0
 10
29.473513923
 20
91.379835717
 30
0.0
  0
SPLINE
  5
3B9
100
AcDbEntity
  8
0
100
AcDbSpline
 62
7
  6
CONTINUOUS
 70
0
 71
3
 72
15
 73
11
 74
0
 42
0.0000001
 43
0.0000001
 44
0.0000000001
 40
0.0
 40
0.0
 40
0.0
 40
0.0
 40
0.1133659592
 40
0.2354988103
 40
0.3640515925
 40
0.496188435
 40
0.628778269
 40
0.7587147293
 40
0.8832243847
 40
1.0
 40
1.0
 40
1.0
 40
1.0
 10
30.9695850673
 20
85.1472819871
 30
0.0
 10
30.7954872469
 20
85.2477951366
 30
0.0
 10
30.4527306694
 20
85.4902221434
 30
0.0
 10
29.9853437186
 20
85.938289226
 30
0.0
 10
29.5601936622
 20
86.4699129459
 30
0.0
 10
29.1937985598
 20
87.0652972926
 30
0.0
 10
28.9006063084
 20
87.7026558031
 30
0.0
 10
28.6921721809
 20
88.3585589658
 30
0.0
 10
28.5770529288
 20
89.0086822164
 30
0.0
 10
28.5652325219
 20
89.4385778354
 30
0.0
 10
28.5779769928
 20
89.6452612733
 30
0.0
  0
SPLINE
  5
3BA
100
AcDbEntity
  8
0
100
AcDbSpline
 62
7
  6
CONTINUOUS
 70
0
 71
3
 72
15
 73
11
 74
0
 42
0.0000001
 43
0.0000001
 44
0.0000000001
 40
0.0
 40
0.0
 40
0.0
 40
0.0
 40
0.1092739609
 40
0.2294826305
 40
0.3581363884
 40
0.4918328436
 40
0.6266895804
 40
0.7587090659
 40
0.8841785387
 40
1.0
 40
1.0
 40
1.0
 40
1.0
 10
46.9766355293
 20
105.0161513211
 30
0.0
 10
47.1875588953
 20
105.172027337
 30
0.0
 10
47.6666273537
 20
105.4514947286
 30
0.0
 10
48.4730340042
 20
105.7574663023
 30
0.0
 10
49.3713575683
 20
105.9604462364
 30
0.0
 10
50.3227322939
 20
106.0516005978
 30
0.0
 10
51.2861774149
 20
106.0270904145
 30
0.0
 10
52.2201174938
 20
105.8879484436
 30
0.0
 10
53.0839079948
 20
105.6402338024
 30
0.0
 10
53.613497089
 20
105.3981013238
 30
0.0
 10
53.8542410856
 20
105.259110857
 30
0.0
  0
SPLINE
  5
3BB
100
AcDbEntity
  8
0
100
AcDbSpline
 62
7
  6
CONTINUOUS
 70
0
 71
3
 72
9
 73
5
 74
0
 42
0.0000001
 43
0.0000001
 44
0.0000000001
 40
0.0
 40
0.0
 40
0.0
 40
0.0
 40
0.2445137518
 40
1.0
 40
1.0
 40
1.0
 40
1.0
 10
51.3891554218
 20
15.8581469878
 30
0.0
 10
51.2664625236
 20
16.7901788302
 30
0.0
 10
50.8174650179
 20
20.6088018823
 30
0.0
 10
50.5749540142
 20
24.451022024
 30
0.0
 10
50.4957453478
 20
27.3545313461
 30
0.0
  0
SPLINE
  5
3BC
100
AcDbEntity
  8
0
100
AcDbSpline
 62
7
  6
CONTINUOUS
 70
0
 71
3
 72
20
 73
16
 74
0
 42
0.0000001
 43
0.0000001
 44
0.0000000001
 40
0.0
 40
0.0
 40
0.0
 40
0.0
 40
0.126129624
 40
0.1942566785
 40
0.264811866
 40
0.4095515326
 40
0.552931874
 40
0.6217813647
 40
0.6875420005
 40
0.7495317171
 40
0.8072996702
 40
0.86071025
 40
0.9100341976
 40
0.9560382277
 40
1.0
 40
1.0
 40
1.0
 40
1.0
 10
31.8782020804
 20
92.9387406453
 30
0.0
 10
32.2689149373
 20
92.7131675753
 30
0.0
 10
32.8209328431
 20
92.2758736162
 30
0.0
 10
33.4605098715
 20
91.5763243619
 30
0.0
 10
34.0665906778
 20
90.7615182311
 30
0.0
 10
34.6827556611
 20
89.6279153352
 30
0.0
 10
35.0906993999
 20
88.410209207
 30
0.0
 10
35.2711996928
 20
87.4309910952
 30
0.0
 10
35.3286233392
 20
86.7287783114
 30
0.0
 10
35.3087928142
 20
86.0639523781
 30
0.0
 10
35.2118002965
 20
85.4502361513
 30
0.0
 10
35.0388295915
 20
84.9002453466
 30
0.0
 10
34.7916733696
 20
84.4254309319
 30
0.0
 10
34.4735873852
 20
84.0369638432
 30
0.0
 10
34.2142862356
 20
83.8401009524
 30
0.0
 10
34.0780979573
 20
83.7614917274
 30
0.0
  0
SPLINE
  5
3BD
100
AcDbEntity
  8
0
100
AcDbSpline
 62
7
  6
CONTINUOUS
 70
0
 71
3
 72
13
 73
9
 74
0
 42
0.0000001
 43
0.0000001
 44
0.0000000001
 40
0.0
 40
0.0
 40
0.0
 40
0.0
 40
0.1130955382
 40
0.2271478679
 40
0.3436667037
 40
0.4639673285
 40
0.7196215875
 40
1.0
 40
1.0
 40
1.0
 40
1.0
 10
41.8482332564
 20
85.7905439408
 30
0.0
 10
41.9427247129
 20
85.8450863814
 30
0.0
 10
42.1413926155
 20
85.9400163829
 30
0.0
 10
42.4603302319
 20
86.0350298914
 30
0.0
 10
42.7968596901
 20
86.0817140525
 30
0.0
 10
43.2733710563
 20
86.0790680284
 30
0.0
 10
43.8994492595
 20
85.9452937455
 30
0.0
 10
44.3719324362
 20
85.7256452432
 30
0.0
 10
44.606177133
 20
85.5904070639
 30
0.0
  0
SPLINE
  5
3BE
100
AcDbEntity
  8
0
100
AcDbSpline
 62
7
  6
CONTINUOUS
 70
0
 71
3
 72
13
 73
9
 74
0
 42
0.0000001
 43
0.0000001
 44
0.0000000001
 40
0.0
 40
0.0
 40
0.0
 40
0.0
 40
0.279581667
 40
0.5349273803
 40
0.6552931576
 40
0.7720263979
 40
0.8864327908
 40
1.0
 40
1.0
 40
1.0
 40
1.0
 10
31.474225899
 20
92.7055062805
 30
0.0
 10
31.2398122919
 20
92.8408419779
 30
0.0
 10
30.7663718572
 20
93.0604570605
 30
0.0
 10
30.1386950454
 20
93.1930534572
 30
0.0
 10
29.6605064032
 20
93.1944739823
 30
0.0
 10
29.322282924
 20
93.146736959
 30
0.0
 10
29.001422262
 20
93.0505231589
 30
0.0
 10
28.8014011205
 20
92.9547768037
 30
0.0
 10
28.7061766416
 20
92.8998110682
 30
0.0
  0
SPLINE
  5
3BF
100
AcDbEntity
  8
0
100
AcDbSpline
 62
7
  6
CONTINUOUS
 70
0
 71
3
 72
9
 73
5
 74
0
 42
0.0000001
 43
0.0000001
 44
0.0000000001
 40
0.0
 40
0.0
 40
0.0
 40
0.0
 40
0.2545078079
 40
1.0
 40
1.0
 40
1.0
 40
1.0
 10
66.5822161382
 20
97.9107772757
 30
0.0
 10
66.6081147073
 20
97.8958250681
 30
0.0
 10
66.7092570761
 20
97.8360161743
 30
0.0
 10
66.8078805908
 20
97.7719243916
 30
0.0
 10
66.8796138103
 20
97.7216509551
 30
0.0
  0
SPLINE
  5
3C0
100
AcDbEntity
  8
0
100
AcDbSpline
 62
7
  6
CONTINUOUS
 70
0
 71
3
 72
12
 73
8
 74
0
 42
0.0000001
 43
0.0000001
 44
0.0000000001
 40
0.0
 40
0.0
 40
0.0
 40
0.0
 40
0.2826404331
 40
0.5406053731
 40
0.7769445777
 40
0.8895680769
 40
1.0
 40
1.0
 40
1.0
 40
1.0
 10
41.3059520455
 20
82.296927692
 30
0.0
 10
41.3177205464
 20
82.4877833372
 30
0.0
 10
41.3705025024
 20
82.8522284149
 30
0.0
 10
41.5510204279
 20
83.3502573812
 30
0.0
 10
41.7846334326
 20
83.6947190447
 30
0.0
 10
42.0118050182
 20
83.9082843143
 30
0.0
 10
42.1367865095
 20
83.9941464178
 30
0.0
 10
42.2014889757
 20
84.0315021356
 30
0.0
  0
SPLINE
  5
3C1
100
AcDbEntity
  8
0
100
AcDbSpline
 62
7
  6
CONTINUOUS
 70
0
 71
3
 72
9
 73
5
 74
0
 42
0.0000001
 43
0.0000001
 44
0.0000000001
 40
0.0
 40
0.0
 40
0.0
 40
0.0
 40
0.2545078079
 40
1.0
 40
1.0
 40
1.0
 40
1.0
 10
53.8542410856
 20
105.259110857
 30
0.0
 10
53.8801396546
 20
105.2441586495
 30
0.0
 10
53.9812820235
 20
105.1843497557
 30
0.0
 10
54.0799055381
 20
105.120257973
 30
0.0
 10
54.1516387576
 20
105.0699845365
 30
0.0
  0
SPLINE
  5
3C2
100
AcDbEntity
  8
0
100
AcDbSpline
 62
7
  6
CONTINUOUS
 70
0
 71
3
 72
15
 73
11
 74
0
 42
0.0000001
 43
0.0000001
 44
0.0000000001
 40
0.0
 40
0.0
 40
0.0
 40
0.0
 40
0.1133659592
 40
0.2354988103
 40
0.3640515925
 40
0.496188435
 40
0.628778269
 40
0.7587147293
 40
0.8832243847
 40
1.0
 40
1.0
 40
1.0
 40
1.0
 10
43.6975601199
 20
77.7989484057
 30
0.0
 10
43.5234622996
 20
77.8994615553
 30
0.0
 10
43.180705722
 20
78.141888562
 30
0.0
 10
42.7133187713
 20
78.5899556447
 30
0.0
 10
42.2881687149
 20
79.1215793645
 30
0.0
 10
41.9217736124
 20
79.7169637112
 30
0.0
 10
41.628581361
 20
80.3543222218
 30
0.0
 10
41.4201472335
 20
81.0102253844
 30
0.0
 10
41.3050279814
 20
81.6603486351
 30
0.0
 10
41.2932075745
 20
82.090244254
 30
0.0
 10
41.3059520455
 20
82.296927692
 30
0.0
  0
SPLINE
  5
3C3
100
AcDbEntity
  8
0
100
AcDbSpline
 62
7
  6
CONTINUOUS
 70
0
 71
3
 72
20
 73
16
 74
0
 42
0.0000001
 43
0.0000001
 44
0.0000000001
 40
0.0
 40
0.0
 40
0.0
 40
0.0
 40
0.0442635023
 40
0.0905826485
 40
0.140198062
 40
0.1938496169
 40
0.2517921078
 40
0.3138831249
 40
0.3796723095
 40
0.4484829611
 40
0.5916191098
 40
0.7359739386
 40
0.8063158689
 40
0.8742319331
 40
1.0
 40
1.0
 40
1.0
 40
1.0
 10
33.6146974791
 20
83.493947131
 30
0.0
 10
33.7522070928
 20
83.5733191251
 30
0.0
 10
34.0141805674
 20
83.7717589462
 30
0.0
 10
34.3365996572
 20
84.1626416903
 30
0.0
 10
34.588500165
 20
84.6400662184
 30
0.0
 10
34.7664690172
 20
85.1928169164
 30
0.0
 10
34.8685958673
 20
85.8093496934
 30
0.0
 10
34.8935989235
 20
86.4769722156
 30
0.0
 10
34.8412835066
 20
87.1819099464
 30
0.0
 10
34.6675341286
 20
88.1642801115
 30
0.0
 10
34.2672379057
 20
89.3858857037
 30
0.0
 10
33.6567082541
 20
90.5233637272
 30
0.0
 10
33.0538485549
 20
91.3405420956
 30
0.0
 10
32.4164394638
 20
92.0418901746
 30
0.0
 10
31.864917297
 20
92.4799455995
 30
0.0
 10
31.474225899
 20
92.7055062805
 30
0.0
  0
SPLINE
  5
3C4
100
AcDbEntity
  8
0
100
AcDbSpline
 62
7
  6
CONTINUOUS
 70
0
 71
3
 72
9
 73
5
 74
0
 42
0.0000001
 43
0.0000001
 44
0.0000000001
 40
0.0
 40
0.0
 40
0.0
 40
0.0
 40
0.2459662479
 40
1.0
 40
1.0
 40
1.0
 40
1.0
 10
50.5184243059
 20
74.2155140056
 30
0.0
 10
50.5457825975
 20
75.1039131227
 30
0.0
 10
50.6928548688
 20
78.7146246365
 30
0.0
 10
50.9806629211
 20
82.3193570573
 30
0.0
 10
51.2699408794
 20
85.0287238231
 30
0.0
  0
SPLINE
  5
3C5
100
AcDbEntity
  8
0
100
AcDbSpline
 62
7
  6
CONTINUOUS
 70
0
 71
3
 72
11
 73
7
 74
0
 42
0.0000001
 43
0.0000001
 44
0.0000000001
 40
0.0
 40
0.0
 40
0.0
 40
0.0
 40
0.2297155018
 40
0.4753459525
 40
0.7335188396
 40
1.0
 40
1.0
 40
1.0
 40
1.0
 10
53.8542410856
 20
108.5659456464
 30
0.0
 10
53.6700121313
 20
108.6723078765
 30
0.0
 10
53.2723836762
 20
108.8646329075
 30
0.0
 10
52.6284837162
 20
109.0851907728
 30
0.0
 10
51.9314648619
 20
109.2425709476
 30
0.0
 10
51.4484073198
 20
109.3023336347
 30
0.0
 10
51.2023430396
 20
109.3210479967
 30
0.0
  0
SPLINE
  5
3C6
100
AcDbEntity
  8
0
100
AcDbSpline
 62
7
  6
CONTINUOUS
 70
0
 71
3
 72
17
 73
13
 74
0
 42
0.0000001
 43
0.0000001
 44
0.0000000001
 40
0.0
 40
0.0
 40
0.0
 40
0.0
 40
0.1526678827
 40
0.3035946091
 40
0.4483360057
 40
0.5831153752
 40
0.7052254255
 40
0.8137193295
 40
0.8633616653
 40
0.910448585
 40
0.955701064
 40
1.0
 40
1.0
 40
1.0
 40
1.0
 10
51.2023430396
 20
109.3210479967
 30
0.0
 10
50.8778136206
 20
109.3457300066
 30
0.0
 10
50.2287463131
 20
109.3548220369
 30
0.0
 10
49.276174402
 20
109.2517328939
 30
0.0
 10
48.3812781048
 20
109.0364222261
 30
0.0
 10
47.582744168
 20
108.7178955033
 30
0.0
 10
46.9146184857
 20
108.3092833877
 30
0.0
 10
46.477253429
 20
107.8925329762
 30
0.0
 10
46.2296613161
 20
107.5300437063
 30
0.0
 10
46.098879838
 20
107.2555636113
 30
0.0
 10
46.0193687583
 20
106.9738331787
 30
0.0
 10
46.0016342729
 20
106.7824618723
 30
0.0
 10
46.0016400995
 20
106.6880227121
 30
0.0
  0
ENDSEC
  0
SECTION
  2
OBJECTS
  0
DICTIONARY
  5
C
100
AcDbDictionary
280
0
281
1
  3
ACAD_GROUP
350
D
  3
ACAD_MLINESTYLE
350
17
  3
ACAD_LAYOUT
350
1A
  3
ACAD_PLOTSETTINGS
350
19
  3
ACAD_PLOTSTYLENAME
350
E
  0
DICTIONARY
  5
D
102
{ACAD_REACTORS
330
C
102
}
100
AcDbDictionary
280
0
281
1
  0
ACDBDICTIONARYWDFLT
  5
E
102
{ACAD_REACTORS
330
C
102
}
100
AcDbDictionary
281
1
  3
Normal
350
F
100
AcDbDictionaryWithDefault
340
F
  0
DICTIONARY
  5
17
102
{ACAD_REACTORS
330
C
102
}
100
AcDbDictionary
280
0
281
1
  3
Standard
350
18
  0
DICTIONARY
  5
19
102
{ACAD_REACTORS
330
C
102
}
100
AcDbDictionary
281
1
  0
DICTIONARY
  5
1A
102
{ACAD_REACTORS
330
C
102
}
100
AcDbDictionary
281
1
  3
Model
350
3C7
  3
Layout1
350
3C8
  0
ACDBPLACEHOLDER
  5
F
102
{ACAD_REACTORS
330
E
102
}
  0
MLINESTYLE
  5
18
102
{ACAD_REACTORS
330
17
102
}
100
AcDbMlineStyle
  2
STANDARD
 70
0
  3

 62
256
 51
90.0
 52
90.0
 71
2
 49
0.5
 62
256
  6
BYLAYER
 49
-0.5
 62
256
  6
BYLAYER
  0
LAYOUT
  5
3C7
102
{ACAD_REACTORS
330
1A
102
}
100
AcDbPlotSettings
  1

  2
none_device
  4

  6

 40
0.0
 41
0.0
 42
0.0
 43
0.0
 44
210.0
 45
297.0
 46
0.0
 47
0.0
 48
0.0
 49
0.0
140
0.0
141
0.0
142
1.0
143
1.0
 70
1024
 72
1
 73
0
 74
0
  7

 75
0
147
1.0
148
0.0
149
0.0
100
AcDbLayout
  1
Model
 70
0
 71
0
 10
0.0
 20
0.0
 11
210.0
 21
297.0
 12
0.0
 22
0.0
 32
0.0
 14
0.0
 24
0.0
 34
0.0
 15
0.0
 25
0.0
 35
0.0
146
0.0
 13
0.0
 23
0.0
 33
0.0
 16
1.0
 26
0.0
 36
0.0
 17
0.0
 27
1.0
 37
0.0
 76
0
330
210
345
0
346
0
  0
LAYOUT
  5
3C8
102
{ACAD_REACTORS
330
1A
102
}
100
AcDbPlotSettings
  1

  2
none_device
  4

  6

 40
0.0
 41
0.0
 42
0.0
 43
0.0
 44
210.0
 45
297.0
 46
0.0
 47
0.0
 48
0.0
 49
0.0
140
0.0
141
0.0
142
1.0
143
1.0
 70
0
 72
1
 73
0
 74
0
  7

 75
0
147
1.0
148
0.0
149
0.0
100
AcDbLayout
  1
Layout1
 70
0
 71
1
 10
0.0
 20
0.0
 11
210.0
 21
297.0
 12
0.0
 22
0.0
 32
0.0
 14
0.0
 24
0.0
 34
0.0
 15
0.0
 25
0.0
 35
0.0
146
0.0
 13
0.0
 23
0.0
 33
0.0
 16
1.0
 26
0.0
 36
0.0
 17
0.0
 27
1.0
 37
0.0
 76
0
330
211
345
0
346
0
  0
ENDSEC
  0
EOF
