999
DXF file: C:\Users\sesa63760\Documents\7-Dev\_Creo\CAD\MCADFD0001118_3D-CAD\drw0001_1.dxf
999
Pro/ENGINEER 2019471 by Parametric Technology Corporation
  0
SECTION
  2
HEADER
  9
$ACADVER
  1
AC1024
  9
$DWGCODEPAGE
  3
ANSI_1252
  9
$EXTMAX
 10
127.2959815532
 20
180.0328881967
 30
0.0
  9
$EXTMIN
 10
0.0
 20
0.0
 30
0.0
  9
$LIMMIN
 10
0.0
 20
0.0
  9
$LIMMAX
 10
127.2959815532
 20
180.0328881967
  9
$VIEWCTR
 10
63.6479907766
 20
90.0164440983
  9
$VIEWSIZE
 40
180.0328881967
  9
$CLAYER
  8
0
  9
$LTSCALE
 40
11.7354771565
  9
$CELTYPE
  6
BYLAYER
  9
$DIMSCALE
 40
1.0
  9
$DIMASZ
 40
1.5154283518
  9
$DIMEXO
 40
1.0
  9
$DIMDLI
 40
8.1081478536
  9
$DIMEXE
 40
1.0
  9
$DIMCEN
 40
1.9203508074
  9
$DIMLFAC
 40
1.0
  9
$DIMBLK
  1
_FILLED
  9
$DIMALT
 70
0
  9
$DIMALTF
 40
0.0393700787
  9
$DIMTXT
 40
2.1215996926
  9
$DIMTOL
 70
1
  9
$DIMLIM
 70
0
  9
$DIMTFAC
 40
1.0
  9
$DIMTP
 40
0.01
  9
$DIMTM
 40
0.01
  9
$DIMGAP
 40
0.625
  9
$DIMDSEP
 70
46
  9
$AUNITS
 70
0
  9
$PDMODE
 70
3
  9
$PDSIZE
 40
0.3125
  9
$HANDSEED
  5
516
  9
$TILEMODE
 70
1
  9
$MEASUREMENT
 70
1
  9
$INSUNITS
 70
4
  0
ENDSEC
  0
SECTION
  2
CLASSES
  0
CLASS
  1
ACDBDICTIONARYWDFLT
  2
AcDbDictionaryWithDefault
  3
AutoCAD 2000
 90
0
 91
1
280
0
281
0
  0
CLASS
  1
ACDBPLACEHOLDER
  2
AcDbPlaceHolder
  3
AutoCAD 2000
 90
0
 91
1
280
0
281
0
  0
CLASS
  1
LAYOUT
  2
AcDbLayout
  3
AutoCAD 2000
 90
0
 91
0
280
0
281
0
  0
ENDSEC
  0
SECTION
  2
TABLES
  0
TABLE
  2
VPORT
  5
8
100
AcDbSymbolTable
 70
2
  0
VPORT
  5
1F4
100
AcDbSymbolTableRecord
100
AcDbViewportTableRecord
  2
*ACTIVE
 70
0
 10
0.0
 20
0.0
 11
1.0
 21
1.0
 12
63.6479907766
 22
90.0164440983
 13
0.0
 23
0.0
 14
1.0
 24
1.0
 15
0.0
 25
0.0
 16
0.0
 26
0.0
 36
1.0
 17
0.0
 27
0.0
 37
0.0
 40
180.0328881967
 41
0.7070707071
 42
50.0
 43
0.0
 44
0.0
 50
0.0
 51
0.0
 71
0
 72
100
 73
1
 74
1
 75
0
 76
0
 77
0
 78
0
  0
ENDTAB
  0
TABLE
  2
LTYPE
  5
5
100
AcDbSymbolTable
 70
6
  0
LTYPE
  5
14
100
AcDbSymbolTableRecord
100
AcDbLinetypeTableRecord
  2
BYBLOCK
 70
0
  3

 72
65
 73
0
 40
0.0
  0
LTYPE
  5
15
100
AcDbSymbolTableRecord
100
AcDbLinetypeTableRecord
  2
BYLAYER
 70
0
  3

 72
65
 73
0
 40
0.0
  0
LTYPE
  5
16
100
AcDbSymbolTableRecord
100
AcDbLinetypeTableRecord
  2
CONTINUOUS
 70
64
  3
Solid line
 72
65
 73
0
 40
0.0
  0
LTYPE
  5
1F5
100
AcDbSymbolTableRecord
100
AcDbLinetypeTableRecord
  2
CENTER
 70
64
  3
____ _ ____ _ ____ _ ____ _ ____ _ ____ _ ____
 72
65
 73
4
 40
0.6
 49
0.375
 74
0
 49
-0.075
 74
0
 49
0.075
 74
0
 49
-0.075
 74
0
  0
LTYPE
  5
1F6
100
AcDbSymbolTableRecord
100
AcDbLinetypeTableRecord
  2
HIDDEN
 70
64
  3
- - - - - - - - - - - - - - - - - - - -
 72
65
 73
2
 40
0.2
 49
0.1
 74
0
 49
-0.1
 74
0
  0
LTYPE
  5
1F7
100
AcDbSymbolTableRecord
100
AcDbLinetypeTableRecord
  2
PHANTOM
 70
64
  3
_____ _ _ _____ _ _ _____ _ _ _____
 72
65
 73
6
 40
0.8
 49
0.45
 74
0
 49
-0.05
 74
0
 49
0.1
 74
0
 49
-0.05
 74
0
 49
0.1
 74
0
 49
-0.05
 74
0
  0
LTYPE
  5
1F8
100
AcDbSymbolTableRecord
100
AcDbLinetypeTableRecord
  2
DOT
 70
64
  3
. . . . . . . . . . . . . . . . . . . .
 72
65
 73
2
 40
0.2
 49
0.1
 74
0
 49
-0.1
 74
0
  0
LTYPE
  5
1F9
100
AcDbSymbolTableRecord
100
AcDbLinetypeTableRecord
  2
DASHED
 70
64
  3
- - - - - - - - - - - - - - - - - - - -
 72
65
 73
2
 40
0.2
 49
0.1
 74
0
 49
-0.1
 74
0
  0
ENDTAB
  0
TABLE
  2
LAYER
  5
2
100
AcDbSymbolTable
 70
36
  0
LAYER
  5
10
100
AcDbSymbolTableRecord
100
AcDbLayerTableRecord
  2
0
 70
0
 62
7
  6
CONTINUOUS
370
-3
390
F
  0
LAYER
  5
1FA
100
AcDbSymbolTableRecord
100
AcDbLayerTableRecord
  2
DEFAULT_1
 70
0
 62
7
  6
CENTER
370
-3
390
F
  0
LAYER
  5
1FB
100
AcDbSymbolTableRecord
100
AcDbLayerTableRecord
  2
DEFAULT_2
 70
0
 62
8
  6
HIDDEN
370
-3
390
F
  0
LAYER
  5
1FC
100
AcDbSymbolTableRecord
100
AcDbLayerTableRecord
  2
DEFAULT_3
 70
0
 62
7
  6
PHANTOM
370
-3
390
F
  0
LAYER
  5
1FD
100
AcDbSymbolTableRecord
100
AcDbLayerTableRecord
  2
00_COMPONENTS
 70
0
 62
7
  6
CONTINUOUS
370
-3
390
F
  0
LAYER
  5
1FE
100
AcDbSymbolTableRecord
100
AcDbLayerTableRecord
  2
01_1_DEFAULT_DATUMS
 70
0
 62
7
  6
CONTINUOUS
370
-3
390
F
  0
LAYER
  5
1FF
100
AcDbSymbolTableRecord
100
AcDbLayerTableRecord
  2
01_PLANES
 70
0
 62
7
  6
CONTINUOUS
370
-3
390
F
  0
LAYER
  5
200
100
AcDbSymbolTableRecord
100
AcDbLayerTableRecord
  2
02_COORD_SYS
 70
0
 62
7
  6
CONTINUOUS
370
-3
390
F
  0
LAYER
  5
201
100
AcDbSymbolTableRecord
100
AcDbLayerTableRecord
  2
03_AXES
 70
0
 62
7
  6
CONTINUOUS
370
-3
390
F
  0
LAYER
  5
202
100
AcDbSymbolTableRecord
100
AcDbLayerTableRecord
  2
04_POINTS
 70
0
 62
7
  6
CONTINUOUS
370
-3
390
F
  0
LAYER
  5
203
100
AcDbSymbolTableRecord
100
AcDbLayerTableRecord
  2
05_CURVES
 70
0
 62
7
  6
CONTINUOUS
370
-3
390
F
  0
LAYER
  5
204
100
AcDbSymbolTableRecord
100
AcDbLayerTableRecord
  2
06_SURFS
 70
0
 62
7
  6
CONTINUOUS
370
-3
390
F
  0
LAYER
  5
205
100
AcDbSymbolTableRecord
100
AcDbLayerTableRecord
  2
07_COSMETICS
 70
0
 62
7
  6
CONTINUOUS
370
-3
390
F
  0
LAYER
  5
206
100
AcDbSymbolTableRecord
100
AcDbLayerTableRecord
  2
10_NOTES
 70
0
 62
7
  6
CONTINUOUS
370
-3
390
F
  0
LAYER
  5
207
100
AcDbSymbolTableRecord
100
AcDbLayerTableRecord
  2
11_NOTES_PUB
 70
0
 62
7
  6
CONTINUOUS
370
-3
390
F
  0
LAYER
  5
208
100
AcDbSymbolTableRecord
100
AcDbLayerTableRecord
  2
13_REF_GTOL
 70
0
 62
7
  6
CONTINUOUS
370
-3
390
F
  0
LAYER
  5
209
100
AcDbSymbolTableRecord
100
AcDbLayerTableRecord
  2
16_MISC
 70
0
 62
7
  6
CONTINUOUS
370
-3
390
F
  0
LAYER
  5
20A
100
AcDbSymbolTableRecord
100
AcDbLayerTableRecord
  2
17_NO_PRINT
 70
0
 62
7
  6
CONTINUOUS
370
-3
390
F
  0
LAYER
  5
20B
100
AcDbSymbolTableRecord
100
AcDbLayerTableRecord
  2
18_DATUM_CAMS_JOINTS
 70
0
 62
7
  6
CONTINUOUS
370
-3
390
F
  0
LAYER
  5
20C
100
AcDbSymbolTableRecord
100
AcDbLayerTableRecord
  2
19_DATUM_FUNCTIONAL
 70
0
 62
7
  6
CONTINUOUS
370
-3
390
F
  0
LAYER
  5
20D
100
AcDbSymbolTableRecord
100
AcDbLayerTableRecord
  2
20_DATUM_KINEMATIC_SCHEME
 70
0
 62
7
  6
CONTINUOUS
370
-3
390
F
  0
ENDTAB
  0
TABLE
  2
STYLE
  5
3
100
AcDbSymbolTable
 70
1
  0
STYLE
  5
11
100
AcDbSymbolTableRecord
100
AcDbTextStyleTableRecord
  2
STANDARD
 70
0
 40
0.0
 41
0.8
 50
0.0
 71
0
 42
0.2
  3
txt
  4

  0
STYLE
  5
20E
100
AcDbSymbolTableRecord
100
AcDbTextStyleTableRecord
  2
TEXTSTYLE_1
 70
0
 40
0.0
 41
0.8
 50
0.0
 71
0
 42
0.2
  3
gdt
  4

  0
ENDTAB
  0
TABLE
  2
VIEW
  5
6
100
AcDbSymbolTable
 70
0
  0
ENDTAB
  0
TABLE
  2
UCS
  5
7
100
AcDbSymbolTable
 70
0
  0
ENDTAB
  0
TABLE
  2
APPID
  5
9
100
AcDbSymbolTable
 70
1
  0
APPID
  5
20F
100
AcDbSymbolTableRecord
100
AcDbRegAppTableRecord
  2
ACAD
 70
0
  0
ENDTAB
  0
TABLE
  2
BLOCK_RECORD
  5
1
100
AcDbSymbolTable
 70
0
  0
BLOCK_RECORD
  5
210
100
AcDbSymbolTableRecord
100
AcDbBlockTableRecord
  2
*Model_Space
  0
BLOCK_RECORD
  5
211
100
AcDbSymbolTableRecord
100
AcDbBlockTableRecord
  2
*Paper_Space
  0
BLOCK_RECORD
  5
212
100
AcDbSymbolTableRecord
100
AcDbBlockTableRecord
  2
_FILLED
  0
ENDTAB
  0
TABLE
  2
DIMSTYLE
  5
A
100
AcDbSymbolTable
 70
1
100
AcDbDimStyleTable
 71
0
  0
DIMSTYLE
105
213
100
AcDbSymbolTableRecord
100
AcDbDimStyleTableRecord
  2
STANDARD
 70
0
  3

  4

 40
1.0
 41
1.5154283518
 42
1.0
 43
0.38
 44
1.0
 45
0.0
 46
0.0
 47
0.01
 48
0.01
140
2.1215996926
141
0.09
142
0.0
143
25.4
144
1.0
145
0.0
146
1.0
147
0.625
 71
1
 72
0
 73
0
 74
0
 75
0
 76
0
 77
1
 78
8
 79
2
170
0
171
1
172
0
173
0
174
0
175
0
176
0
177
0
178
0
270
2
179
2
271
2
272
2
273
2
274
2
275
0
280
0
281
0
282
0
283
1
284
8
285
0
286
0
287
3
288
0
340
11
278
46
341
212
342
212
343
212
344
212
  0
ENDTAB
  0
ENDSEC
  0
SECTION
  2
BLOCKS
  0
BLOCK
  5
20
100
AcDbEntity
  8
0
100
AcDbBlockBegin
  2
*Model_Space
 70
0
 10
0.0
 20
0.0
 30
0.0
  3
*Model_Space
  1

  0
ENDBLK
  5
21
100
AcDbEntity
  8
0
100
AcDbBlockEnd
  0
BLOCK
  5
1C
100
AcDbEntity
  8
0
100
AcDbBlockBegin
  2
*Paper_Space
 70
0
 10
0.0
 20
0.0
 30
0.0
  3
*Paper_Space
  1

  0
ENDBLK
  5
1D
100
AcDbEntity
  8
0
100
AcDbBlockEnd
  0
BLOCK
  5
214
100
AcDbEntity
  8
0
100
AcDbBlockBegin
  2
_FILLED
 70
64
 10
0.0
 20
0.0
  3
_FILLED
  1

  0
SOLID
  5
215
100
AcDbEntity
  8
0
  6
BYBLOCK
 62
0
100
AcDbTrace
 10
0.0
 20
0.0
 11
-1.0
 21
0.25
 12
-1.0
 22
-0.25
 13
-1.0
 23
-0.25
  0
ENDBLK
  5
216
100
AcDbEntity
  8
0
  6
BYBLOCK
 62
0
100
AcDbBlockEnd
  0
ENDSEC
  0
SECTION
  2
ENTITIES
  0
LINE
  5
217
100
AcDbEntity
  8
0
100
AcDbLine
 62
7
  6
CONTINUOUS
 10
29.6134488422
 20
130.0523595083
 11
59.7749576738
 21
147.4660108059
  0
LINE
  5
218
100
AcDbEntity
  8
0
100
AcDbLine
 62
7
  6
CONTINUOUS
 10
62.4745585011
 20
148.9429882891
 11
59.7749576739
 21
147.4660108059
  0
LINE
  5
219
100
AcDbEntity
  8
0
100
AcDbLine
 62
7
  6
CONTINUOUS
 10
18.3470582646
 20
70.3620007806
 11
18.3439608516
 21
70.3920892472
  0
LINE
  5
21A
100
AcDbEntity
  8
0
100
AcDbLine
 62
7
  6
CONTINUOUS
 10
18.0677345705
 20
73.3280524879
 11
18.0546974141
 21
73.4765002523
  0
LINE
  5
21B
100
AcDbEntity
  8
0
100
AcDbLine
 62
7
  6
CONTINUOUS
 10
18.0673729261
 20
73.3278043292
 11
18.0546974141
 21
73.4765002523
  0
LINE
  5
21C
100
AcDbEntity
  8
0
100
AcDbLine
 62
7
  6
CONTINUOUS
 10
17.5547290348
 20
107.2521110662
 11
17.5547290348
 21
107.5509032304
  0
LINE
  5
21D
100
AcDbEntity
  8
0
100
AcDbLine
 62
7
  6
CONTINUOUS
 10
18.7214260199
 20
107.9256998639
 11
18.7214260199
 21
108.224492028
  0
LINE
  5
21E
100
AcDbEntity
  8
0
100
AcDbLine
 62
7
  6
CONTINUOUS
 10
49.1330811346
 20
136.3005541035
 11
49.8050719502
 21
136.6885258659
  0
LINE
  5
21F
100
AcDbEntity
  8
0
100
AcDbLine
 62
7
  6
CONTINUOUS
 10
25.7339241927
 20
66.2678612099
 11
25.7525064201
 21
66.0865600179
  0
LINE
  5
220
100
AcDbEntity
  8
0
100
AcDbLine
 62
7
  6
CONTINUOUS
 10
25.7343521339
 20
66.2681632218
 11
25.7525064201
 21
66.0865600179
  0
LINE
  5
221
100
AcDbEntity
  8
0
100
AcDbLine
 62
7
  6
CONTINUOUS
 10
19.8881230051
 20
108.5992886615
 11
19.8881230051
 21
108.8980808257
  0
LINE
  5
222
100
AcDbEntity
  8
0
100
AcDbLine
 62
7
  6
CONTINUOUS
 10
21.0548199902
 20
109.2728774591
 11
21.0548199902
 21
109.5716696233
  0
LINE
  5
223
100
AcDbEntity
  8
0
100
AcDbLine
 62
7
  6
CONTINUOUS
 10
22.2215169753
 20
109.9464662567
 11
22.2215169753
 21
110.2452584209
  0
LINE
  5
224
100
AcDbEntity
  8
0
100
AcDbLine
 62
7
  6
CONTINUOUS
 10
23.3882139604
 20
110.6200550544
 11
23.3882139604
 21
110.9188472186
  0
LINE
  5
225
100
AcDbEntity
  8
0
100
AcDbLine
 62
7
  6
CONTINUOUS
 10
32.4702814327
 20
123.2472045817
 11
32.8843623726
 21
123.4862728968
  0
LINE
  5
226
100
AcDbEntity
  8
0
100
AcDbLine
 62
7
  6
CONTINUOUS
 10
53.764886411
 20
134.4023776406
 11
53.0928955954
 21
134.0144058782
  0
LINE
  5
227
100
AcDbEntity
  8
0
100
AcDbLine
 62
7
  6
CONTINUOUS
 10
28.8868908691
 20
118.9161772555
 11
29.1541180051
 21
119.0704599935
  0
LINE
  5
228
100
AcDbEntity
  8
0
100
AcDbLine
 62
7
  6
CONTINUOUS
 10
80.5738526226
 20
31.5292724229
 11
29.7326633846
 21
60.881782673
  0
LINE
  5
229
100
AcDbEntity
  8
0
100
AcDbLine
 62
7
  6
CONTINUOUS
 10
66.760312794
 20
40.7006198497
 11
54.1030487139
 21
48.0081293556
  0
LINE
  5
22A
100
AcDbEntity
  8
0
100
AcDbLine
 62
7
  6
CONTINUOUS
 10
54.0323377414
 20
48.0489534311
 11
41.3750736612
 21
55.356462937
  0
LINE
  5
22B
100
AcDbEntity
  8
0
100
AcDbLine
 62
7
  6
CONTINUOUS
 10
41.3043626887
 20
55.3972870124
 11
28.6470986086
 21
62.7047965183
  0
LINE
  5
22C
100
AcDbEntity
  8
0
100
AcDbLine
 62
7
  6
CONTINUOUS
 10
28.5763876361
 20
62.7456205938
 11
15.919123556
 21
70.0531300997
  0
LINE
  5
22D
100
AcDbEntity
  8
0
100
AcDbLine
 62
7
  6
CONTINUOUS
 10
31.0750333173
 20
63.0136671992
 11
31.0719359042
 21
63.0437556658
  0
LINE
  5
22E
100
AcDbEntity
  8
0
100
AcDbLine
 62
7
  6
CONTINUOUS
 10
28.6398310886
 20
62.7822494695
 11
28.6470986086
 21
62.7047965183
  0
LINE
  5
22F
100
AcDbEntity
  8
0
100
AcDbLine
 62
7
  6
CONTINUOUS
 10
30.7957096232
 20
65.9797189065
 11
30.7826724668
 21
66.1281666709
  0
LINE
  5
230
100
AcDbEntity
  8
0
100
AcDbLine
 62
7
  6
CONTINUOUS
 10
30.7953479787
 20
65.9794707479
 11
30.7826724668
 21
66.1281666709
  0
LINE
  5
231
100
AcDbEntity
  8
0
100
AcDbLine
 62
7
  6
CONTINUOUS
 10
27.4258167954
 20
83.6453853298
 11
27.4250625154
 21
83.687463429
  0
LINE
  5
232
100
AcDbEntity
  8
0
100
AcDbLine
 62
7
  6
CONTINUOUS
 10
24.5549109455
 20
111.293643852
 11
24.5549109455
 21
111.5924360162
  0
LINE
  5
233
100
AcDbEntity
  8
0
100
AcDbLine
 62
7
  6
CONTINUOUS
 10
25.7216079306
 20
111.9672326496
 11
25.7216079306
 21
112.2660248138
  0
LINE
  5
234
100
AcDbEntity
  8
0
100
AcDbLine
 62
7
  6
CONTINUOUS
 10
26.8883049157
 20
112.6408214473
 11
26.8883049157
 21
112.9396136115
  0
LINE
  5
235
100
AcDbEntity
  8
0
100
AcDbLine
 62
7
  6
CONTINUOUS
 10
27.4250669574
 20
83.6449522042
 11
27.4250625154
 21
83.687463429
  0
LINE
  5
236
100
AcDbEntity
  8
0
100
AcDbLine
 62
7
  6
CONTINUOUS
 10
28.8868908691
 20
114.0934908619
 11
28.8868908691
 21
118.9161772555
  0
LINE
  5
237
100
AcDbEntity
  8
0
100
AcDbLine
 62
7
  6
CONTINUOUS
 10
27.9651801465
 20
98.807233786
 11
27.9673312873
 21
98.8437676915
  0
LINE
  5
238
100
AcDbEntity
  8
0
100
AcDbLine
 62
7
  6
CONTINUOUS
 10
27.9647541649
 20
98.8070293221
 11
27.9673312873
 21
98.8437676915
  0
LINE
  5
239
100
AcDbEntity
  8
0
100
AcDbLine
 62
7
  6
CONTINUOUS
 10
16.7368749704
 20
107.0787177847
 11
15.3100672071
 21
106.1512771974
  0
LINE
  5
23A
100
AcDbEntity
  8
0
100
AcDbLine
 62
7
  6
CONTINUOUS
 10
17.5547290348
 20
107.5509032304
 11
17.9035719555
 21
107.7523065823
  0
LINE
  5
23B
100
AcDbEntity
  8
0
100
AcDbLine
 62
7
  6
CONTINUOUS
 10
18.7214260199
 20
108.224492028
 11
19.0702689406
 21
108.42589538
  0
LINE
  5
23C
100
AcDbEntity
  8
0
100
AcDbLine
 62
7
  6
CONTINUOUS
 10
19.8881230051
 20
108.8980808257
 11
20.2369659257
 21
109.0994841776
  0
LINE
  5
23D
100
AcDbEntity
  8
0
100
AcDbLine
 62
7
  6
CONTINUOUS
 10
21.0548199902
 20
109.5716696233
 11
21.4036629108
 21
109.7730729752
  0
LINE
  5
23E
100
AcDbEntity
  8
0
100
AcDbLine
 62
7
  6
CONTINUOUS
 10
22.2215169753
 20
110.2452584209
 11
22.5703598959
 21
110.4466617729
  0
LINE
  5
23F
100
AcDbEntity
  8
0
100
AcDbLine
 62
7
  6
CONTINUOUS
 10
23.3882139604
 20
110.9188472186
 11
23.737056881
 21
111.1202505705
  0
LINE
  5
240
100
AcDbEntity
  8
0
100
AcDbLine
 62
7
  6
CONTINUOUS
 10
24.5549109455
 20
111.5924360162
 11
24.9037538661
 21
111.7938393681
  0
LINE
  5
241
100
AcDbEntity
  8
0
100
AcDbLine
 62
7
  6
CONTINUOUS
 10
25.7216079306
 20
112.2660248138
 11
26.0704508512
 21
112.4674281658
  0
LINE
  5
242
100
AcDbEntity
  8
0
100
AcDbLine
 62
7
  6
CONTINUOUS
 10
26.8883049157
 20
112.9396136115
 11
28.8868908691
 21
114.0934908619
  0
LINE
  5
243
100
AcDbEntity
  8
0
100
AcDbLine
 62
7
  6
CONTINUOUS
 10
16.9956402743
 20
106.9293229466
 11
17.5547290348
 21
107.2521110662
  0
LINE
  5
244
100
AcDbEntity
  8
0
100
AcDbLine
 62
7
  6
CONTINUOUS
 10
18.1623372594
 20
107.6029117442
 11
18.7214260199
 21
107.9256998639
  0
LINE
  5
245
100
AcDbEntity
  8
0
100
AcDbLine
 62
7
  6
CONTINUOUS
 10
19.3290342445
 20
108.2765005419
 11
19.8881230051
 21
108.5992886615
  0
LINE
  5
246
100
AcDbEntity
  8
0
100
AcDbLine
 62
7
  6
CONTINUOUS
 10
20.4957312296
 20
108.9500893395
 11
21.0548199902
 21
109.2728774591
  0
LINE
  5
247
100
AcDbEntity
  8
0
100
AcDbLine
 62
7
  6
CONTINUOUS
 10
21.6624282147
 20
109.6236781371
 11
22.2215169753
 21
109.9464662567
  0
LINE
  5
248
100
AcDbEntity
  8
0
100
AcDbLine
 62
7
  6
CONTINUOUS
 10
22.8291251998
 20
110.2972669348
 11
23.3882139604
 21
110.6200550544
  0
LINE
  5
249
100
AcDbEntity
  8
0
100
AcDbLine
 62
7
  6
CONTINUOUS
 10
23.9958221849
 20
110.9708557324
 11
24.5549109455
 21
111.293643852
  0
LINE
  5
24A
100
AcDbEntity
  8
0
100
AcDbLine
 62
7
  6
CONTINUOUS
 10
25.16251917
 20
111.64444453
 11
25.7216079306
 21
111.9672326496
  0
LINE
  5
24B
100
AcDbEntity
  8
0
100
AcDbLine
 62
7
  6
CONTINUOUS
 10
26.3292161551
 20
112.3180333277
 11
26.8883049157
 21
112.6408214473
  0
LINE
  5
24C
100
AcDbEntity
  8
0
100
AcDbLine
 62
7
  6
CONTINUOUS
 10
29.6293560805
 20
113.6648380697
 11
29.6793566893
 21
113.6937057623
  0
LINE
  5
24D
100
AcDbEntity
  8
0
100
AcDbLine
 62
7
  6
CONTINUOUS
 10
18.3470582646
 20
70.3620007806
 11
25.7525064201
 21
66.0865600179
  0
LINE
  5
24E
100
AcDbEntity
  8
0
100
AcDbLine
 62
7
  6
CONTINUOUS
 10
31.0750333173
 20
63.0136671992
 11
38.4804814727
 21
58.7382264366
  0
LINE
  5
24F
100
AcDbEntity
  8
0
100
AcDbLine
 62
7
  6
CONTINUOUS
 10
43.8030083699
 20
55.6653336178
 11
51.2084565254
 21
51.3898928552
  0
LINE
  5
250
100
AcDbEntity
  8
0
100
AcDbLine
 62
7
  6
CONTINUOUS
 10
56.5309834226
 20
48.3170000365
 11
63.936431578
 21
44.0415592739
  0
LINE
  5
251
100
AcDbEntity
  8
0
100
AcDbLine
 62
7
  6
CONTINUOUS
 10
63.8414717061
 20
44.1788190168
 11
56.6077392179
 21
48.3551219355
  0
LINE
  5
252
100
AcDbEntity
  8
0
100
AcDbLine
 62
7
  6
CONTINUOUS
 10
51.1134966535
 20
51.5271525982
 11
43.8797641652
 21
55.7034555169
  0
LINE
  5
253
100
AcDbEntity
  8
0
100
AcDbLine
 62
7
  6
CONTINUOUS
 10
38.3855216008
 20
58.8754861795
 11
31.1517891126
 21
63.0517890983
  0
LINE
  5
254
100
AcDbEntity
  8
0
100
AcDbLine
 62
7
  6
CONTINUOUS
 10
25.6575465482
 20
66.2238197609
 11
18.4238140599
 21
70.4001226796
  0
LINE
  5
255
100
AcDbEntity
  8
0
100
AcDbLine
 62
7
  6
CONTINUOUS
 10
68.3960209229
 20
41.6449907411
 11
68.137255619
 21
41.7943855792
  0
LINE
  5
256
100
AcDbEntity
  8
0
100
AcDbLine
 62
7
  6
CONTINUOUS
 10
69.562717908
 20
42.3185795387
 11
69.3039526041
 21
42.4679743768
  0
LINE
  5
257
100
AcDbEntity
  8
0
100
AcDbLine
 62
7
  6
CONTINUOUS
 10
18.1473364665
 20
73.3350433804
 11
25.3810689547
 21
69.1587404616
  0
LINE
  5
258
100
AcDbEntity
  8
0
100
AcDbLine
 62
7
  6
CONTINUOUS
 10
30.8753115191
 20
65.986709799
 11
38.1090440074
 21
61.8104068803
  0
LINE
  5
259
100
AcDbEntity
  8
0
100
AcDbLine
 62
7
  6
CONTINUOUS
 10
43.6032865718
 20
58.6383762176
 11
50.83701906
 21
54.4620732989
  0
LINE
  5
25A
100
AcDbEntity
  8
0
100
AcDbLine
 62
7
  6
CONTINUOUS
 10
56.3312616244
 20
51.2900426363
 11
63.5649941127
 21
47.1137397175
  0
LINE
  5
25B
100
AcDbEntity
  8
0
100
AcDbLine
 62
7
  6
CONTINUOUS
 10
70.7294148931
 20
42.9921683364
 11
70.4706495892
 21
43.1415631745
  0
LINE
  5
25C
100
AcDbEntity
  8
0
100
AcDbLine
 62
7
  6
CONTINUOUS
 10
63.6440707275
 20
47.1560587455
 11
56.2386225721
 21
51.4314995082
  0
LINE
  5
25D
100
AcDbEntity
  8
0
100
AcDbLine
 62
7
  6
CONTINUOUS
 10
50.9160956749
 20
54.5043923269
 11
43.5106475194
 21
58.7798330895
  0
LINE
  5
25E
100
AcDbEntity
  8
0
100
AcDbLine
 62
7
  6
CONTINUOUS
 10
38.1881206222
 20
61.8527259083
 11
30.7826724668
 21
66.1281666709
  0
LINE
  5
25F
100
AcDbEntity
  8
0
100
AcDbLine
 62
7
  6
CONTINUOUS
 10
25.4601455696
 20
69.2010594896
 11
18.0546974141
 21
73.4765002523
  0
LINE
  5
260
100
AcDbEntity
  8
0
100
AcDbLine
 62
7
  6
CONTINUOUS
 10
71.8961118782
 20
43.665757134
 11
71.6373465743
 21
43.8151519721
  0
LINE
  5
261
100
AcDbEntity
  8
0
100
AcDbLine
 62
7
  6
CONTINUOUS
 10
73.0628088633
 20
44.3393459316
 11
72.8040435594
 21
44.4887407697
  0
LINE
  5
262
100
AcDbEntity
  8
0
100
AcDbLine
 62
7
  6
CONTINUOUS
 10
28.6384024672
 20
62.7812216624
 11
28.6470986086
 21
62.7047965183
  0
LINE
  5
263
100
AcDbEntity
  8
0
100
AcDbLine
 62
7
  6
CONTINUOUS
 10
29.3941390505
 20
99.7712082788
 11
29.3941390505
 21
99.684421301
  0
LINE
  5
264
100
AcDbEntity
  8
0
100
AcDbLine
 62
7
  6
CONTINUOUS
 10
29.6293560805
 20
113.6648380697
 11
29.6293560805
 21
113.7225729742
  0
LINE
  5
265
100
AcDbEntity
  8
0
100
AcDbLine
 62
7
  6
CONTINUOUS
 10
30.211993115
 20
99.9446015603
 11
30.211993115
 21
100.2433937245
  0
LINE
  5
266
100
AcDbEntity
  8
0
100
AcDbLine
 62
7
  6
CONTINUOUS
 10
30.2827040875
 20
99.9037774849
 11
30.2827040875
 21
100.202569649
  0
LINE
  5
267
100
AcDbEntity
  8
0
100
AcDbLine
 62
7
  6
CONTINUOUS
 10
30.5608360356
 20
100.4447970764
 11
30.5608360356
 21
100.3631482457
  0
LINE
  5
268
100
AcDbEntity
  8
0
100
AcDbLine
 62
7
  6
CONTINUOUS
 10
31.3786901001
 20
100.6181903579
 11
31.3786901001
 21
100.9169825221
  0
LINE
  5
269
100
AcDbEntity
  8
0
100
AcDbLine
 62
7
  6
CONTINUOUS
 10
31.4494010726
 20
100.5773662825
 11
31.4494010726
 21
100.8761584467
  0
LINE
  5
26A
100
AcDbEntity
  8
0
100
AcDbLine
 62
7
  6
CONTINUOUS
 10
31.7275330207
 20
101.1183858741
 11
31.7275330207
 21
101.0367370433
  0
LINE
  5
26B
100
AcDbEntity
  8
0
100
AcDbLine
 62
7
  6
CONTINUOUS
 10
32.5453870852
 20
101.2917791556
 11
32.5453870852
 21
101.5905713198
  0
LINE
  5
26C
100
AcDbEntity
  8
0
100
AcDbLine
 62
7
  6
CONTINUOUS
 10
32.6160980577
 20
101.2509550801
 11
32.6160980577
 21
101.5497472443
  0
LINE
  5
26D
100
AcDbEntity
  8
0
100
AcDbLine
 62
7
  6
CONTINUOUS
 10
32.8942300058
 20
101.7919746717
 11
32.8942300058
 21
101.7103258409
  0
LINE
  5
26E
100
AcDbEntity
  8
0
100
AcDbLine
 62
7
  6
CONTINUOUS
 10
33.7120840703
 20
101.9653679532
 11
33.7120840703
 21
102.2641601174
  0
LINE
  5
26F
100
AcDbEntity
  8
0
100
AcDbLine
 62
7
  6
CONTINUOUS
 10
33.7827950428
 20
101.9245438778
 11
33.7827950428
 21
102.2233360419
  0
LINE
  5
270
100
AcDbEntity
  8
0
100
AcDbLine
 62
7
  6
CONTINUOUS
 10
34.0609269909
 20
102.4655634693
 11
34.0609269909
 21
102.3839146385
  0
LINE
  5
271
100
AcDbEntity
  8
0
100
AcDbLine
 62
7
  6
CONTINUOUS
 10
61.8610561873
 20
128.9522205222
 11
62.5330470028
 21
129.3401922846
  0
LINE
  5
272
100
AcDbEntity
  8
0
100
AcDbLine
 62
7
  6
CONTINUOUS
 10
37.3788058535
 20
113.8413181196
 11
37.8422076341
 21
114.1088616654
  0
LINE
  5
273
100
AcDbEntity
  8
0
100
AcDbLine
 62
7
  6
CONTINUOUS
 10
45.1982564854
 20
115.8988710003
 11
45.6123374253
 21
116.1379393154
  0
LINE
  5
274
100
AcDbEntity
  8
0
100
AcDbLine
 62
7
  6
CONTINUOUS
 10
66.4928614636
 20
127.0540440592
 11
65.8208706481
 21
126.6660722969
  0
LINE
  5
275
100
AcDbEntity
  8
0
100
AcDbLine
 62
7
  6
CONTINUOUS
 10
40.8016897378
 20
112.0373205418
 11
41.3905963204
 21
112.3773238863
  0
LINE
  5
276
100
AcDbEntity
  8
0
100
AcDbLine
 62
7
  6
CONTINUOUS
 10
74.2295058484
 20
45.0129347293
 11
73.9707405446
 21
45.1623295674
  0
LINE
  5
277
100
AcDbEntity
  8
0
100
AcDbLine
 62
7
  6
CONTINUOUS
 10
78.902621851
 20
43.4747216112
 11
79.6804425487
 21
43.0256567812
  0
LINE
  5
278
100
AcDbEntity
  8
0
100
AcDbLine
 62
7
  6
CONTINUOUS
 10
75.3962028335
 20
45.6865235269
 11
75.1374375297
 21
45.835918365
  0
LINE
  5
279
100
AcDbEntity
  8
0
100
AcDbLine
 62
7
  6
CONTINUOUS
 10
79.7281827571
 20
43.3662499936
 11
78.9857175457
 21
43.7949027858
  0
LINE
  5
27A
100
AcDbEntity
  8
0
100
AcDbLine
 62
7
  6
CONTINUOUS
 10
76.5628998187
 20
46.3601123245
 11
76.3041345148
 21
46.5095071626
  0
LINE
  5
27B
100
AcDbEntity
  8
0
100
AcDbLine
 62
7
  6
CONTINUOUS
 10
77.7295968038
 20
47.0337011221
 11
77.4708314999
 21
47.1830959602
  0
LINE
  5
27C
100
AcDbEntity
  8
0
100
AcDbLine
 62
7
  6
CONTINUOUS
 10
38.4618992453
 20
58.9195276285
 11
38.4804814727
 21
58.7382264366
  0
LINE
  5
27D
100
AcDbEntity
  8
0
100
AcDbLine
 62
7
  6
CONTINUOUS
 10
38.4623271865
 20
58.9198296404
 11
38.4804814727
 21
58.7382264366
  0
LINE
  5
27E
100
AcDbEntity
  8
0
100
AcDbLine
 62
7
  6
CONTINUOUS
 10
41.3678061412
 20
55.4339158881
 11
41.3750736612
 21
55.356462937
  0
LINE
  5
27F
100
AcDbEntity
  8
0
100
AcDbLine
 62
7
  6
CONTINUOUS
 10
34.8787810554
 20
102.6389567508
 11
34.8787810554
 21
102.937748915
  0
LINE
  5
280
100
AcDbEntity
  8
0
100
AcDbLine
 62
7
  6
CONTINUOUS
 10
34.9494920279
 20
102.5981326754
 11
34.9494920279
 21
102.8969248396
  0
LINE
  5
281
100
AcDbEntity
  8
0
100
AcDbLine
 62
7
  6
CONTINUOUS
 10
35.227623976
 20
103.1391522669
 11
35.227623976
 21
103.0575034362
  0
LINE
  5
282
100
AcDbEntity
  8
0
100
AcDbLine
 62
7
  6
CONTINUOUS
 10
36.0454780405
 20
103.3125455485
 11
36.0454780405
 21
103.6113377127
  0
LINE
  5
283
100
AcDbEntity
  8
0
100
AcDbLine
 62
7
  6
CONTINUOUS
 10
36.116189013
 20
103.271721473
 11
36.116189013
 21
103.5705136372
  0
LINE
  5
284
100
AcDbEntity
  8
0
100
AcDbLine
 62
7
  6
CONTINUOUS
 10
36.3943209612
 20
103.8127410646
 11
36.3943209612
 21
103.7310922338
  0
LINE
  5
285
100
AcDbEntity
  8
0
100
AcDbLine
 62
7
  6
CONTINUOUS
 10
37.2121750256
 20
103.9861343461
 11
37.2121750256
 21
104.2849265103
  0
LINE
  5
286
100
AcDbEntity
  8
0
100
AcDbLine
 62
7
  6
CONTINUOUS
 10
37.2828859981
 20
103.9453102706
 11
37.2828859981
 21
104.2441024348
  0
LINE
  5
287
100
AcDbEntity
  8
0
100
AcDbLine
 62
7
  6
CONTINUOUS
 10
37.5610179463
 20
104.4863298622
 11
37.5610179463
 21
104.4046810314
  0
LINE
  5
288
100
AcDbEntity
  8
0
100
AcDbLine
 62
7
  6
CONTINUOUS
 10
38.3788720107
 20
104.6597231437
 11
38.3788720107
 21
104.9585153079
  0
LINE
  5
289
100
AcDbEntity
  8
0
100
AcDbLine
 62
7
  6
CONTINUOUS
 10
38.4495829832
 20
104.6188990683
 11
38.4495829832
 21
104.9176912325
  0
LINE
  5
28A
100
AcDbEntity
  8
0
100
AcDbLine
 62
7
  6
CONTINUOUS
 10
38.7277149314
 20
105.1599186598
 11
38.7277149314
 21
105.0782698291
  0
LINE
  5
28B
100
AcDbEntity
  8
0
100
AcDbLine
 62
7
  6
CONTINUOUS
 10
39.5455689958
 20
105.3333119414
 11
39.5455689958
 21
105.6321041055
  0
LINE
  5
28C
100
AcDbEntity
  8
0
100
AcDbLine
 62
7
  6
CONTINUOUS
 10
39.6162799683
 20
105.2924878659
 11
39.6162799683
 21
105.5912800301
  0
LINE
  5
28D
100
AcDbEntity
  8
0
100
AcDbLine
 62
7
  6
CONTINUOUS
 10
27.9673312873
 20
98.8437676915
 11
29.3941390505
 21
99.7712082788
  0
LINE
  5
28E
100
AcDbEntity
  8
0
100
AcDbLine
 62
7
  6
CONTINUOUS
 10
29.464850023
 20
99.7303842033
 11
28.0380422598
 21
98.802943616
  0
LINE
  5
28F
100
AcDbEntity
  8
0
100
AcDbLine
 62
7
  6
CONTINUOUS
 10
41.5441549492
 20
111.6086677496
 11
42.1330615318
 21
111.9486710941
  0
LINE
  5
290
100
AcDbEntity
  8
0
100
AcDbLine
 62
7
  6
CONTINUOUS
 10
41.6148659217
 20
111.5678436741
 11
42.2037725043
 21
111.9078470186
  0
LINE
  5
291
100
AcDbEntity
  8
0
100
AcDbLine
 62
7
  6
CONTINUOUS
 10
42.3573311331
 20
111.1391908819
 11
42.3973388854
 21
111.1622892306
  0
LINE
  5
292
100
AcDbEntity
  8
0
100
AcDbLine
 62
7
  6
CONTINUOUS
 10
30.211993115
 20
100.2433937245
 11
30.5608360356
 21
100.4447970764
  0
LINE
  5
293
100
AcDbEntity
  8
0
100
AcDbLine
 62
7
  6
CONTINUOUS
 10
31.3786901001
 20
100.9169825221
 11
31.7275330207
 21
101.1183858741
  0
LINE
  5
294
100
AcDbEntity
  8
0
100
AcDbLine
 62
7
  6
CONTINUOUS
 10
32.5453870852
 20
101.5905713198
 11
32.8942300058
 21
101.7919746717
  0
LINE
  5
295
100
AcDbEntity
  8
0
100
AcDbLine
 62
7
  6
CONTINUOUS
 10
33.7120840703
 20
102.2641601174
 11
34.0609269909
 21
102.4655634693
  0
LINE
  5
296
100
AcDbEntity
  8
0
100
AcDbLine
 62
7
  6
CONTINUOUS
 10
34.8787810554
 20
102.937748915
 11
35.227623976
 21
103.1391522669
  0
LINE
  5
297
100
AcDbEntity
  8
0
100
AcDbLine
 62
7
  6
CONTINUOUS
 10
36.0454780405
 20
103.6113377127
 11
36.3943209612
 21
103.8127410646
  0
LINE
  5
298
100
AcDbEntity
  8
0
100
AcDbLine
 62
7
  6
CONTINUOUS
 10
37.2121750256
 20
104.2849265103
 11
37.5610179463
 21
104.4863298622
  0
LINE
  5
299
100
AcDbEntity
  8
0
100
AcDbLine
 62
7
  6
CONTINUOUS
 10
38.3788720107
 20
104.9585153079
 11
38.7277149314
 21
105.1599186598
  0
LINE
  5
29A
100
AcDbEntity
  8
0
100
AcDbLine
 62
7
  6
CONTINUOUS
 10
39.5455689958
 20
105.6321041055
 11
41.5441549492
 21
106.785981356
  0
LINE
  5
29B
100
AcDbEntity
  8
0
100
AcDbLine
 62
7
  6
CONTINUOUS
 10
30.2827040875
 20
100.202569649
 11
30.6315470081
 21
100.403973001
  0
LINE
  5
29C
100
AcDbEntity
  8
0
100
AcDbLine
 62
7
  6
CONTINUOUS
 10
31.4494010726
 20
100.8761584467
 11
31.7982439932
 21
101.0775617986
  0
LINE
  5
29D
100
AcDbEntity
  8
0
100
AcDbLine
 62
7
  6
CONTINUOUS
 10
32.6160980577
 20
101.5497472443
 11
32.9649409784
 21
101.7511505962
  0
LINE
  5
29E
100
AcDbEntity
  8
0
100
AcDbLine
 62
7
  6
CONTINUOUS
 10
33.7827950428
 20
102.2233360419
 11
34.1316379635
 21
102.4247393939
  0
LINE
  5
29F
100
AcDbEntity
  8
0
100
AcDbLine
 62
7
  6
CONTINUOUS
 10
34.9494920279
 20
102.8969248396
 11
35.2983349486
 21
103.0983281915
  0
LINE
  5
2A0
100
AcDbEntity
  8
0
100
AcDbLine
 62
7
  6
CONTINUOUS
 10
36.116189013
 20
103.5705136372
 11
36.4650319337
 21
103.7719169891
  0
LINE
  5
2A1
100
AcDbEntity
  8
0
100
AcDbLine
 62
7
  6
CONTINUOUS
 10
37.2828859981
 20
104.2441024348
 11
37.6317289188
 21
104.4455057868
  0
LINE
  5
2A2
100
AcDbEntity
  8
0
100
AcDbLine
 62
7
  6
CONTINUOUS
 10
38.4495829832
 20
104.9176912325
 11
38.7984259039
 21
105.1190945844
  0
LINE
  5
2A3
100
AcDbEntity
  8
0
100
AcDbLine
 62
7
  6
CONTINUOUS
 10
39.6162799683
 20
105.5912800301
 11
41.6148659217
 21
106.7451572805
  0
LINE
  5
2A4
100
AcDbEntity
  8
0
100
AcDbLine
 62
7
  6
CONTINUOUS
 10
29.6529043544
 20
99.6218134407
 11
30.211993115
 21
99.9446015603
  0
LINE
  5
2A5
100
AcDbEntity
  8
0
100
AcDbLine
 62
7
  6
CONTINUOUS
 10
30.8196013395
 20
100.2954022383
 11
31.3786901001
 21
100.6181903579
  0
LINE
  5
2A6
100
AcDbEntity
  8
0
100
AcDbLine
 62
7
  6
CONTINUOUS
 10
31.9862983246
 20
100.968991036
 11
32.5453870852
 21
101.2917791556
  0
LINE
  5
2A7
100
AcDbEntity
  8
0
100
AcDbLine
 62
7
  6
CONTINUOUS
 10
33.1529953097
 20
101.6425798336
 11
33.7120840703
 21
101.9653679532
  0
LINE
  5
2A8
100
AcDbEntity
  8
0
100
AcDbLine
 62
7
  6
CONTINUOUS
 10
34.3196922948
 20
102.3161686312
 11
34.8787810554
 21
102.6389567508
  0
LINE
  5
2A9
100
AcDbEntity
  8
0
100
AcDbLine
 62
7
  6
CONTINUOUS
 10
35.48638928
 20
102.9897574288
 11
36.0454780405
 21
103.3125455485
  0
LINE
  5
2AA
100
AcDbEntity
  8
0
100
AcDbLine
 62
7
  6
CONTINUOUS
 10
36.6530862651
 20
103.6633462265
 11
37.2121750256
 21
103.9861343461
  0
LINE
  5
2AB
100
AcDbEntity
  8
0
100
AcDbLine
 62
7
  6
CONTINUOUS
 10
37.8197832502
 20
104.3369350241
 11
38.3788720107
 21
104.6597231437
  0
LINE
  5
2AC
100
AcDbEntity
  8
0
100
AcDbLine
 62
7
  6
CONTINUOUS
 10
38.9864802353
 20
105.0105238217
 11
39.5455689958
 21
105.3333119414
  0
LINE
  5
2AD
100
AcDbEntity
  8
0
100
AcDbLine
 62
7
  6
CONTINUOUS
 10
29.7236153269
 20
99.5809893652
 11
30.2827040875
 21
99.9037774849
  0
LINE
  5
2AE
100
AcDbEntity
  8
0
100
AcDbLine
 62
7
  6
CONTINUOUS
 10
30.890312312
 20
100.2545781629
 11
31.4494010726
 21
100.5773662825
  0
LINE
  5
2AF
100
AcDbEntity
  8
0
100
AcDbLine
 62
7
  6
CONTINUOUS
 10
32.0570092971
 20
100.9281669605
 11
32.6160980577
 21
101.2509550801
  0
LINE
  5
2B0
100
AcDbEntity
  8
0
100
AcDbLine
 62
7
  6
CONTINUOUS
 10
33.2237062823
 20
101.6017557581
 11
33.7827950428
 21
101.9245438778
  0
LINE
  5
2B1
100
AcDbEntity
  8
0
100
AcDbLine
 62
7
  6
CONTINUOUS
 10
34.3904032674
 20
102.2753445558
 11
34.9494920279
 21
102.5981326754
  0
LINE
  5
2B2
100
AcDbEntity
  8
0
100
AcDbLine
 62
7
  6
CONTINUOUS
 10
35.5571002525
 20
102.9489333534
 11
36.116189013
 21
103.271721473
  0
LINE
  5
2B3
100
AcDbEntity
  8
0
100
AcDbLine
 62
7
  6
CONTINUOUS
 10
36.7237972376
 20
103.622522151
 11
37.2828859981
 21
103.9453102706
  0
LINE
  5
2B4
100
AcDbEntity
  8
0
100
AcDbLine
 62
7
  6
CONTINUOUS
 10
37.8904942227
 20
104.2961109487
 11
38.4495829832
 21
104.6188990683
  0
LINE
  5
2B5
100
AcDbEntity
  8
0
100
AcDbLine
 62
7
  6
CONTINUOUS
 10
39.0571912078
 20
104.9696997463
 11
39.6162799683
 21
105.2924878659
  0
LINE
  5
2B6
100
AcDbEntity
  8
0
100
AcDbLine
 62
7
  6
CONTINUOUS
 10
42.3573311331
 20
106.3165044883
 11
42.4073317419
 21
106.345372181
  0
LINE
  5
2B7
100
AcDbEntity
  8
0
100
AcDbLine
 62
7
  6
CONTINUOUS
 10
40.8016897378
 20
107.4494569878
 11
40.6475176236
 21
107.3613783508
  0
LINE
  5
2B8
100
AcDbEntity
  8
0
100
AcDbLine
 62
7
  6
CONTINUOUS
 10
41.3663775199
 20
55.4328880811
 11
41.3750736612
 21
55.356462937
  0
LINE
  5
2B9
100
AcDbEntity
  8
0
100
AcDbLine
 62
7
  6
CONTINUOUS
 10
43.8030083699
 20
55.6653336178
 11
43.7999109569
 21
55.6954220844
  0
LINE
  5
2BA
100
AcDbEntity
  8
0
100
AcDbLine
 62
7
  6
CONTINUOUS
 10
43.5236846758
 20
58.6313853251
 11
43.5106475194
 21
58.7798330895
  0
LINE
  5
2BB
100
AcDbEntity
  8
0
100
AcDbLine
 62
7
  6
CONTINUOUS
 10
43.5233230314
 20
58.6311371665
 11
43.5106475194
 21
58.7798330895
  0
LINE
  5
2BC
100
AcDbEntity
  8
0
100
AcDbLine
 62
7
  6
CONTINUOUS
 10
40.1537918481
 20
76.2970517484
 11
40.153037568
 21
76.3391298476
  0
LINE
  5
2BD
100
AcDbEntity
  8
0
100
AcDbLine
 62
7
  6
CONTINUOUS
 10
40.15304201
 20
76.2966186228
 11
40.153037568
 21
76.3391298476
  0
LINE
  5
2BE
100
AcDbEntity
  8
0
100
AcDbLine
 62
7
  6
CONTINUOUS
 10
40.8016897378
 20
107.2146341482
 11
40.8016897378
 21
112.0373205418
  0
LINE
  5
2BF
100
AcDbEntity
  8
0
100
AcDbLine
 62
7
  6
CONTINUOUS
 10
41.5441549492
 20
106.785981356
 11
41.5441549492
 21
111.6086677496
  0
LINE
  5
2C0
100
AcDbEntity
  8
0
100
AcDbLine
 62
7
  6
CONTINUOUS
 10
41.6148659217
 20
106.7451572805
 11
41.6148659217
 21
111.5678436741
  0
LINE
  5
2C1
100
AcDbEntity
  8
0
100
AcDbLine
 62
7
  6
CONTINUOUS
 10
42.1221141032
 20
92.4228746974
 11
42.1221141032
 21
92.3360877196
  0
LINE
  5
2C2
100
AcDbEntity
  8
0
100
AcDbLine
 62
7
  6
CONTINUOUS
 10
42.3573311331
 20
106.3165044883
 11
42.3573311331
 21
106.3816005399
  0
LINE
  5
2C3
100
AcDbEntity
  8
0
100
AcDbLine
 62
7
  6
CONTINUOUS
 10
42.3573311331
 20
109.3538682011
 11
42.3573311331
 21
111.1391908819
  0
LINE
  5
2C4
100
AcDbEntity
  8
0
100
AcDbLine
 62
7
  6
CONTINUOUS
 10
42.9399681676
 20
92.5962679789
 11
42.9399681676
 21
92.8950601431
  0
LINE
  5
2C5
100
AcDbEntity
  8
0
100
AcDbLine
 62
7
  6
CONTINUOUS
 10
43.0106791401
 20
92.5554439035
 11
43.0106791401
 21
92.8542360677
  0
LINE
  5
2C6
100
AcDbEntity
  8
0
100
AcDbLine
 62
7
  6
CONTINUOUS
 10
43.2888110883
 20
93.0964634951
 11
43.2888110883
 21
93.0148146643
  0
LINE
  5
2C7
100
AcDbEntity
  8
0
100
AcDbLine
 62
7
  6
CONTINUOUS
 10
44.1066651527
 20
93.2698567766
 11
44.1066651527
 21
93.5686489408
  0
LINE
  5
2C8
100
AcDbEntity
  8
0
100
AcDbLine
 62
7
  6
CONTINUOUS
 10
44.1773761252
 20
93.2290327011
 11
44.1773761252
 21
93.5278248653
  0
LINE
  5
2C9
100
AcDbEntity
  8
0
100
AcDbLine
 62
7
  6
CONTINUOUS
 10
44.4555080734
 20
93.7700522927
 11
44.4555080734
 21
93.6884034619
  0
LINE
  5
2CA
100
AcDbEntity
  8
0
100
AcDbLine
 62
7
  6
CONTINUOUS
 10
40.6931551991
 20
91.4589002046
 11
40.6953063399
 21
91.4954341101
  0
LINE
  5
2CB
100
AcDbEntity
  8
0
100
AcDbLine
 62
7
  6
CONTINUOUS
 10
40.6927292175
 20
91.4586957407
 11
40.6953063399
 21
91.4954341101
  0
LINE
  5
2CC
100
AcDbEntity
  8
0
100
AcDbLine
 62
7
  6
CONTINUOUS
 10
74.5890312399
 20
121.6038869408
 11
75.2610220555
 21
121.9918587032
  0
LINE
  5
2CD
100
AcDbEntity
  8
0
100
AcDbLine
 62
7
  6
CONTINUOUS
 10
50.1067809061
 20
106.4929845382
 11
50.5701826868
 21
106.760528084
  0
LINE
  5
2CE
100
AcDbEntity
  8
0
100
AcDbLine
 62
7
  6
CONTINUOUS
 10
51.189874298
 20
51.5711940472
 11
51.2084565254
 21
51.3898928552
  0
LINE
  5
2CF
100
AcDbEntity
  8
0
100
AcDbLine
 62
7
  6
CONTINUOUS
 10
51.1903022392
 20
51.5714960591
 11
51.2084565254
 21
51.3898928552
  0
LINE
  5
2D0
100
AcDbEntity
  8
0
100
AcDbLine
 62
7
  6
CONTINUOUS
 10
45.2733621378
 20
93.9434455742
 11
45.2733621378
 21
94.2422377384
  0
LINE
  5
2D1
100
AcDbEntity
  8
0
100
AcDbLine
 62
7
  6
CONTINUOUS
 10
45.3440731103
 20
93.9026214988
 11
45.3440731103
 21
94.2014136629
  0
LINE
  5
2D2
100
AcDbEntity
  8
0
100
AcDbLine
 62
7
  6
CONTINUOUS
 10
45.6222050585
 20
94.4436410903
 11
45.6222050585
 21
94.3619922595
  0
LINE
  5
2D3
100
AcDbEntity
  8
0
100
AcDbLine
 62
7
  6
CONTINUOUS
 10
46.4400591229
 20
94.6170343718
 11
46.4400591229
 21
94.915826536
  0
LINE
  5
2D4
100
AcDbEntity
  8
0
100
AcDbLine
 62
7
  6
CONTINUOUS
 10
46.5107700954
 20
94.5762102964
 11
46.5107700954
 21
94.8750024606
  0
LINE
  5
2D5
100
AcDbEntity
  8
0
100
AcDbLine
 62
7
  6
CONTINUOUS
 10
46.7889020436
 20
95.117229888
 11
46.7889020436
 21
95.0355810572
  0
LINE
  5
2D6
100
AcDbEntity
  8
0
100
AcDbLine
 62
7
  6
CONTINUOUS
 10
47.606756108
 20
95.2906231695
 11
47.606756108
 21
95.5894153337
  0
LINE
  5
2D7
100
AcDbEntity
  8
0
100
AcDbLine
 62
7
  6
CONTINUOUS
 10
47.6774670805
 20
95.249799094
 11
47.6774670805
 21
95.5485912582
  0
LINE
  5
2D8
100
AcDbEntity
  8
0
100
AcDbLine
 62
7
  6
CONTINUOUS
 10
47.9555990287
 20
95.7908186856
 11
47.9555990287
 21
95.7091698548
  0
LINE
  5
2D9
100
AcDbEntity
  8
0
100
AcDbLine
 62
7
  6
CONTINUOUS
 10
48.7734530931
 20
95.9642119671
 11
48.7734530931
 21
96.2630041313
  0
LINE
  5
2DA
100
AcDbEntity
  8
0
100
AcDbLine
 62
7
  6
CONTINUOUS
 10
48.8441640657
 20
95.9233878916
 11
48.8441640657
 21
96.2221800558
  0
LINE
  5
2DB
100
AcDbEntity
  8
0
100
AcDbLine
 62
7
  6
CONTINUOUS
 10
49.1222960138
 20
96.4644074832
 11
49.1222960138
 21
96.3827586524
  0
LINE
  5
2DC
100
AcDbEntity
  8
0
100
AcDbLine
 62
7
  6
CONTINUOUS
 10
49.8050719502
 20
135.9125888022
 11
49.8050719502
 21
136.6885258659
  0
LINE
  5
2DD
100
AcDbEntity
  8
0
100
AcDbLine
 62
7
  6
CONTINUOUS
 10
57.926231538
 20
108.5505374189
 11
58.3403124779
 21
108.789605734
  0
LINE
  5
2DE
100
AcDbEntity
  8
0
100
AcDbLine
 62
7
  6
CONTINUOUS
 10
79.2208365163
 20
119.7057104779
 11
78.5488457007
 21
119.3177387155
  0
LINE
  5
2DF
100
AcDbEntity
  8
0
100
AcDbLine
 62
7
  6
CONTINUOUS
 10
53.5296647904
 20
104.6889869605
 11
54.1185713731
 21
105.0289903049
  0
LINE
  5
2E0
100
AcDbEntity
  8
0
100
AcDbLine
 62
7
  6
CONTINUOUS
 10
54.2721300018
 20
104.2603341682
 11
54.8610365845
 21
104.6003375127
  0
LINE
  5
2E1
100
AcDbEntity
  8
0
100
AcDbLine
 62
7
  6
CONTINUOUS
 10
54.3428409743
 20
104.2195100928
 11
54.931747557
 21
104.5595134372
  0
LINE
  5
2E2
100
AcDbEntity
  8
0
100
AcDbLine
 62
7
  6
CONTINUOUS
 10
55.0853061858
 20
103.7908573005
 11
55.1253139381
 21
103.8139556492
  0
LINE
  5
2E3
100
AcDbEntity
  8
0
100
AcDbLine
 62
7
  6
CONTINUOUS
 10
54.0943525725
 20
48.0845544997
 11
54.1030487139
 21
48.0081293556
  0
LINE
  5
2E4
100
AcDbEntity
  8
0
100
AcDbLine
 62
7
  6
CONTINUOUS
 10
56.5309834226
 20
48.3170000365
 11
56.5278860095
 21
48.3470885031
  0
LINE
  5
2E5
100
AcDbEntity
  8
0
100
AcDbLine
 62
7
  6
CONTINUOUS
 10
54.0957811938
 20
48.0855823068
 11
54.1030487139
 21
48.0081293556
  0
LINE
  5
2E6
100
AcDbEntity
  8
0
100
AcDbLine
 62
7
  6
CONTINUOUS
 10
56.2516597284
 20
51.2830517438
 11
56.2386225721
 21
51.4314995082
  0
LINE
  5
2E7
100
AcDbEntity
  8
0
100
AcDbLine
 62
7
  6
CONTINUOUS
 10
56.251298084
 20
51.2828035851
 11
56.2386225721
 21
51.4314995082
  0
LINE
  5
2E8
100
AcDbEntity
  8
0
100
AcDbLine
 62
7
  6
CONTINUOUS
 10
52.8817669007
 20
68.948718167
 11
52.8810126206
 21
68.9907962663
  0
LINE
  5
2E9
100
AcDbEntity
  8
0
100
AcDbLine
 62
7
  6
CONTINUOUS
 10
49.9401500782
 20
96.6378007647
 11
49.9401500782
 21
96.9365929289
  0
LINE
  5
2EA
100
AcDbEntity
  8
0
100
AcDbLine
 62
7
  6
CONTINUOUS
 10
50.0108610508
 20
96.5969766893
 11
50.0108610508
 21
96.8957688535
  0
LINE
  5
2EB
100
AcDbEntity
  8
0
100
AcDbLine
 62
7
  6
CONTINUOUS
 10
50.2889929989
 20
97.1379962808
 11
50.2889929989
 21
97.0563474501
  0
LINE
  5
2EC
100
AcDbEntity
  8
0
100
AcDbLine
 62
7
  6
CONTINUOUS
 10
51.1068470634
 20
97.3113895624
 11
51.1068470634
 21
97.6101817265
  0
LINE
  5
2ED
100
AcDbEntity
  8
0
100
AcDbLine
 62
7
  6
CONTINUOUS
 10
51.1775580359
 20
97.2705654869
 11
51.1775580359
 21
97.5693576511
  0
LINE
  5
2EE
100
AcDbEntity
  8
0
100
AcDbLine
 62
7
  6
CONTINUOUS
 10
51.455689984
 20
97.8115850785
 11
51.455689984
 21
97.7299362477
  0
LINE
  5
2EF
100
AcDbEntity
  8
0
100
AcDbLine
 62
7
  6
CONTINUOUS
 10
52.2735440485
 20
97.98497836
 11
52.2735440485
 21
98.2837705242
  0
LINE
  5
2F0
100
AcDbEntity
  8
0
100
AcDbLine
 62
7
  6
CONTINUOUS
 10
52.344255021
 20
97.9441542845
 11
52.344255021
 21
98.2429464487
  0
LINE
  5
2F1
100
AcDbEntity
  8
0
100
AcDbLine
 62
7
  6
CONTINUOUS
 10
52.8810170627
 20
68.9482850415
 11
52.8810126206
 21
68.9907962663
  0
LINE
  5
2F2
100
AcDbEntity
  8
0
100
AcDbLine
 62
7
  6
CONTINUOUS
 10
53.5296647904
 20
99.8663005669
 11
53.5296647904
 21
104.6889869605
  0
LINE
  5
2F3
100
AcDbEntity
  8
0
100
AcDbLine
 62
7
  6
CONTINUOUS
 10
54.2721300018
 20
99.4376477746
 11
54.2721300018
 21
104.2603341682
  0
LINE
  5
2F4
100
AcDbEntity
  8
0
100
AcDbLine
 62
7
  6
CONTINUOUS
 10
54.3428409743
 20
99.3968236992
 11
54.3428409743
 21
104.2195100928
  0
LINE
  5
2F5
100
AcDbEntity
  8
0
100
AcDbLine
 62
7
  6
CONTINUOUS
 10
54.8500891558
 20
85.0745411161
 11
54.8500891558
 21
84.9877541383
  0
LINE
  5
2F6
100
AcDbEntity
  8
0
100
AcDbLine
 62
7
  6
CONTINUOUS
 10
53.4211302518
 20
84.1105666232
 11
53.4232813925
 21
84.1471005287
  0
LINE
  5
2F7
100
AcDbEntity
  8
0
100
AcDbLine
 62
7
  6
CONTINUOUS
 10
53.4207042701
 20
84.1103621594
 11
53.4232813925
 21
84.1471005287
  0
LINE
  5
2F8
100
AcDbEntity
  8
0
100
AcDbLine
 62
7
  6
CONTINUOUS
 10
40.6953063399
 20
91.4954341101
 11
42.1221141032
 21
92.4228746974
  0
LINE
  5
2F9
100
AcDbEntity
  8
0
100
AcDbLine
 62
7
  6
CONTINUOUS
 10
42.1928250757
 20
92.382050622
 11
40.7660173124
 21
91.4546100346
  0
LINE
  5
2FA
100
AcDbEntity
  8
0
100
AcDbLine
 62
7
  6
CONTINUOUS
 10
42.9399681676
 20
92.8950601431
 11
43.2888110883
 21
93.0964634951
  0
LINE
  5
2FB
100
AcDbEntity
  8
0
100
AcDbLine
 62
7
  6
CONTINUOUS
 10
44.1066651527
 20
93.5686489408
 11
44.4555080734
 21
93.7700522927
  0
LINE
  5
2FC
100
AcDbEntity
  8
0
100
AcDbLine
 62
7
  6
CONTINUOUS
 10
45.2733621378
 20
94.2422377384
 11
45.6222050585
 21
94.4436410903
  0
LINE
  5
2FD
100
AcDbEntity
  8
0
100
AcDbLine
 62
7
  6
CONTINUOUS
 10
46.4400591229
 20
94.915826536
 11
46.7889020436
 21
95.117229888
  0
LINE
  5
2FE
100
AcDbEntity
  8
0
100
AcDbLine
 62
7
  6
CONTINUOUS
 10
47.606756108
 20
95.5894153337
 11
47.9555990287
 21
95.7908186856
  0
LINE
  5
2FF
100
AcDbEntity
  8
0
100
AcDbLine
 62
7
  6
CONTINUOUS
 10
48.7734530931
 20
96.2630041313
 11
49.1222960138
 21
96.4644074832
  0
LINE
  5
300
100
AcDbEntity
  8
0
100
AcDbLine
 62
7
  6
CONTINUOUS
 10
49.9401500782
 20
96.9365929289
 11
50.2889929989
 21
97.1379962808
  0
LINE
  5
301
100
AcDbEntity
  8
0
100
AcDbLine
 62
7
  6
CONTINUOUS
 10
51.1068470634
 20
97.6101817265
 11
51.455689984
 21
97.8115850785
  0
LINE
  5
302
100
AcDbEntity
  8
0
100
AcDbLine
 62
7
  6
CONTINUOUS
 10
52.2735440485
 20
98.2837705242
 11
54.2721300018
 21
99.4376477746
  0
LINE
  5
303
100
AcDbEntity
  8
0
100
AcDbLine
 62
7
  6
CONTINUOUS
 10
43.0106791401
 20
92.8542360677
 11
43.3595220608
 21
93.0556394196
  0
LINE
  5
304
100
AcDbEntity
  8
0
100
AcDbLine
 62
7
  6
CONTINUOUS
 10
44.1773761252
 20
93.5278248653
 11
44.5262190459
 21
93.7292282172
  0
LINE
  5
305
100
AcDbEntity
  8
0
100
AcDbLine
 62
7
  6
CONTINUOUS
 10
45.3440731103
 20
94.2014136629
 11
45.692916031
 21
94.4028170149
  0
LINE
  5
306
100
AcDbEntity
  8
0
100
AcDbLine
 62
7
  6
CONTINUOUS
 10
46.5107700954
 20
94.8750024606
 11
46.8596130161
 21
95.0764058125
  0
LINE
  5
307
100
AcDbEntity
  8
0
100
AcDbLine
 62
7
  6
CONTINUOUS
 10
47.6774670805
 20
95.5485912582
 11
48.0263100012
 21
95.7499946101
  0
LINE
  5
308
100
AcDbEntity
  8
0
100
AcDbLine
 62
7
  6
CONTINUOUS
 10
48.8441640657
 20
96.2221800558
 11
49.1930069863
 21
96.4235834078
  0
LINE
  5
309
100
AcDbEntity
  8
0
100
AcDbLine
 62
7
  6
CONTINUOUS
 10
50.0108610508
 20
96.8957688535
 11
50.3597039714
 21
97.0971722054
  0
LINE
  5
30A
100
AcDbEntity
  8
0
100
AcDbLine
 62
7
  6
CONTINUOUS
 10
51.1775580359
 20
97.5693576511
 11
51.5264009565
 21
97.770761003
  0
LINE
  5
30B
100
AcDbEntity
  8
0
100
AcDbLine
 62
7
  6
CONTINUOUS
 10
52.344255021
 20
98.2429464487
 11
54.3428409743
 21
99.3968236992
  0
LINE
  5
30C
100
AcDbEntity
  8
0
100
AcDbLine
 62
7
  6
CONTINUOUS
 10
42.3808794071
 20
92.2734798593
 11
42.9399681676
 21
92.5962679789
  0
LINE
  5
30D
100
AcDbEntity
  8
0
100
AcDbLine
 62
7
  6
CONTINUOUS
 10
43.5475763922
 20
92.947068657
 11
44.1066651527
 21
93.2698567766
  0
LINE
  5
30E
100
AcDbEntity
  8
0
100
AcDbLine
 62
7
  6
CONTINUOUS
 10
44.7142733773
 20
93.6206574546
 11
45.2733621378
 21
93.9434455742
  0
LINE
  5
30F
100
AcDbEntity
  8
0
100
AcDbLine
 62
7
  6
CONTINUOUS
 10
45.8809703624
 20
94.2942462522
 11
46.4400591229
 21
94.6170343718
  0
LINE
  5
310
100
AcDbEntity
  8
0
100
AcDbLine
 62
7
  6
CONTINUOUS
 10
47.0476673475
 20
94.9678350499
 11
47.606756108
 21
95.2906231695
  0
LINE
  5
311
100
AcDbEntity
  8
0
100
AcDbLine
 62
7
  6
CONTINUOUS
 10
48.2143643326
 20
95.6414238475
 11
48.7734530931
 21
95.9642119671
  0
LINE
  5
312
100
AcDbEntity
  8
0
100
AcDbLine
 62
7
  6
CONTINUOUS
 10
49.3810613177
 20
96.3150126451
 11
49.9401500782
 21
96.6378007647
  0
LINE
  5
313
100
AcDbEntity
  8
0
100
AcDbLine
 62
7
  6
CONTINUOUS
 10
50.5477583028
 20
96.9886014427
 11
51.1068470634
 21
97.3113895624
  0
LINE
  5
314
100
AcDbEntity
  8
0
100
AcDbLine
 62
7
  6
CONTINUOUS
 10
51.7144552879
 20
97.6621902404
 11
52.2735440485
 21
97.98497836
  0
LINE
  5
315
100
AcDbEntity
  8
0
100
AcDbLine
 62
7
  6
CONTINUOUS
 10
42.4515903796
 20
92.2326557839
 11
43.0106791401
 21
92.5554439035
  0
LINE
  5
316
100
AcDbEntity
  8
0
100
AcDbLine
 62
7
  6
CONTINUOUS
 10
43.6182873647
 20
92.9062445815
 11
44.1773761252
 21
93.2290327011
  0
LINE
  5
317
100
AcDbEntity
  8
0
100
AcDbLine
 62
7
  6
CONTINUOUS
 10
44.7849843498
 20
93.5798333791
 11
45.3440731103
 21
93.9026214988
  0
LINE
  5
318
100
AcDbEntity
  8
0
100
AcDbLine
 62
7
  6
CONTINUOUS
 10
45.9516813349
 20
94.2534221768
 11
46.5107700954
 21
94.5762102964
  0
LINE
  5
319
100
AcDbEntity
  8
0
100
AcDbLine
 62
7
  6
CONTINUOUS
 10
47.11837832
 20
94.9270109744
 11
47.6774670805
 21
95.249799094
  0
LINE
  5
31A
100
AcDbEntity
  8
0
100
AcDbLine
 62
7
  6
CONTINUOUS
 10
48.2850753051
 20
95.600599772
 11
48.8441640657
 21
95.9233878916
  0
LINE
  5
31B
100
AcDbEntity
  8
0
100
AcDbLine
 62
7
  6
CONTINUOUS
 10
49.4517722902
 20
96.2741885697
 11
50.0108610508
 21
96.5969766893
  0
LINE
  5
31C
100
AcDbEntity
  8
0
100
AcDbLine
 62
7
  6
CONTINUOUS
 10
50.6184692753
 20
96.9477773673
 11
51.1775580359
 21
97.2705654869
  0
LINE
  5
31D
100
AcDbEntity
  8
0
100
AcDbLine
 62
7
  6
CONTINUOUS
 10
51.7851662604
 20
97.6213661649
 11
52.344255021
 21
97.9441542845
  0
LINE
  5
31E
100
AcDbEntity
  8
0
100
AcDbLine
 62
7
  6
CONTINUOUS
 10
55.0853061857
 20
98.9681709069
 11
55.1353067946
 21
98.9970385996
  0
LINE
  5
31F
100
AcDbEntity
  8
0
100
AcDbLine
 62
7
  6
CONTINUOUS
 10
53.5296647904
 20
100.1011234064
 11
53.3754926762
 21
100.0130447694
  0
LINE
  5
320
100
AcDbEntity
  8
0
100
AcDbLine
 62
7
  6
CONTINUOUS
 10
15.3100672071
 20
106.1512771974
 11
27.9673312873
 21
98.8437676915
  0
LINE
  5
321
100
AcDbEntity
  8
0
100
AcDbLine
 62
7
  6
CONTINUOUS
 10
28.0380422598
 20
98.802943616
 11
40.6953063399
 21
91.4954341101
  0
LINE
  5
322
100
AcDbEntity
  8
0
100
AcDbLine
 62
7
  6
CONTINUOUS
 10
40.7660173124
 20
91.4546100346
 11
53.4232813925
 21
84.1471005287
  0
LINE
  5
323
100
AcDbEntity
  8
0
100
AcDbLine
 62
7
  6
CONTINUOUS
 10
53.4939923651
 20
84.1062764533
 11
66.1512564452
 21
76.7987669474
  0
LINE
  5
324
100
AcDbEntity
  8
0
100
AcDbLine
 62
7
  6
CONTINUOUS
 10
63.9178493506
 20
44.2228604658
 11
63.936431578
 21
44.0415592739
  0
LINE
  5
325
100
AcDbEntity
  8
0
100
AcDbLine
 62
7
  6
CONTINUOUS
 10
63.9182772918
 20
44.2231624777
 11
63.936431578
 21
44.0415592739
  0
LINE
  5
326
100
AcDbEntity
  8
0
100
AcDbLine
 62
7
  6
CONTINUOUS
 10
55.0853061858
 20
98.9681709069
 11
55.0853061857
 21
99.0332669586
  0
LINE
  5
327
100
AcDbEntity
  8
0
100
AcDbLine
 62
7
  6
CONTINUOUS
 10
55.0853061858
 20
102.0055346197
 11
55.0853061858
 21
103.7908573005
  0
LINE
  5
328
100
AcDbEntity
  8
0
100
AcDbLine
 62
7
  6
CONTINUOUS
 10
55.6679432203
 20
85.2479343976
 11
55.6679432203
 21
85.5467265618
  0
LINE
  5
329
100
AcDbEntity
  8
0
100
AcDbLine
 62
7
  6
CONTINUOUS
 10
55.7386541928
 20
85.2071103221
 11
55.7386541928
 21
85.5059024863
  0
LINE
  5
32A
100
AcDbEntity
  8
0
100
AcDbLine
 62
7
  6
CONTINUOUS
 10
56.0167861409
 20
85.7481299137
 11
56.0167861409
 21
85.6664810829
  0
LINE
  5
32B
100
AcDbEntity
  8
0
100
AcDbLine
 62
7
  6
CONTINUOUS
 10
56.8346402054
 20
85.9215231952
 11
56.8346402054
 21
86.2203153594
  0
LINE
  5
32C
100
AcDbEntity
  8
0
100
AcDbLine
 62
7
  6
CONTINUOUS
 10
56.9053511779
 20
85.8806991198
 11
56.9053511779
 21
86.1794912839
  0
LINE
  5
32D
100
AcDbEntity
  8
0
100
AcDbLine
 62
7
  6
CONTINUOUS
 10
57.183483126
 20
86.4217187113
 11
57.183483126
 21
86.3400698805
  0
LINE
  5
32E
100
AcDbEntity
  8
0
100
AcDbLine
 62
7
  6
CONTINUOUS
 10
58.0013371905
 20
86.5951119928
 11
58.0013371905
 21
86.893904157
  0
LINE
  5
32F
100
AcDbEntity
  8
0
100
AcDbLine
 62
7
  6
CONTINUOUS
 10
58.072048163
 20
86.5542879174
 11
58.072048163
 21
86.8530800816
  0
LINE
  5
330
100
AcDbEntity
  8
0
100
AcDbLine
 62
7
  6
CONTINUOUS
 10
58.3501801111
 20
87.095307509
 11
58.3501801111
 21
87.0136586782
  0
LINE
  5
331
100
AcDbEntity
  8
0
100
AcDbLine
 62
7
  6
CONTINUOUS
 10
59.1680341756
 20
87.2687007905
 11
59.1680341756
 21
87.5674929547
  0
LINE
  5
332
100
AcDbEntity
  8
0
100
AcDbLine
 62
7
  6
CONTINUOUS
 10
59.2387451481
 20
87.227876715
 11
59.2387451481
 21
87.5266688792
  0
LINE
  5
333
100
AcDbEntity
  8
0
100
AcDbLine
 62
7
  6
CONTINUOUS
 10
59.5168770962
 20
87.7688963066
 11
59.5168770962
 21
87.6872474758
  0
LINE
  5
334
100
AcDbEntity
  8
0
100
AcDbLine
 62
7
  6
CONTINUOUS
 10
87.3170062925
 20
114.2555533594
 11
87.9889971081
 21
114.6435251218
  0
LINE
  5
335
100
AcDbEntity
  8
0
100
AcDbLine
 62
7
  6
CONTINUOUS
 10
62.8347559587
 20
99.1446509569
 11
63.2981577394
 21
99.4121945026
  0
LINE
  5
336
100
AcDbEntity
  8
0
100
AcDbLine
 62
7
  6
CONTINUOUS
 10
18.1473364665
 20
73.3350433804
 11
18.2235243219
 21
73.3790301967
  0
LINE
  5
337
100
AcDbEntity
  8
0
100
AcDbLine
 62
7
  6
CONTINUOUS
 10
70.6542065906
 20
101.2022038376
 11
71.0682875306
 21
101.4412721527
  0
LINE
  5
338
100
AcDbEntity
  8
0
100
AcDbLine
 62
7
  6
CONTINUOUS
 10
18.3470582646
 20
70.3620007806
 11
18.4211325002
 21
70.4047673051
  0
LINE
  5
339
100
AcDbEntity
  8
0
100
AcDbLine
 62
7
  6
CONTINUOUS
 10
91.9488115689
 20
112.3573768965
 11
91.2768207534
 21
111.9694051341
  0
LINE
  5
33A
100
AcDbEntity
  8
0
100
AcDbLine
 62
7
  6
CONTINUOUS
 10
66.2576398431
 20
97.3406533791
 11
66.8465464257
 21
97.6806567236
  0
LINE
  5
33B
100
AcDbEntity
  8
0
100
AcDbLine
 62
7
  6
CONTINUOUS
 10
67.0001050545
 20
96.9120005869
 11
67.5890116371
 21
97.2520039313
  0
LINE
  5
33C
100
AcDbEntity
  8
0
100
AcDbLine
 62
7
  6
CONTINUOUS
 10
67.070816027
 20
96.8711765114
 11
67.6597226096
 21
97.2111798559
  0
LINE
  5
33D
100
AcDbEntity
  8
0
100
AcDbLine
 62
7
  6
CONTINUOUS
 10
67.5780642085
 20
77.7262075347
 11
54.9208001283
 21
85.0337170406
  0
LINE
  5
33E
100
AcDbEntity
  8
0
100
AcDbLine
 62
7
  6
CONTINUOUS
 10
54.8500891558
 20
85.0745411161
 11
42.1928250757
 21
92.382050622
  0
LINE
  5
33F
100
AcDbEntity
  8
0
100
AcDbLine
 62
7
  6
CONTINUOUS
 10
42.1221141032
 20
92.4228746974
 11
29.464850023
 21
99.7303842033
  0
LINE
  5
340
100
AcDbEntity
  8
0
100
AcDbLine
 62
7
  6
CONTINUOUS
 10
29.3941390505
 20
99.7712082788
 11
16.7368749704
 21
107.0787177847
  0
LINE
  5
341
100
AcDbEntity
  8
0
100
AcDbLine
 62
7
  6
CONTINUOUS
 10
103.6715628944
 20
57.0219071195
 11
103.5260881835
 21
57.105895083
  0
LINE
  5
342
100
AcDbEntity
  8
0
100
AcDbLine
 62
7
  6
CONTINUOUS
 10
68.3959182729
 20
77.8996008162
 11
55.7386541928
 21
85.2071103221
  0
LINE
  5
343
100
AcDbEntity
  8
0
100
AcDbLine
 62
7
  6
CONTINUOUS
 10
55.6679432203
 20
85.2479343976
 11
43.0106791401
 21
92.5554439035
  0
LINE
  5
344
100
AcDbEntity
  8
0
100
AcDbLine
 62
7
  6
CONTINUOUS
 10
42.9399681676
 20
92.5962679789
 11
30.2827040875
 21
99.9037774849
  0
LINE
  5
345
100
AcDbEntity
  8
0
100
AcDbLine
 62
7
  6
CONTINUOUS
 10
30.211993115
 20
99.9446015603
 11
17.5547290348
 21
107.2521110662
  0
LINE
  5
346
100
AcDbEntity
  8
0
100
AcDbLine
 62
7
  6
CONTINUOUS
 10
68.3959182729
 20
78.1983929804
 11
55.7386541928
 21
85.5059024863
  0
LINE
  5
347
100
AcDbEntity
  8
0
100
AcDbLine
 62
7
  6
CONTINUOUS
 10
55.6679432203
 20
85.5467265618
 11
43.0106791401
 21
92.8542360677
  0
LINE
  5
348
100
AcDbEntity
  8
0
100
AcDbLine
 62
7
  6
CONTINUOUS
 10
42.9399681676
 20
92.8950601431
 11
30.2827040875
 21
100.202569649
  0
LINE
  5
349
100
AcDbEntity
  8
0
100
AcDbLine
 62
7
  6
CONTINUOUS
 10
30.211993115
 20
100.2433937245
 11
17.5547290348
 21
107.5509032304
  0
LINE
  5
34A
100
AcDbEntity
  8
0
100
AcDbLine
 62
7
  6
CONTINUOUS
 10
68.7447611936
 20
78.3997963323
 11
56.0874971134
 21
85.7073058382
  0
LINE
  5
34B
100
AcDbEntity
  8
0
100
AcDbLine
 62
7
  6
CONTINUOUS
 10
56.0167861409
 20
85.7481299137
 11
43.3595220608
 21
93.0556394196
  0
LINE
  5
34C
100
AcDbEntity
  8
0
100
AcDbLine
 62
7
  6
CONTINUOUS
 10
43.2888110883
 20
93.0964634951
 11
30.6315470081
 21
100.403973001
  0
LINE
  5
34D
100
AcDbEntity
  8
0
100
AcDbLine
 62
7
  6
CONTINUOUS
 10
30.5608360356
 20
100.4447970764
 11
17.9035719555
 21
107.7523065823
  0
LINE
  5
34E
100
AcDbEntity
  8
0
100
AcDbLine
 62
7
  6
CONTINUOUS
 10
69.562615258
 20
78.5731896138
 11
56.9053511779
 21
85.8806991198
  0
LINE
  5
34F
100
AcDbEntity
  8
0
100
AcDbLine
 62
7
  6
CONTINUOUS
 10
56.8346402054
 20
85.9215231952
 11
44.1773761252
 21
93.2290327011
  0
LINE
  5
350
100
AcDbEntity
  8
0
100
AcDbLine
 62
7
  6
CONTINUOUS
 10
44.1066651527
 20
93.2698567766
 11
31.4494010726
 21
100.5773662825
  0
LINE
  5
351
100
AcDbEntity
  8
0
100
AcDbLine
 62
7
  6
CONTINUOUS
 10
31.3786901001
 20
100.6181903579
 11
18.7214260199
 21
107.9256998639
  0
LINE
  5
352
100
AcDbEntity
  8
0
100
AcDbLine
 62
7
  6
CONTINUOUS
 10
69.562615258
 20
78.871981778
 11
56.9053511779
 21
86.1794912839
  0
LINE
  5
353
100
AcDbEntity
  8
0
100
AcDbLine
 62
7
  6
CONTINUOUS
 10
56.8346402054
 20
86.2203153594
 11
44.1773761252
 21
93.5278248653
  0
LINE
  5
354
100
AcDbEntity
  8
0
100
AcDbLine
 62
7
  6
CONTINUOUS
 10
44.1066651527
 20
93.5686489408
 11
31.4494010726
 21
100.8761584467
  0
LINE
  5
355
100
AcDbEntity
  8
0
100
AcDbLine
 62
7
  6
CONTINUOUS
 10
31.3786901001
 20
100.9169825221
 11
18.7214260199
 21
108.224492028
  0
LINE
  5
356
100
AcDbEntity
  8
0
100
AcDbLine
 62
7
  6
CONTINUOUS
 10
105.1007369817
 20
58.6721796155
 11
104.9239610224
 21
58.7742389543
  0
LINE
  5
357
100
AcDbEntity
  8
0
100
AcDbLine
 62
7
  6
CONTINUOUS
 10
69.9114581787
 20
79.07338513
 11
57.2541940985
 21
86.3808946359
  0
LINE
  5
358
100
AcDbEntity
  8
0
100
AcDbLine
 62
7
  6
CONTINUOUS
 10
57.183483126
 20
86.4217187113
 11
44.5262190459
 21
93.7292282172
  0
LINE
  5
359
100
AcDbEntity
  8
0
100
AcDbLine
 62
7
  6
CONTINUOUS
 10
44.4555080734
 20
93.7700522927
 11
31.7982439932
 21
101.0775617986
  0
LINE
  5
35A
100
AcDbEntity
  8
0
100
AcDbLine
 62
7
  6
CONTINUOUS
 10
31.7275330207
 20
101.1183858741
 11
19.0702689406
 21
108.42589538
  0
LINE
  5
35B
100
AcDbEntity
  8
0
100
AcDbLine
 62
7
  6
CONTINUOUS
 10
70.7293122431
 20
79.2467784115
 11
58.072048163
 21
86.5542879174
  0
LINE
  5
35C
100
AcDbEntity
  8
0
100
AcDbLine
 62
7
  6
CONTINUOUS
 10
58.0013371905
 20
86.5951119928
 11
45.3440731103
 21
93.9026214988
  0
LINE
  5
35D
100
AcDbEntity
  8
0
100
AcDbLine
 62
7
  6
CONTINUOUS
 10
45.2733621378
 20
93.9434455742
 11
32.6160980577
 21
101.2509550801
  0
LINE
  5
35E
100
AcDbEntity
  8
0
100
AcDbLine
 62
7
  6
CONTINUOUS
 10
32.5453870852
 20
101.2917791556
 11
19.8881230051
 21
108.5992886615
  0
LINE
  5
35F
100
AcDbEntity
  8
0
100
AcDbLine
 62
7
  6
CONTINUOUS
 10
70.7293122431
 20
79.5455705757
 11
58.072048163
 21
86.8530800816
  0
LINE
  5
360
100
AcDbEntity
  8
0
100
AcDbLine
 62
7
  6
CONTINUOUS
 10
58.0013371905
 20
86.893904157
 11
45.3440731103
 21
94.2014136629
  0
LINE
  5
361
100
AcDbEntity
  8
0
100
AcDbLine
 62
7
  6
CONTINUOUS
 10
45.2733621378
 20
94.2422377384
 11
32.6160980577
 21
101.5497472443
  0
LINE
  5
362
100
AcDbEntity
  8
0
100
AcDbLine
 62
7
  6
CONTINUOUS
 10
32.5453870852
 20
101.5905713198
 11
19.8881230051
 21
108.8980808257
  0
LINE
  5
363
100
AcDbEntity
  8
0
100
AcDbLine
 62
7
  6
CONTINUOUS
 10
71.0781551638
 20
79.7469739276
 11
58.4208910836
 21
87.0544834335
  0
LINE
  5
364
100
AcDbEntity
  8
0
100
AcDbLine
 62
7
  6
CONTINUOUS
 10
58.3501801111
 20
87.095307509
 11
45.692916031
 21
94.4028170149
  0
LINE
  5
365
100
AcDbEntity
  8
0
100
AcDbLine
 62
7
  6
CONTINUOUS
 10
45.6222050585
 20
94.4436410903
 11
32.9649409784
 21
101.7511505962
  0
LINE
  5
366
100
AcDbEntity
  8
0
100
AcDbLine
 62
7
  6
CONTINUOUS
 10
32.8942300058
 20
101.7919746717
 11
20.2369659257
 21
109.0994841776
  0
LINE
  5
367
100
AcDbEntity
  8
0
100
AcDbLine
 62
7
  6
CONTINUOUS
 10
71.8960092282
 20
79.9203672091
 11
59.2387451481
 21
87.227876715
  0
LINE
  5
368
100
AcDbEntity
  8
0
100
AcDbLine
 62
7
  6
CONTINUOUS
 10
59.1680341756
 20
87.2687007905
 11
46.5107700954
 21
94.5762102964
  0
LINE
  5
369
100
AcDbEntity
  8
0
100
AcDbLine
 62
7
  6
CONTINUOUS
 10
46.4400591229
 20
94.6170343718
 11
33.7827950428
 21
101.9245438778
  0
LINE
  5
36A
100
AcDbEntity
  8
0
100
AcDbLine
 62
7
  6
CONTINUOUS
 10
33.7120840703
 20
101.9653679532
 11
21.0548199902
 21
109.2728774591
  0
LINE
  5
36B
100
AcDbEntity
  8
0
100
AcDbLine
 62
7
  6
CONTINUOUS
 10
71.8960092282
 20
80.2191593733
 11
59.2387451481
 21
87.5266688792
  0
LINE
  5
36C
100
AcDbEntity
  8
0
100
AcDbLine
 62
7
  6
CONTINUOUS
 10
59.1680341756
 20
87.5674929547
 11
46.5107700954
 21
94.8750024606
  0
LINE
  5
36D
100
AcDbEntity
  8
0
100
AcDbLine
 62
7
  6
CONTINUOUS
 10
46.4400591229
 20
94.915826536
 11
33.7827950428
 21
102.2233360419
  0
LINE
  5
36E
100
AcDbEntity
  8
0
100
AcDbLine
 62
7
  6
CONTINUOUS
 10
33.7120840703
 20
102.2641601174
 11
21.0548199902
 21
109.5716696233
  0
LINE
  5
36F
100
AcDbEntity
  8
0
100
AcDbLine
 62
7
  6
CONTINUOUS
 10
72.2448521489
 20
80.4205627252
 11
59.5875880688
 21
87.7280722311
  0
LINE
  5
370
100
AcDbEntity
  8
0
100
AcDbLine
 62
7
  6
CONTINUOUS
 10
59.5168770962
 20
87.7688963066
 11
46.8596130161
 21
95.0764058125
  0
LINE
  5
371
100
AcDbEntity
  8
0
100
AcDbLine
 62
7
  6
CONTINUOUS
 10
46.7889020436
 20
95.117229888
 11
34.1316379635
 21
102.4247393939
  0
LINE
  5
372
100
AcDbEntity
  8
0
100
AcDbLine
 62
7
  6
CONTINUOUS
 10
34.0609269909
 20
102.4655634693
 11
21.4036629108
 21
109.7730729752
  0
LINE
  5
373
100
AcDbEntity
  8
0
100
AcDbLine
 62
7
  6
CONTINUOUS
 10
49.7660024905
 20
137.0354032776
 11
49.8050719502
 21
136.6885258659
  0
LINE
  5
374
100
AcDbEntity
  8
0
100
AcDbLine
 62
7
  6
CONTINUOUS
 10
60.3347311607
 20
87.9422895881
 11
60.3347311607
 21
88.2410817523
  0
LINE
  5
375
100
AcDbEntity
  8
0
100
AcDbLine
 62
7
  6
CONTINUOUS
 10
60.4054421332
 20
87.9014655126
 11
60.4054421332
 21
88.2002576768
  0
LINE
  5
376
100
AcDbEntity
  8
0
100
AcDbLine
 62
7
  6
CONTINUOUS
 10
60.6835740813
 20
88.4424851042
 11
60.6835740813
 21
88.3608362734
  0
LINE
  5
377
100
AcDbEntity
  8
0
100
AcDbLine
 62
7
  6
CONTINUOUS
 10
61.5014281458
 20
88.6158783857
 11
61.5014281458
 21
88.9146705499
  0
LINE
  5
378
100
AcDbEntity
  8
0
100
AcDbLine
 62
7
  6
CONTINUOUS
 10
61.5721391183
 20
88.5750543103
 11
61.5721391183
 21
88.8738464745
  0
LINE
  5
379
100
AcDbEntity
  8
0
100
AcDbLine
 62
7
  6
CONTINUOUS
 10
61.8502710664
 20
89.1160739019
 11
61.8502710664
 21
89.0344250711
  0
LINE
  5
37A
100
AcDbEntity
  8
0
100
AcDbLine
 62
7
  6
CONTINUOUS
 10
62.5330470028
 20
128.5642552209
 11
62.5330470028
 21
129.3401922846
  0
LINE
  5
37B
100
AcDbEntity
  8
0
100
AcDbLine
 62
7
  6
CONTINUOUS
 10
62.6681251309
 20
89.2894671834
 11
62.6681251309
 21
89.5882593476
  0
LINE
  5
37C
100
AcDbEntity
  8
0
100
AcDbLine
 62
7
  6
CONTINUOUS
 10
62.7388361034
 20
89.2486431079
 11
62.7388361034
 21
89.5474352721
  0
LINE
  5
37D
100
AcDbEntity
  8
0
100
AcDbLine
 62
7
  6
CONTINUOUS
 10
63.0169680516
 20
89.7896626995
 11
63.0169680516
 21
89.7080138687
  0
LINE
  5
37E
100
AcDbEntity
  8
0
100
AcDbLine
 62
7
  6
CONTINUOUS
 10
63.834822116
 20
89.963055981
 11
63.834822116
 21
90.2618481452
  0
LINE
  5
37F
100
AcDbEntity
  8
0
100
AcDbLine
 62
7
  6
CONTINUOUS
 10
63.9055330885
 20
89.9222319055
 11
63.9055330885
 21
90.2210240697
  0
LINE
  5
380
100
AcDbEntity
  8
0
100
AcDbLine
 62
7
  6
CONTINUOUS
 10
64.1836650367
 20
90.4632514971
 11
64.1836650367
 21
90.3816026663
  0
LINE
  5
381
100
AcDbEntity
  8
0
100
AcDbLine
 62
7
  6
CONTINUOUS
 10
65.0015191011
 20
90.6366447786
 11
65.0015191011
 21
90.9354369428
  0
LINE
  5
382
100
AcDbEntity
  8
0
100
AcDbLine
 62
7
  6
CONTINUOUS
 10
65.0722300736
 20
90.5958207032
 11
65.0722300736
 21
90.8946128674
  0
LINE
  5
383
100
AcDbEntity
  8
0
100
AcDbLine
 62
7
  6
CONTINUOUS
 10
53.4232813925
 20
84.1471005287
 11
54.8500891558
 21
85.0745411161
  0
LINE
  5
384
100
AcDbEntity
  8
0
100
AcDbLine
 62
7
  6
CONTINUOUS
 10
54.9208001283
 20
85.0337170406
 11
53.4939923651
 21
84.1062764533
  0
LINE
  5
385
100
AcDbEntity
  8
0
100
AcDbLine
 62
7
  6
CONTINUOUS
 10
67.8132812384
 20
96.4425237192
 11
67.8532889907
 21
96.4656220679
  0
LINE
  5
386
100
AcDbEntity
  8
0
100
AcDbLine
 62
7
  6
CONTINUOUS
 10
25.3810689547
 20
69.1587404616
 11
25.4572568102
 21
69.2027272779
  0
LINE
  5
387
100
AcDbEntity
  8
0
100
AcDbLine
 62
7
  6
CONTINUOUS
 10
80.4546380803
 20
100.6998492583
 11
110.616146912
 21
118.1135005559
  0
LINE
  5
388
100
AcDbEntity
  8
0
100
AcDbLine
 62
7
  6
CONTINUOUS
 10
55.6679432203
 20
85.5467265618
 11
56.0167861409
 21
85.7481299137
  0
LINE
  5
389
100
AcDbEntity
  8
0
100
AcDbLine
 62
7
  6
CONTINUOUS
 10
56.8346402054
 20
86.2203153594
 11
57.183483126
 21
86.4217187113
  0
LINE
  5
38A
100
AcDbEntity
  8
0
100
AcDbLine
 62
7
  6
CONTINUOUS
 10
58.0013371905
 20
86.893904157
 11
58.3501801111
 21
87.095307509
  0
LINE
  5
38B
100
AcDbEntity
  8
0
100
AcDbLine
 62
7
  6
CONTINUOUS
 10
59.1680341756
 20
87.5674929547
 11
59.5168770962
 21
87.7688963066
  0
LINE
  5
38C
100
AcDbEntity
  8
0
100
AcDbLine
 62
7
  6
CONTINUOUS
 10
60.3347311607
 20
88.2410817523
 11
60.6835740813
 21
88.4424851042
  0
LINE
  5
38D
100
AcDbEntity
  8
0
100
AcDbLine
 62
7
  6
CONTINUOUS
 10
61.5014281458
 20
88.9146705499
 11
61.8502710664
 21
89.1160739019
  0
LINE
  5
38E
100
AcDbEntity
  8
0
100
AcDbLine
 62
7
  6
CONTINUOUS
 10
62.6681251309
 20
89.5882593476
 11
63.0169680516
 21
89.7896626995
  0
LINE
  5
38F
100
AcDbEntity
  8
0
100
AcDbLine
 62
7
  6
CONTINUOUS
 10
63.834822116
 20
90.2618481452
 11
64.1836650367
 21
90.4632514971
  0
LINE
  5
390
100
AcDbEntity
  8
0
100
AcDbLine
 62
7
  6
CONTINUOUS
 10
65.0015191011
 20
90.9354369428
 11
67.0001050545
 21
92.0893141933
  0
LINE
  5
391
100
AcDbEntity
  8
0
100
AcDbLine
 62
7
  6
CONTINUOUS
 10
55.7386541928
 20
85.5059024863
 11
56.0874971134
 21
85.7073058382
  0
LINE
  5
392
100
AcDbEntity
  8
0
100
AcDbLine
 62
7
  6
CONTINUOUS
 10
56.9053511779
 20
86.1794912839
 11
57.2541940985
 21
86.3808946359
  0
LINE
  5
393
100
AcDbEntity
  8
0
100
AcDbLine
 62
7
  6
CONTINUOUS
 10
58.072048163
 20
86.8530800816
 11
58.4208910836
 21
87.0544834335
  0
LINE
  5
394
100
AcDbEntity
  8
0
100
AcDbLine
 62
7
  6
CONTINUOUS
 10
59.2387451481
 20
87.5266688792
 11
59.5875880688
 21
87.7280722311
  0
LINE
  5
395
100
AcDbEntity
  8
0
100
AcDbLine
 62
7
  6
CONTINUOUS
 10
60.4054421332
 20
88.2002576768
 11
60.7542850539
 21
88.4016610288
  0
LINE
  5
396
100
AcDbEntity
  8
0
100
AcDbLine
 62
7
  6
CONTINUOUS
 10
61.5721391183
 20
88.8738464745
 11
61.920982039
 21
89.0752498264
  0
LINE
  5
397
100
AcDbEntity
  8
0
100
AcDbLine
 62
7
  6
CONTINUOUS
 10
62.7388361034
 20
89.5474352721
 11
63.0876790241
 21
89.748838624
  0
LINE
  5
398
100
AcDbEntity
  8
0
100
AcDbLine
 62
7
  6
CONTINUOUS
 10
63.9055330885
 20
90.2210240697
 11
64.2543760092
 21
90.4224274217
  0
LINE
  5
399
100
AcDbEntity
  8
0
100
AcDbLine
 62
7
  6
CONTINUOUS
 10
65.0722300736
 20
90.8946128674
 11
67.070816027
 21
92.0484901178
  0
LINE
  5
39A
100
AcDbEntity
  8
0
100
AcDbLine
 62
7
  6
CONTINUOUS
 10
55.1088544597
 20
84.925146278
 11
55.6679432203
 21
85.2479343976
  0
LINE
  5
39B
100
AcDbEntity
  8
0
100
AcDbLine
 62
7
  6
CONTINUOUS
 10
56.2755514448
 20
85.5987350756
 11
56.8346402054
 21
85.9215231952
  0
LINE
  5
39C
100
AcDbEntity
  8
0
100
AcDbLine
 62
7
  6
CONTINUOUS
 10
57.4422484299
 20
86.2723238732
 11
58.0013371905
 21
86.5951119928
  0
LINE
  5
39D
100
AcDbEntity
  8
0
100
AcDbLine
 62
7
  6
CONTINUOUS
 10
58.608945415
 20
86.9459126709
 11
59.1680341756
 21
87.2687007905
  0
LINE
  5
39E
100
AcDbEntity
  8
0
100
AcDbLine
 62
7
  6
CONTINUOUS
 10
59.7756424001
 20
87.6195014685
 11
60.3347311607
 21
87.9422895881
  0
LINE
  5
39F
100
AcDbEntity
  8
0
100
AcDbLine
 62
7
  6
CONTINUOUS
 10
60.9423393852
 20
88.2930902661
 11
61.5014281458
 21
88.6158783857
  0
LINE
  5
3A0
100
AcDbEntity
  8
0
100
AcDbLine
 62
7
  6
CONTINUOUS
 10
62.1090363704
 20
88.9666790638
 11
62.6681251309
 21
89.2894671834
  0
LINE
  5
3A1
100
AcDbEntity
  8
0
100
AcDbLine
 62
7
  6
CONTINUOUS
 10
63.2757333555
 20
89.6402678614
 11
63.834822116
 21
89.963055981
  0
LINE
  5
3A2
100
AcDbEntity
  8
0
100
AcDbLine
 62
7
  6
CONTINUOUS
 10
64.4424303406
 20
90.313856659
 11
65.0015191011
 21
90.6366447786
  0
LINE
  5
3A3
100
AcDbEntity
  8
0
100
AcDbLine
 62
7
  6
CONTINUOUS
 10
55.1795654322
 20
84.8843222025
 11
55.7386541928
 21
85.2071103221
  0
LINE
  5
3A4
100
AcDbEntity
  8
0
100
AcDbLine
 62
7
  6
CONTINUOUS
 10
56.3462624173
 20
85.5579110001
 11
56.9053511779
 21
85.8806991198
  0
LINE
  5
3A5
100
AcDbEntity
  8
0
100
AcDbLine
 62
7
  6
CONTINUOUS
 10
57.5129594024
 20
86.2314997978
 11
58.072048163
 21
86.5542879174
  0
LINE
  5
3A6
100
AcDbEntity
  8
0
100
AcDbLine
 62
7
  6
CONTINUOUS
 10
58.6796563875
 20
86.9050885954
 11
59.2387451481
 21
87.227876715
  0
LINE
  5
3A7
100
AcDbEntity
  8
0
100
AcDbLine
 62
7
  6
CONTINUOUS
 10
59.8463533727
 20
87.578677393
 11
60.4054421332
 21
87.9014655126
  0
LINE
  5
3A8
100
AcDbEntity
  8
0
100
AcDbLine
 62
7
  6
CONTINUOUS
 10
61.0130503578
 20
88.2522661907
 11
61.5721391183
 21
88.5750543103
  0
LINE
  5
3A9
100
AcDbEntity
  8
0
100
AcDbLine
 62
7
  6
CONTINUOUS
 10
62.1797473429
 20
88.9258549883
 11
62.7388361034
 21
89.2486431079
  0
LINE
  5
3AA
100
AcDbEntity
  8
0
100
AcDbLine
 62
7
  6
CONTINUOUS
 10
63.346444328
 20
89.5994437859
 11
63.9055330885
 21
89.9222319055
  0
LINE
  5
3AB
100
AcDbEntity
  8
0
100
AcDbLine
 62
7
  6
CONTINUOUS
 10
64.5131413131
 20
90.2730325836
 11
65.0722300736
 21
90.5958207032
  0
LINE
  5
3AC
100
AcDbEntity
  8
0
100
AcDbLine
 62
7
  6
CONTINUOUS
 10
67.8132812384
 20
91.6198373256
 11
67.8632818472
 21
91.6487050182
  0
LINE
  5
3AD
100
AcDbEntity
  8
0
100
AcDbLine
 62
7
  6
CONTINUOUS
 10
66.2576398431
 20
92.752789825
 11
66.1034677289
 21
92.6647111881
  0
LINE
  5
3AE
100
AcDbEntity
  8
0
100
AcDbLine
 62
7
  6
CONTINUOUS
 10
110.616146912
 20
118.1135005559
 11
113.3157477392
 21
119.5904780391
  0
LINE
  5
3AF
100
AcDbEntity
  8
0
100
AcDbLine
 62
7
  6
CONTINUOUS
 10
73.0627062133
 20
80.5939560067
 11
60.4054421332
 21
87.9014655126
  0
LINE
  5
3B0
100
AcDbEntity
  8
0
100
AcDbLine
 62
7
  6
CONTINUOUS
 10
60.3347311607
 20
87.9422895881
 11
47.6774670805
 21
95.249799094
  0
LINE
  5
3B1
100
AcDbEntity
  8
0
100
AcDbLine
 62
7
  6
CONTINUOUS
 10
47.606756108
 20
95.2906231695
 11
34.9494920279
 21
102.5981326754
  0
LINE
  5
3B2
100
AcDbEntity
  8
0
100
AcDbLine
 62
7
  6
CONTINUOUS
 10
34.8787810554
 20
102.6389567508
 11
22.2215169753
 21
109.9464662567
  0
LINE
  5
3B3
100
AcDbEntity
  8
0
100
AcDbLine
 62
7
  6
CONTINUOUS
 10
73.0627062133
 20
80.8927481709
 11
60.4054421332
 21
88.2002576768
  0
LINE
  5
3B4
100
AcDbEntity
  8
0
100
AcDbLine
 62
7
  6
CONTINUOUS
 10
60.3347311607
 20
88.2410817523
 11
47.6774670805
 21
95.5485912582
  0
LINE
  5
3B5
100
AcDbEntity
  8
0
100
AcDbLine
 62
7
  6
CONTINUOUS
 10
47.606756108
 20
95.5894153337
 11
34.9494920279
 21
102.8969248396
  0
LINE
  5
3B6
100
AcDbEntity
  8
0
100
AcDbLine
 62
7
  6
CONTINUOUS
 10
34.8787810554
 20
102.937748915
 11
22.2215169753
 21
110.2452584209
  0
LINE
  5
3B7
100
AcDbEntity
  8
0
100
AcDbLine
 62
7
  6
CONTINUOUS
 10
73.411549134
 20
81.0941515229
 11
60.7542850539
 21
88.4016610288
  0
LINE
  5
3B8
100
AcDbEntity
  8
0
100
AcDbLine
 62
7
  6
CONTINUOUS
 10
60.6835740813
 20
88.4424851042
 11
48.0263100012
 21
95.7499946101
  0
LINE
  5
3B9
100
AcDbEntity
  8
0
100
AcDbLine
 62
7
  6
CONTINUOUS
 10
47.9555990287
 20
95.7908186856
 11
35.2983349486
 21
103.0983281915
  0
LINE
  5
3BA
100
AcDbEntity
  8
0
100
AcDbLine
 62
7
  6
CONTINUOUS
 10
35.227623976
 20
103.1391522669
 11
22.5703598959
 21
110.4466617729
  0
LINE
  5
3BB
100
AcDbEntity
  8
0
100
AcDbLine
 62
7
  6
CONTINUOUS
 10
74.2294031984
 20
81.2675448044
 11
61.5721391183
 21
88.5750543103
  0
LINE
  5
3BC
100
AcDbEntity
  8
0
100
AcDbLine
 62
7
  6
CONTINUOUS
 10
61.5014281458
 20
88.6158783857
 11
48.8441640657
 21
95.9233878916
  0
LINE
  5
3BD
100
AcDbEntity
  8
0
100
AcDbLine
 62
7
  6
CONTINUOUS
 10
48.7734530931
 20
95.9642119671
 11
36.116189013
 21
103.271721473
  0
LINE
  5
3BE
100
AcDbEntity
  8
0
100
AcDbLine
 62
7
  6
CONTINUOUS
 10
36.0454780405
 20
103.3125455485
 11
23.3882139604
 21
110.6200550544
  0
LINE
  5
3BF
100
AcDbEntity
  8
0
100
AcDbLine
 62
7
  6
CONTINUOUS
 10
74.2294031984
 20
81.5663369686
 11
61.5721391183
 21
88.8738464745
  0
LINE
  5
3C0
100
AcDbEntity
  8
0
100
AcDbLine
 62
7
  6
CONTINUOUS
 10
61.5014281458
 20
88.9146705499
 11
48.8441640657
 21
96.2221800558
  0
LINE
  5
3C1
100
AcDbEntity
  8
0
100
AcDbLine
 62
7
  6
CONTINUOUS
 10
48.7734530931
 20
96.2630041313
 11
36.116189013
 21
103.5705136372
  0
LINE
  5
3C2
100
AcDbEntity
  8
0
100
AcDbLine
 62
7
  6
CONTINUOUS
 10
36.0454780405
 20
103.6113377127
 11
23.3882139604
 21
110.9188472186
  0
LINE
  5
3C3
100
AcDbEntity
  8
0
100
AcDbLine
 62
7
  6
CONTINUOUS
 10
74.5782461191
 20
81.7677403205
 11
61.920982039
 21
89.0752498264
  0
LINE
  5
3C4
100
AcDbEntity
  8
0
100
AcDbLine
 62
7
  6
CONTINUOUS
 10
61.8502710664
 20
89.1160739019
 11
49.1930069863
 21
96.4235834078
  0
LINE
  5
3C5
100
AcDbEntity
  8
0
100
AcDbLine
 62
7
  6
CONTINUOUS
 10
49.1222960138
 20
96.4644074832
 11
36.4650319337
 21
103.7719169891
  0
LINE
  5
3C6
100
AcDbEntity
  8
0
100
AcDbLine
 62
7
  6
CONTINUOUS
 10
36.3943209612
 20
103.8127410646
 11
23.737056881
 21
111.1202505705
  0
LINE
  5
3C7
100
AcDbEntity
  8
0
100
AcDbLine
 62
7
  6
CONTINUOUS
 10
75.3961001835
 20
81.941133602
 11
62.7388361034
 21
89.2486431079
  0
LINE
  5
3C8
100
AcDbEntity
  8
0
100
AcDbLine
 62
7
  6
CONTINUOUS
 10
62.6681251309
 20
89.2894671834
 11
50.0108610508
 21
96.5969766893
  0
LINE
  5
3C9
100
AcDbEntity
  8
0
100
AcDbLine
 62
7
  6
CONTINUOUS
 10
49.9401500782
 20
96.6378007647
 11
37.2828859981
 21
103.9453102706
  0
LINE
  5
3CA
100
AcDbEntity
  8
0
100
AcDbLine
 62
7
  6
CONTINUOUS
 10
37.2121750256
 20
103.9861343461
 11
24.5549109455
 21
111.293643852
  0
LINE
  5
3CB
100
AcDbEntity
  8
0
100
AcDbLine
 62
7
  6
CONTINUOUS
 10
75.3961001835
 20
82.2399257662
 11
62.7388361034
 21
89.5474352721
  0
LINE
  5
3CC
100
AcDbEntity
  8
0
100
AcDbLine
 62
7
  6
CONTINUOUS
 10
62.6681251309
 20
89.5882593476
 11
50.0108610508
 21
96.8957688535
  0
LINE
  5
3CD
100
AcDbEntity
  8
0
100
AcDbLine
 62
7
  6
CONTINUOUS
 10
49.9401500782
 20
96.9365929289
 11
37.2828859981
 21
104.2441024348
  0
LINE
  5
3CE
100
AcDbEntity
  8
0
100
AcDbLine
 62
7
  6
CONTINUOUS
 10
37.2121750256
 20
104.2849265103
 11
24.5549109455
 21
111.5924360162
  0
LINE
  5
3CF
100
AcDbEntity
  8
0
100
AcDbLine
 62
7
  6
CONTINUOUS
 10
75.7449431042
 20
82.4413291181
 11
63.0876790241
 21
89.748838624
  0
LINE
  5
3D0
100
AcDbEntity
  8
0
100
AcDbLine
 62
7
  6
CONTINUOUS
 10
63.0169680516
 20
89.7896626995
 11
50.3597039714
 21
97.0971722054
  0
LINE
  5
3D1
100
AcDbEntity
  8
0
100
AcDbLine
 62
7
  6
CONTINUOUS
 10
50.2889929989
 20
97.1379962808
 11
37.6317289188
 21
104.4455057868
  0
LINE
  5
3D2
100
AcDbEntity
  8
0
100
AcDbLine
 62
7
  6
CONTINUOUS
 10
37.5610179463
 20
104.4863298622
 11
24.9037538661
 21
111.7938393681
  0
LINE
  5
3D3
100
AcDbEntity
  8
0
100
AcDbLine
 62
7
  6
CONTINUOUS
 10
76.5627971686
 20
82.6147223996
 11
63.9055330885
 21
89.9222319055
  0
LINE
  5
3D4
100
AcDbEntity
  8
0
100
AcDbLine
 62
7
  6
CONTINUOUS
 10
63.834822116
 20
89.963055981
 11
51.1775580359
 21
97.2705654869
  0
LINE
  5
3D5
100
AcDbEntity
  8
0
100
AcDbLine
 62
7
  6
CONTINUOUS
 10
51.1068470634
 20
97.3113895624
 11
38.4495829832
 21
104.6188990683
  0
LINE
  5
3D6
100
AcDbEntity
  8
0
100
AcDbLine
 62
7
  6
CONTINUOUS
 10
38.3788720107
 20
104.6597231437
 11
25.7216079306
 21
111.9672326496
  0
LINE
  5
3D7
100
AcDbEntity
  8
0
100
AcDbLine
 62
7
  6
CONTINUOUS
 10
76.5627971686
 20
82.9135145638
 11
63.9055330885
 21
90.2210240697
  0
LINE
  5
3D8
100
AcDbEntity
  8
0
100
AcDbLine
 62
7
  6
CONTINUOUS
 10
63.834822116
 20
90.2618481452
 11
51.1775580359
 21
97.5693576511
  0
LINE
  5
3D9
100
AcDbEntity
  8
0
100
AcDbLine
 62
7
  6
CONTINUOUS
 10
51.1068470634
 20
97.6101817265
 11
38.4495829832
 21
104.9176912325
  0
LINE
  5
3DA
100
AcDbEntity
  8
0
100
AcDbLine
 62
7
  6
CONTINUOUS
 10
38.3788720107
 20
104.9585153079
 11
25.7216079306
 21
112.2660248138
  0
LINE
  5
3DB
100
AcDbEntity
  8
0
100
AcDbLine
 62
7
  6
CONTINUOUS
 10
76.9116400893
 20
83.1149179157
 11
64.2543760092
 21
90.4224274217
  0
LINE
  5
3DC
100
AcDbEntity
  8
0
100
AcDbLine
 62
7
  6
CONTINUOUS
 10
64.1836650367
 20
90.4632514971
 11
51.5264009565
 21
97.770761003
  0
LINE
  5
3DD
100
AcDbEntity
  8
0
100
AcDbLine
 62
7
  6
CONTINUOUS
 10
51.455689984
 20
97.8115850785
 11
38.7984259039
 21
105.1190945844
  0
LINE
  5
3DE
100
AcDbEntity
  8
0
100
AcDbLine
 62
7
  6
CONTINUOUS
 10
38.7277149314
 20
105.1599186598
 11
26.0704508512
 21
112.4674281658
  0
LINE
  5
3DF
100
AcDbEntity
  8
0
100
AcDbLine
 62
7
  6
CONTINUOUS
 10
77.7294941538
 20
83.2883111973
 11
65.0722300736
 21
90.5958207032
  0
LINE
  5
3E0
100
AcDbEntity
  8
0
100
AcDbLine
 62
7
  6
CONTINUOUS
 10
65.0015191011
 20
90.6366447786
 11
52.344255021
 21
97.9441542845
  0
LINE
  5
3E1
100
AcDbEntity
  8
0
100
AcDbLine
 62
7
  6
CONTINUOUS
 10
52.2735440485
 20
97.98497836
 11
39.6162799683
 21
105.2924878659
  0
LINE
  5
3E2
100
AcDbEntity
  8
0
100
AcDbLine
 62
7
  6
CONTINUOUS
 10
39.5455689958
 20
105.3333119414
 11
26.8883049157
 21
112.6408214473
  0
LINE
  5
3E3
100
AcDbEntity
  8
0
100
AcDbLine
 62
7
  6
CONTINUOUS
 10
66.2576398431
 20
92.5179669855
 11
66.2576398431
 21
97.3406533791
  0
LINE
  5
3E4
100
AcDbEntity
  8
0
100
AcDbLine
 62
7
  6
CONTINUOUS
 10
67.0001050545
 20
92.0893141933
 11
67.0001050545
 21
96.9120005869
  0
LINE
  5
3E5
100
AcDbEntity
  8
0
100
AcDbLine
 62
7
  6
CONTINUOUS
 10
67.070816027
 20
92.0484901178
 11
67.070816027
 21
96.8711765114
  0
LINE
  5
3E6
100
AcDbEntity
  8
0
100
AcDbLine
 62
7
  6
CONTINUOUS
 10
67.5780642085
 20
77.7262075347
 11
67.5780642085
 21
77.4274153705
  0
LINE
  5
3E7
100
AcDbEntity
  8
0
100
AcDbLine
 62
7
  6
CONTINUOUS
 10
67.5781668585
 20
41.4715974596
 11
67.5781668585
 21
41.1728052954
  0
LINE
  5
3E8
100
AcDbEntity
  8
0
100
AcDbLine
 62
7
  6
CONTINUOUS
 10
67.8132812384
 20
91.6198373256
 11
67.8132812384
 21
91.6849333772
  0
LINE
  5
3E9
100
AcDbEntity
  8
0
100
AcDbLine
 62
7
  6
CONTINUOUS
 10
67.8132812384
 20
94.6572010383
 11
67.8132812384
 21
96.4425237192
  0
LINE
  5
3EA
100
AcDbEntity
  8
0
100
AcDbLine
 62
7
  6
CONTINUOUS
 10
68.3959182729
 20
77.8996008162
 11
68.3959182729
 21
78.1983929804
  0
LINE
  5
3EB
100
AcDbEntity
  8
0
100
AcDbLine
 62
7
  6
CONTINUOUS
 10
68.3960209229
 20
41.6449907411
 11
68.3960209229
 21
41.9437829053
  0
LINE
  5
3EC
100
AcDbEntity
  8
0
100
AcDbLine
 62
7
  6
CONTINUOUS
 10
68.7447611936
 20
78.3997963323
 11
68.7447611936
 21
78.1010041681
  0
LINE
  5
3ED
100
AcDbEntity
  8
0
100
AcDbLine
 62
7
  6
CONTINUOUS
 10
68.7448638436
 20
42.1451862572
 11
68.7448638436
 21
41.846394093
  0
LINE
  5
3EE
100
AcDbEntity
  8
0
100
AcDbLine
 62
7
  6
CONTINUOUS
 10
69.562615258
 20
78.5731896138
 11
69.562615258
 21
78.871981778
  0
LINE
  5
3EF
100
AcDbEntity
  8
0
100
AcDbLine
 62
7
  6
CONTINUOUS
 10
69.562717908
 20
42.3185795387
 11
69.562717908
 21
42.6173717029
  0
LINE
  5
3F0
100
AcDbEntity
  8
0
100
AcDbLine
 62
7
  6
CONTINUOUS
 10
69.9114581787
 20
79.07338513
 11
69.9114581787
 21
78.7745929658
  0
LINE
  5
3F1
100
AcDbEntity
  8
0
100
AcDbLine
 62
7
  6
CONTINUOUS
 10
69.9115608287
 20
42.8187750548
 11
69.9115608287
 21
42.5199828907
  0
LINE
  5
3F2
100
AcDbEntity
  8
0
100
AcDbLine
 62
7
  6
CONTINUOUS
 10
25.6575465482
 20
66.2238197609
 11
25.7343521339
 21
66.2681632218
  0
LINE
  5
3F3
100
AcDbEntity
  8
0
100
AcDbLine
 62
7
  6
CONTINUOUS
 10
75.5627310114
 20
91.7963173755
 11
76.026132792
 21
92.0638609213
  0
LINE
  5
3F4
100
AcDbEntity
  8
0
100
AcDbLine
 62
7
  6
CONTINUOUS
 10
30.8753115191
 20
65.986709799
 11
30.9514993746
 21
66.0306966153
  0
LINE
  5
3F5
100
AcDbEntity
  8
0
100
AcDbLine
 62
7
  6
CONTINUOUS
 10
28.6398310886
 20
62.7822494695
 11
28.5763876361
 21
62.7456205938
  0
LINE
  5
3F6
100
AcDbEntity
  8
0
100
AcDbLine
 62
7
  6
CONTINUOUS
 10
77.7294941538
 20
83.5871033614
 11
65.0722300736
 21
90.8946128674
  0
LINE
  5
3F7
100
AcDbEntity
  8
0
100
AcDbLine
 62
7
  6
CONTINUOUS
 10
65.0015191011
 20
90.9354369428
 11
52.344255021
 21
98.2429464487
  0
LINE
  5
3F8
100
AcDbEntity
  8
0
100
AcDbLine
 62
7
  6
CONTINUOUS
 10
52.2735440485
 20
98.2837705242
 11
39.6162799683
 21
105.5912800301
  0
LINE
  5
3F9
100
AcDbEntity
  8
0
100
AcDbLine
 62
7
  6
CONTINUOUS
 10
39.5455689958
 20
105.6321041055
 11
26.8883049157
 21
112.9396136115
  0
LINE
  5
3FA
100
AcDbEntity
  8
0
100
AcDbLine
 62
7
  6
CONTINUOUS
 10
79.7280801071
 20
84.7409806119
 11
78.9856148957
 21
85.1696334042
  0
LINE
  5
3FB
100
AcDbEntity
  8
0
100
AcDbLine
 62
7
  6
CONTINUOUS
 10
67.8132812384
 20
91.6198373256
 11
67.070816027
 21
92.0484901178
  0
LINE
  5
3FC
100
AcDbEntity
  8
0
100
AcDbLine
 62
7
  6
CONTINUOUS
 10
67.0001050545
 20
92.0893141933
 11
66.2576398431
 21
92.5179669855
  0
LINE
  5
3FD
100
AcDbEntity
  8
0
100
AcDbLine
 62
7
  6
CONTINUOUS
 10
55.0853061858
 20
98.9681709069
 11
54.3428409743
 21
99.3968236992
  0
LINE
  5
3FE
100
AcDbEntity
  8
0
100
AcDbLine
 62
7
  6
CONTINUOUS
 10
54.2721300018
 20
99.4376477746
 11
53.5296647904
 21
99.8663005669
  0
LINE
  5
3FF
100
AcDbEntity
  8
0
100
AcDbLine
 62
7
  6
CONTINUOUS
 10
42.3573311331
 20
106.3165044883
 11
41.6148659217
 21
106.7451572805
  0
LINE
  5
400
100
AcDbEntity
  8
0
100
AcDbLine
 62
7
  6
CONTINUOUS
 10
41.5441549492
 20
106.785981356
 11
40.8016897378
 21
107.2146341482
  0
LINE
  5
401
100
AcDbEntity
  8
0
100
AcDbLine
 62
7
  6
CONTINUOUS
 10
29.6293560805
 20
113.6648380697
 11
28.8868908691
 21
114.0934908619
  0
LINE
  5
402
100
AcDbEntity
  8
0
100
AcDbLine
 62
7
  6
CONTINUOUS
 10
78.8667982678
 20
85.295965569
 11
67.8005310692
 21
91.6849333772
  0
LINE
  5
403
100
AcDbEntity
  8
0
100
AcDbLine
 62
7
  6
CONTINUOUS
 10
66.1034677289
 20
92.664711188
 11
55.0725560166
 21
99.0332669586
  0
LINE
  5
404
100
AcDbEntity
  8
0
100
AcDbLine
 62
7
  6
CONTINUOUS
 10
53.3754926762
 20
100.0130447694
 11
42.3445809639
 21
106.3816005399
  0
LINE
  5
405
100
AcDbEntity
  8
0
100
AcDbLine
 62
7
  6
CONTINUOUS
 10
40.6475176236
 20
107.3613783508
 11
29.581250425
 21
113.750346159
  0
LINE
  5
406
100
AcDbEntity
  8
0
100
AcDbLine
 62
7
  6
CONTINUOUS
 10
104.9239610224
 20
72.1958720426
 11
104.7040731854
 21
72.3228214725
  0
LINE
  5
407
100
AcDbEntity
  8
0
100
AcDbLine
 62
7
  6
CONTINUOUS
 10
62.4939775431
 20
129.6870696962
 11
62.5330470028
 21
129.3401922846
  0
LINE
  5
408
100
AcDbEntity
  8
0
100
AcDbLine
 62
7
  6
CONTINUOUS
 10
70.7293122431
 20
79.2467784115
 11
70.7293122431
 21
79.5455705757
  0
LINE
  5
409
100
AcDbEntity
  8
0
100
AcDbLine
 62
7
  6
CONTINUOUS
 10
70.7294148931
 20
42.9921683364
 11
70.7294148931
 21
43.2909605005
  0
LINE
  5
40A
100
AcDbEntity
  8
0
100
AcDbLine
 62
7
  6
CONTINUOUS
 10
71.0781551638
 20
79.7469739276
 11
71.0781551638
 21
79.4481817634
  0
LINE
  5
40B
100
AcDbEntity
  8
0
100
AcDbLine
 62
7
  6
CONTINUOUS
 10
71.0782578138
 20
43.4923638525
 11
71.0782578138
 21
43.1935716883
  0
LINE
  5
40C
100
AcDbEntity
  8
0
100
AcDbLine
 62
7
  6
CONTINUOUS
 10
71.8960092282
 20
79.9203672091
 11
71.8960092282
 21
80.2191593733
  0
LINE
  5
40D
100
AcDbEntity
  8
0
100
AcDbLine
 62
7
  6
CONTINUOUS
 10
71.8961118782
 20
43.665757134
 11
71.8961118782
 21
43.9645492982
  0
LINE
  5
40E
100
AcDbEntity
  8
0
100
AcDbLine
 62
7
  6
CONTINUOUS
 10
72.2448521489
 20
80.4205627252
 11
72.2448521489
 21
80.121770561
  0
LINE
  5
40F
100
AcDbEntity
  8
0
100
AcDbLine
 62
7
  6
CONTINUOUS
 10
72.2449547989
 20
44.1659526501
 11
72.2449547989
 21
43.8671604859
  0
LINE
  5
410
100
AcDbEntity
  8
0
100
AcDbLine
 62
7
  6
CONTINUOUS
 10
73.0627062133
 20
80.5939560067
 11
73.0627062133
 21
80.8927481709
  0
LINE
  5
411
100
AcDbEntity
  8
0
100
AcDbLine
 62
7
  6
CONTINUOUS
 10
73.0628088633
 20
44.3393459316
 11
73.0628088633
 21
44.6381380958
  0
LINE
  5
412
100
AcDbEntity
  8
0
100
AcDbLine
 62
7
  6
CONTINUOUS
 10
73.411549134
 20
81.0941515229
 11
73.411549134
 21
80.7953593587
  0
LINE
  5
413
100
AcDbEntity
  8
0
100
AcDbLine
 62
7
  6
CONTINUOUS
 10
73.411651784
 20
44.8395414477
 11
73.411651784
 21
44.5407492836
  0
LINE
  5
414
100
AcDbEntity
  8
0
100
AcDbLine
 62
7
  6
CONTINUOUS
 10
74.2294031984
 20
81.2675448044
 11
74.2294031984
 21
81.5663369686
  0
LINE
  5
415
100
AcDbEntity
  8
0
100
AcDbLine
 62
7
  6
CONTINUOUS
 10
74.2295058484
 20
45.0129347293
 11
74.2295058484
 21
45.3117268934
  0
LINE
  5
416
100
AcDbEntity
  8
0
100
AcDbLine
 62
7
  6
CONTINUOUS
 10
74.5782461191
 20
81.7677403205
 11
74.5782461191
 21
81.4689481563
  0
LINE
  5
417
100
AcDbEntity
  8
0
100
AcDbLine
 62
7
  6
CONTINUOUS
 10
74.5783487691
 20
45.5131302454
 11
74.5783487691
 21
45.2143380812
  0
LINE
  5
418
100
AcDbEntity
  8
0
100
AcDbLine
 62
7
  6
CONTINUOUS
 10
75.2610220555
 20
121.2159216395
 11
75.2610220555
 21
121.9918587032
  0
LINE
  5
419
100
AcDbEntity
  8
0
100
AcDbLine
 62
7
  6
CONTINUOUS
 10
75.3961001835
 20
81.941133602
 11
75.3961001835
 21
82.2399257662
  0
LINE
  5
41A
100
AcDbEntity
  8
0
100
AcDbLine
 62
7
  6
CONTINUOUS
 10
75.3962028335
 20
45.6865235269
 11
75.3962028335
 21
45.9853156911
  0
LINE
  5
41B
100
AcDbEntity
  8
0
100
AcDbLine
 62
7
  6
CONTINUOUS
 10
31.0750333173
 20
63.0136671992
 11
31.1491075528
 21
63.0564337237
  0
LINE
  5
41C
100
AcDbEntity
  8
0
100
AcDbLine
 62
7
  6
CONTINUOUS
 10
78.9856148957
 20
89.9923197977
 11
79.2528420317
 21
90.1466025357
  0
LINE
  5
41D
100
AcDbEntity
  8
0
100
AcDbLine
 62
7
  6
CONTINUOUS
 10
79.7280801071
 20
89.5636670055
 11
103.6286299918
 21
103.3625735468
  0
LINE
  5
41E
100
AcDbEntity
  8
0
100
AcDbLine
 62
7
  6
CONTINUOUS
 10
103.6715628944
 20
103.5798268163
 11
79.7031215068
 21
89.8866394408
  0
LINE
  5
41F
100
AcDbEntity
  8
0
100
AcDbLine
 62
7
  6
CONTINUOUS
 10
79.7280801071
 20
89.5636670055
 11
78.9856148957
 21
89.9923197977
  0
LINE
  5
420
100
AcDbEntity
  8
0
100
AcDbLine
 62
7
  6
CONTINUOUS
 10
67.8132812384
 20
96.4425237192
 11
67.070816027
 21
96.8711765114
  0
LINE
  5
421
100
AcDbEntity
  8
0
100
AcDbLine
 62
7
  6
CONTINUOUS
 10
67.0001050545
 20
96.9120005869
 11
66.2576398431
 21
97.3406533791
  0
LINE
  5
422
100
AcDbEntity
  8
0
100
AcDbLine
 62
7
  6
CONTINUOUS
 10
55.0853061858
 20
103.7908573005
 11
54.3428409743
 21
104.2195100928
  0
LINE
  5
423
100
AcDbEntity
  8
0
100
AcDbLine
 62
7
  6
CONTINUOUS
 10
54.2721300018
 20
104.2603341682
 11
53.5296647904
 21
104.6889869605
  0
LINE
  5
424
100
AcDbEntity
  8
0
100
AcDbLine
 62
7
  6
CONTINUOUS
 10
42.3573311331
 20
111.1391908819
 11
41.6148659217
 21
111.5678436741
  0
LINE
  5
425
100
AcDbEntity
  8
0
100
AcDbLine
 62
7
  6
CONTINUOUS
 10
41.5441549492
 20
111.6086677496
 11
40.8016897378
 21
112.0373205418
  0
LINE
  5
426
100
AcDbEntity
  8
0
100
AcDbLine
 62
7
  6
CONTINUOUS
 10
29.6293560805
 20
118.4875244633
 11
28.8868908691
 21
118.9161772555
  0
LINE
  5
427
100
AcDbEntity
  8
0
100
AcDbLine
 62
7
  6
CONTINUOUS
 10
79.7031215068
 20
89.8866394407
 11
78.9253008091
 21
90.3357042707
  0
LINE
  5
428
100
AcDbEntity
  8
0
100
AcDbLine
 62
7
  6
CONTINUOUS
 10
29.6397529664
 20
118.7900848608
 11
28.8619322687
 21
119.2391496908
  0
LINE
  5
429
100
AcDbEntity
  8
0
100
AcDbLine
 62
7
  6
CONTINUOUS
 10
67.8707584862
 20
97.0893409921
 11
66.1736951459
 21
98.0691188029
  0
LINE
  5
42A
100
AcDbEntity
  8
0
100
AcDbLine
 62
7
  6
CONTINUOUS
 10
55.1427834336
 20
104.4376745734
 11
53.4457200932
 21
105.4174523843
  0
LINE
  5
42B
100
AcDbEntity
  8
0
100
AcDbLine
 62
7
  6
CONTINUOUS
 10
42.4148083809
 20
111.7860081548
 11
40.7177450406
 21
112.7657859657
  0
LINE
  5
42C
100
AcDbEntity
  8
0
100
AcDbLine
 62
7
  6
CONTINUOUS
 10
114.5053594374
 20
71.5777862147
 11
110.616146912
 21
73.8231733158
  0
LINE
  5
42D
100
AcDbEntity
  8
0
100
AcDbLine
 62
7
  6
CONTINUOUS
 10
75.7449431042
 20
82.4413291181
 11
75.7449431042
 21
82.1425369539
  0
LINE
  5
42E
100
AcDbEntity
  8
0
100
AcDbLine
 62
7
  6
CONTINUOUS
 10
75.7450457542
 20
46.186719043
 11
75.7450457542
 21
45.8879268788
  0
LINE
  5
42F
100
AcDbEntity
  8
0
100
AcDbLine
 62
7
  6
CONTINUOUS
 10
76.5627971686
 20
82.6147223996
 11
76.5627971686
 21
82.9135145638
  0
LINE
  5
430
100
AcDbEntity
  8
0
100
AcDbLine
 62
7
  6
CONTINUOUS
 10
76.5628998187
 20
46.3601123245
 11
76.5628998187
 21
46.6589044887
  0
LINE
  5
431
100
AcDbEntity
  8
0
100
AcDbLine
 62
7
  6
CONTINUOUS
 10
76.9116400893
 20
83.1149179157
 11
76.9116400893
 21
82.8161257516
  0
LINE
  5
432
100
AcDbEntity
  8
0
100
AcDbLine
 62
7
  6
CONTINUOUS
 10
76.9117427393
 20
46.8603078406
 11
76.9117427393
 21
46.5615156764
  0
LINE
  5
433
100
AcDbEntity
  8
0
100
AcDbLine
 62
7
  6
CONTINUOUS
 10
77.7294941538
 20
83.2883111973
 11
77.7294941538
 21
83.5871033614
  0
LINE
  5
434
100
AcDbEntity
  8
0
100
AcDbLine
 62
7
  6
CONTINUOUS
 10
77.7295968038
 20
47.0337011221
 11
77.7295968038
 21
47.3324932863
  0
LINE
  5
435
100
AcDbEntity
  8
0
100
AcDbLine
 62
7
  6
CONTINUOUS
 10
78.9856148957
 20
85.1696334042
 11
78.9856148957
 21
89.9923197977
  0
LINE
  5
436
100
AcDbEntity
  8
0
100
AcDbLine
 62
7
  6
CONTINUOUS
 10
78.9857175457
 20
47.7589184417
 11
78.9857175457
 21
43.7949027858
  0
LINE
  5
437
100
AcDbEntity
  8
0
100
AcDbLine
 62
7
  6
CONTINUOUS
 10
79.7280801071
 20
84.7409806119
 11
79.7280801071
 21
89.5636670055
  0
LINE
  5
438
100
AcDbEntity
  8
0
100
AcDbLine
 62
7
  6
CONTINUOUS
 10
79.7281827571
 20
43.3662499936
 11
79.7281827571
 21
48.1875783726
  0
LINE
  5
439
100
AcDbEntity
  8
0
100
AcDbLine
 62
7
  6
CONTINUOUS
 10
66.1512564452
 20
76.7987669474
 11
67.5780642085
 21
77.7262075347
  0
LINE
  5
43A
100
AcDbEntity
  8
0
100
AcDbLine
 62
7
  6
CONTINUOUS
 10
38.1090440074
 20
61.8104068803
 11
38.1852318628
 21
61.8543936966
  0
LINE
  5
43B
100
AcDbEntity
  8
0
100
AcDbLine
 62
7
  6
CONTINUOUS
 10
68.3959182729
 20
78.1983929804
 11
68.7447611936
 21
78.3997963323
  0
LINE
  5
43C
100
AcDbEntity
  8
0
100
AcDbLine
 62
7
  6
CONTINUOUS
 10
69.562615258
 20
78.871981778
 11
69.9114581787
 21
79.07338513
  0
LINE
  5
43D
100
AcDbEntity
  8
0
100
AcDbLine
 62
7
  6
CONTINUOUS
 10
70.7293122431
 20
79.5455705757
 11
71.0781551638
 21
79.7469739276
  0
LINE
  5
43E
100
AcDbEntity
  8
0
100
AcDbLine
 62
7
  6
CONTINUOUS
 10
71.8960092282
 20
80.2191593733
 11
72.2448521489
 21
80.4205627252
  0
LINE
  5
43F
100
AcDbEntity
  8
0
100
AcDbLine
 62
7
  6
CONTINUOUS
 10
73.0627062133
 20
80.8927481709
 11
73.411549134
 21
81.0941515229
  0
LINE
  5
440
100
AcDbEntity
  8
0
100
AcDbLine
 62
7
  6
CONTINUOUS
 10
74.2294031984
 20
81.5663369686
 11
74.5782461191
 21
81.7677403205
  0
LINE
  5
441
100
AcDbEntity
  8
0
100
AcDbLine
 62
7
  6
CONTINUOUS
 10
75.3961001835
 20
82.2399257662
 11
75.7449431042
 21
82.4413291181
  0
LINE
  5
442
100
AcDbEntity
  8
0
100
AcDbLine
 62
7
  6
CONTINUOUS
 10
76.5627971686
 20
82.9135145638
 11
76.9116400893
 21
83.1149179157
  0
LINE
  5
443
100
AcDbEntity
  8
0
100
AcDbLine
 62
7
  6
CONTINUOUS
 10
77.7294941538
 20
83.5871033614
 11
79.7280801071
 21
84.7409806119
  0
LINE
  5
444
100
AcDbEntity
  8
0
100
AcDbLine
 62
7
  6
CONTINUOUS
 10
67.5780642085
 20
77.4274153705
 11
68.3959182729
 21
77.8996008162
  0
LINE
  5
445
100
AcDbEntity
  8
0
100
AcDbLine
 62
7
  6
CONTINUOUS
 10
68.7447611936
 20
78.1010041681
 11
69.562615258
 21
78.5731896138
  0
LINE
  5
446
100
AcDbEntity
  8
0
100
AcDbLine
 62
7
  6
CONTINUOUS
 10
69.9114581787
 20
78.7745929658
 11
70.7293122431
 21
79.2467784115
  0
LINE
  5
447
100
AcDbEntity
  8
0
100
AcDbLine
 62
7
  6
CONTINUOUS
 10
71.0781551638
 20
79.4481817634
 11
71.8960092282
 21
79.9203672091
  0
LINE
  5
448
100
AcDbEntity
  8
0
100
AcDbLine
 62
7
  6
CONTINUOUS
 10
72.2448521489
 20
80.121770561
 11
73.0627062133
 21
80.5939560067
  0
LINE
  5
449
100
AcDbEntity
  8
0
100
AcDbLine
 62
7
  6
CONTINUOUS
 10
73.411549134
 20
80.7953593587
 11
74.2294031984
 21
81.2675448044
  0
LINE
  5
44A
100
AcDbEntity
  8
0
100
AcDbLine
 62
7
  6
CONTINUOUS
 10
74.5782461191
 20
81.4689481563
 11
75.3961001835
 21
81.941133602
  0
LINE
  5
44B
100
AcDbEntity
  8
0
100
AcDbLine
 62
7
  6
CONTINUOUS
 10
75.7449431042
 20
82.1425369539
 11
76.5627971686
 21
82.6147223996
  0
LINE
  5
44C
100
AcDbEntity
  8
0
100
AcDbLine
 62
7
  6
CONTINUOUS
 10
76.9116400893
 20
82.8161257516
 11
77.7294941538
 21
83.2883111973
  0
LINE
  5
44D
100
AcDbEntity
  8
0
100
AcDbLine
 62
7
  6
CONTINUOUS
 10
38.3855216008
 20
58.8754861795
 11
38.4623271865
 21
58.9198296404
  0
LINE
  5
44E
100
AcDbEntity
  8
0
100
AcDbLine
 62
7
  6
CONTINUOUS
 10
78.9856148957
 20
85.3638455918
 11
78.8667982678
 21
85.295965569
  0
LINE
  5
44F
100
AcDbEntity
  8
0
100
AcDbLine
 62
7
  6
CONTINUOUS
 10
105.1007369817
 20
103.5798125576
 11
103.6715628944
 21
103.5798268163
  0
LINE
  5
450
100
AcDbEntity
  8
0
100
AcDbLine
 62
7
  6
CONTINUOUS
 10
103.6286299918
 20
103.3625735468
 11
104.9239610224
 21
103.3412801174
  0
LINE
  5
451
100
AcDbEntity
  8
0
100
AcDbLine
 62
7
  6
CONTINUOUS
 10
75.2219525958
 20
122.3387361149
 11
75.2610220555
 21
121.9918587032
  0
LINE
  5
452
100
AcDbEntity
  8
0
100
AcDbLine
 62
7
  6
CONTINUOUS
 10
111.4519666464
 20
99.1069192602
 11
110.616146912
 21
98.5990885103
  0
LINE
  5
453
100
AcDbEntity
  8
0
100
AcDbLine
 62
7
  6
CONTINUOUS
 10
114.5053594374
 20
98.8881959175
 11
112.473469449
 21
97.6536519435
  0
LINE
  5
454
100
AcDbEntity
  8
0
100
AcDbLine
 62
7
  6
CONTINUOUS
 10
43.6032865718
 20
58.6383762176
 11
43.6794744272
 21
58.6823630339
  0
LINE
  5
455
100
AcDbEntity
  8
0
100
AcDbLine
 62
7
  6
CONTINUOUS
 10
41.3678061412
 20
55.4339158881
 11
41.3043626887
 21
55.3972870124
  0
LINE
  5
456
100
AcDbEntity
  8
0
100
AcDbLine
 62
7
  6
CONTINUOUS
 10
43.8030083699
 20
55.6653336178
 11
43.8770826054
 21
55.7081001424
  0
LINE
  5
457
100
AcDbEntity
  8
0
100
AcDbLine
 62
7
  6
CONTINUOUS
 10
29.6134488422
 20
130.0523595083
 11
80.4546380803
 21
100.6998492583
  0
LINE
  5
458
100
AcDbEntity
  8
0
100
AcDbLine
 62
7
  6
CONTINUOUS
 10
105.1007369817
 20
89.7809217081
 11
104.9239610224
 21
89.8829810469
  0
LINE
  5
459
100
AcDbEntity
  8
0
100
AcDbLine
 62
7
  6
CONTINUOUS
 10
87.9889971081
 20
113.8675880581
 11
87.9889971081
 21
114.6435251218
  0
LINE
  5
45A
100
AcDbEntity
  8
0
100
AcDbLine
 62
7
  6
CONTINUOUS
 10
100.8581139584
 20
86.4676283492
 11
105.1007369817
 21
89.7809217081
  0
LINE
  5
45B
100
AcDbEntity
  8
0
100
AcDbLine
 62
7
  6
CONTINUOUS
 10
104.9239610224
 20
89.8292243386
 11
100.8524059338
 21
86.6500482153
  0
LINE
  5
45C
100
AcDbEntity
  8
0
100
AcDbLine
 62
7
  6
CONTINUOUS
 10
50.83701906
 20
54.4620732989
 11
50.9132069155
 21
54.5060601152
  0
LINE
  5
45D
100
AcDbEntity
  8
0
100
AcDbLine
 62
7
  6
CONTINUOUS
 10
87.9499276484
 20
114.9904025335
 11
87.9889971081
 21
114.6435251218
  0
LINE
  5
45E
100
AcDbEntity
  8
0
100
AcDbLine
 62
7
  6
CONTINUOUS
 10
51.1134966535
 20
51.5271525982
 11
51.1903022392
 21
51.5714960591
  0
LINE
  5
45F
100
AcDbEntity
  8
0
100
AcDbLine
 62
7
  6
CONTINUOUS
 10
56.3312616244
 20
51.2900426363
 11
56.4074494799
 21
51.3340294526
  0
LINE
  5
460
100
AcDbEntity
  8
0
100
AcDbLine
 62
7
  6
CONTINUOUS
 10
54.0957811938
 20
48.0855823068
 11
54.0323377414
 21
48.0489534311
  0
LINE
  5
461
100
AcDbEntity
  8
0
100
AcDbLine
 62
7
  6
CONTINUOUS
 10
100.8524059338
 20
70.6715880284
 11
104.9239610224
 21
72.1958720426
  0
LINE
  5
462
100
AcDbEntity
  8
0
100
AcDbLine
 62
7
  6
CONTINUOUS
 10
105.1007369817
 20
72.471070465
 11
100.8581139584
 21
70.8854339775
  0
LINE
  5
463
100
AcDbEntity
  8
0
100
AcDbLine
 62
7
  6
CONTINUOUS
 10
112.473469449
 20
97.6536519435
 11
110.723212963
 21
98.6641401366
  0
LINE
  5
464
100
AcDbEntity
  8
0
100
AcDbLine
 62
7
  6
CONTINUOUS
 10
103.6286299918
 20
103.3625735468
 11
103.4608437203
 21
103.4594428044
  0
LINE
  5
465
100
AcDbEntity
  8
0
100
AcDbLine
 62
7
  6
CONTINUOUS
 10
104.9239610224
 20
103.3412801174
 11
104.5107911752
 21
103.5798184434
  0
LINE
  5
466
100
AcDbEntity
  8
0
100
AcDbLine
 62
7
  6
CONTINUOUS
 10
100.8524059338
 20
86.6500482153
 11
100.8524059338
 21
70.6715880284
  0
LINE
  5
467
100
AcDbEntity
  8
0
100
AcDbLine
 62
7
  6
CONTINUOUS
 10
100.8581139584
 20
70.8854339775
 11
100.8581139584
 21
86.4676283492
  0
LINE
  5
468
100
AcDbEntity
  8
0
100
AcDbLine
 62
7
  6
CONTINUOUS
 10
56.5309834226
 20
48.3170000365
 11
56.6050576581
 21
48.359766561
  0
LINE
  5
469
100
AcDbEntity
  8
0
100
AcDbLine
 62
7
  6
CONTINUOUS
 10
91.2768207534
 20
111.9694051341
 11
87.3170062925
 21
114.2555533594
  0
LINE
  5
46A
100
AcDbEntity
  8
0
100
AcDbLine
 62
7
  6
CONTINUOUS
 10
78.5488457007
 20
119.3177387155
 11
74.5890312399
 21
121.6038869408
  0
LINE
  5
46B
100
AcDbEntity
  8
0
100
AcDbLine
 62
7
  6
CONTINUOUS
 10
65.8208706481
 20
126.6660722969
 11
61.8610561873
 21
128.9522205222
  0
LINE
  5
46C
100
AcDbEntity
  8
0
100
AcDbLine
 62
7
  6
CONTINUOUS
 10
53.0928955954
 20
134.0144058782
 11
49.1330811346
 21
136.3005541035
  0
LINE
  5
46D
100
AcDbEntity
  8
0
100
AcDbLine
 62
7
  6
CONTINUOUS
 10
104.9239610224
 20
103.3412801174
 11
104.9239610224
 21
89.8292243386
  0
LINE
  5
46E
100
AcDbEntity
  8
0
100
AcDbLine
 62
7
  6
CONTINUOUS
 10
104.9239610224
 20
72.1958720426
 11
104.9239610224
 21
58.6838162638
  0
LINE
  5
46F
100
AcDbEntity
  8
0
100
AcDbLine
 62
7
  6
CONTINUOUS
 10
105.1007369817
 20
58.6721796155
 11
105.1007369817
 21
72.471070465
  0
LINE
  5
470
100
AcDbEntity
  8
0
100
AcDbLine
 62
7
  6
CONTINUOUS
 10
105.1007369817
 20
89.7809217081
 11
105.1007369817
 21
103.5798125576
  0
LINE
  5
471
100
AcDbEntity
  8
0
100
AcDbLine
 62
7
  6
CONTINUOUS
 10
63.5649941126
 20
47.1137397175
 11
63.6411819681
 21
47.1577265338
  0
LINE
  5
472
100
AcDbEntity
  8
0
100
AcDbLine
 62
7
  6
CONTINUOUS
 10
63.8414717061
 20
44.1788190168
 11
63.9182772918
 21
44.2231624777
  0
LINE
  5
473
100
AcDbEntity
  8
0
100
AcDbLine
 62
7
  6
CONTINUOUS
 10
110.616146912
 20
69.4499607712
 11
114.5053594374
 21
71.5777862147
  0
LINE
  5
474
100
AcDbEntity
  8
0
100
AcDbLine
 62
7
  6
CONTINUOUS
 10
110.616146912
 20
98.5990885103
 11
110.616146912
 21
69.4499607712
  0
LINE
  5
475
100
AcDbEntity
  8
0
100
AcDbLine
 62
7
  6
CONTINUOUS
 10
77.7295968038
 20
47.3324932863
 11
76.9117427393
 21
46.8603078406
  0
LINE
  5
476
100
AcDbEntity
  8
0
100
AcDbLine
 62
7
  6
CONTINUOUS
 10
76.5628998187
 20
46.6589044887
 11
75.7450457542
 21
46.186719043
  0
LINE
  5
477
100
AcDbEntity
  8
0
100
AcDbLine
 62
7
  6
CONTINUOUS
 10
75.3962028335
 20
45.9853156911
 11
74.5783487691
 21
45.5131302454
  0
LINE
  5
478
100
AcDbEntity
  8
0
100
AcDbLine
 62
7
  6
CONTINUOUS
 10
74.2295058484
 20
45.3117268934
 11
73.411651784
 21
44.8395414477
  0
LINE
  5
479
100
AcDbEntity
  8
0
100
AcDbLine
 62
7
  6
CONTINUOUS
 10
73.0628088633
 20
44.6381380958
 11
72.2449547989
 21
44.1659526501
  0
LINE
  5
47A
100
AcDbEntity
  8
0
100
AcDbLine
 62
7
  6
CONTINUOUS
 10
71.8961118782
 20
43.9645492982
 11
71.0782578138
 21
43.4923638525
  0
LINE
  5
47B
100
AcDbEntity
  8
0
100
AcDbLine
 62
7
  6
CONTINUOUS
 10
70.7294148931
 20
43.2909605005
 11
69.9115608287
 21
42.8187750548
  0
LINE
  5
47C
100
AcDbEntity
  8
0
100
AcDbLine
 62
7
  6
CONTINUOUS
 10
69.562717908
 20
42.6173717029
 11
68.7448638436
 21
42.1451862572
  0
LINE
  5
47D
100
AcDbEntity
  8
0
100
AcDbLine
 62
7
  6
CONTINUOUS
 10
68.3960209229
 20
41.9437829053
 11
67.5781668585
 21
41.4715974596
  0
LINE
  5
47E
100
AcDbEntity
  8
0
100
AcDbLine
 62
7
  6
CONTINUOUS
 10
79.7281827571
 20
48.1875783726
 11
77.7295968038
 21
47.0337011221
  0
LINE
  5
47F
100
AcDbEntity
  8
0
100
AcDbLine
 62
7
  6
CONTINUOUS
 10
76.9117427393
 20
46.5615156764
 11
76.5628998187
 21
46.3601123245
  0
LINE
  5
480
100
AcDbEntity
  8
0
100
AcDbLine
 62
7
  6
CONTINUOUS
 10
75.7450457542
 20
45.8879268788
 11
75.3962028335
 21
45.6865235269
  0
LINE
  5
481
100
AcDbEntity
  8
0
100
AcDbLine
 62
7
  6
CONTINUOUS
 10
74.5783487691
 20
45.2143380812
 11
74.2295058484
 21
45.0129347293
  0
LINE
  5
482
100
AcDbEntity
  8
0
100
AcDbLine
 62
7
  6
CONTINUOUS
 10
73.411651784
 20
44.5407492836
 11
73.0628088633
 21
44.3393459316
  0
LINE
  5
483
100
AcDbEntity
  8
0
100
AcDbLine
 62
7
  6
CONTINUOUS
 10
72.2449547989
 20
43.8671604859
 11
71.8961118782
 21
43.665757134
  0
LINE
  5
484
100
AcDbEntity
  8
0
100
AcDbLine
 62
7
  6
CONTINUOUS
 10
71.0782578138
 20
43.1935716883
 11
70.7294148931
 21
42.9921683364
  0
LINE
  5
485
100
AcDbEntity
  8
0
100
AcDbLine
 62
7
  6
CONTINUOUS
 10
69.9115608287
 20
42.5199828907
 11
69.562717908
 21
42.3185795387
  0
LINE
  5
486
100
AcDbEntity
  8
0
100
AcDbLine
 62
7
  6
CONTINUOUS
 10
68.7448638436
 20
41.846394093
 11
68.3960209229
 21
41.6449907411
  0
LINE
  5
487
100
AcDbEntity
  8
0
100
AcDbLine
 62
7
  6
CONTINUOUS
 10
67.5781668585
 20
41.1728052954
 11
66.760312794
 21
40.7006198497
  0
LINE
  5
488
100
AcDbEntity
  8
0
100
AcDbLine
 62
7
  6
CONTINUOUS
 10
112.473469449
 20
97.6536519435
 11
111.4519666464
 21
99.1069192602
  0
LINE
  5
489
100
AcDbEntity
  8
0
100
AcDbLine
 62
7
  6
CONTINUOUS
 10
114.5053594374
 20
112.4868790173
 11
114.5053594374
 21
98.8881959175
  0
LINE
  5
48A
100
AcDbEntity
  8
0
100
AcDbLine
 62
7
  6
CONTINUOUS
 10
114.5053594374
 20
71.5777862147
 11
114.5053594374
 21
51.23711913
  0
LINE
  5
48B
100
AcDbEntity
  8
0
100
AcDbLine
 62
7
  6
CONTINUOUS
 10
104.9239610224
 20
58.6838162638
 11
103.6269804504
 21
57.1641449127
  0
LINE
  5
48C
100
AcDbEntity
  8
0
100
AcDbLine
 62
7
  6
CONTINUOUS
 10
103.6715628944
 20
57.0219071195
 11
105.1007369817
 21
58.6721796155
  0
LINE
  5
48D
100
AcDbEntity
  8
0
100
AcDbLine
 62
7
  6
CONTINUOUS
 10
79.2197975617
 20
43.6597596829
 11
78.9026218511
 21
43.4747216112
  0
LINE
  5
48E
100
AcDbEntity
  8
0
100
AcDbLine
 62
7
  6
CONTINUOUS
 10
79.6804425487
 20
43.0256567812
 11
103.6715628944
 21
57.0219071195
  0
LINE
  5
48F
100
AcDbEntity
  8
0
100
AcDbLine
 62
7
  6
CONTINUOUS
 10
103.6269804504
 20
57.1641449127
 11
79.7281827571
 21
43.3662499936
  0
LINE
  5
490
100
AcDbEntity
  8
0
100
AcDbLine
 62
7
  6
CONTINUOUS
 10
110.6161469119
 20
118.1135005559
 11
59.7749576738
 21
147.4660108059
  0
LINE
  5
491
100
AcDbEntity
  8
0
100
AcDbLine
 62
7
  6
CONTINUOUS
 10
113.3157477392
 20
119.5904780391
 11
62.4745585011
 21
148.9429882891
  0
LINE
  5
492
100
AcDbEntity
  8
0
100
AcDbLine
 62
7
  6
CONTINUOUS
 10
113.3157477392
 20
119.5904780391
 11
114.5053594374
 21
112.4868790173
  0
LINE
  5
493
100
AcDbEntity
  8
0
100
AcDbLine
 62
7
  6
CONTINUOUS
 10
114.5053594374
 20
51.23711913
 11
110.616146912
 21
48.8740955833
  0
LINE
  5
494
100
AcDbEntity
  8
0
100
AcDbLine
 62
7
  6
CONTINUOUS
 10
110.616146912
 20
48.8740955833
 11
80.5738526227
 21
31.529272423
  0
ARC
  5
495
100
AcDbEntity
  8
0
100
AcDbCircle
 62
7
  6
CONTINUOUS
 10
198.663648886
 20
83.8881379314
 40
173.825095525
100
AcDbArc
 50
184.8468957222
 51
185.8179429698
  0
ARC
  5
496
100
AcDbEntity
  8
0
100
AcDbCircle
 62
7
  6
CONTINUOUS
 10
211.3916239389
 20
76.5398043501
 40
173.8250955252
100
AcDbArc
 50
184.8468957222
 51
185.8179429698
  0
ARC
  5
497
100
AcDbEntity
  8
0
100
AcDbCircle
 62
7
  6
CONTINUOUS
 10
224.1195989913
 20
69.1914707687
 40
173.8250955249
100
AcDbArc
 50
184.8468957222
 51
185.8179429698
  0
ARC
  5
498
100
AcDbEntity
  8
0
100
AcDbCircle
 62
7
  6
CONTINUOUS
 10
236.8475740441
 20
61.8431371873
 40
173.825095525
100
AcDbArc
 50
184.8468957222
 51
185.8179429698
  0
ARC
  5
499
100
AcDbEntity
  8
0
100
AcDbCircle
 62
7
  6
CONTINUOUS
 10
191.087379667
 20
88.1459877631
 40
173.5731045286
100
AcDbArc
 50
184.8949853112
 51
185.8680916266
  0
ARC
  5
49A
100
AcDbEntity
  8
0
100
AcDbCircle
 62
7
  6
CONTINUOUS
 10
203.8153547196
 20
80.7976541818
 40
173.5731045286
100
AcDbArc
 50
184.8949853112
 51
185.8680916266
  0
ARC
  5
49B
100
AcDbEntity
  8
0
100
AcDbCircle
 62
7
  6
CONTINUOUS
 10
216.5433297722
 20
73.4493206004
 40
173.5731045286
100
AcDbArc
 50
184.8949853112
 51
185.8680916266
  0
ARC
  5
49C
100
AcDbEntity
  8
0
100
AcDbCircle
 62
7
  6
CONTINUOUS
 10
229.2713048249
 20
66.100987019
 40
173.5731045286
100
AcDbArc
 50
184.8949853112
 51
185.8680916266
  0
ARC
  5
49D
100
AcDbEntity
  8
0
100
AcDbCircle
 62
7
  6
CONTINUOUS
 10
197.4917107038
 20
83.8915529489
 40
172.7400612686
100
AcDbArc
 50
184.8926388396
 51
185.8704380981
  0
ARC
  5
49E
100
AcDbEntity
  8
0
100
AcDbCircle
 62
7
  6
CONTINUOUS
 10
222.947660809
 20
69.1948857862
 40
172.7400612685
100
AcDbArc
 50
184.8926388396
 51
185.8704380981
  0
ARC
  5
49F
100
AcDbEntity
  8
0
100
AcDbCircle
 62
7
  6
CONTINUOUS
 10
210.219685756
 20
76.5432193675
 40
172.7400612681
100
AcDbArc
 50
184.8926388396
 51
185.8704380981
  0
ARC
  5
4A0
100
AcDbEntity
  8
0
100
AcDbCircle
 62
7
  6
CONTINUOUS
 10
235.6756358612
 20
61.8465522048
 40
172.740061268
100
AcDbArc
 50
184.8926388396
 51
185.8704380981
  0
ARC
  5
4A1
100
AcDbEntity
  8
0
100
AcDbCircle
 62
7
  6
CONTINUOUS
 10
190.1744434985
 20
88.0619574899
 40
172.7366174567
100
AcDbArc
 50
184.8931829412
 51
185.871267467
  0
ARC
  5
4A2
100
AcDbEntity
  8
0
100
AcDbCircle
 62
7
  6
CONTINUOUS
 10
215.6303936032
 20
73.3652903271
 40
172.7366174561
100
AcDbArc
 50
184.8931829412
 51
185.871267467
  0
ARC
  5
4A3
100
AcDbEntity
  8
0
100
AcDbCircle
 62
7
  6
CONTINUOUS
 10
228.3583686559
 20
66.0169567457
 40
172.7366174562
100
AcDbArc
 50
184.8931829412
 51
185.871267467
  0
ARC
  5
4A4
100
AcDbEntity
  8
0
100
AcDbCircle
 62
7
  6
CONTINUOUS
 10
202.9024185501
 20
80.7136239084
 40
172.7366174556
100
AcDbArc
 50
184.8931829412
 51
185.871267467
  0
ARC
  5
4A5
100
AcDbEntity
  8
0
100
AcDbCircle
 62
7
  6
CONTINUOUS
 10
212.9163099047
 20
86.2093198544
 40
134.0545320636
100
AcDbArc
 50
178.2360778177
 51
178.3824487029
  0
ARC
  5
4A6
100
AcDbEntity
  8
0
100
AcDbCircle
 62
7
  6
CONTINUOUS
 10
161.0063353379
 20
114.7357844676
 40
131.4291303922
100
AcDbArc
 50
178.232270442
 51
179.988198259
  0
ARC
  5
4A7
100
AcDbEntity
  8
0
100
AcDbCircle
 62
7
  6
CONTINUOUS
 10
208.8864208012
 20
86.3009053709
 40
130.023665445
100
AcDbArc
 50
178.3726634537
 51
179.9966641513
  0
ARC
  5
4A8
100
AcDbEntity
  8
0
100
AcDbCircle
 62
7
  6
CONTINUOUS
 10
206.8360899517
 20
46.8675409501
 40
127.9793790929
100
AcDbArc
 50
179.633599541
 51
179.9998307919
  0
ARC
  5
4A9
100
AcDbEntity
  8
0
100
AcDbCircle
 62
7
  6
CONTINUOUS
 10
205.220182179
 20
86.3067251073
 40
126.3574266145
100
AcDbArc
 50
179.9992062758
 51
180.4583258367
  0
ARC
  5
4AA
100
AcDbEntity
  8
0
100
AcDbCircle
 62
7
  6
CONTINUOUS
 10
179.7288765852
 20
101.0238043078
 40
126.3574266123
100
AcDbArc
 50
179.9992062758
 51
180.4583258367
  0
ARC
  5
4AB
100
AcDbEntity
  8
0
100
AcDbCircle
 62
7
  6
CONTINUOUS
 10
192.4568516363
 20
93.6754707264
 40
126.3574266108
100
AcDbArc
 50
179.9992062758
 51
180.4583258367
  0
ARC
  5
4AC
100
AcDbEntity
  8
0
100
AcDbCircle
 62
7
  6
CONTINUOUS
 10
167.0009015305
 20
108.3721378891
 40
126.3574266103
100
AcDbArc
 50
179.9992062758
 51
180.4583258367
  0
ARC
  5
4AD
100
AcDbEntity
  8
0
100
AcDbCircle
 62
7
  6
CONTINUOUS
 10
202.80347456
 20
46.8480470841
 40
123.9467652936
100
AcDbArc
 50
179.9908140289
 51
181.5595500238
  0
ARC
  5
4AE
100
AcDbEntity
  8
0
100
AcDbCircle
 62
7
  6
CONTINUOUS
 10
131.9530346142
 20
74.3346828987
 40
103.1018177279
100
AcDbArc
 50
186.7863211146
 51
187.4974286683
  0
SPLINE
  5
4AF
100
AcDbEntity
  8
0
100
AcDbSpline
 62
7
  6
CONTINUOUS
 70
0
 71
3
 72
9
 73
5
 74
0
 42
0.0000001
 43
0.0000001
 44
0.0000000001
 40
0.0
 40
0.0
 40
0.0
 40
0.0
 40
0.2537793994
 40
1.0
 40
1.0
 40
1.0
 40
1.0
 10
15.3100672071
 20
106.1512771974
 30
0.0
 10
15.2201793097
 20
104.8713438326
 30
0.0
 10
14.9082610768
 20
99.8250118008
 30
0.0
 10
14.7677984352
 20
94.7677972156
 30
0.0
 10
14.7677984352
 20
90.9949729349
 30
0.0
  0
SPLINE
  5
4B0
100
AcDbEntity
  8
0
100
AcDbSpline
 62
7
  6
CONTINUOUS
 70
0
 71
3
 72
9
 73
5
 74
0
 42
0.0000001
 43
0.0000001
 44
0.0000000001
 40
0.0
 40
0.0
 40
0.0
 40
0.0
 40
0.5081173723
 40
1.0
 40
1.0
 40
1.0
 40
1.0
 10
14.7677984352
 20
90.9949729349
 30
0.0
 10
14.7677984352
 20
87.4412170002
 30
0.0
 10
14.9507862411
 20
80.4457883811
 30
0.0
 10
15.529399409
 20
73.4711945474
 30
0.0
 10
15.919123556
 20
70.0531300997
 30
0.0
  0
SPLINE
  5
4B1
100
AcDbEntity
  8
0
100
AcDbSpline
 62
7
  6
CONTINUOUS
 70
0
 71
3
 72
9
 73
5
 74
0
 42
0.0000001
 43
0.0000001
 44
0.0000000001
 40
0.0
 40
0.0
 40
0.0
 40
0.0
 40
0.4918976928
 40
1.0
 40
1.0
 40
1.0
 40
1.0
 10
28.5763876361
 20
62.7456205938
 30
0.0
 10
28.1874408956
 20
66.1568668206
 30
0.0
 10
27.6095750985
 20
73.1172820503
 30
0.0
 10
27.4258081404
 20
80.0984990133
 30
0.0
 10
27.4250669574
 20
83.6449522042
 30
0.0
  0
SPLINE
  5
4B2
100
AcDbEntity
  8
0
100
AcDbSpline
 62
7
  6
CONTINUOUS
 70
0
 71
3
 72
9
 73
5
 74
0
 42
0.0000001
 43
0.0000001
 44
0.0000000001
 40
0.0
 40
0.0
 40
0.0
 40
0.0
 40
0.246231531
 40
1.0
 40
1.0
 40
1.0
 40
1.0
 10
27.4250625154
 20
83.687463429
 30
0.0
 10
27.4250625154
 20
84.929368779
 30
0.0
 10
27.4712344999
 20
89.9729458201
 30
0.0
 10
27.6990274601
 20
95.0145839242
 30
0.0
 10
27.9647541649
 20
98.8070293221
 30
0.0
  0
SPLINE
  5
4B3
100
AcDbEntity
  8
0
100
AcDbSpline
 62
7
  6
CONTINUOUS
 70
0
 71
3
 72
9
 73
5
 74
0
 42
0.0000001
 43
0.0000001
 44
0.0000000001
 40
0.0
 40
0.0
 40
0.0
 40
0.0
 40
0.2537793994
 40
1.0
 40
1.0
 40
1.0
 40
1.0
 10
28.0380422598
 20
98.802943616
 30
0.0
 10
27.9481543623
 20
97.5230102513
 30
0.0
 10
27.6362361294
 20
92.4766782194
 30
0.0
 10
27.4957734879
 20
87.4194636343
 30
0.0
 10
27.4957734879
 20
83.6466393535
 30
0.0
  0
SPLINE
  5
4B4
100
AcDbEntity
  8
0
100
AcDbSpline
 62
7
  6
CONTINUOUS
 70
0
 71
3
 72
9
 73
5
 74
0
 42
0.0000001
 43
0.0000001
 44
0.0000000001
 40
0.0
 40
0.0
 40
0.0
 40
0.0
 40
0.5080850101
 40
1.0
 40
1.0
 40
1.0
 40
1.0
 10
27.4957734879
 20
83.6466393535
 30
0.0
 10
27.4957734879
 20
80.1061311903
 30
0.0
 10
27.6774124776
 20
73.1363481842
 30
0.0
 10
28.2516445455
 20
66.1871630565
 30
0.0
 10
28.6384024672
 20
62.7812216624
 30
0.0
  0
SPLINE
  5
4B5
100
AcDbEntity
  8
0
100
AcDbSpline
 62
7
  6
CONTINUOUS
 70
0
 71
3
 72
9
 73
5
 74
0
 42
0.0000001
 43
0.0000001
 44
0.0000000001
 40
0.0
 40
0.0
 40
0.0
 40
0.0
 40
0.4918976928
 40
1.0
 40
1.0
 40
1.0
 40
1.0
 10
41.3043626887
 20
55.3972870124
 30
0.0
 10
40.9154159482
 20
58.8085332392
 30
0.0
 10
40.3375501512
 20
65.7689484689
 30
0.0
 10
40.1537831931
 20
72.7501654319
 30
0.0
 10
40.15304201
 20
76.2966186228
 30
0.0
  0
SPLINE
  5
4B6
100
AcDbEntity
  8
0
100
AcDbSpline
 62
7
  6
CONTINUOUS
 70
0
 71
3
 72
9
 73
5
 74
0
 42
0.0000001
 43
0.0000001
 44
0.0000000001
 40
0.0
 40
0.0
 40
0.0
 40
0.0
 40
0.246231531
 40
1.0
 40
1.0
 40
1.0
 40
1.0
 10
40.153037568
 20
76.3391298476
 30
0.0
 10
40.153037568
 20
77.5810351976
 30
0.0
 10
40.1992095525
 20
82.6246122388
 30
0.0
 10
40.4270025127
 20
87.6662503428
 30
0.0
 10
40.6927292175
 20
91.4586957407
 30
0.0
  0
SPLINE
  5
4B7
100
AcDbEntity
  8
0
100
AcDbSpline
 62
7
  6
CONTINUOUS
 70
0
 71
3
 72
9
 73
5
 74
0
 42
0.0000001
 43
0.0000001
 44
0.0000000001
 40
0.0
 40
0.0
 40
0.0
 40
0.0
 40
0.2537793994
 40
1.0
 40
1.0
 40
1.0
 40
1.0
 10
40.7660173124
 20
91.4546100346
 30
0.0
 10
40.676129415
 20
90.1746766699
 30
0.0
 10
40.3642111821
 20
85.128344638
 30
0.0
 10
40.2237485405
 20
80.0711300529
 30
0.0
 10
40.2237485405
 20
76.2983057722
 30
0.0
  0
SPLINE
  5
4B8
100
AcDbEntity
  8
0
100
AcDbSpline
 62
7
  6
CONTINUOUS
 70
0
 71
3
 72
9
 73
5
 74
0
 42
0.0000001
 43
0.0000001
 44
0.0000000001
 40
0.0
 40
0.0
 40
0.0
 40
0.0
 40
0.5080850101
 40
1.0
 40
1.0
 40
1.0
 40
1.0
 10
40.2237485405
 20
76.2983057722
 30
0.0
 10
40.2237485405
 20
72.7577976089
 30
0.0
 10
40.4053875302
 20
65.7880146028
 30
0.0
 10
40.9796195981
 20
58.8388294752
 30
0.0
 10
41.3663775199
 20
55.4328880811
 30
0.0
  0
SPLINE
  5
4B9
100
AcDbEntity
  8
0
100
AcDbSpline
 62
7
  6
CONTINUOUS
 70
0
 71
3
 72
9
 73
5
 74
0
 42
0.0000001
 43
0.0000001
 44
0.0000000001
 40
0.0
 40
0.0
 40
0.0
 40
0.0
 40
0.4918976928
 40
1.0
 40
1.0
 40
1.0
 40
1.0
 10
54.0323377414
 20
48.0489534311
 30
0.0
 10
53.6433910009
 20
51.4601996579
 30
0.0
 10
53.0655252038
 20
58.4206148875
 30
0.0
 10
52.8817582457
 20
65.4018318506
 30
0.0
 10
52.8810170627
 20
68.9482850415
 30
0.0
  0
SPLINE
  5
4BA
100
AcDbEntity
  8
0
100
AcDbSpline
 62
7
  6
CONTINUOUS
 70
0
 71
3
 72
9
 73
5
 74
0
 42
0.0000001
 43
0.0000001
 44
0.0000000001
 40
0.0
 40
0.0
 40
0.0
 40
0.0
 40
0.246231531
 40
1.0
 40
1.0
 40
1.0
 40
1.0
 10
52.8810126206
 20
68.9907962663
 30
0.0
 10
52.8810126206
 20
70.2327016163
 30
0.0
 10
52.9271846052
 20
75.2762786574
 30
0.0
 10
53.1549775654
 20
80.3179167614
 30
0.0
 10
53.4207042701
 20
84.1103621594
 30
0.0
  0
SPLINE
  5
4BB
100
AcDbEntity
  8
0
100
AcDbSpline
 62
7
  6
CONTINUOUS
 70
0
 71
3
 72
9
 73
5
 74
0
 42
0.0000001
 43
0.0000001
 44
0.0000000001
 40
0.0
 40
0.0
 40
0.0
 40
0.0
 40
0.2537793994
 40
1.0
 40
1.0
 40
1.0
 40
1.0
 10
53.4939923651
 20
84.1062764533
 30
0.0
 10
53.4041044676
 20
82.8263430885
 30
0.0
 10
53.0921862347
 20
77.7800110567
 30
0.0
 10
52.9517235932
 20
72.7227964715
 30
0.0
 10
52.9517235932
 20
68.9499721908
 30
0.0
  0
SPLINE
  5
4BC
100
AcDbEntity
  8
0
100
AcDbSpline
 62
7
  6
CONTINUOUS
 70
0
 71
3
 72
9
 73
5
 74
0
 42
0.0000001
 43
0.0000001
 44
0.0000000001
 40
0.0
 40
0.0
 40
0.0
 40
0.0
 40
0.5080850101
 40
1.0
 40
1.0
 40
1.0
 40
1.0
 10
52.9517235932
 20
68.9499721908
 30
0.0
 10
52.9517235932
 20
65.4094640276
 30
0.0
 10
53.1333625829
 20
58.4396810214
 30
0.0
 10
53.7075946508
 20
51.4904958938
 30
0.0
 10
54.0943525725
 20
48.0845544997
 30
0.0
  0
SPLINE
  5
4BD
100
AcDbEntity
  8
0
100
AcDbSpline
 62
7
  6
CONTINUOUS
 70
0
 71
3
 72
9
 73
5
 74
0
 42
0.0000001
 43
0.0000001
 44
0.0000000001
 40
0.0
 40
0.0
 40
0.0
 40
0.0
 40
0.4918826277
 40
1.0
 40
1.0
 40
1.0
 40
1.0
 10
66.760312794
 20
40.7006198497
 30
0.0
 10
66.3705886471
 20
44.1186842974
 30
0.0
 10
65.7919754792
 20
51.0932781311
 30
0.0
 10
65.6089876733
 20
58.0887067502
 30
0.0
 10
65.6089876733
 20
61.6424626849
 30
0.0
  0
SPLINE
  5
4BE
100
AcDbEntity
  8
0
100
AcDbSpline
 62
7
  6
CONTINUOUS
 70
0
 71
3
 72
9
 73
5
 74
0
 42
0.0000001
 43
0.0000001
 44
0.0000000001
 40
0.0
 40
0.0
 40
0.0
 40
0.0
 40
0.2462229937
 40
1.0
 40
1.0
 40
1.0
 40
1.0
 10
65.6089876733
 20
61.6424626849
 30
0.0
 10
65.6089876733
 20
62.8873468977
 30
0.0
 10
65.6553830447
 20
67.9431965949
 30
0.0
 10
65.8842702848
 20
72.997092813
 30
0.0
 10
66.1512564452
 20
76.7987669474
 30
0.0
  0
SPLINE
  5
4BF
100
AcDbEntity
  8
0
100
AcDbSpline
 62
7
  6
CONTINUOUS
 70
0
 71
3
 72
9
 73
5
 74
0
 42
0.0000001
 43
0.0000001
 44
0.0000000001
 40
0.0
 40
0.0
 40
0.0
 40
0.0
 40
0.2540260576
 40
1.0
 40
1.0
 40
1.0
 40
1.0
 10
29.6134488422
 20
130.0523595083
 30
0.0
 10
29.5159944143
 20
129.1396049044
 30
0.0
 10
29.1647399192
 20
125.5430997294
 30
0.0
 10
28.9449050916
 20
121.9335058942
 30
0.0
 10
28.8619322687
 20
119.2391496908
 30
0.0
  0
SPLINE
  5
4C0
100
AcDbEntity
  8
0
100
AcDbSpline
 62
7
  6
CONTINUOUS
 70
0
 71
3
 72
11
 73
7
 74
0
 42
0.0000001
 43
0.0000001
 44
0.0000000001
 40
0.0
 40
0.0
 40
0.0
 40
0.0
 40
0.2267923504
 40
0.463191416
 40
0.7191665635
 40
1.0
 40
1.0
 40
1.0
 40
1.0
 10
71.4215416649
 20
99.6822155342
 30
0.0
 10
71.5499991733
 20
99.7563799744
 30
0.0
 10
71.8384071444
 20
99.8667781171
 30
0.0
 10
72.3143544644
 20
99.8939036106
 30
0.0
 10
72.8136703668
 20
99.786603796
 30
0.0
 10
73.1345586463
 20
99.637404951
 30
0.0
 10
73.2936261908
 20
99.5455693389
 30
0.0
  0
SPLINE
  5
4C1
100
AcDbEntity
  8
0
100
AcDbSpline
 62
7
  6
CONTINUOUS
 70
0
 71
3
 72
17
 73
13
 74
0
 42
0.0000001
 43
0.0000001
 44
0.0000000001
 40
0.0
 40
0.0
 40
0.0
 40
0.0
 40
0.0461652164
 40
0.094059111
 40
0.1447194159
 40
0.1988290641
 40
0.3180569628
 40
0.4509690922
 40
0.5927478067
 40
0.7364544553
 40
0.8744551041
 40
1.0
 40
1.0
 40
1.0
 40
1.0
 10
70.6542235124
 20
101.2021829672
 30
0.0
 10
70.5099890296
 20
101.1189099341
 30
0.0
 10
70.2352006248
 20
100.9139039346
 30
0.0
 10
69.8936407172
 20
100.5141246786
 30
0.0
 10
69.6251556627
 20
100.0293854642
 30
0.0
 10
69.3634754241
 20
99.261115396
 30
0.0
 10
69.2621817224
 20
98.1451859739
 30
0.0
 10
69.472424691
 20
96.7295680005
 30
0.0
 10
69.9865138064
 20
95.3007752425
 30
0.0
 10
70.758056963
 20
93.9724337107
 30
0.0
 10
71.7173278515
 20
92.8493369087
 30
0.0
 10
72.4762059894
 20
92.2596790962
 30
0.0
 10
72.8684485543
 20
92.0332228689
 30
0.0
  0
SPLINE
  5
4C2
100
AcDbEntity
  8
0
100
AcDbSpline
 62
7
  6
CONTINUOUS
 70
0
 71
3
 72
10
 73
6
 74
0
 42
0.0000001
 43
0.0000001
 44
0.0000000001
 40
0.0
 40
0.0
 40
0.0
 40
0.0
 40
0.2492104843
 40
0.6247903974
 40
1.0
 40
1.0
 40
1.0
 40
1.0
 10
42.3445809639
 20
106.3816005399
 30
0.0
 10
42.3439077564
 20
106.4657083286
 30
0.0
 10
42.3409879332
 20
106.6765650473
 30
0.0
 10
42.342435873
 20
107.0140815299
 30
0.0
 10
42.3405382727
 20
107.267474352
 30
0.0
 10
42.3405382727
 20
107.3941105203
 30
0.0
  0
SPLINE
  5
4C3
100
AcDbEntity
  8
0
100
AcDbSpline
 62
7
  6
CONTINUOUS
 70
0
 71
3
 72
10
 73
6
 74
0
 42
0.0000001
 43
0.0000001
 44
0.0000000001
 40
0.0
 40
0.0
 40
0.0
 40
0.0
 40
0.2492104843
 40
0.6247903974
 40
1.0
 40
1.0
 40
1.0
 40
1.0
 10
29.581250425
 20
113.750346159
 30
0.0
 10
29.5805772175
 20
113.8344539477
 30
0.0
 10
29.5776573943
 20
114.0453106664
 30
0.0
 10
29.5791053341
 20
114.382827149
 30
0.0
 10
29.5772077338
 20
114.6362199711
 30
0.0
 10
29.5772077338
 20
114.7628561394
 30
0.0
  0
SPLINE
  5
4C4
100
AcDbEntity
  8
0
100
AcDbSpline
 62
7
  6
CONTINUOUS
 70
0
 71
3
 72
10
 73
6
 74
0
 42
0.0000001
 43
0.0000001
 44
0.0000000001
 40
0.0
 40
0.0
 40
0.0
 40
0.0
 40
0.2492104843
 40
0.6247903974
 40
1.0
 40
1.0
 40
1.0
 40
1.0
 10
67.8005310692
 20
91.6849333772
 30
0.0
 10
67.7998578617
 20
91.7690411659
 30
0.0
 10
67.7969380385
 20
91.9798978846
 30
0.0
 10
67.7983859783
 20
92.3174143672
 30
0.0
 10
67.796488378
 20
92.5708071892
 30
0.0
 10
67.796488378
 20
92.6974433576
 30
0.0
  0
SPLINE
  5
4C5
100
AcDbEntity
  8
0
100
AcDbSpline
 62
7
  6
CONTINUOUS
 70
0
 71
3
 72
10
 73
6
 74
0
 42
0.0000001
 43
0.0000001
 44
0.0000000001
 40
0.0
 40
0.0
 40
0.0
 40
0.0
 40
0.2492104843
 40
0.6247903974
 40
1.0
 40
1.0
 40
1.0
 40
1.0
 10
55.0725560166
 20
99.0332669586
 30
0.0
 10
55.071882809
 20
99.1173747473
 30
0.0
 10
55.0689629858
 20
99.3282314659
 30
0.0
 10
55.0704109256
 20
99.6657479486
 30
0.0
 10
55.0685133253
 20
99.9191407706
 30
0.0
 10
55.0685133253
 20
100.045776939
 30
0.0
  0
SPLINE
  5
4C6
100
AcDbEntity
  8
0
100
AcDbSpline
 62
7
  6
CONTINUOUS
 70
0
 71
3
 72
9
 73
5
 74
0
 42
0.0000001
 43
0.0000001
 44
0.0000000001
 40
0.0
 40
0.0
 40
0.0
 40
0.0
 40
0.2518119933
 40
1.0
 40
1.0
 40
1.0
 40
1.0
 10
42.4148083809
 20
111.7860081548
 30
0.0
 10
42.4024609944
 20
111.4175084406
 30
0.0
 10
42.359423115
 20
109.9539225714
 30
0.0
 10
42.3405382727
 20
108.489617498
 30
0.0
 10
42.3405382727
 20
107.3941105203
 30
0.0
  0
SPLINE
  5
4C7
100
AcDbEntity
  8
0
100
AcDbSpline
 62
7
  6
CONTINUOUS
 70
0
 71
3
 72
11
 73
7
 74
0
 42
0.0000001
 43
0.0000001
 44
0.0000000001
 40
0.0
 40
0.0
 40
0.0
 40
0.0
 40
0.2267923504
 40
0.463191416
 40
0.7191665635
 40
1.0
 40
1.0
 40
1.0
 40
1.0
 10
58.6935666122
 20
107.0305491156
 30
0.0
 10
58.8220241207
 20
107.1047135558
 30
0.0
 10
59.1104320918
 20
107.2151116985
 30
0.0
 10
59.5863794117
 20
107.2422371919
 30
0.0
 10
60.0856953142
 20
107.1349373774
 30
0.0
 10
60.4065835937
 20
106.9857385323
 30
0.0
 10
60.5656511382
 20
106.8939029203
 30
0.0
  0
SPLINE
  5
4C8
100
AcDbEntity
  8
0
100
AcDbSpline
 62
7
  6
CONTINUOUS
 70
0
 71
3
 72
9
 73
5
 74
0
 42
0.0000001
 43
0.0000001
 44
0.0000000001
 40
0.0
 40
0.0
 40
0.0
 40
0.0
 40
0.2518119933
 40
1.0
 40
1.0
 40
1.0
 40
1.0
 10
55.1427834336
 20
104.4376745735
 30
0.0
 10
55.1304360471
 20
104.0691748592
 30
0.0
 10
55.0873981677
 20
102.60558899
 30
0.0
 10
55.0685133253
 20
101.1412839166
 30
0.0
 10
55.0685133253
 20
100.045776939
 30
0.0
  0
SPLINE
  5
4C9
100
AcDbEntity
  8
0
100
AcDbSpline
 62
7
  6
CONTINUOUS
 70
0
 71
3
 72
9
 73
5
 74
0
 42
0.0000001
 43
0.0000001
 44
0.0000000001
 40
0.0
 40
0.0
 40
0.0
 40
0.0
 40
0.2518119933
 40
1.0
 40
1.0
 40
1.0
 40
1.0
 10
67.8707584862
 20
97.0893409921
 30
0.0
 10
67.8584110997
 20
96.7208412778
 30
0.0
 10
67.8153732203
 20
95.2572554086
 30
0.0
 10
67.796488378
 20
93.7929503352
 30
0.0
 10
67.796488378
 20
92.6974433576
 30
0.0
  0
SPLINE
  5
4CA
100
AcDbEntity
  8
0
100
AcDbSpline
 62
7
  6
CONTINUOUS
 70
0
 71
3
 72
17
 73
13
 74
0
 42
0.0000001
 43
0.0000001
 44
0.0000000001
 40
0.0
 40
0.0
 40
0.0
 40
0.0
 40
0.0461652164
 40
0.094059111
 40
0.1447194159
 40
0.1988290641
 40
0.3180569628
 40
0.4509690922
 40
0.5927478067
 40
0.7364544553
 40
0.8744551041
 40
1.0
 40
1.0
 40
1.0
 40
1.0
 10
57.9262484597
 20
108.5505165485
 30
0.0
 10
57.7820139769
 20
108.4672435154
 30
0.0
 10
57.5072255721
 20
108.262237516
 30
0.0
 10
57.1656656645
 20
107.86245826
 30
0.0
 10
56.89718061
 20
107.3777190456
 30
0.0
 10
56.6355003715
 20
106.6094489773
 30
0.0
 10
56.5342066698
 20
105.4935195552
 30
0.0
 10
56.7444496383
 20
104.0779015819
 30
0.0
 10
57.2585387537
 20
102.6491088239
 30
0.0
 10
58.0300819103
 20
101.3207672921
 30
0.0
 10
58.9893527989
 20
100.1976704901
 30
0.0
 10
59.7482309367
 20
99.6080126775
 30
0.0
 10
60.1404735016
 20
99.3815564502
 30
0.0
  0
SPLINE
  5
4CB
100
AcDbEntity
  8
0
100
AcDbSpline
 62
7
  6
CONTINUOUS
 70
0
 71
3
 72
11
 73
7
 74
0
 42
0.0000001
 43
0.0000001
 44
0.0000000001
 40
0.0
 40
0.0
 40
0.0
 40
0.0
 40
0.2267923504
 40
0.463191416
 40
0.7191665635
 40
1.0
 40
1.0
 40
1.0
 40
1.0
 10
45.9655915596
 20
114.3788826969
 30
0.0
 10
46.094049068
 20
114.4530471371
 30
0.0
 10
46.3824570391
 20
114.5634452798
 30
0.0
 10
46.8584043591
 20
114.5905707733
 30
0.0
 10
47.3577202615
 20
114.4832709587
 30
0.0
 10
47.678608541
 20
114.3340721137
 30
0.0
 10
47.8376760855
 20
114.2422365017
 30
0.0
  0
SPLINE
  5
4CC
100
AcDbEntity
  8
0
100
AcDbSpline
 62
7
  6
CONTINUOUS
 70
0
 71
3
 72
16
 73
12
 74
0
 42
0.0000001
 43
0.0000001
 44
0.0000000001
 40
0.0
 40
0.0
 40
0.0
 40
0.0
 40
0.1527199971
 40
0.3036942885
 40
0.4484844978
 40
0.5833065809
 40
0.705454775
 40
0.8139791674
 40
0.9104587111
 40
0.9557179392
 40
1.0
 40
1.0
 40
1.0
 40
1.0
 10
91.9488115689
 20
112.3573768965
 30
0.0
 10
92.2733586515
 20
112.3326935432
 30
0.0
 10
92.9224541869
 20
112.3236024013
 30
0.0
 10
93.8750624835
 20
112.4266945537
 30
0.0
 10
94.7700052824
 20
112.6420679485
 30
0.0
 10
95.5685089398
 20
112.9604650517
 30
0.0
 10
96.2367981318
 20
113.3696303022
 30
0.0
 10
96.7466549069
 20
113.8544115402
 30
0.0
 10
97.0237271811
 20
114.3213341086
 30
0.0
 10
97.1317546599
 20
114.7047292649
 30
0.0
 10
97.1495501695
 20
114.8960262723
 30
0.0
 10
97.1495535423
 20
114.9904023791
 30
0.0
  0
SPLINE
  5
4CD
100
AcDbEntity
  8
0
100
AcDbSpline
 62
7
  6
CONTINUOUS
 70
0
 71
3
 72
16
 73
12
 74
0
 42
0.0000001
 43
0.0000001
 44
0.0000000001
 40
0.0
 40
0.0
 40
0.0
 40
0.0
 40
0.1527199971
 40
0.3036942885
 40
0.4484844978
 40
0.5833065809
 40
0.705454775
 40
0.8139791674
 40
0.9104587111
 40
0.9557179392
 40
1.0
 40
1.0
 40
1.0
 40
1.0
 10
66.4928614636
 20
127.0540440592
 30
0.0
 10
66.8174085462
 20
127.0293607059
 30
0.0
 10
67.4665040816
 20
127.020269564
 30
0.0
 10
68.4191123782
 20
127.1233617164
 30
0.0
 10
69.3140551771
 20
127.3387351112
 30
0.0
 10
70.1125588346
 20
127.6571322144
 30
0.0
 10
70.7808480265
 20
128.066297465
 30
0.0
 10
71.2907048016
 20
128.551078703
 30
0.0
 10
71.5677770758
 20
129.0180012713
 30
0.0
 10
71.6758045546
 20
129.4013964277
 30
0.0
 10
71.6936000642
 20
129.592693435
 30
0.0
 10
71.693603437
 20
129.6870695419
 30
0.0
  0
SPLINE
  5
4CE
100
AcDbEntity
  8
0
100
AcDbSpline
 62
7
  6
CONTINUOUS
 70
0
 71
3
 72
16
 73
12
 74
0
 42
0.0000001
 43
0.0000001
 44
0.0000000001
 40
0.0
 40
0.0
 40
0.0
 40
0.0
 40
0.1527199971
 40
0.3036942885
 40
0.4484844978
 40
0.5833065809
 40
0.705454775
 40
0.8139791674
 40
0.9104587111
 40
0.9557179392
 40
1.0
 40
1.0
 40
1.0
 40
1.0
 10
53.764886411
 20
134.4023776406
 30
0.0
 10
54.0894334936
 20
134.3776942873
 30
0.0
 10
54.738529029
 20
134.3686031454
 30
0.0
 10
55.6911373255
 20
134.4716952978
 30
0.0
 10
56.5860801244
 20
134.6870686926
 30
0.0
 10
57.3845837819
 20
135.0054657958
 30
0.0
 10
58.0528729738
 20
135.4146310463
 30
0.0
 10
58.5627297489
 20
135.8994122843
 30
0.0
 10
58.8398020232
 20
136.3663348527
 30
0.0
 10
58.947829502
 20
136.749730009
 30
0.0
 10
58.9656250115
 20
136.9410270164
 30
0.0
 10
58.9656283844
 20
137.0354031232
 30
0.0
  0
SPLINE
  5
4CF
100
AcDbEntity
  8
0
100
AcDbSpline
 62
7
  6
CONTINUOUS
 70
0
 71
3
 72
16
 73
12
 74
0
 42
0.0000001
 43
0.0000001
 44
0.0000000001
 40
0.0
 40
0.0
 40
0.0
 40
0.0
 40
0.1527199971
 40
0.3036942885
 40
0.4484844978
 40
0.5833065809
 40
0.705454775
 40
0.8139791674
 40
0.9104587111
 40
0.9557179392
 40
1.0
 40
1.0
 40
1.0
 40
1.0
 10
79.2208365163
 20
119.7057104779
 30
0.0
 10
79.5453835988
 20
119.6810271245
 30
0.0
 10
80.1944791343
 20
119.6719359827
 30
0.0
 10
81.1470874308
 20
119.7750281351
 30
0.0
 10
82.0420302297
 20
119.9904015299
 30
0.0
 10
82.8405338872
 20
120.3087986331
 30
0.0
 10
83.5088230791
 20
120.7179638836
 30
0.0
 10
84.0186798542
 20
121.2027451216
 30
0.0
 10
84.2957521285
 20
121.6696676899
 30
0.0
 10
84.4037796073
 20
122.0530628463
 30
0.0
 10
84.4215751168
 20
122.2443598537
 30
0.0
 10
84.4215784897
 20
122.3387359605
 30
0.0
  0
SPLINE
  5
4D0
100
AcDbEntity
  8
0
100
AcDbSpline
 62
7
  6
CONTINUOUS
 70
0
 71
3
 72
17
 73
13
 74
0
 42
0.0000001
 43
0.0000001
 44
0.0000000001
 40
0.0
 40
0.0
 40
0.0
 40
0.0
 40
0.0461652164
 40
0.094059111
 40
0.1447194159
 40
0.1988290641
 40
0.3180569628
 40
0.4509690922
 40
0.5927478067
 40
0.7364544553
 40
0.8744551041
 40
1.0
 40
1.0
 40
1.0
 40
1.0
 10
45.1982734071
 20
115.8988501299
 30
0.0
 10
45.0540389243
 20
115.8155770968
 30
0.0
 10
44.7792505195
 20
115.6105710974
 30
0.0
 10
44.4376906119
 20
115.2107918414
 30
0.0
 10
44.1692055574
 20
114.7260526269
 30
0.0
 10
43.9075253188
 20
113.9577825587
 30
0.0
 10
43.8062316171
 20
112.8418531366
 30
0.0
 10
44.0164745857
 20
111.4262351632
 30
0.0
 10
44.5305637011
 20
109.9974424052
 30
0.0
 10
45.3021068577
 20
108.6691008734
 30
0.0
 10
46.2613777462
 20
107.5460040714
 30
0.0
 10
47.0202558841
 20
106.9563462589
 30
0.0
 10
47.412498449
 20
106.7298900316
 30
0.0
  0
SPLINE
  5
4D1
100
AcDbEntity
  8
0
100
AcDbSpline
 62
7
  6
CONTINUOUS
 70
0
 71
3
 72
11
 73
7
 74
0
 42
0.0000001
 43
0.0000001
 44
0.0000000001
 40
0.0
 40
0.0
 40
0.0
 40
0.0
 40
0.2267923504
 40
0.463191416
 40
0.7191665635
 40
1.0
 40
1.0
 40
1.0
 40
1.0
 10
33.2376165069
 20
121.7272162783
 30
0.0
 10
33.3660740154
 20
121.8013807185
 30
0.0
 10
33.6544819865
 20
121.9117788612
 30
0.0
 10
34.1304293064
 20
121.9389043547
 30
0.0
 10
34.6297452089
 20
121.8316045401
 30
0.0
 10
34.9506334884
 20
121.6824056951
 30
0.0
 10
35.1097010329
 20
121.590570083
 30
0.0
  0
SPLINE
  5
4D2
100
AcDbEntity
  8
0
100
AcDbSpline
 62
7
  6
CONTINUOUS
 70
0
 71
3
 72
17
 73
13
 74
0
 42
0.0000001
 43
0.0000001
 44
0.0000000001
 40
0.0
 40
0.0
 40
0.0
 40
0.0
 40
0.0461652164
 40
0.094059111
 40
0.1447194159
 40
0.1988290641
 40
0.3180569628
 40
0.4509690922
 40
0.5927478067
 40
0.7364544553
 40
0.8744551041
 40
1.0
 40
1.0
 40
1.0
 40
1.0
 10
32.4702983544
 20
123.2471837112
 30
0.0
 10
32.3260638716
 20
123.1639106781
 30
0.0
 10
32.0512754668
 20
122.9589046787
 30
0.0
 10
31.7097155592
 20
122.5591254227
 30
0.0
 10
31.4412305047
 20
122.0743862083
 30
0.0
 10
31.1795502662
 20
121.3061161401
 30
0.0
 10
31.0782565645
 20
120.190186718
 30
0.0
 10
31.288499533
 20
118.7745687446
 30
0.0
 10
31.8025886484
 20
117.3457759866
 30
0.0
 10
32.574131805
 20
116.0174344548
 30
0.0
 10
33.5334026936
 20
114.8943376528
 30
0.0
 10
34.2922808314
 20
114.3046798403
 30
0.0
 10
34.6845233963
 20
114.078223613
 30
0.0
  0
SPLINE
  5
4D3
100
AcDbEntity
  8
0
100
AcDbSpline
 62
7
  6
CONTINUOUS
 70
0
 71
3
 72
11
 73
7
 74
0
 42
0.0000001
 43
0.0000001
 44
0.0000000001
 40
0.0
 40
0.0
 40
0.0
 40
0.0
 40
0.2866236063
 40
0.5459763099
 40
0.7809234581
 40
1.0
 40
1.0
 40
1.0
 40
1.0
 10
75.6171947543
 20
95.0083076572
 30
0.0
 10
75.6054723928
 20
94.8182002768
 30
0.0
 10
75.5548550301
 20
94.4566976954
 30
0.0
 10
75.382219793
 20
93.962966749
 30
0.0
 10
75.1189924228
 20
93.5620286219
 30
0.0
 10
74.8817525215
 20
93.3661643052
 30
0.0
 10
74.7556747772
 20
93.2933738442
 30
0.0
  0
SPLINE
  5
4D4
100
AcDbEntity
  8
0
100
AcDbSpline
 62
7
  6
CONTINUOUS
 70
0
 71
3
 72
15
 73
11
 74
0
 42
0.0000001
 43
0.0000001
 44
0.0000000001
 40
0.0
 40
0.0
 40
0.0
 40
0.0
 40
0.1131550825
 40
0.2348424107
 40
0.3629913852
 40
0.4949520972
 40
0.6276707649
 40
0.7579918048
 40
0.8829661996
 40
1.0
 40
1.0
 40
1.0
 40
1.0
 10
73.2936261908
 20
99.5455693389
 30
0.0
 10
73.4675015416
 20
99.4451846293
 30
0.0
 10
73.8085500396
 20
99.2015143266
 30
0.0
 10
74.2690074636
 20
98.7481803329
 30
0.0
 10
74.6830730019
 20
98.2095101359
 30
0.0
 10
75.0360173372
 20
97.6064712307
 30
0.0
 10
75.3156177422
 20
96.9619918508
 30
0.0
 10
75.512523386
 20
96.3004482981
 30
0.0
 10
75.6199555895
 20
95.6468274191
 30
0.0
 10
75.629974854
 20
95.2155689045
 30
0.0
 10
75.6171947543
 20
95.0083076572
 30
0.0
  0
SPLINE
  5
4D5
100
AcDbEntity
  8
0
100
AcDbSpline
 62
7
  6
CONTINUOUS
 70
0
 71
3
 72
12
 73
8
 74
0
 42
0.0000001
 43
0.0000001
 44
0.0000000001
 40
0.0
 40
0.0
 40
0.0
 40
0.0
 40
0.2855351427
 40
0.5428293045
 40
0.7770121503
 40
0.8891062955
 40
1.0
 40
1.0
 40
1.0
 40
1.0
 10
72.8684485543
 20
92.0332228689
 30
0.0
 10
73.1015809646
 20
91.898626854
 30
0.0
 10
73.5677098483
 20
91.6786268828
 30
0.0
 10
74.2875760442
 20
91.5113941405
 30
0.0
 10
74.8652525056
 20
91.5344536826
 30
0.0
 10
75.2811520249
 20
91.653622819
 30
0.0
 10
75.4721782257
 20
91.744069417
 30
0.0
 10
75.5627197504
 20
91.796343455
 30
0.0
  0
SPLINE
  5
4D6
100
AcDbEntity
  8
0
100
AcDbSpline
 62
7
  6
CONTINUOUS
 70
0
 71
3
 72
11
 73
7
 74
0
 42
0.0000001
 43
0.0000001
 44
0.0000000001
 40
0.0
 40
0.0
 40
0.0
 40
0.0
 40
0.2866236063
 40
0.5459763099
 40
0.7809234581
 40
1.0
 40
1.0
 40
1.0
 40
1.0
 10
62.8892197017
 20
102.3566412386
 30
0.0
 10
62.8774973401
 20
102.1665338581
 30
0.0
 10
62.8268799775
 20
101.8050312768
 30
0.0
 10
62.6542447403
 20
101.3113003304
 30
0.0
 10
62.3910173702
 20
100.9103622033
 30
0.0
 10
62.1537774689
 20
100.7144978866
 30
0.0
 10
62.0276997246
 20
100.6417074256
 30
0.0
  0
SPLINE
  5
4D7
100
AcDbEntity
  8
0
100
AcDbSpline
 62
7
  6
CONTINUOUS
 70
0
 71
3
 72
15
 73
11
 74
0
 42
0.0000001
 43
0.0000001
 44
0.0000000001
 40
0.0
 40
0.0
 40
0.0
 40
0.0
 40
0.1131550825
 40
0.2348424107
 40
0.3629913852
 40
0.4949520972
 40
0.6276707649
 40
0.7579918048
 40
0.8829661996
 40
1.0
 40
1.0
 40
1.0
 40
1.0
 10
60.5656511382
 20
106.8939029203
 30
0.0
 10
60.739526489
 20
106.7935182107
 30
0.0
 10
61.080574987
 20
106.549847908
 30
0.0
 10
61.5410324109
 20
106.0965139143
 30
0.0
 10
61.9550979492
 20
105.5578437173
 30
0.0
 10
62.3080422845
 20
104.954804812
 30
0.0
 10
62.5876426896
 20
104.3103254322
 30
0.0
 10
62.7845483334
 20
103.6487818795
 30
0.0
 10
62.8919805368
 20
102.9951610005
 30
0.0
 10
62.9019998014
 20
102.5639024858
 30
0.0
 10
62.8892197017
 20
102.3566412386
 30
0.0
  0
SPLINE
  5
4D8
100
AcDbEntity
  8
0
100
AcDbSpline
 62
7
  6
CONTINUOUS
 70
0
 71
3
 72
12
 73
8
 74
0
 42
0.0000001
 43
0.0000001
 44
0.0000000001
 40
0.0
 40
0.0
 40
0.0
 40
0.0
 40
0.2855351427
 40
0.5428293045
 40
0.7770121503
 40
0.8891062955
 40
1.0
 40
1.0
 40
1.0
 40
1.0
 10
60.1404735016
 20
99.3815564502
 30
0.0
 10
60.3736059119
 20
99.2469604354
 30
0.0
 10
60.8397347956
 20
99.0269604642
 30
0.0
 10
61.5596009916
 20
98.8597277219
 30
0.0
 10
62.137277453
 20
98.882787264
 30
0.0
 10
62.5531769723
 20
99.0019564003
 30
0.0
 10
62.744203173
 20
99.0924029983
 30
0.0
 10
62.8347446977
 20
99.1446770364
 30
0.0
  0
SPLINE
  5
4D9
100
AcDbEntity
  8
0
100
AcDbSpline
 62
7
  6
CONTINUOUS
 70
0
 71
3
 72
11
 73
7
 74
0
 42
0.0000001
 43
0.0000001
 44
0.0000000001
 40
0.0
 40
0.0
 40
0.0
 40
0.0
 40
0.2866236063
 40
0.5459763099
 40
0.7809234581
 40
1.0
 40
1.0
 40
1.0
 40
1.0
 10
50.161244649
 20
109.7049748199
 30
0.0
 10
50.1495222875
 20
109.5148674395
 30
0.0
 10
50.0989049249
 20
109.1533648581
 30
0.0
 10
49.9262696877
 20
108.6596339118
 30
0.0
 10
49.6630423175
 20
108.2586957846
 30
0.0
 10
49.4258024162
 20
108.0628314679
 30
0.0
 10
49.299724672
 20
107.990041007
 30
0.0
  0
SPLINE
  5
4DA
100
AcDbEntity
  8
0
100
AcDbSpline
 62
7
  6
CONTINUOUS
 70
0
 71
3
 72
15
 73
11
 74
0
 42
0.0000001
 43
0.0000001
 44
0.0000000001
 40
0.0
 40
0.0
 40
0.0
 40
0.0
 40
0.1131550825
 40
0.2348424107
 40
0.3629913852
 40
0.4949520972
 40
0.6276707649
 40
0.7579918048
 40
0.8829661996
 40
1.0
 40
1.0
 40
1.0
 40
1.0
 10
47.8376760855
 20
114.2422365017
 30
0.0
 10
48.0115514363
 20
114.1418517921
 30
0.0
 10
48.3525999343
 20
113.8981814894
 30
0.0
 10
48.8130573583
 20
113.4448474956
 30
0.0
 10
49.2271228966
 20
112.9061772986
 30
0.0
 10
49.5800672319
 20
112.3031383934
 30
0.0
 10
49.8596676369
 20
111.6586590135
 30
0.0
 10
50.0565732807
 20
110.9971154608
 30
0.0
 10
50.1640054842
 20
110.3434945819
 30
0.0
 10
50.1740247487
 20
109.9122360672
 30
0.0
 10
50.161244649
 20
109.7049748199
 30
0.0
  0
SPLINE
  5
4DB
100
AcDbEntity
  8
0
100
AcDbSpline
 62
7
  6
CONTINUOUS
 70
0
 71
3
 72
12
 73
8
 74
0
 42
0.0000001
 43
0.0000001
 44
0.0000000001
 40
0.0
 40
0.0
 40
0.0
 40
0.0
 40
0.2855351427
 40
0.5428293045
 40
0.7770121503
 40
0.8891062955
 40
1.0
 40
1.0
 40
1.0
 40
1.0
 10
47.412498449
 20
106.7298900316
 30
0.0
 10
47.6456308593
 20
106.5952940167
 30
0.0
 10
48.111759743
 20
106.3752940455
 30
0.0
 10
48.8316259389
 20
106.2080613032
 30
0.0
 10
49.4093024004
 20
106.2311208454
 30
0.0
 10
49.8252019196
 20
106.3502899817
 30
0.0
 10
50.0162281204
 20
106.4407365797
 30
0.0
 10
50.1067696451
 20
106.4930106177
 30
0.0
  0
SPLINE
  5
4DC
100
AcDbEntity
  8
0
100
AcDbSpline
 62
7
  6
CONTINUOUS
 70
0
 71
3
 72
11
 73
7
 74
0
 42
0.0000001
 43
0.0000001
 44
0.0000000001
 40
0.0
 40
0.0
 40
0.0
 40
0.0
 40
0.2866236063
 40
0.5459763099
 40
0.7809234581
 40
1.0
 40
1.0
 40
1.0
 40
1.0
 10
37.4332695964
 20
117.0533084013
 30
0.0
 10
37.4215472348
 20
116.8632010209
 30
0.0
 10
37.3709298722
 20
116.5016984395
 30
0.0
 10
37.198294635
 20
116.0079674931
 30
0.0
 10
36.9350672649
 20
115.607029366
 30
0.0
 10
36.6978273636
 20
115.4111650493
 30
0.0
 10
36.5717496193
 20
115.3383745883
 30
0.0
  0
SPLINE
  5
4DD
100
AcDbEntity
  8
0
100
AcDbSpline
 62
7
  6
CONTINUOUS
 70
0
 71
3
 72
15
 73
11
 74
0
 42
0.0000001
 43
0.0000001
 44
0.0000000001
 40
0.0
 40
0.0
 40
0.0
 40
0.0
 40
0.1131550825
 40
0.2348424107
 40
0.3629913852
 40
0.4949520972
 40
0.6276707649
 40
0.7579918048
 40
0.8829661996
 40
1.0
 40
1.0
 40
1.0
 40
1.0
 10
35.1097010329
 20
121.590570083
 30
0.0
 10
35.2835763837
 20
121.4901853734
 30
0.0
 10
35.6246248817
 20
121.2465150707
 30
0.0
 10
36.0850823056
 20
120.793181077
 30
0.0
 10
36.4991478439
 20
120.25451088
 30
0.0
 10
36.8520921792
 20
119.6514719748
 30
0.0
 10
37.1316925843
 20
119.0069925949
 30
0.0
 10
37.3285982281
 20
118.3454490422
 30
0.0
 10
37.4360304315
 20
117.6918281632
 30
0.0
 10
37.4460496961
 20
117.2605696486
 30
0.0
 10
37.4332695964
 20
117.0533084013
 30
0.0
  0
SPLINE
  5
4DE
100
AcDbEntity
  8
0
100
AcDbSpline
 62
7
  6
CONTINUOUS
 70
0
 71
3
 72
12
 73
8
 74
0
 42
0.0000001
 43
0.0000001
 44
0.0000000001
 40
0.0
 40
0.0
 40
0.0
 40
0.0
 40
0.2855351427
 40
0.5428293045
 40
0.7770121503
 40
0.8891062955
 40
1.0
 40
1.0
 40
1.0
 40
1.0
 10
34.6845233963
 20
114.078223613
 30
0.0
 10
34.9176558066
 20
113.9436275981
 30
0.0
 10
35.3837846903
 20
113.7236276269
 30
0.0
 10
36.1036508863
 20
113.5563948846
 30
0.0
 10
36.6813273477
 20
113.5794544267
 30
0.0
 10
37.097226867
 20
113.6986235631
 30
0.0
 10
37.2882530677
 20
113.7890701611
 30
0.0
 10
37.3787945924
 20
113.8413441991
 30
0.0
  0
SPLINE
  5
4DF
100
AcDbEntity
  8
0
100
AcDbSpline
 62
7
  6
CONTINUOUS
 70
0
 71
3
 72
16
 73
12
 74
0
 42
0.0000001
 43
0.0000001
 44
0.0000000001
 40
0.0
 40
0.0
 40
0.0
 40
0.0
 40
0.1527116124
 40
0.3036815699
 40
0.4484644258
 40
0.5832824012
 40
0.7054274283
 40
0.813952409
 40
0.9104229341
 40
0.9556883751
 40
1.0
 40
1.0
 40
1.0
 40
1.0
 10
80.4223957267
 20
124.9717613941
 30
0.0
 10
80.0978663077
 20
124.996443404
 30
0.0
 10
79.448797856
 20
125.0055323543
 30
0.0
 10
78.4962309756
 20
124.9024567526
 30
0.0
 10
77.6013174064
 20
124.687099593
 30
0.0
 10
76.8028412243
 20
124.3687283315
 30
0.0
 10
76.1345294099
 20
123.9596151946
 30
0.0
 10
75.624710781
 20
123.4748443507
 30
0.0
 10
75.3475158885
 20
123.008005074
 30
0.0
 10
75.2394472574
 20
122.6245536306
 30
0.0
 10
75.22168696
 20
122.4331752697
 30
0.0
 10
75.2216927867
 20
122.3387361095
 30
0.0
  0
SPLINE
  5
4E0
100
AcDbEntity
  8
0
100
AcDbSpline
 62
7
  6
CONTINUOUS
 70
0
 71
3
 72
18
 73
14
 74
0
 42
0.0000001
 43
0.0000001
 44
0.0000000001
 40
0.0
 40
0.0
 40
0.0
 40
0.0
 40
0.1261752712
 40
0.2647249813
 40
0.4095167687
 40
0.5529471486
 40
0.6874305956
 40
0.7494429415
 40
0.8072329762
 40
0.8606605282
 40
0.9100024152
 40
0.9560235856
 40
1.0
 40
1.0
 40
1.0
 40
1.0
 10
61.0982547675
 20
108.5894540427
 30
0.0
 10
61.4889706131
 20
108.3638792473
 30
0.0
 10
62.2400958641
 20
107.7687374885
 30
0.0
 10
63.1698742384
 20
106.6265200358
 30
0.0
 10
63.9029794622
 20
105.2784746053
 30
0.0
 10
64.3851876229
 20
103.8382972961
 30
0.0
 10
64.5558433566
 20
102.6254835367
 30
0.0
 10
64.5288632649
 20
101.7146926751
 30
0.0
 10
64.4318798049
 20
101.1009397893
 30
0.0
 10
64.2588494864
 20
100.5509735881
 30
0.0
 10
64.0117141815
 20
100.076159885
 30
0.0
 10
63.6936731723
 20
99.6876391248
 30
0.0
 10
63.4343229488
 20
99.4908453713
 30
0.0
 10
63.2981468179
 20
99.4122217665
 30
0.0
  0
SPLINE
  5
4E1
100
AcDbEntity
  8
0
100
AcDbSpline
 62
7
  6
CONTINUOUS
 70
0
 71
3
 72
9
 73
5
 74
0
 42
0.0000001
 43
0.0000001
 44
0.0000000001
 40
0.0
 40
0.0
 40
0.0
 40
0.0
 40
0.2481896394
 40
1.0
 40
1.0
 40
1.0
 40
1.0
 10
53.371449985
 20
101.0255547498
 30
0.0
 10
53.371449985
 20
101.3889574619
 30
0.0
 10
53.3777158998
 20
102.8531657294
 30
0.0
 10
53.4088557035
 20
104.3172586652
 30
0.0
 10
53.4457200932
 20
105.4174523843
 30
0.0
  0
SPLINE
  5
4E2
100
AcDbEntity
  8
0
100
AcDbSpline
 62
7
  6
CONTINUOUS
 70
0
 71
3
 72
18
 73
14
 74
0
 42
0.0000001
 43
0.0000001
 44
0.0000000001
 40
0.0
 40
0.0
 40
0.0
 40
0.0
 40
0.0442781154
 40
0.0906142716
 40
0.1402478341
 40
0.1939163695
 40
0.2518806294
 40
0.3139945089
 40
0.4484663433
 40
0.5916531362
 40
0.7360617147
 40
0.8741855426
 40
1.0
 40
1.0
 40
1.0
 40
1.0
 10
50.1067696451
 20
106.4930106177
 30
0.0
 10
50.2442671975
 20
106.5723946607
 30
0.0
 10
50.5062830182
 20
106.7707691316
 30
0.0
 10
50.82866835
 20
107.1616922754
 30
0.0
 10
51.0805374048
 20
107.6391201256
 30
0.0
 10
51.2585680028
 20
108.1918400093
 30
0.0
 10
51.3606928959
 20
108.8084061712
 30
0.0
 10
51.3947402961
 20
109.7224736502
 30
0.0
 10
51.2328364858
 20
110.9394518
 30
0.0
 10
50.7594836017
 20
112.3847556849
 30
0.0
 10
50.0331900379
 20
113.737236373
 30
0.0
 10
49.1074154395
 20
114.8828415777
 30
0.0
 10
48.3569991715
 20
115.4789901303
 30
0.0
 10
47.9663035335
 20
115.7045532592
 30
0.0
  0
SPLINE
  5
4E3
100
AcDbEntity
  8
0
100
AcDbSpline
 62
7
  6
CONTINUOUS
 70
0
 71
3
 72
11
 73
7
 74
0
 42
0.0000001
 43
0.0000001
 44
0.0000000001
 40
0.0
 40
0.0
 40
0.0
 40
0.0
 40
0.2232795667
 40
0.4580302508
 40
0.71521563
 40
1.0
 40
1.0
 40
1.0
 40
1.0
 10
62.0276997246
 20
100.6417074256
 30
0.0
 10
61.9034444578
 20
100.5699691644
 30
0.0
 10
61.6221605409
 20
100.4644216141
 30
0.0
 10
61.1566442208
 20
100.4448313954
 30
0.0
 10
60.6654745439
 20
100.5570632171
 30
0.0
 10
60.3481210882
 20
100.706497059
 30
0.0
 10
60.1896377544
 20
100.7979953845
 30
0.0
  0
SPLINE
  5
4E4
100
AcDbEntity
  8
0
100
AcDbSpline
 62
7
  6
CONTINUOUS
 70
0
 71
3
 72
12
 73
8
 74
0
 42
0.0000001
 43
0.0000001
 44
0.0000000001
 40
0.0
 40
0.0
 40
0.0
 40
0.0
 40
0.1131649118
 40
0.2272899047
 40
0.463632351
 40
0.7194675085
 40
1.0
 40
1.0
 40
1.0
 40
1.0
 10
45.6123533363
 20
116.137916414
 30
0.0
 10
45.7068388913
 20
116.1924689926
 30
0.0
 10
45.9055292036
 20
116.2874214778
 30
0.0
 10
46.3353627619
 20
116.4155126373
 30
0.0
 10
46.9279353196
 20
116.450347704
 30
0.0
 10
47.6632217438
 20
116.2925530193
 30
0.0
 10
48.1360500607
 20
116.0730171186
 30
0.0
 10
48.3702797149
 20
115.937787624
 30
0.0
  0
SPLINE
  5
4E5
100
AcDbEntity
  8
0
100
AcDbSpline
 62
7
  6
CONTINUOUS
 70
0
 71
3
 72
11
 73
7
 74
0
 42
0.0000001
 43
0.0000001
 44
0.0000000001
 40
0.0
 40
0.0
 40
0.0
 40
0.0
 40
0.2232795667
 40
0.4580302508
 40
0.71521563
 40
1.0
 40
1.0
 40
1.0
 40
1.0
 10
36.5717496193
 20
115.3383745883
 30
0.0
 10
36.4474943525
 20
115.2666363272
 30
0.0
 10
36.1662104356
 20
115.1610887769
 30
0.0
 10
35.7006941155
 20
115.1414985581
 30
0.0
 10
35.2095244386
 20
115.2537303799
 30
0.0
 10
34.8921709829
 20
115.4031642218
 30
0.0
 10
34.7336876491
 20
115.4946625472
 30
0.0
  0
SPLINE
  5
4E6
100
AcDbEntity
  8
0
100
AcDbSpline
 62
7
  6
CONTINUOUS
 70
0
 71
3
 72
12
 73
8
 74
0
 42
0.0000001
 43
0.0000001
 44
0.0000000001
 40
0.0
 40
0.0
 40
0.0
 40
0.0
 40
0.2797364771
 40
0.5352637032
 40
0.7718868634
 40
0.8863646199
 40
1.0
 40
1.0
 40
1.0
 40
1.0
 10
60.6942785861
 20
108.3562196778
 30
0.0
 10
60.4598789243
 20
108.4915473242
 30
0.0
 10
59.9860962172
 20
108.7110534935
 30
0.0
 10
59.2485307878
 20
108.8675415474
 30
0.0
 10
58.6536508137
 20
108.8308841489
 30
0.0
 10
58.2215068783
 20
108.7012612452
 30
0.0
 10
58.0214666702
 20
108.6054902902
 30
0.0
 10
57.9262484597
 20
108.5505165485
 30
0.0
  0
SPLINE
  5
4E7
100
AcDbEntity
  8
0
100
AcDbSpline
 62
7
  6
CONTINUOUS
 70
0
 71
3
 72
11
 73
7
 74
0
 42
0.0000001
 43
0.0000001
 44
0.0000000001
 40
0.0
 40
0.0
 40
0.0
 40
0.0
 40
0.2232795667
 40
0.4580302508
 40
0.71521563
 40
1.0
 40
1.0
 40
1.0
 40
1.0
 10
49.299724672
 20
107.990041007
 30
0.0
 10
49.1754694052
 20
107.9183027458
 30
0.0
 10
48.8941854883
 20
107.8127551955
 30
0.0
 10
48.4286691681
 20
107.7931649768
 30
0.0
 10
47.9374994912
 20
107.9053967985
 30
0.0
 10
47.6201460355
 20
108.0548306404
 30
0.0
 10
47.4616627017
 20
108.1463289658
 30
0.0
  0
SPLINE
  5
4E8
100
AcDbEntity
  8
0
100
AcDbSpline
 62
7
  6
CONTINUOUS
 70
0
 71
3
 72
9
 73
5
 74
0
 42
0.0000001
 43
0.0000001
 44
0.0000000001
 40
0.0
 40
0.0
 40
0.0
 40
0.0
 40
0.2459662479
 40
1.0
 40
1.0
 40
1.0
 40
1.0
 10
79.7031215068
 20
89.8866394408
 30
0.0
 10
79.7304797983
 20
90.7750385578
 30
0.0
 10
79.8775520697
 20
94.3857500716
 30
0.0
 10
80.165360122
 20
97.9904824924
 30
0.0
 10
80.4546380803
 20
100.6998492583
 30
0.0
  0
SPLINE
  5
4E9
100
AcDbEntity
  8
0
100
AcDbSpline
 62
7
  6
CONTINUOUS
 70
0
 71
3
 72
18
 73
14
 74
0
 42
0.0000001
 43
0.0000001
 44
0.0000000001
 40
0.0
 40
0.0
 40
0.0
 40
0.0
 40
0.0442781154
 40
0.0906142716
 40
0.1402478341
 40
0.1939163695
 40
0.2518806294
 40
0.3139945089
 40
0.4484663433
 40
0.5916531362
 40
0.7360617147
 40
0.8741855426
 40
1.0
 40
1.0
 40
1.0
 40
1.0
 10
37.3787945924
 20
113.8413441991
 30
0.0
 10
37.5162921448
 20
113.920728242
 30
0.0
 10
37.7783079656
 20
114.119102713
 30
0.0
 10
38.1006932974
 20
114.5100258567
 30
0.0
 10
38.3525623522
 20
114.9874537069
 30
0.0
 10
38.5305929501
 20
115.5401735907
 30
0.0
 10
38.6327178432
 20
116.1567397526
 30
0.0
 10
38.6667652435
 20
117.0708072316
 30
0.0
 10
38.5048614331
 20
118.2877853813
 30
0.0
 10
38.031508549
 20
119.7330892663
 30
0.0
 10
37.3052149853
 20
121.0855699544
 30
0.0
 10
36.3794403868
 20
122.231175159
 30
0.0
 10
35.6290241188
 20
122.8273237117
 30
0.0
 10
35.2383284808
 20
123.0528868406
 30
0.0
  0
SPLINE
  5
4EA
100
AcDbEntity
  8
0
100
AcDbSpline
 62
7
  6
CONTINUOUS
 70
0
 71
3
 72
12
 73
8
 74
0
 42
0.0000001
 43
0.0000001
 44
0.0000000001
 40
0.0
 40
0.0
 40
0.0
 40
0.0
 40
0.1131649118
 40
0.2272899047
 40
0.463632351
 40
0.7194675085
 40
1.0
 40
1.0
 40
1.0
 40
1.0
 10
32.8843782837
 20
123.4862499953
 30
0.0
 10
32.9788638386
 20
123.540802574
 30
0.0
 10
33.177554151
 20
123.6357550592
 30
0.0
 10
33.6073877092
 20
123.7638462186
 30
0.0
 10
34.199960267
 20
123.7986812854
 30
0.0
 10
34.9352466911
 20
123.6408866007
 30
0.0
 10
35.408075008
 20
123.4213507
 30
0.0
 10
35.6423046622
 20
123.2861212054
 30
0.0
  0
SPLINE
  5
4EB
100
AcDbEntity
  8
0
100
AcDbSpline
 62
7
  6
CONTINUOUS
 70
0
 71
3
 72
12
 73
8
 74
0
 42
0.0000001
 43
0.0000001
 44
0.0000000001
 40
0.0
 40
0.0
 40
0.0
 40
0.0
 40
0.1081616681
 40
0.2183692243
 40
0.4513470912
 40
0.7104472885
 40
1.0
 40
1.0
 40
1.0
 40
1.0
 10
84.4215784897
 20
122.3387359605
 30
0.0
 10
84.4215816019
 20
122.4258194548
 30
0.0
 10
84.4064854848
 20
122.602005327
 30
0.0
 10
84.3148723294
 20
122.9551565378
 30
0.0
 10
84.0800437497
 20
123.3882922441
 30
0.0
 10
83.6424168486
 20
123.8478208158
 30
0.0
 10
83.2761876716
 20
124.1000981839
 30
0.0
 10
83.0742937727
 20
124.2166590438
 30
0.0
  0
SPLINE
  5
4EC
100
AcDbEntity
  8
0
100
AcDbSpline
 62
7
  6
CONTINUOUS
 70
0
 71
3
 72
15
 73
11
 74
0
 42
0.0000001
 43
0.0000001
 44
0.0000000001
 40
0.0
 40
0.0
 40
0.0
 40
0.0
 40
0.1092739609
 40
0.2294826305
 40
0.3581363884
 40
0.4918328436
 40
0.6266895804
 40
0.7587090659
 40
0.8841785387
 40
1.0
 40
1.0
 40
1.0
 40
1.0
 10
76.1966882164
 20
120.6668647184
 30
0.0
 10
76.4076115824
 20
120.8227407344
 30
0.0
 10
76.8866800408
 20
121.102208126
 30
0.0
 10
77.6930866913
 20
121.4081796996
 30
0.0
 10
78.5914102554
 20
121.6111596338
 30
0.0
 10
79.542784981
 20
121.7023139951
 30
0.0
 10
80.506230102
 20
121.6778038119
 30
0.0
 10
81.4401701809
 20
121.538661841
 30
0.0
 10
82.3039606819
 20
121.2909471997
 30
0.0
 10
82.8335497761
 20
121.0488147212
 30
0.0
 10
83.0742937727
 20
120.9098242544
 30
0.0
  0
SPLINE
  5
4ED
100
AcDbEntity
  8
0
100
AcDbSpline
 62
7
  6
CONTINUOUS
 70
0
 71
3
 72
11
 73
7
 74
0
 42
0.0000001
 43
0.0000001
 44
0.0000000001
 40
0.0
 40
0.0
 40
0.0
 40
0.0
 40
0.2828216487
 40
0.5409519951
 40
0.7774427417
 40
1.0
 40
1.0
 40
1.0
 40
1.0
 10
45.0700546273
 20
112.6443082521
 30
0.0
 10
45.0818231278
 20
112.8351638913
 30
0.0
 10
45.1345264484
 20
113.1995705745
 30
0.0
 10
45.315363676
 20
113.6977554293
 30
0.0
 10
45.5902024337
 20
114.104024219
 30
0.0
 10
45.8352780043
 20
114.3036466753
 30
0.0
 10
45.9655915596
 20
114.3788826969
 30
0.0
  0
SPLINE
  5
4EE
100
AcDbEntity
  8
0
100
AcDbSpline
 62
7
  6
CONTINUOUS
 70
0
 71
3
 72
12
 73
8
 74
0
 42
0.0000001
 43
0.0000001
 44
0.0000000001
 40
0.0
 40
0.0
 40
0.0
 40
0.0
 40
0.1081616681
 40
0.2183692243
 40
0.4513470912
 40
0.7104472885
 40
1.0
 40
1.0
 40
1.0
 40
1.0
 10
58.9656283844
 20
137.0354031232
 30
0.0
 10
58.9656314967
 20
137.1224866175
 30
0.0
 10
58.9505353795
 20
137.2986724897
 30
0.0
 10
58.8589222241
 20
137.6518237005
 30
0.0
 10
58.6240936444
 20
138.0849594069
 30
0.0
 10
58.1864667433
 20
138.5444879785
 30
0.0
 10
57.8202375663
 20
138.7967653466
 30
0.0
 10
57.6183436674
 20
138.9133262065
 30
0.0
  0
SPLINE
  5
4EF
100
AcDbEntity
  8
0
100
AcDbSpline
 62
7
  6
CONTINUOUS
 70
0
 71
3
 72
15
 73
11
 74
0
 42
0.0000001
 43
0.0000001
 44
0.0000000001
 40
0.0
 40
0.0
 40
0.0
 40
0.0
 40
0.1133659536
 40
0.2354988054
 40
0.3640515941
 40
0.4961884388
 40
0.6287782687
 40
0.7587147237
 40
0.8832243812
 40
1.0
 40
1.0
 40
1.0
 40
1.0
 10
47.4616627017
 20
108.1463289658
 30
0.0
 10
47.28756489
 20
108.2468421104
 30
0.0
 10
46.9448083164
 20
108.4892691077
 30
0.0
 10
46.4774213656
 20
108.9373361947
 30
0.0
 10
46.0522712968
 20
109.4689599258
 30
0.0
 10
45.6858761917
 20
110.0643442806
 30
0.0
 10
45.3926839432
 20
110.7017027782
 30
0.0
 10
45.1842498193
 20
111.3576059284
 30
0.0
 10
45.0691305671
 20
112.0077291791
 30
0.0
 10
45.057310156
 20
112.4376248079
 30
0.0
 10
45.0700546273
 20
112.6443082521
 30
0.0
  0
SPLINE
  5
4F0
100
AcDbEntity
  8
0
100
AcDbSpline
 62
7
  6
CONTINUOUS
 70
0
 71
3
 72
15
 73
11
 74
0
 42
0.0000001
 43
0.0000001
 44
0.0000000001
 40
0.0
 40
0.0
 40
0.0
 40
0.0
 40
0.1092739609
 40
0.2294826305
 40
0.3581363884
 40
0.4918328436
 40
0.6266895804
 40
0.7587090659
 40
0.8841785387
 40
1.0
 40
1.0
 40
1.0
 40
1.0
 10
50.7407381111
 20
135.3635318812
 30
0.0
 10
50.9516614771
 20
135.5194078971
 30
0.0
 10
51.4307299355
 20
135.7988752887
 30
0.0
 10
52.237136586
 20
136.1048468624
 30
0.0
 10
53.1354601501
 20
136.3078267965
 30
0.0
 10
54.0868348757
 20
136.3989811579
 30
0.0
 10
55.0502799967
 20
136.3744709747
 30
0.0
 10
55.9842200756
 20
136.2353290037
 30
0.0
 10
56.8480105766
 20
135.9876143625
 30
0.0
 10
57.3775996708
 20
135.745481884
 30
0.0
 10
57.6183436674
 20
135.6064914171
 30
0.0
  0
SPLINE
  5
4F1
100
AcDbEntity
  8
0
100
AcDbSpline
 62
7
  6
CONTINUOUS
 70
0
 71
3
 72
12
 73
8
 74
0
 42
0.0000001
 43
0.0000001
 44
0.0000000001
 40
0.0
 40
0.0
 40
0.0
 40
0.0
 40
0.1081616681
 40
0.2183692243
 40
0.4513470912
 40
0.7104472885
 40
1.0
 40
1.0
 40
1.0
 40
1.0
 10
71.693603437
 20
129.6870695419
 30
0.0
 10
71.6936065493
 20
129.7741530361
 30
0.0
 10
71.6785104322
 20
129.9503389083
 30
0.0
 10
71.5868972767
 20
130.3034901192
 30
0.0
 10
71.3520686971
 20
130.7366258255
 30
0.0
 10
70.914441796
 20
131.1961543972
 30
0.0
 10
70.5482126189
 20
131.4484317652
 30
0.0
 10
70.34631872
 20
131.5649926251
 30
0.0
  0
SPLINE
  5
4F2
100
AcDbEntity
  8
0
100
AcDbSpline
 62
7
  6
CONTINUOUS
 70
0
 71
3
 72
11
 73
7
 74
0
 42
0.0000001
 43
0.0000001
 44
0.0000000001
 40
0.0
 40
0.0
 40
0.0
 40
0.0
 40
0.2232795667
 40
0.4580302508
 40
0.71521563
 40
1.0
 40
1.0
 40
1.0
 40
1.0
 10
74.7556747772
 20
93.2933738442
 30
0.0
 10
74.6314195105
 20
93.2216355831
 30
0.0
 10
74.3501355935
 20
93.1160880328
 30
0.0
 10
73.8846192734
 20
93.096497814
 30
0.0
 10
73.3934495965
 20
93.2087296358
 30
0.0
 10
73.0760961408
 20
93.3581634777
 30
0.0
 10
72.917612807
 20
93.4496618031
 30
0.0
  0
SPLINE
  5
4F3
100
AcDbEntity
  8
0
100
AcDbSpline
 62
7
  6
CONTINUOUS
 70
0
 71
3
 72
15
 73
11
 74
0
 42
0.0000001
 43
0.0000001
 44
0.0000000001
 40
0.0
 40
0.0
 40
0.0
 40
0.0
 40
0.1092739609
 40
0.2294826305
 40
0.3581363884
 40
0.4918328436
 40
0.6266895804
 40
0.7587090659
 40
0.8841785387
 40
1.0
 40
1.0
 40
1.0
 40
1.0
 10
63.4687131638
 20
128.0151982998
 30
0.0
 10
63.6796365298
 20
128.1710743157
 30
0.0
 10
64.1587049882
 20
128.4505417074
 30
0.0
 10
64.9651116387
 20
128.756513281
 30
0.0
 10
65.8634352027
 20
128.9594932151
 30
0.0
 10
66.8148099284
 20
129.0506475765
 30
0.0
 10
67.7782550494
 20
129.0261373933
 30
0.0
 10
68.7121951283
 20
128.8869954224
 30
0.0
 10
69.5759856293
 20
128.6392807811
 30
0.0
 10
70.1055747235
 20
128.3971483026
 30
0.0
 10
70.34631872
 20
128.2581578358
 30
0.0
  0
SPLINE
  5
4F4
100
AcDbEntity
  8
0
100
AcDbSpline
 62
7
  6
CONTINUOUS
 70
0
 71
3
 72
12
 73
8
 74
0
 42
0.0000001
 43
0.0000001
 44
0.0000000001
 40
0.0
 40
0.0
 40
0.0
 40
0.0
 40
0.1081616681
 40
0.2183692243
 40
0.4513470912
 40
0.7104472885
 40
1.0
 40
1.0
 40
1.0
 40
1.0
 10
97.1495535423
 20
114.9904023791
 30
0.0
 10
97.1495566546
 20
115.0774858734
 30
0.0
 10
97.1344605375
 20
115.2536717456
 30
0.0
 10
97.042847382
 20
115.6068229564
 30
0.0
 10
96.8080188024
 20
116.0399586628
 30
0.0
 10
96.3703919013
 20
116.4994872344
 30
0.0
 10
96.0041627242
 20
116.7517646025
 30
0.0
 10
95.8022688253
 20
116.8683254624
 30
0.0
  0
SPLINE
  5
4F5
100
AcDbEntity
  8
0
100
AcDbSpline
 62
7
  6
CONTINUOUS
 70
0
 71
3
 72
15
 73
11
 74
0
 42
0.0000001
 43
0.0000001
 44
0.0000000001
 40
0.0
 40
0.0
 40
0.0
 40
0.0
 40
0.1092739609
 40
0.2294826305
 40
0.3581363884
 40
0.4918328436
 40
0.6266895804
 40
0.7587090659
 40
0.8841785387
 40
1.0
 40
1.0
 40
1.0
 40
1.0
 10
88.9246632691
 20
113.3185311371
 30
0.0
 10
89.1355866351
 20
113.474407153
 30
0.0
 10
89.6146550935
 20
113.7538745446
 30
0.0
 10
90.421061744
 20
114.0598461183
 30
0.0
 10
91.319385308
 20
114.2628260524
 30
0.0
 10
92.2707600337
 20
114.3539804138
 30
0.0
 10
93.2342051547
 20
114.3294702306
 30
0.0
 10
94.1681452336
 20
114.1903282596
 30
0.0
 10
95.0319357346
 20
113.9426136184
 30
0.0
 10
95.5615248288
 20
113.7004811399
 30
0.0
 10
95.8022688253
 20
113.561490673
 30
0.0
  0
SPLINE
  5
4F6
100
AcDbEntity
  8
0
100
AcDbSpline
 62
7
  6
CONTINUOUS
 70
0
 71
3
 72
18
 73
14
 74
0
 42
0.0000001
 43
0.0000001
 44
0.0000000001
 40
0.0
 40
0.0
 40
0.0
 40
0.0
 40
0.0442781154
 40
0.0906142716
 40
0.1402478341
 40
0.1939163695
 40
0.2518806294
 40
0.3139945089
 40
0.4484663433
 40
0.5916531362
 40
0.7360617147
 40
0.8741855426
 40
1.0
 40
1.0
 40
1.0
 40
1.0
 10
62.8347446977
 20
99.1446770364
 30
0.0
 10
62.9722422501
 20
99.2240610793
 30
0.0
 10
63.2342580709
 20
99.4224355503
 30
0.0
 10
63.5566434027
 20
99.813358694
 30
0.0
 10
63.8085124575
 20
100.2907865442
 30
0.0
 10
63.9865430554
 20
100.8435064279
 30
0.0
 10
64.0886679485
 20
101.4600725899
 30
0.0
 10
64.1227153488
 20
102.3741400688
 30
0.0
 10
63.9608115384
 20
103.5911182186
 30
0.0
 10
63.4874586543
 20
105.0364221036
 30
0.0
 10
62.7611650906
 20
106.3889027917
 30
0.0
 10
61.8353904921
 20
107.5345079963
 30
0.0
 10
61.0849742241
 20
108.130656549
 30
0.0
 10
60.6942785861
 20
108.3562196778
 30
0.0
  0
SPLINE
  5
4F7
100
AcDbEntity
  8
0
100
AcDbSpline
 62
7
  6
CONTINUOUS
 70
0
 71
3
 72
18
 73
14
 74
0
 42
0.0000001
 43
0.0000001
 44
0.0000000001
 40
0.0
 40
0.0
 40
0.0
 40
0.0
 40
0.1261752712
 40
0.2647249813
 40
0.4095167687
 40
0.5529471486
 40
0.6874305956
 40
0.7494429415
 40
0.8072329762
 40
0.8606605282
 40
0.9100024152
 40
0.9560235856
 40
1.0
 40
1.0
 40
1.0
 40
1.0
 10
48.3702797149
 20
115.937787624
 30
0.0
 10
48.7609955604
 20
115.7122128286
 30
0.0
 10
49.5121208115
 20
115.1170710699
 30
0.0
 10
50.4418991858
 20
113.9748536172
 30
0.0
 10
51.1750044095
 20
112.6268081867
 30
0.0
 10
51.6572125702
 20
111.1866308774
 30
0.0
 10
51.827868304
 20
109.9738171181
 30
0.0
 10
51.8008882123
 20
109.0630262565
 30
0.0
 10
51.7039047523
 20
108.4492733707
 30
0.0
 10
51.5308744337
 20
107.8993071695
 30
0.0
 10
51.2837391288
 20
107.4244934663
 30
0.0
 10
50.9656981196
 20
107.0359727062
 30
0.0
 10
50.7063478962
 20
106.8391789527
 30
0.0
 10
50.5701717652
 20
106.7605553478
 30
0.0
  0
SPLINE
  5
4F8
100
AcDbEntity
  8
0
100
AcDbSpline
 62
7
  6
CONTINUOUS
 70
0
 71
3
 72
12
 73
8
 74
0
 42
0.0000001
 43
0.0000001
 44
0.0000000001
 40
0.0
 40
0.0
 40
0.0
 40
0.0
 40
0.2797364771
 40
0.5352637032
 40
0.7718868634
 40
0.8863646199
 40
1.0
 40
1.0
 40
1.0
 40
1.0
 10
47.9663035335
 20
115.7045532592
 30
0.0
 10
47.7319038716
 20
115.8398809055
 30
0.0
 10
47.2581211645
 20
116.0593870749
 30
0.0
 10
46.5205557352
 20
116.2158751288
 30
0.0
 10
45.925675761
 20
116.1792177303
 30
0.0
 10
45.4935318257
 20
116.0495948265
 30
0.0
 10
45.2934916175
 20
115.9538238715
 30
0.0
 10
45.1982734071
 20
115.8988501299
 30
0.0
  0
SPLINE
  5
4F9
100
AcDbEntity
  8
0
100
AcDbSpline
 62
7
  6
CONTINUOUS
 70
0
 71
3
 72
9
 73
5
 74
0
 42
0.0000001
 43
0.0000001
 44
0.0000000001
 40
0.0
 40
0.0
 40
0.0
 40
0.0
 40
0.2481896394
 40
1.0
 40
1.0
 40
1.0
 40
1.0
 10
66.0994250376
 20
93.6772211685
 30
0.0
 10
66.0994250376
 20
94.0406238805
 30
0.0
 10
66.1056909525
 20
95.504832148
 30
0.0
 10
66.1368307561
 20
96.9689250838
 30
0.0
 10
66.1736951459
 20
98.0691188029
 30
0.0
  0
SPLINE
  5
4FA
100
AcDbEntity
  8
0
100
AcDbSpline
 62
7
  6
CONTINUOUS
 70
0
 71
3
 72
9
 73
5
 74
0
 42
0.0000001
 43
0.0000001
 44
0.0000000001
 40
0.0
 40
0.0
 40
0.0
 40
0.0
 40
0.2445137518
 40
1.0
 40
1.0
 40
1.0
 40
1.0
 10
80.5738526227
 20
31.529272423
 30
0.0
 10
80.4511597245
 20
32.4613042653
 30
0.0
 10
80.0021622188
 20
36.2799273174
 30
0.0
 10
79.759651215
 20
40.1221474591
 30
0.0
 10
79.6804425487
 20
43.0256567812
 30
0.0
  0
SPLINE
  5
4FB
100
AcDbEntity
  8
0
100
AcDbSpline
 62
7
  6
CONTINUOUS
 70
0
 71
3
 72
11
 73
7
 74
0
 42
0.0000001
 43
0.0000001
 44
0.0000000001
 40
0.0
 40
0.0
 40
0.0
 40
0.0
 40
0.2828216487
 40
0.5409519951
 40
0.7774427417
 40
1.0
 40
1.0
 40
1.0
 40
1.0
 10
32.3420795746
 20
119.9926418335
 30
0.0
 10
32.3538480752
 20
120.1834974727
 30
0.0
 10
32.4065513957
 20
120.5479041559
 30
0.0
 10
32.5873886234
 20
121.0460890107
 30
0.0
 10
32.8622273811
 20
121.4523578004
 30
0.0
 10
33.1073029516
 20
121.6519802567
 30
0.0
 10
33.2376165069
 20
121.7272162783
 30
0.0
  0
SPLINE
  5
4FC
100
AcDbEntity
  8
0
100
AcDbSpline
 62
7
  6
CONTINUOUS
 70
0
 71
3
 72
15
 73
11
 74
0
 42
0.0000001
 43
0.0000001
 44
0.0000000001
 40
0.0
 40
0.0
 40
0.0
 40
0.0
 40
0.1133659536
 40
0.2354988054
 40
0.3640515941
 40
0.4961884388
 40
0.6287782687
 40
0.7587147237
 40
0.8832243812
 40
1.0
 40
1.0
 40
1.0
 40
1.0
 10
34.7336876491
 20
115.4946625472
 30
0.0
 10
34.5595898374
 20
115.5951756918
 30
0.0
 10
34.2168332638
 20
115.8376026891
 30
0.0
 10
33.749446313
 20
116.2856697761
 30
0.0
 10
33.3242962442
 20
116.8172935072
 30
0.0
 10
32.9579011391
 20
117.4126778619
 30
0.0
 10
32.6647088906
 20
118.0500363595
 30
0.0
 10
32.4562747667
 20
118.7059395098
 30
0.0
 10
32.3411555144
 20
119.3560627605
 30
0.0
 10
32.3293351033
 20
119.7859583893
 30
0.0
 10
32.3420795746
 20
119.9926418335
 30
0.0
  0
SPLINE
  5
4FD
100
AcDbEntity
  8
0
100
AcDbSpline
 62
7
  6
CONTINUOUS
 70
0
 71
3
 72
18
 73
14
 74
0
 42
0.0000001
 43
0.0000001
 44
0.0000000001
 40
0.0
 40
0.0
 40
0.0
 40
0.0
 40
0.1261752712
 40
0.2647249813
 40
0.4095167687
 40
0.5529471486
 40
0.6874305956
 40
0.7494429415
 40
0.8072329762
 40
0.8606605282
 40
0.9100024152
 40
0.9560235856
 40
1.0
 40
1.0
 40
1.0
 40
1.0
 10
35.6423046622
 20
123.2861212054
 30
0.0
 10
36.0330205078
 20
123.06054641
 30
0.0
 10
36.7841457588
 20
122.4654046512
 30
0.0
 10
37.7139241331
 20
121.3231871986
 30
0.0
 10
38.4470293569
 20
119.975141768
 30
0.0
 10
38.9292375176
 20
118.5349644588
 30
0.0
 10
39.0998932513
 20
117.3221506995
 30
0.0
 10
39.0729131596
 20
116.4113598379
 30
0.0
 10
38.9759296996
 20
115.797606952
 30
0.0
 10
38.8028993811
 20
115.2476407508
 30
0.0
 10
38.5557640762
 20
114.7728270477
 30
0.0
 10
38.237723067
 20
114.3843062876
 30
0.0
 10
37.9783728435
 20
114.187512534
 30
0.0
 10
37.8421967126
 20
114.1088889292
 30
0.0
  0
SPLINE
  5
4FE
100
AcDbEntity
  8
0
100
AcDbSpline
 62
7
  6
CONTINUOUS
 70
0
 71
3
 72
12
 73
8
 74
0
 42
0.0000001
 43
0.0000001
 44
0.0000000001
 40
0.0
 40
0.0
 40
0.0
 40
0.0
 40
0.2797364771
 40
0.5352637032
 40
0.7718868634
 40
0.8863646199
 40
1.0
 40
1.0
 40
1.0
 40
1.0
 10
35.2383284808
 20
123.0528868406
 30
0.0
 10
35.003928819
 20
123.1882144869
 30
0.0
 10
34.5301461119
 20
123.4077206563
 30
0.0
 10
33.7925806825
 20
123.5642087102
 30
0.0
 10
33.1977007084
 20
123.5275513117
 30
0.0
 10
32.765556773
 20
123.3979284079
 30
0.0
 10
32.5655165649
 20
123.3021574529
 30
0.0
 10
32.4702983544
 20
123.2471837112
 30
0.0
  0
SPLINE
  5
4FF
100
AcDbEntity
  8
0
100
AcDbSpline
 62
7
  6
CONTINUOUS
 70
0
 71
3
 72
11
 73
7
 74
0
 42
0.0000001
 43
0.0000001
 44
0.0000000001
 40
0.0
 40
0.0
 40
0.0
 40
0.0
 40
0.2828216487
 40
0.5409519951
 40
0.7774427417
 40
1.0
 40
1.0
 40
1.0
 40
1.0
 10
70.5260047326
 20
97.9476410894
 30
0.0
 10
70.5377732331
 20
98.1384967286
 30
0.0
 10
70.5904765537
 20
98.5029034118
 30
0.0
 10
70.7713137813
 20
99.0010882666
 30
0.0
 10
71.046152539
 20
99.4073570563
 30
0.0
 10
71.2912281096
 20
99.6069795126
 30
0.0
 10
71.4215416649
 20
99.6822155342
 30
0.0
  0
SPLINE
  5
500
100
AcDbEntity
  8
0
100
AcDbSpline
 62
7
  6
CONTINUOUS
 70
0
 71
3
 72
9
 73
5
 74
0
 42
0.0000001
 43
0.0000001
 44
0.0000000001
 40
0.0
 40
0.0
 40
0.0
 40
0.0
 40
0.2545078079
 40
1.0
 40
1.0
 40
1.0
 40
1.0
 10
83.0742937727
 20
120.9098242544
 30
0.0
 10
83.1001923418
 20
120.8948720468
 30
0.0
 10
83.2013347106
 20
120.835063153
 30
0.0
 10
83.2999582253
 20
120.7709713704
 30
0.0
 10
83.3716914447
 20
120.7206979339
 30
0.0
  0
SPLINE
  5
501
100
AcDbEntity
  8
0
100
AcDbSpline
 62
7
  6
CONTINUOUS
 70
0
 71
3
 72
15
 73
11
 74
0
 42
0.0000001
 43
0.0000001
 44
0.0000000001
 40
0.0
 40
0.0
 40
0.0
 40
0.0
 40
0.1133659536
 40
0.2354988054
 40
0.3640515941
 40
0.4961884388
 40
0.6287782687
 40
0.7587147237
 40
0.8832243812
 40
1.0
 40
1.0
 40
1.0
 40
1.0
 10
72.917612807
 20
93.4496618031
 30
0.0
 10
72.7435149953
 20
93.5501749477
 30
0.0
 10
72.4007584217
 20
93.792601945
 30
0.0
 10
71.9333714709
 20
94.240669032
 30
0.0
 10
71.5082214021
 20
94.7722927631
 30
0.0
 10
71.141826297
 20
95.3676771178
 30
0.0
 10
70.8486340485
 20
96.0050356154
 30
0.0
 10
70.6401999246
 20
96.6609387657
 30
0.0
 10
70.5250806723
 20
97.3110620164
 30
0.0
 10
70.5132602613
 20
97.7409576452
 30
0.0
 10
70.5260047326
 20
97.9476410894
 30
0.0
  0
SPLINE
  5
502
100
AcDbEntity
  8
0
100
AcDbSpline
 62
7
  6
CONTINUOUS
 70
0
 71
3
 72
9
 73
5
 74
0
 42
0.0000001
 43
0.0000001
 44
0.0000000001
 40
0.0
 40
0.0
 40
0.0
 40
0.0
 40
0.2545078079
 40
1.0
 40
1.0
 40
1.0
 40
1.0
 10
57.6183436674
 20
135.6064914171
 30
0.0
 10
57.6442422365
 20
135.5915392096
 30
0.0
 10
57.7453846053
 20
135.5317303158
 30
0.0
 10
57.84400812
 20
135.4676385331
 30
0.0
 10
57.9157413394
 20
135.4173650966
 30
0.0
  0
SPLINE
  5
503
100
AcDbEntity
  8
0
100
AcDbSpline
 62
7
  6
CONTINUOUS
 70
0
 71
3
 72
18
 73
14
 74
0
 42
0.0000001
 43
0.0000001
 44
0.0000000001
 40
0.0
 40
0.0
 40
0.0
 40
0.0
 40
0.0442781154
 40
0.0906142716
 40
0.1402478341
 40
0.1939163695
 40
0.2518806294
 40
0.3139945089
 40
0.4484663433
 40
0.5916531362
 40
0.7360617147
 40
0.8741855426
 40
1.0
 40
1.0
 40
1.0
 40
1.0
 10
75.5627197504
 20
91.796343455
 30
0.0
 10
75.7002173028
 20
91.8757274979
 30
0.0
 10
75.9622331235
 20
92.0741019689
 30
0.0
 10
76.2846184553
 20
92.4650251126
 30
0.0
 10
76.5364875101
 20
92.9424529628
 30
0.0
 10
76.714518108
 20
93.4951728466
 30
0.0
 10
76.8166430012
 20
94.1117390085
 30
0.0
 10
76.8506904014
 20
95.0258064875
 30
0.0
 10
76.6887865911
 20
96.2427846372
 30
0.0
 10
76.215433707
 20
97.6880885222
 30
0.0
 10
75.4891401432
 20
99.0405692103
 30
0.0
 10
74.5633655448
 20
100.1861744149
 30
0.0
 10
73.8129492768
 20
100.7823229676
 30
0.0
 10
73.4222536388
 20
101.0078860965
 30
0.0
  0
SPLINE
  5
504
100
AcDbEntity
  8
0
100
AcDbSpline
 62
7
  6
CONTINUOUS
 70
0
 71
3
 72
9
 73
5
 74
0
 42
0.0000001
 43
0.0000001
 44
0.0000000001
 40
0.0
 40
0.0
 40
0.0
 40
0.0
 40
0.2481896394
 40
1.0
 40
1.0
 40
1.0
 40
1.0
 10
40.6434749323
 20
108.3738883312
 30
0.0
 10
40.6434749323
 20
108.7372910432
 30
0.0
 10
40.6497408472
 20
110.2014993108
 30
0.0
 10
40.6808806508
 20
111.6655922466
 30
0.0
 10
40.7177450406
 20
112.7657859657
 30
0.0
  0
SPLINE
  5
505
100
AcDbEntity
  8
0
100
AcDbSpline
 62
7
  6
CONTINUOUS
 70
0
 71
3
 72
9
 73
5
 74
0
 42
0.0000001
 43
0.0000001
 44
0.0000000001
 40
0.0
 40
0.0
 40
0.0
 40
0.0
 40
0.2545078079
 40
1.0
 40
1.0
 40
1.0
 40
1.0
 10
70.34631872
 20
128.2581578358
 30
0.0
 10
70.3722172891
 20
128.2432056282
 30
0.0
 10
70.473359658
 20
128.1833967344
 30
0.0
 10
70.5719831726
 20
128.1193049517
 30
0.0
 10
70.6437163921
 20
128.0690315152
 30
0.0
  0
SPLINE
  5
506
100
AcDbEntity
  8
0
100
AcDbSpline
 62
7
  6
CONTINUOUS
 70
0
 71
3
 72
10
 73
6
 74
0
 42
0.0000001
 43
0.0000001
 44
0.0000000001
 40
0.0
 40
0.0
 40
0.0
 40
0.0
 40
0.2298666029
 40
0.4756586231
 40
1.0
 40
1.0
 40
1.0
 40
1.0
 10
95.8022688253
 20
116.8683254624
 30
0.0
 10
95.6180398711
 20
116.9746876925
 30
0.0
 10
95.2203530559
 20
117.1670514976
 30
0.0
 10
94.3434918241
 20
117.4672826631
 30
0.0
 10
93.6342206391
 20
117.5866287234
 30
0.0
 10
93.1503707793
 20
117.6234278127
 30
0.0
  0
SPLINE
  5
507
100
AcDbEntity
  8
0
100
AcDbSpline
 62
7
  6
CONTINUOUS
 70
0
 71
3
 72
18
 73
14
 74
0
 42
0.0000001
 43
0.0000001
 44
0.0000000001
 40
0.0
 40
0.0
 40
0.0
 40
0.0
 40
0.1261752712
 40
0.2647249813
 40
0.4095167687
 40
0.5529471486
 40
0.6874305956
 40
0.7494429415
 40
0.8072329762
 40
0.8606605282
 40
0.9100024152
 40
0.9560235856
 40
1.0
 40
1.0
 40
1.0
 40
1.0
 10
73.8262298201
 20
101.2411204613
 30
0.0
 10
74.2169456657
 20
101.0155456659
 30
0.0
 10
74.9680709168
 20
100.4204039072
 30
0.0
 10
75.897849291
 20
99.2781864545
 30
0.0
 10
76.6309545148
 20
97.9301410239
 30
0.0
 10
77.1131626755
 20
96.4899637147
 30
0.0
 10
77.2838184093
 20
95.2771499554
 30
0.0
 10
77.2568383176
 20
94.3663590938
 30
0.0
 10
77.1598548576
 20
93.7526062079
 30
0.0
 10
76.986824539
 20
93.2026400067
 30
0.0
 10
76.7396892341
 20
92.7278263036
 30
0.0
 10
76.4216482249
 20
92.3393055435
 30
0.0
 10
76.1622980015
 20
92.1425117899
 30
0.0
 10
76.0261218705
 20
92.0638881851
 30
0.0
  0
SPLINE
  5
508
100
AcDbEntity
  8
0
100
AcDbSpline
 62
7
  6
CONTINUOUS
 70
0
 71
3
 72
16
 73
12
 74
0
 42
0.0000001
 43
0.0000001
 44
0.0000000001
 40
0.0
 40
0.0
 40
0.0
 40
0.0
 40
0.1527116124
 40
0.3036815699
 40
0.4484644258
 40
0.5832824012
 40
0.7054274283
 40
0.813952409
 40
0.9104229341
 40
0.9556883751
 40
1.0
 40
1.0
 40
1.0
 40
1.0
 10
93.1503707793
 20
117.6234278127
 30
0.0
 10
92.8258413604
 20
117.6481098226
 30
0.0
 10
92.1767729087
 20
117.657198773
 30
0.0
 10
91.2242060282
 20
117.5541231712
 30
0.0
 10
90.3292924591
 20
117.3387660117
 30
0.0
 10
89.530816277
 20
117.0203947501
 30
0.0
 10
88.8625044626
 20
116.6112816132
 30
0.0
 10
88.3526858336
 20
116.1265107693
 30
0.0
 10
88.0754909411
 20
115.6596714926
 30
0.0
 10
87.96742231
 20
115.2762200492
 30
0.0
 10
87.9496620126
 20
115.0848416883
 30
0.0
 10
87.9496678393
 20
114.9904025281
 30
0.0
  0
SPLINE
  5
509
100
AcDbEntity
  8
0
100
AcDbSpline
 62
7
  6
CONTINUOUS
 70
0
 71
3
 72
9
 73
5
 74
0
 42
0.0000001
 43
0.0000001
 44
0.0000000001
 40
0.0
 40
0.0
 40
0.0
 40
0.0
 40
0.2545078079
 40
1.0
 40
1.0
 40
1.0
 40
1.0
 10
95.8022688253
 20
113.561490673
 30
0.0
 10
95.8281673944
 20
113.5465384655
 30
0.0
 10
95.9293097633
 20
113.4867295717
 30
0.0
 10
96.0279332779
 20
113.422637789
 30
0.0
 10
96.0996664974
 20
113.3723643525
 30
0.0
  0
SPLINE
  5
50A
100
AcDbEntity
  8
0
100
AcDbSpline
 62
7
  6
CONTINUOUS
 70
0
 71
3
 72
12
 73
8
 74
0
 42
0.0000001
 43
0.0000001
 44
0.0000000001
 40
0.0
 40
0.0
 40
0.0
 40
0.0
 40
0.1131649118
 40
0.2272899047
 40
0.463632351
 40
0.7194675085
 40
1.0
 40
1.0
 40
1.0
 40
1.0
 10
71.0683034416
 20
101.4412492512
 30
0.0
 10
71.1627889965
 20
101.4958018299
 30
0.0
 10
71.3614793089
 20
101.5907543151
 30
0.0
 10
71.7913128672
 20
101.7188454745
 30
0.0
 10
72.3838854249
 20
101.7536805413
 30
0.0
 10
73.1191718491
 20
101.5958858566
 30
0.0
 10
73.5920001659
 20
101.3763499559
 30
0.0
 10
73.8262298201
 20
101.2411204613
 30
0.0
  0
SPLINE
  5
50B
100
AcDbEntity
  8
0
100
AcDbSpline
 62
7
  6
CONTINUOUS
 70
0
 71
3
 72
10
 73
6
 74
0
 42
0.0000001
 43
0.0000001
 44
0.0000000001
 40
0.0
 40
0.0
 40
0.0
 40
0.0
 40
0.2298666029
 40
0.4756586231
 40
1.0
 40
1.0
 40
1.0
 40
1.0
 10
70.34631872
 20
131.5649926251
 30
0.0
 10
70.1620897658
 20
131.6713548552
 30
0.0
 10
69.7644029506
 20
131.8637186603
 30
0.0
 10
68.8875417188
 20
132.1639498258
 30
0.0
 10
68.1782705338
 20
132.2832958862
 30
0.0
 10
67.6944206741
 20
132.3200949754
 30
0.0
  0
SPLINE
  5
50C
100
AcDbEntity
  8
0
100
AcDbSpline
 62
7
  6
CONTINUOUS
 70
0
 71
3
 72
12
 73
8
 74
0
 42
0.0000001
 43
0.0000001
 44
0.0000000001
 40
0.0
 40
0.0
 40
0.0
 40
0.0
 40
0.2797364771
 40
0.5352637032
 40
0.7718868634
 40
0.8863646199
 40
1.0
 40
1.0
 40
1.0
 40
1.0
 10
73.4222536388
 20
101.0078860965
 30
0.0
 10
73.1878539769
 20
101.1432137428
 30
0.0
 10
72.7140712698
 20
101.3627199122
 30
0.0
 10
71.9765058405
 20
101.5192079661
 30
0.0
 10
71.3816258663
 20
101.4825505676
 30
0.0
 10
70.949481931
 20
101.3529276638
 30
0.0
 10
70.7494417228
 20
101.2571567088
 30
0.0
 10
70.6542235124
 20
101.2021829672
 30
0.0
  0
SPLINE
  5
50D
100
AcDbEntity
  8
0
100
AcDbSpline
 62
7
  6
CONTINUOUS
 70
0
 71
3
 72
16
 73
12
 74
0
 42
0.0000001
 43
0.0000001
 44
0.0000000001
 40
0.0
 40
0.0
 40
0.0
 40
0.0
 40
0.1527116124
 40
0.3036815699
 40
0.4484644258
 40
0.5832824012
 40
0.7054274283
 40
0.813952409
 40
0.9104229341
 40
0.9556883751
 40
1.0
 40
1.0
 40
1.0
 40
1.0
 10
67.6944206741
 20
132.3200949754
 30
0.0
 10
67.3698912551
 20
132.3447769854
 30
0.0
 10
66.7208228034
 20
132.3538659357
 30
0.0
 10
65.7682559229
 20
132.2507903339
 30
0.0
 10
64.8733423538
 20
132.0354331744
 30
0.0
 10
64.0748661717
 20
131.7170619128
 30
0.0
 10
63.4065543573
 20
131.307948776
 30
0.0
 10
62.8967357283
 20
130.8231779321
 30
0.0
 10
62.6195408358
 20
130.3563386553
 30
0.0
 10
62.5114722047
 20
129.972887212
 30
0.0
 10
62.4937119073
 20
129.781508851
 30
0.0
 10
62.493717734
 20
129.6870696909
 30
0.0
  0
SPLINE
  5
50E
100
AcDbEntity
  8
0
100
AcDbSpline
 62
7
  6
CONTINUOUS
 70
0
 71
3
 72
12
 73
8
 74
0
 42
0.0000001
 43
0.0000001
 44
0.0000000001
 40
0.0
 40
0.0
 40
0.0
 40
0.0
 40
0.1131649118
 40
0.2272899047
 40
0.463632351
 40
0.7194675085
 40
1.0
 40
1.0
 40
1.0
 40
1.0
 10
58.340328389
 20
108.7895828326
 30
0.0
 10
58.4348139439
 20
108.8441354113
 30
0.0
 10
58.6335042563
 20
108.9390878965
 30
0.0
 10
59.0633378145
 20
109.0671790559
 30
0.0
 10
59.6559103723
 20
109.1020141226
 30
0.0
 10
60.3911967964
 20
108.9442194379
 30
0.0
 10
60.8640251133
 20
108.7246835373
 30
0.0
 10
61.0982547675
 20
108.5894540427
 30
0.0
  0
SPLINE
  5
50F
100
AcDbEntity
  8
0
100
AcDbSpline
 62
7
  6
CONTINUOUS
 70
0
 71
3
 72
10
 73
6
 74
0
 42
0.0000001
 43
0.0000001
 44
0.0000000001
 40
0.0
 40
0.0
 40
0.0
 40
0.0
 40
0.2298666029
 40
0.4756586231
 40
1.0
 40
1.0
 40
1.0
 40
1.0
 10
57.6183436674
 20
138.9133262065
 30
0.0
 10
57.4341147131
 20
139.0196884366
 30
0.0
 10
57.0364278979
 20
139.2120522417
 30
0.0
 10
56.1595666662
 20
139.5122834072
 30
0.0
 10
55.4502954812
 20
139.6316294675
 30
0.0
 10
54.9664456214
 20
139.6684285568
 30
0.0
  0
SPLINE
  5
510
100
AcDbEntity
  8
0
100
AcDbSpline
 62
7
  6
CONTINUOUS
 70
0
 71
3
 72
11
 73
7
 74
0
 42
0.0000001
 43
0.0000001
 44
0.0000000001
 40
0.0
 40
0.0
 40
0.0
 40
0.0
 40
0.2828216487
 40
0.5409519951
 40
0.7774427417
 40
1.0
 40
1.0
 40
1.0
 40
1.0
 10
57.7980296799
 20
105.2959746707
 30
0.0
 10
57.8097981805
 20
105.4868303099
 30
0.0
 10
57.862501501
 20
105.8512369932
 30
0.0
 10
58.0433387287
 20
106.349421848
 30
0.0
 10
58.3181774863
 20
106.7556906377
 30
0.0
 10
58.5632530569
 20
106.9553130939
 30
0.0
 10
58.6935666122
 20
107.0305491156
 30
0.0
  0
SPLINE
  5
511
100
AcDbEntity
  8
0
100
AcDbSpline
 62
7
  6
CONTINUOUS
 70
0
 71
3
 72
15
 73
11
 74
0
 42
0.0000001
 43
0.0000001
 44
0.0000000001
 40
0.0
 40
0.0
 40
0.0
 40
0.0
 40
0.1133659536
 40
0.2354988054
 40
0.3640515941
 40
0.4961884388
 40
0.6287782687
 40
0.7587147237
 40
0.8832243812
 40
1.0
 40
1.0
 40
1.0
 40
1.0
 10
60.1896377544
 20
100.7979953845
 30
0.0
 10
60.0155399426
 20
100.898508529
 30
0.0
 10
59.6727833691
 20
101.1409355263
 30
0.0
 10
59.2053964183
 20
101.5890026134
 30
0.0
 10
58.7802463495
 20
102.1206263445
 30
0.0
 10
58.4138512444
 20
102.7160106992
 30
0.0
 10
58.1206589959
 20
103.3533691968
 30
0.0
 10
57.912224872
 20
104.009272347
 30
0.0
 10
57.7971056197
 20
104.6593955977
 30
0.0
 10
57.7852852086
 20
105.0892912266
 30
0.0
 10
57.7980296799
 20
105.2959746707
 30
0.0
  0
SPLINE
  5
512
100
AcDbEntity
  8
0
100
AcDbSpline
 62
7
  6
CONTINUOUS
 70
0
 71
3
 72
16
 73
12
 74
0
 42
0.0000001
 43
0.0000001
 44
0.0000000001
 40
0.0
 40
0.0
 40
0.0
 40
0.0
 40
0.1527116124
 40
0.3036815699
 40
0.4484644258
 40
0.5832824012
 40
0.7054274283
 40
0.813952409
 40
0.9104229341
 40
0.9556883751
 40
1.0
 40
1.0
 40
1.0
 40
1.0
 10
54.9664456214
 20
139.6684285568
 30
0.0
 10
54.6419162024
 20
139.6931105667
 30
0.0
 10
53.9928477507
 20
139.7021995171
 30
0.0
 10
53.0402808703
 20
139.5991239153
 30
0.0
 10
52.1453673012
 20
139.3837667558
 30
0.0
 10
51.3468911191
 20
139.0653954942
 30
0.0
 10
50.6785793046
 20
138.6562823573
 30
0.0
 10
50.1687606757
 20
138.1715115134
 30
0.0
 10
49.8915657832
 20
137.7046722367
 30
0.0
 10
49.7834971521
 20
137.3212207933
 30
0.0
 10
49.7657368547
 20
137.1298424324
 30
0.0
 10
49.7657426814
 20
137.0354032722
 30
0.0
  0
SPLINE
  5
513
100
AcDbEntity
  8
0
100
AcDbSpline
 62
7
  6
CONTINUOUS
 70
0
 71
3
 72
10
 73
6
 74
0
 42
0.0000001
 43
0.0000001
 44
0.0000000001
 40
0.0
 40
0.0
 40
0.0
 40
0.0
 40
0.2298666029
 40
0.4756586231
 40
1.0
 40
1.0
 40
1.0
 40
1.0
 10
83.0742937727
 20
124.2166590438
 30
0.0
 10
82.8900648184
 20
124.3230212739
 30
0.0
 10
82.4923780032
 20
124.5153850789
 30
0.0
 10
81.6155167715
 20
124.8156162444
 30
0.0
 10
80.9062455864
 20
124.9349623048
 30
0.0
 10
80.4223957267
 20
124.9717613941
 30
0.0
  0
ENDSEC
  0
SECTION
  2
OBJECTS
  0
DICTIONARY
  5
C
100
AcDbDictionary
280
0
281
1
  3
ACAD_GROUP
350
D
  3
ACAD_MLINESTYLE
350
17
  3
ACAD_LAYOUT
350
1A
  3
ACAD_PLOTSETTINGS
350
19
  3
ACAD_PLOTSTYLENAME
350
E
  0
DICTIONARY
  5
D
102
{ACAD_REACTORS
330
C
102
}
100
AcDbDictionary
280
0
281
1
  0
ACDBDICTIONARYWDFLT
  5
E
102
{ACAD_REACTORS
330
C
102
}
100
AcDbDictionary
281
1
  3
Normal
350
F
100
AcDbDictionaryWithDefault
340
F
  0
DICTIONARY
  5
17
102
{ACAD_REACTORS
330
C
102
}
100
AcDbDictionary
280
0
281
1
  3
Standard
350
18
  0
DICTIONARY
  5
19
102
{ACAD_REACTORS
330
C
102
}
100
AcDbDictionary
281
1
  0
DICTIONARY
  5
1A
102
{ACAD_REACTORS
330
C
102
}
100
AcDbDictionary
281
1
  3
Model
350
514
  3
Layout1
350
515
  0
ACDBPLACEHOLDER
  5
F
102
{ACAD_REACTORS
330
E
102
}
  0
MLINESTYLE
  5
18
102
{ACAD_REACTORS
330
17
102
}
100
AcDbMlineStyle
  2
STANDARD
 70
0
  3

 62
256
 51
90.0
 52
90.0
 71
2
 49
0.5
 62
256
  6
BYLAYER
 49
-0.5
 62
256
  6
BYLAYER
  0
LAYOUT
  5
514
102
{ACAD_REACTORS
330
1A
102
}
100
AcDbPlotSettings
  1

  2
none_device
  4

  6

 40
0.0
 41
0.0
 42
0.0
 43
0.0
 44
210.0
 45
297.0
 46
0.0
 47
0.0
 48
0.0
 49
0.0
140
0.0
141
0.0
142
1.0
143
1.0
 70
1024
 72
1
 73
0
 74
0
  7

 75
0
147
1.0
148
0.0
149
0.0
100
AcDbLayout
  1
Model
 70
0
 71
0
 10
0.0
 20
0.0
 11
210.0
 21
297.0
 12
0.0
 22
0.0
 32
0.0
 14
0.0
 24
0.0
 34
0.0
 15
0.0
 25
0.0
 35
0.0
146
0.0
 13
0.0
 23
0.0
 33
0.0
 16
1.0
 26
0.0
 36
0.0
 17
0.0
 27
1.0
 37
0.0
 76
0
330
210
345
0
346
0
  0
LAYOUT
  5
515
102
{ACAD_REACTORS
330
1A
102
}
100
AcDbPlotSettings
  1

  2
none_device
  4

  6

 40
0.0
 41
0.0
 42
0.0
 43
0.0
 44
210.0
 45
297.0
 46
0.0
 47
0.0
 48
0.0
 49
0.0
140
0.0
141
0.0
142
1.0
143
1.0
 70
0
 72
1
 73
0
 74
0
  7

 75
0
147
1.0
148
0.0
149
0.0
100
AcDbLayout
  1
Layout1
 70
0
 71
1
 10
0.0
 20
0.0
 11
210.0
 21
297.0
 12
0.0
 22
0.0
 32
0.0
 14
0.0
 24
0.0
 34
0.0
 15
0.0
 25
0.0
 35
0.0
146
0.0
 13
0.0
 23
0.0
 33
0.0
 16
1.0
 26
0.0
 36
0.0
 17
0.0
 27
1.0
 37
0.0
 76
0
330
211
345
0
346
0
  0
ENDSEC
  0
EOF
