999
DXF file: C:\Users\sesa63760\Documents\7-Dev\_Creo\CAD\MCADFD0001122_3D-CAD\drw0001_1.dxf
999
Pro/ENGINEER 2019471 by Parametric Technology Corporation
  0
SECTION
  2
HEADER
  9
$ACADVER
  1
AC1024
  9
$DWGCODEPAGE
  3
ANSI_1252
  9
$EXTMAX
 10
122.6928494435
 20
173.5227442129
 30
0.0
  9
$EXTMIN
 10
0.0
 20
0.0
 30
0.0
  9
$LIMMIN
 10
0.0
 20
0.0
  9
$LIMMAX
 10
122.6928494435
 20
173.5227442129
  9
$VIEWCTR
 10
61.3464247217
 20
86.7613721064
  9
$VIEWSIZE
 40
173.5227442129
  9
$CLAYER
  8
0
  9
$LTSCALE
 40
11.3111122154
  9
$CELTYPE
  6
BYLAYER
  9
$DIMSCALE
 40
1.0
  9
$DIMASZ
 40
1.46062916
  9
$DIMEXO
 40
1.0
  9
$DIMDLI
 40
7.8149502579
  9
$DIMEXE
 40
1.0
  9
$DIMCEN
 40
1.8509092716
  9
$DIMLFAC
 40
1.0
  9
$DIMBLK
  1
_FILLED
  9
$DIMALT
 70
0
  9
$DIMALTF
 40
0.0393700787
  9
$DIMTXT
 40
2.0448808241
  9
$DIMTOL
 70
1
  9
$DIMLIM
 70
0
  9
$DIMTFAC
 40
1.0
  9
$DIMTP
 40
0.01
  9
$DIMTM
 40
0.01
  9
$DIMGAP
 40
0.625
  9
$DIMDSEP
 70
46
  9
$AUNITS
 70
0
  9
$PDMODE
 70
3
  9
$PDSIZE
 40
0.3125
  9
$HANDSEED
  5
2B2
  9
$TILEMODE
 70
1
  9
$MEASUREMENT
 70
1
  9
$INSUNITS
 70
4
  0
ENDSEC
  0
SECTION
  2
CLASSES
  0
CLASS
  1
ACDBDICTIONARYWDFLT
  2
AcDbDictionaryWithDefault
  3
AutoCAD 2000
 90
0
 91
1
280
0
281
0
  0
CLASS
  1
ACDBPLACEHOLDER
  2
AcDbPlaceHolder
  3
AutoCAD 2000
 90
0
 91
1
280
0
281
0
  0
CLASS
  1
LAYOUT
  2
AcDbLayout
  3
AutoCAD 2000
 90
0
 91
0
280
0
281
0
  0
ENDSEC
  0
SECTION
  2
TABLES
  0
TABLE
  2
VPORT
  5
8
100
AcDbSymbolTable
 70
2
  0
VPORT
  5
1F4
100
AcDbSymbolTableRecord
100
AcDbViewportTableRecord
  2
*ACTIVE
 70
0
 10
0.0
 20
0.0
 11
1.0
 21
1.0
 12
61.3464247217
 22
86.7613721064
 13
0.0
 23
0.0
 14
1.0
 24
1.0
 15
0.0
 25
0.0
 16
0.0
 26
0.0
 36
1.0
 17
0.0
 27
0.0
 37
0.0
 40
173.5227442129
 41
0.7070707071
 42
50.0
 43
0.0
 44
0.0
 50
0.0
 51
0.0
 71
0
 72
100
 73
1
 74
1
 75
0
 76
0
 77
0
 78
0
  0
ENDTAB
  0
TABLE
  2
LTYPE
  5
5
100
AcDbSymbolTable
 70
6
  0
LTYPE
  5
14
100
AcDbSymbolTableRecord
100
AcDbLinetypeTableRecord
  2
BYBLOCK
 70
0
  3

 72
65
 73
0
 40
0.0
  0
LTYPE
  5
15
100
AcDbSymbolTableRecord
100
AcDbLinetypeTableRecord
  2
BYLAYER
 70
0
  3

 72
65
 73
0
 40
0.0
  0
LTYPE
  5
16
100
AcDbSymbolTableRecord
100
AcDbLinetypeTableRecord
  2
CONTINUOUS
 70
64
  3
Solid line
 72
65
 73
0
 40
0.0
  0
LTYPE
  5
1F5
100
AcDbSymbolTableRecord
100
AcDbLinetypeTableRecord
  2
CENTER
 70
64
  3
____ _ ____ _ ____ _ ____ _ ____ _ ____ _ ____
 72
65
 73
4
 40
0.6
 49
0.375
 74
0
 49
-0.075
 74
0
 49
0.075
 74
0
 49
-0.075
 74
0
  0
LTYPE
  5
1F6
100
AcDbSymbolTableRecord
100
AcDbLinetypeTableRecord
  2
HIDDEN
 70
64
  3
- - - - - - - - - - - - - - - - - - - -
 72
65
 73
2
 40
0.2
 49
0.1
 74
0
 49
-0.1
 74
0
  0
LTYPE
  5
1F7
100
AcDbSymbolTableRecord
100
AcDbLinetypeTableRecord
  2
PHANTOM
 70
64
  3
_____ _ _ _____ _ _ _____ _ _ _____
 72
65
 73
6
 40
0.8
 49
0.45
 74
0
 49
-0.05
 74
0
 49
0.1
 74
0
 49
-0.05
 74
0
 49
0.1
 74
0
 49
-0.05
 74
0
  0
LTYPE
  5
1F8
100
AcDbSymbolTableRecord
100
AcDbLinetypeTableRecord
  2
DOT
 70
64
  3
. . . . . . . . . . . . . . . . . . . .
 72
65
 73
2
 40
0.2
 49
0.1
 74
0
 49
-0.1
 74
0
  0
LTYPE
  5
1F9
100
AcDbSymbolTableRecord
100
AcDbLinetypeTableRecord
  2
DASHED
 70
64
  3
- - - - - - - - - - - - - - - - - - - -
 72
65
 73
2
 40
0.2
 49
0.1
 74
0
 49
-0.1
 74
0
  0
ENDTAB
  0
TABLE
  2
LAYER
  5
2
100
AcDbSymbolTable
 70
36
  0
LAYER
  5
10
100
AcDbSymbolTableRecord
100
AcDbLayerTableRecord
  2
0
 70
0
 62
7
  6
CONTINUOUS
370
-3
390
F
  0
LAYER
  5
1FA
100
AcDbSymbolTableRecord
100
AcDbLayerTableRecord
  2
DEFAULT_1
 70
0
 62
7
  6
CENTER
370
-3
390
F
  0
LAYER
  5
1FB
100
AcDbSymbolTableRecord
100
AcDbLayerTableRecord
  2
DEFAULT_2
 70
0
 62
8
  6
HIDDEN
370
-3
390
F
  0
LAYER
  5
1FC
100
AcDbSymbolTableRecord
100
AcDbLayerTableRecord
  2
DEFAULT_3
 70
0
 62
7
  6
PHANTOM
370
-3
390
F
  0
LAYER
  5
1FD
100
AcDbSymbolTableRecord
100
AcDbLayerTableRecord
  2
00_COMPONENTS
 70
0
 62
7
  6
CONTINUOUS
370
-3
390
F
  0
LAYER
  5
1FE
100
AcDbSymbolTableRecord
100
AcDbLayerTableRecord
  2
01_1_DEFAULT_DATUMS
 70
0
 62
7
  6
CONTINUOUS
370
-3
390
F
  0
LAYER
  5
1FF
100
AcDbSymbolTableRecord
100
AcDbLayerTableRecord
  2
01_PLANES
 70
0
 62
7
  6
CONTINUOUS
370
-3
390
F
  0
LAYER
  5
200
100
AcDbSymbolTableRecord
100
AcDbLayerTableRecord
  2
02_COORD_SYS
 70
0
 62
7
  6
CONTINUOUS
370
-3
390
F
  0
LAYER
  5
201
100
AcDbSymbolTableRecord
100
AcDbLayerTableRecord
  2
03_AXES
 70
0
 62
7
  6
CONTINUOUS
370
-3
390
F
  0
LAYER
  5
202
100
AcDbSymbolTableRecord
100
AcDbLayerTableRecord
  2
04_POINTS
 70
0
 62
7
  6
CONTINUOUS
370
-3
390
F
  0
LAYER
  5
203
100
AcDbSymbolTableRecord
100
AcDbLayerTableRecord
  2
05_CURVES
 70
0
 62
7
  6
CONTINUOUS
370
-3
390
F
  0
LAYER
  5
204
100
AcDbSymbolTableRecord
100
AcDbLayerTableRecord
  2
06_SURFS
 70
0
 62
7
  6
CONTINUOUS
370
-3
390
F
  0
LAYER
  5
205
100
AcDbSymbolTableRecord
100
AcDbLayerTableRecord
  2
07_COSMETICS
 70
0
 62
7
  6
CONTINUOUS
370
-3
390
F
  0
LAYER
  5
206
100
AcDbSymbolTableRecord
100
AcDbLayerTableRecord
  2
10_NOTES
 70
0
 62
7
  6
CONTINUOUS
370
-3
390
F
  0
LAYER
  5
207
100
AcDbSymbolTableRecord
100
AcDbLayerTableRecord
  2
11_NOTES_PUB
 70
0
 62
7
  6
CONTINUOUS
370
-3
390
F
  0
LAYER
  5
208
100
AcDbSymbolTableRecord
100
AcDbLayerTableRecord
  2
13_REF_GTOL
 70
0
 62
7
  6
CONTINUOUS
370
-3
390
F
  0
LAYER
  5
209
100
AcDbSymbolTableRecord
100
AcDbLayerTableRecord
  2
16_MISC
 70
0
 62
7
  6
CONTINUOUS
370
-3
390
F
  0
LAYER
  5
20A
100
AcDbSymbolTableRecord
100
AcDbLayerTableRecord
  2
17_NO_PRINT
 70
0
 62
7
  6
CONTINUOUS
370
-3
390
F
  0
LAYER
  5
20B
100
AcDbSymbolTableRecord
100
AcDbLayerTableRecord
  2
18_DATUM_CAMS_JOINTS
 70
0
 62
7
  6
CONTINUOUS
370
-3
390
F
  0
LAYER
  5
20C
100
AcDbSymbolTableRecord
100
AcDbLayerTableRecord
  2
19_DATUM_FUNCTIONAL
 70
0
 62
7
  6
CONTINUOUS
370
-3
390
F
  0
LAYER
  5
20D
100
AcDbSymbolTableRecord
100
AcDbLayerTableRecord
  2
20_DATUM_KINEMATIC_SCHEME
 70
0
 62
7
  6
CONTINUOUS
370
-3
390
F
  0
ENDTAB
  0
TABLE
  2
STYLE
  5
3
100
AcDbSymbolTable
 70
1
  0
STYLE
  5
11
100
AcDbSymbolTableRecord
100
AcDbTextStyleTableRecord
  2
STANDARD
 70
0
 40
0.0
 41
0.8
 50
0.0
 71
0
 42
0.2
  3
txt
  4

  0
STYLE
  5
20E
100
AcDbSymbolTableRecord
100
AcDbTextStyleTableRecord
  2
TEXTSTYLE_1
 70
0
 40
0.0
 41
0.8
 50
0.0
 71
0
 42
0.2
  3
gdt
  4

  0
ENDTAB
  0
TABLE
  2
VIEW
  5
6
100
AcDbSymbolTable
 70
0
  0
ENDTAB
  0
TABLE
  2
UCS
  5
7
100
AcDbSymbolTable
 70
0
  0
ENDTAB
  0
TABLE
  2
APPID
  5
9
100
AcDbSymbolTable
 70
1
  0
APPID
  5
20F
100
AcDbSymbolTableRecord
100
AcDbRegAppTableRecord
  2
ACAD
 70
0
  0
ENDTAB
  0
TABLE
  2
BLOCK_RECORD
  5
1
100
AcDbSymbolTable
 70
0
  0
BLOCK_RECORD
  5
210
100
AcDbSymbolTableRecord
100
AcDbBlockTableRecord
  2
*Model_Space
  0
BLOCK_RECORD
  5
211
100
AcDbSymbolTableRecord
100
AcDbBlockTableRecord
  2
*Paper_Space
  0
BLOCK_RECORD
  5
212
100
AcDbSymbolTableRecord
100
AcDbBlockTableRecord
  2
_FILLED
  0
ENDTAB
  0
TABLE
  2
DIMSTYLE
  5
A
100
AcDbSymbolTable
 70
1
100
AcDbDimStyleTable
 71
0
  0
DIMSTYLE
105
213
100
AcDbSymbolTableRecord
100
AcDbDimStyleTableRecord
  2
STANDARD
 70
0
  3

  4

 40
1.0
 41
1.46062916
 42
1.0
 43
0.38
 44
1.0
 45
0.0
 46
0.0
 47
0.01
 48
0.01
140
2.0448808241
141
0.09
142
0.0
143
25.4
144
1.0
145
0.0
146
1.0
147
0.625
 71
1
 72
0
 73
0
 74
0
 75
0
 76
0
 77
1
 78
8
 79
2
170
0
171
1
172
0
173
0
174
0
175
0
176
0
177
0
178
0
270
2
179
2
271
2
272
2
273
2
274
2
275
0
280
0
281
0
282
0
283
1
284
8
285
0
286
0
287
3
288
0
340
11
278
46
341
212
342
212
343
212
344
212
  0
ENDTAB
  0
ENDSEC
  0
SECTION
  2
BLOCKS
  0
BLOCK
  5
20
100
AcDbEntity
  8
0
100
AcDbBlockBegin
  2
*Model_Space
 70
0
 10
0.0
 20
0.0
 30
0.0
  3
*Model_Space
  1

  0
ENDBLK
  5
21
100
AcDbEntity
  8
0
100
AcDbBlockEnd
  0
BLOCK
  5
1C
100
AcDbEntity
  8
0
100
AcDbBlockBegin
  2
*Paper_Space
 70
0
 10
0.0
 20
0.0
 30
0.0
  3
*Paper_Space
  1

  0
ENDBLK
  5
1D
100
AcDbEntity
  8
0
100
AcDbBlockEnd
  0
BLOCK
  5
214
100
AcDbEntity
  8
0
100
AcDbBlockBegin
  2
_FILLED
 70
64
 10
0.0
 20
0.0
  3
_FILLED
  1

  0
SOLID
  5
215
100
AcDbEntity
  8
0
  6
BYBLOCK
 62
0
100
AcDbTrace
 10
0.0
 20
0.0
 11
-1.0
 21
0.25
 12
-1.0
 22
-0.25
 13
-1.0
 23
-0.25
  0
ENDBLK
  5
216
100
AcDbEntity
  8
0
  6
BYBLOCK
 62
0
100
AcDbBlockEnd
  0
ENDSEC
  0
SECTION
  2
ENTITIES
  0
LINE
  5
217
100
AcDbEntity
  8
0
100
AcDbLine
 62
7
  6
CONTINUOUS
 10
14.2337821502
 20
95.8447019264
 11
14.2498256237
 21
93.7311391241
  0
LINE
  5
218
100
AcDbEntity
  8
0
100
AcDbLine
 62
7
  6
CONTINUOUS
 10
16.5257988639
 20
93.3045601175
 11
16.5272811027
 21
93.109290386
  0
LINE
  5
219
100
AcDbEntity
  8
0
100
AcDbLine
 62
7
  6
CONTINUOUS
 10
16.496428269
 20
97.1738342366
 11
16.4810018522
 21
99.206106162
  0
LINE
  5
21A
100
AcDbEntity
  8
0
100
AcDbLine
 62
7
  6
CONTINUOUS
 10
16.9864450365
 20
99.6948190027
 11
17.0141013286
 21
96.0513866618
  0
LINE
  5
21B
100
AcDbEntity
  8
0
100
AcDbLine
 62
7
  6
CONTINUOUS
 10
17.0571840376
 20
90.3756823956
 11
17.0326915124
 21
93.6023209521
  0
LINE
  5
21C
100
AcDbEntity
  8
0
100
AcDbLine
 62
7
  6
CONTINUOUS
 10
17.7693307796
 20
93.8034981559
 11
17.7853742531
 21
91.6899353536
  0
LINE
  5
21D
100
AcDbEntity
  8
0
100
AcDbLine
 62
7
  6
CONTINUOUS
 10
17.7333601783
 20
100.201980169
 11
17.7333601783
 21
94.4456381282
  0
LINE
  5
21E
100
AcDbEntity
  8
0
100
AcDbLine
 62
7
  6
CONTINUOUS
 10
17.7333601783
 20
91.66952991
 11
17.7333601783
 21
85.9131878692
  0
LINE
  5
21F
100
AcDbEntity
  8
0
100
AcDbLine
 62
7
  6
CONTINUOUS
 10
23.3195270128
 20
85.8314435378
 11
23.3195270128
 21
88.4444279526
  0
LINE
  5
220
100
AcDbEntity
  8
0
100
AcDbLine
 62
7
  6
CONTINUOUS
 10
23.3195270128
 20
91.2205361709
 11
23.3195270128
 21
93.8331672257
  0
LINE
  5
221
100
AcDbEntity
  8
0
100
AcDbLine
 62
7
  6
CONTINUOUS
 10
24.5735738175
 20
87.7708551774
 11
24.6646328601
 21
86.6215908028
  0
LINE
  5
222
100
AcDbEntity
  8
0
100
AcDbLine
 62
7
  6
CONTINUOUS
 10
26.2494025083
 20
89.5955815614
 11
26.2546474901
 21
88.9046091068
  0
LINE
  5
223
100
AcDbEntity
  8
0
100
AcDbLine
 62
7
  6
CONTINUOUS
 10
26.2706909636
 20
86.7910463045
 11
26.2753188886
 21
86.1813647269
  0
LINE
  5
224
100
AcDbEntity
  8
0
100
AcDbLine
 62
7
  6
CONTINUOUS
 10
24.5573411471
 20
93.1185310707
 11
24.4676830419
 21
91.8834204078
  0
LINE
  5
225
100
AcDbEntity
  8
0
100
AcDbLine
 62
7
  6
CONTINUOUS
 10
16.496428269
 20
97.1738342366
 11
17.0141013286
 21
96.0513866618
  0
LINE
  5
226
100
AcDbEntity
  8
0
100
AcDbLine
 62
7
  6
CONTINUOUS
 10
31.4487105038
 20
92.2835981206
 11
31.4487105038
 21
89.1398871347
  0
LINE
  5
227
100
AcDbEntity
  8
0
100
AcDbLine
 62
7
  6
CONTINUOUS
 10
31.4487105038
 20
81.1381634468
 11
31.4487105038
 21
77.9948058208
  0
LINE
  5
228
100
AcDbEntity
  8
0
100
AcDbLine
 62
7
  6
CONTINUOUS
 10
29.5643405764
 20
87.6817444762
 11
30.0500826965
 21
89.5460750991
  0
LINE
  5
229
100
AcDbEntity
  8
0
100
AcDbLine
 62
7
  6
CONTINUOUS
 10
16.6455714743
 20
99.9750908196
 11
18.5084977209
 21
101.0694181407
  0
LINE
  5
22A
100
AcDbEntity
  8
0
100
AcDbLine
 62
7
  6
CONTINUOUS
 10
17.7333601783
 20
99.9276105834
 11
17.1758032583
 21
99.600088347
  0
LINE
  5
22B
100
AcDbEntity
  8
0
100
AcDbLine
 62
7
  6
CONTINUOUS
 10
16.496428269
 20
97.1738342366
 11
14.2337821502
 21
95.8447019264
  0
LINE
  5
22C
100
AcDbEntity
  8
0
100
AcDbLine
 62
7
  6
CONTINUOUS
 10
52.5873546787
 20
120.3248232004
 11
17.7333601783
 21
100.201980169
  0
LINE
  5
22D
100
AcDbEntity
  8
0
100
AcDbLine
 62
7
  6
CONTINUOUS
 10
30.1087030805
 20
81.8234417829
 11
29.5902569567
 21
84.2675276417
  0
LINE
  5
22E
100
AcDbEntity
  8
0
100
AcDbLine
 62
7
  6
CONTINUOUS
 10
33.9001153662
 20
80.7710464667
 11
33.9199364707
 21
80.5208825232
  0
LINE
  5
22F
100
AcDbEntity
  8
0
100
AcDbLine
 62
7
  6
CONTINUOUS
 10
31.8899283135
 20
88.4838637695
 11
31.9485486975
 21
80.7612304534
  0
LINE
  5
230
100
AcDbEntity
  8
0
100
AcDbLine
 62
7
  6
CONTINUOUS
 10
33.5663845524
 20
92.278520857
 11
33.5663845524
 21
89.1454354081
  0
LINE
  5
231
100
AcDbEntity
  8
0
100
AcDbLine
 62
7
  6
CONTINUOUS
 10
33.5663845524
 20
80.7693678635
 11
33.5663845524
 21
77.9897285573
  0
LINE
  5
232
100
AcDbEntity
  8
0
100
AcDbLine
 62
7
  6
CONTINUOUS
 10
34.0864661621
 20
92.5787883226
 11
34.0864661621
 21
90.2517564338
  0
LINE
  5
233
100
AcDbEntity
  8
0
100
AcDbLine
 62
7
  6
CONTINUOUS
 10
34.0864661621
 20
80.6170279117
 11
34.0864661621
 21
78.2899960229
  0
LINE
  5
234
100
AcDbEntity
  8
0
100
AcDbLine
 62
7
  6
CONTINUOUS
 10
34.2734795548
 20
93.9114923739
 11
34.2734795548
 21
91.5844604851
  0
LINE
  5
235
100
AcDbEntity
  8
0
100
AcDbLine
 62
7
  6
CONTINUOUS
 10
34.2734795548
 20
80.7729244184
 11
34.2734795548
 21
79.6227000741
  0
LINE
  5
236
100
AcDbEntity
  8
0
100
AcDbLine
 62
7
  6
CONTINUOUS
 10
33.9199364707
 20
90.1556110454
 11
33.8590880546
 21
89.3173764283
  0
LINE
  5
237
100
AcDbEntity
  8
0
100
AcDbLine
 62
7
  6
CONTINUOUS
 10
17.2043809674
 20
95.9415311467
 11
15.6488860422
 21
95.0277097979
  0
LINE
  5
238
100
AcDbEntity
  8
0
100
AcDbLine
 62
7
  6
CONTINUOUS
 10
17.3194735891
 20
93.7707835858
 11
15.7639043824
 21
92.8570051225
  0
LINE
  5
239
100
AcDbEntity
  8
0
100
AcDbLine
 62
7
  6
CONTINUOUS
 10
18.3028074085
 20
94.1168750549
 11
17.7693307796
 21
93.8034981559
  0
LINE
  5
23A
100
AcDbEntity
  8
0
100
AcDbLine
 62
7
  6
CONTINUOUS
 10
15.6488860422
 20
95.0277097979
 11
15.5524696097
 21
94.9833499555
  0
LINE
  5
23B
100
AcDbEntity
  8
0
100
AcDbLine
 62
7
  6
CONTINUOUS
 10
36.2738707962
 20
89.4118684184
 11
36.2646149461
 21
90.6312315736
  0
LINE
  5
23C
100
AcDbEntity
  8
0
100
AcDbLine
 62
7
  6
CONTINUOUS
 10
36.8982019305
 20
80.7861262783
 11
36.8395815465
 21
88.5087595944
  0
LINE
  5
23D
100
AcDbEntity
  8
0
100
AcDbLine
 62
7
  6
CONTINUOUS
 10
37.2521211565
 20
80.9940268751
 11
37.1935007725
 21
88.7166601912
  0
LINE
  5
23E
100
AcDbEntity
  8
0
100
AcDbLine
 62
7
  6
CONTINUOUS
 10
36.0412538695
 20
92.8908904887
 11
36.0412538695
 21
90.5638585998
  0
LINE
  5
23F
100
AcDbEntity
  8
0
100
AcDbLine
 62
7
  6
CONTINUOUS
 10
36.0412538695
 20
80.7818159907
 11
36.0412538695
 21
78.6020981889
  0
LINE
  5
240
100
AcDbEntity
  8
0
100
AcDbLine
 62
7
  6
CONTINUOUS
 10
37.1019096243
 20
93.5032567201
 11
37.1019096243
 21
91.1762248313
  0
LINE
  5
241
100
AcDbEntity
  8
0
100
AcDbLine
 62
7
  6
CONTINUOUS
 10
37.1019096243
 20
80.9057890375
 11
37.1019096243
 21
79.2144644203
  0
LINE
  5
242
100
AcDbEntity
  8
0
100
AcDbLine
 62
7
  6
CONTINUOUS
 10
17.7812066407
 20
91.6971539131
 11
17.7333601783
 21
91.66952991
  0
LINE
  5
243
100
AcDbEntity
  8
0
100
AcDbLine
 62
7
  6
CONTINUOUS
 10
23.3195270128
 20
91.2205361708
 11
24.4676830419
 21
91.8834204078
  0
LINE
  5
244
100
AcDbEntity
  8
0
100
AcDbLine
 62
7
  6
CONTINUOUS
 10
68.0499099322
 20
56.8635715741
 11
76.0699985763
 21
53.6214054401
  0
LINE
  5
245
100
AcDbEntity
  8
0
100
AcDbLine
 62
7
  6
CONTINUOUS
 10
17.7333601783
 20
85.9131878692
 11
31.4487105038
 21
77.9948058208
  0
LINE
  5
246
100
AcDbEntity
  8
0
100
AcDbLine
 62
7
  6
CONTINUOUS
 10
64.4021910703
 20
58.9695353933
 11
68.0499099322
 21
56.8635715741
  0
LINE
  5
247
100
AcDbEntity
  8
0
100
AcDbLine
 62
7
  6
CONTINUOUS
 10
26.2494025083
 20
89.5955815614
 11
28.435309651
 21
90.8796355663
  0
LINE
  5
248
100
AcDbEntity
  8
0
100
AcDbLine
 62
7
  6
CONTINUOUS
 10
23.3195270128
 20
88.4444279526
 11
23.3632057187
 21
88.4696457148
  0
LINE
  5
249
100
AcDbEntity
  8
0
100
AcDbLine
 62
7
  6
CONTINUOUS
 10
33.2128238001
 20
93.2991261425
 11
34.2734795548
 21
93.9114923739
  0
LINE
  5
24A
100
AcDbEntity
  8
0
100
AcDbLine
 62
7
  6
CONTINUOUS
 10
65.2446187582
 20
113.0173136948
 11
75.6799880802
 21
118.6355561907
  0
LINE
  5
24B
100
AcDbEntity
  8
0
100
AcDbLine
 62
7
  6
CONTINUOUS
 10
59.6164642029
 20
67.7341898721
 11
58.8936149187
 21
67.8061200381
  0
LINE
  5
24C
100
AcDbEntity
  8
0
100
AcDbLine
 62
7
  6
CONTINUOUS
 10
31.9485486975
 20
80.7612304534
 11
30.1087030805
 21
81.8234417829
  0
LINE
  5
24D
100
AcDbEntity
  8
0
100
AcDbLine
 62
7
  6
CONTINUOUS
 10
23.3195270128
 20
85.8314435378
 11
31.4487105038
 21
81.1381634468
  0
LINE
  5
24E
100
AcDbEntity
  8
0
100
AcDbLine
 62
7
  6
CONTINUOUS
 10
34.2734795548
 20
79.6227000741
 11
36.0412538695
 21
78.6020981889
  0
LINE
  5
24F
100
AcDbEntity
  8
0
100
AcDbLine
 62
7
  6
CONTINUOUS
 10
17.2467647758
 20
90.2516374906
 11
17.7333601783
 21
89.9707078601
  0
LINE
  5
250
100
AcDbEntity
  8
0
100
AcDbLine
 62
7
  6
CONTINUOUS
 10
37.1019096243
 20
79.2144644203
 11
58.1756832306
 21
67.0477908278
  0
LINE
  5
251
100
AcDbEntity
  8
0
100
AcDbLine
 62
7
  6
CONTINUOUS
 10
24.6646328601
 20
86.6215908028
 11
29.7086260505
 21
83.7095058626
  0
LINE
  5
252
100
AcDbEntity
  8
0
100
AcDbLine
 62
7
  6
CONTINUOUS
 10
33.9001465722
 20
80.7706526133
 11
34.0864661621
 21
80.6170279117
  0
LINE
  5
253
100
AcDbEntity
  8
0
100
AcDbLine
 62
7
  6
CONTINUOUS
 10
58.1756832306
 20
64.1034436111
 11
64.4021910703
 21
58.9695353933
  0
LINE
  5
254
100
AcDbEntity
  8
0
100
AcDbLine
 62
7
  6
CONTINUOUS
 10
36.6274092523
 20
89.6195453419
 11
37.1935007725
 21
88.7166601912
  0
LINE
  5
255
100
AcDbEntity
  8
0
100
AcDbLine
 62
7
  6
CONTINUOUS
 10
23.3195270128
 20
85.8314435378
 11
24.6646328601
 21
86.6215908028
  0
LINE
  5
256
100
AcDbEntity
  8
0
100
AcDbLine
 62
7
  6
CONTINUOUS
 10
30.3946099303
 20
89.7484586156
 11
30.0500826966
 21
89.5460750991
  0
LINE
  5
257
100
AcDbEntity
  8
0
100
AcDbLine
 62
7
  6
CONTINUOUS
 10
33.5663845524
 20
89.1454354081
 11
33.8590880546
 21
89.3173764282
  0
LINE
  5
258
100
AcDbEntity
  8
0
100
AcDbLine
 62
7
  6
CONTINUOUS
 10
36.2646149461
 20
90.6312315736
 11
37.1838149319
 21
91.1711915746
  0
LINE
  5
259
100
AcDbEntity
  8
0
100
AcDbLine
 62
7
  6
CONTINUOUS
 10
36.2738707962
 20
89.4118684184
 11
36.6274092523
 21
89.6195453419
  0
LINE
  5
25A
100
AcDbEntity
  8
0
100
AcDbLine
 62
7
  6
CONTINUOUS
 10
33.5663845524
 20
92.278520857
 11
34.0864661621
 21
92.5787883226
  0
LINE
  5
25B
100
AcDbEntity
  8
0
100
AcDbLine
 62
7
  6
CONTINUOUS
 10
36.0412538695
 20
92.8908904886
 11
37.1019096243
 21
93.5032567201
  0
LINE
  5
25C
100
AcDbEntity
  8
0
100
AcDbLine
 62
7
  6
CONTINUOUS
 10
34.0864661621
 20
91.4764888967
 11
34.2734795548
 21
91.5844604851
  0
LINE
  5
25D
100
AcDbEntity
  8
0
100
AcDbLine
 62
7
  6
CONTINUOUS
 10
33.9199364707
 20
90.1556110454
 11
34.0864661621
 21
90.2517564338
  0
LINE
  5
25E
100
AcDbEntity
  8
0
100
AcDbLine
 62
7
  6
CONTINUOUS
 10
36.0412538695
 20
90.5638585998
 11
37.1019096243
 21
91.1762248313
  0
LINE
  5
25F
100
AcDbEntity
  8
0
100
AcDbLine
 62
7
  6
CONTINUOUS
 10
26.2753188886
 20
86.1813647269
 11
29.5902569567
 21
84.2675276417
  0
LINE
  5
260
100
AcDbEntity
  8
0
100
AcDbLine
 62
7
  6
CONTINUOUS
 10
17.7333601783
 20
91.66952991
 11
23.3195270128
 21
88.4444279526
  0
LINE
  5
261
100
AcDbEntity
  8
0
100
AcDbLine
 62
7
  6
CONTINUOUS
 10
26.2706909636
 20
86.7910463045
 11
17.7853742531
 21
91.6899353536
  0
LINE
  5
262
100
AcDbEntity
  8
0
100
AcDbLine
 62
7
  6
CONTINUOUS
 10
15.7639043824
 20
92.8570051225
 11
14.2498256237
 21
93.7311391241
  0
LINE
  5
263
100
AcDbEntity
  8
0
100
AcDbLine
 62
7
  6
CONTINUOUS
 10
15.6488860422
 20
95.0277097979
 11
14.2337821502
 21
95.8447019264
  0
LINE
  5
264
100
AcDbEntity
  8
0
100
AcDbLine
 62
7
  6
CONTINUOUS
 10
17.7693307796
 20
93.8034981559
 11
26.2546474901
 21
88.9046091068
  0
LINE
  5
265
100
AcDbEntity
  8
0
100
AcDbLine
 62
7
  6
CONTINUOUS
 10
17.7333601783
 20
94.4456381282
 11
23.3195270128
 21
91.2205361708
  0
LINE
  5
266
100
AcDbEntity
  8
0
100
AcDbLine
 62
7
  6
CONTINUOUS
 10
29.5643405764
 20
87.6817444762
 11
26.2494025083
 21
89.5955815614
  0
LINE
  5
267
100
AcDbEntity
  8
0
100
AcDbLine
 62
7
  6
CONTINUOUS
 10
58.1756832306
 20
67.3915629193
 11
59.6164642029
 21
66.2212305018
  0
LINE
  5
268
100
AcDbEntity
  8
0
100
AcDbLine
 62
7
  6
CONTINUOUS
 10
36.8395815465
 20
88.5087595944
 11
37.1935007725
 21
88.7166601912
  0
LINE
  5
269
100
AcDbEntity
  8
0
100
AcDbLine
 62
7
  6
CONTINUOUS
 10
76.0699985763
 20
67.9101977399
 11
68.0499099322
 21
71.1523638738
  0
LINE
  5
26A
100
AcDbEntity
  8
0
100
AcDbLine
 62
7
  6
CONTINUOUS
 10
17.2042324042
 20
95.9416169177
 11
17.0141013286
 21
96.0513866618
  0
LINE
  5
26B
100
AcDbEntity
  8
0
100
AcDbLine
 62
7
  6
CONTINUOUS
 10
30.0500826965
 20
89.5460750991
 11
31.8899283135
 21
88.4838637695
  0
LINE
  5
26C
100
AcDbEntity
  8
0
100
AcDbLine
 62
7
  6
CONTINUOUS
 10
23.3195270128
 20
93.8331672257
 11
31.4487105038
 21
89.1398871347
  0
LINE
  5
26D
100
AcDbEntity
  8
0
100
AcDbLine
 62
7
  6
CONTINUOUS
 10
17.7333601783
 20
99.2781899921
 11
17.1758032583
 21
99.600088347
  0
LINE
  5
26E
100
AcDbEntity
  8
0
100
AcDbLine
 62
7
  6
CONTINUOUS
 10
58.1756832306
 20
75.0666856403
 11
59.6164642029
 21
73.8963532228
  0
LINE
  5
26F
100
AcDbEntity
  8
0
100
AcDbLine
 62
7
  6
CONTINUOUS
 10
33.2128238001
 20
93.2991261425
 11
34.0864661621
 21
92.5787883226
  0
LINE
  5
270
100
AcDbEntity
  8
0
100
AcDbLine
 62
7
  6
CONTINUOUS
 10
36.8982019305
 20
80.7861262783
 11
37.2521211565
 21
80.9940268751
  0
LINE
  5
271
100
AcDbEntity
  8
0
100
AcDbLine
 62
7
  6
CONTINUOUS
 10
33.9199364707
 20
80.5208825232
 11
34.0864661621
 21
80.6170279117
  0
LINE
  5
272
100
AcDbEntity
  8
0
100
AcDbLine
 62
7
  6
CONTINUOUS
 10
34.0864661621
 20
79.5147284858
 11
34.2734795548
 21
79.6227000741
  0
LINE
  5
273
100
AcDbEntity
  8
0
100
AcDbLine
 62
7
  6
CONTINUOUS
 10
31.4487105038
 20
77.9948058208
 11
33.5663845524
 21
77.9897285573
  0
LINE
  5
274
100
AcDbEntity
  8
0
100
AcDbLine
 62
7
  6
CONTINUOUS
 10
58.8936149187
 20
78.80679367
 11
61.9921766866
 21
78.479994249
  0
LINE
  5
275
100
AcDbEntity
  8
0
100
AcDbLine
 62
7
  6
CONTINUOUS
 10
17.7333601783
 20
100.201980169
 11
31.4487105038
 21
92.2835981206
  0
LINE
  5
276
100
AcDbEntity
  8
0
100
AcDbLine
 62
7
  6
CONTINUOUS
 10
64.4021910703
 20
73.2583276931
 11
68.0499099322
 21
71.1523638738
  0
LINE
  5
277
100
AcDbEntity
  8
0
100
AcDbLine
 62
7
  6
CONTINUOUS
 10
34.2734795548
 20
91.5844604851
 11
36.0412538695
 21
90.5638585998
  0
LINE
  5
278
100
AcDbEntity
  8
0
100
AcDbLine
 62
7
  6
CONTINUOUS
 10
34.2734795548
 20
93.9114923739
 11
36.0412538695
 21
92.8908904887
  0
LINE
  5
279
100
AcDbEntity
  8
0
100
AcDbLine
 62
7
  6
CONTINUOUS
 10
64.4021910703
 20
73.2583276931
 11
58.1756832306
 21
78.3922359108
  0
LINE
  5
27A
100
AcDbEntity
  8
0
100
AcDbLine
 62
7
  6
CONTINUOUS
 10
58.1756832306
 20
78.3922359108
 11
58.1756832306
 21
75.0666856403
  0
LINE
  5
27B
100
AcDbEntity
  8
0
100
AcDbLine
 62
7
  6
CONTINUOUS
 10
58.1756832306
 20
67.3915629193
 11
58.1756832306
 21
64.1034436111
  0
LINE
  5
27C
100
AcDbEntity
  8
0
100
AcDbLine
 62
7
  6
CONTINUOUS
 10
33.5663845524
 20
77.9897285573
 11
34.0864661621
 21
78.2899960229
  0
LINE
  5
27D
100
AcDbEntity
  8
0
100
AcDbLine
 62
7
  6
CONTINUOUS
 10
36.0412538695
 20
78.6020981889
 11
37.1019096243
 21
79.2144644203
  0
LINE
  5
27E
100
AcDbEntity
  8
0
100
AcDbLine
 62
7
  6
CONTINUOUS
 10
31.9485486975
 20
80.7612304534
 11
36.8982019305
 21
80.7861262783
  0
LINE
  5
27F
100
AcDbEntity
  8
0
100
AcDbLine
 62
7
  6
CONTINUOUS
 10
24.762098043
 20
93.0003172964
 11
24.5540602377
 21
93.0733339714
  0
LINE
  5
280
100
AcDbEntity
  8
0
100
AcDbLine
 62
7
  6
CONTINUOUS
 10
37.1019096243
 20
93.5032567201
 11
62.5578597557
 21
78.8065895725
  0
LINE
  5
281
100
AcDbEntity
  8
0
100
AcDbLine
 62
7
  6
CONTINUOUS
 10
87.5241241577
 20
67.2908727093
 11
90.4885961788
 21
65.5793727127
  0
LINE
  5
282
100
AcDbEntity
  8
0
100
AcDbLine
 62
7
  6
CONTINUOUS
 10
59.6164642029
 20
73.8963532228
 11
59.6164642029
 21
66.2212305018
  0
LINE
  5
283
100
AcDbEntity
  8
0
100
AcDbLine
 62
7
  6
CONTINUOUS
 10
87.8080298181
 20
69.0048708772
 11
92.1149350044
 21
66.5183342666
  0
LINE
  5
284
100
AcDbEntity
  8
0
100
AcDbLine
 62
7
  6
CONTINUOUS
 10
88.8507619795
 20
71.0156370842
 11
93.2463011439
 21
68.4779287802
  0
LINE
  5
285
100
AcDbEntity
  8
0
100
AcDbLine
 62
7
  6
CONTINUOUS
 10
89.149292749
 20
71.462410311
 11
93.7824877816
 21
68.7874944319
  0
LINE
  5
286
100
AcDbEntity
  8
0
100
AcDbLine
 62
7
  6
CONTINUOUS
 10
64.4021910703
 20
73.2583276931
 11
64.4021910703
 21
58.9695353933
  0
LINE
  5
287
100
AcDbEntity
  8
0
100
AcDbLine
 62
7
  6
CONTINUOUS
 10
36.8395815465
 20
88.5087595944
 11
31.8899283135
 21
88.4838637695
  0
LINE
  5
288
100
AcDbEntity
  8
0
100
AcDbLine
 62
7
  6
CONTINUOUS
 10
33.8650678352
 20
89.3997525925
 11
36.2738707962
 21
89.4118684184
  0
LINE
  5
289
100
AcDbEntity
  8
0
100
AcDbLine
 62
7
  6
CONTINUOUS
 10
36.2646149461
 20
90.6312315736
 11
36.1570105361
 21
90.6306903436
  0
LINE
  5
28A
100
AcDbEntity
  8
0
100
AcDbLine
 62
7
  6
CONTINUOUS
 10
35.9274948354
 20
90.6295359228
 11
34.0864661621
 21
90.6202758948
  0
LINE
  5
28B
100
AcDbEntity
  8
0
100
AcDbLine
 62
7
  6
CONTINUOUS
 10
31.4487105038
 20
89.1398871347
 11
33.5663845524
 21
89.1454354081
  0
LINE
  5
28C
100
AcDbEntity
  8
0
100
AcDbLine
 62
7
  6
CONTINUOUS
 10
93.2463011439
 20
72.8870418327
 11
92.1149350044
 21
73.5402550539
  0
LINE
  5
28D
100
AcDbEntity
  8
0
100
AcDbLine
 62
7
  6
CONTINUOUS
 10
68.0499099322
 20
71.1523638738
 11
68.0499099322
 21
56.8635715741
  0
LINE
  5
28E
100
AcDbEntity
  8
0
100
AcDbLine
 62
7
  6
CONTINUOUS
 10
58.8936149187
 20
78.80679367
 11
58.1756832306
 21
78.3922359108
  0
LINE
  5
28F
100
AcDbEntity
  8
0
100
AcDbLine
 62
7
  6
CONTINUOUS
 10
62.5578597557
 20
78.8065895725
 11
61.9921766866
 21
78.479994249
  0
LINE
  5
290
100
AcDbEntity
  8
0
100
AcDbLine
 62
7
  6
CONTINUOUS
 10
33.5663845524
 20
92.278520857
 11
31.4487105038
 21
92.2835981206
  0
LINE
  5
291
100
AcDbEntity
  8
0
100
AcDbLine
 62
7
  6
CONTINUOUS
 10
110.3647472175
 20
102.8810093511
 11
97.0645564358
 21
94.6464797677
  0
LINE
  5
292
100
AcDbEntity
  8
0
100
AcDbLine
 62
7
  6
CONTINUOUS
 10
76.0699985763
 20
67.9101977399
 11
76.0699985763
 21
53.6214054401
  0
LINE
  5
293
100
AcDbEntity
  8
0
100
AcDbLine
 62
7
  6
CONTINUOUS
 10
58.8936149187
 20
67.8061200381
 11
58.1756832306
 21
67.3915629193
  0
LINE
  5
294
100
AcDbEntity
  8
0
100
AcDbLine
 62
7
  6
CONTINUOUS
 10
76.0699985763
 20
67.9101977399
 11
109.721820551
 21
87.3389702416
  0
LINE
  5
295
100
AcDbEntity
  8
0
100
AcDbLine
 62
7
  6
CONTINUOUS
 10
109.0070551091
 20
87.7516309262
 11
110.3647472175
 21
88.5922170513
  0
LINE
  5
296
100
AcDbEntity
  8
0
100
AcDbLine
 62
7
  6
CONTINUOUS
 10
90.4885961788
 20
72.6012935
 11
92.1149350044
 21
73.5402550539
  0
LINE
  5
297
100
AcDbEntity
  8
0
100
AcDbLine
 62
7
  6
CONTINUOUS
 10
93.2463011439
 20
72.8870418327
 11
93.7491654524
 21
73.1773689436
  0
LINE
  5
298
100
AcDbEntity
  8
0
100
AcDbLine
 62
7
  6
CONTINUOUS
 10
109.721820551
 20
87.3389702416
 11
97.0645564358
 21
94.6464797677
  0
LINE
  5
299
100
AcDbEntity
  8
0
100
AcDbLine
 62
7
  6
CONTINUOUS
 10
65.2446187582
 20
113.0173136948
 11
52.5873546787
 21
120.3248232004
  0
LINE
  5
29A
100
AcDbEntity
  8
0
100
AcDbLine
 62
7
  6
CONTINUOUS
 10
93.7824877816
 20
68.7874944319
 11
93.7491654524
 21
73.1773689436
  0
LINE
  5
29B
100
AcDbEntity
  8
0
100
AcDbLine
 62
7
  6
CONTINUOUS
 10
93.7824877816
 20
68.7874944319
 11
93.2463011439
 21
68.4779287802
  0
LINE
  5
29C
100
AcDbEntity
  8
0
100
AcDbLine
 62
7
  6
CONTINUOUS
 10
92.1149350044
 20
66.5183342666
 11
90.4885961788
 21
65.5793727127
  0
LINE
  5
29D
100
AcDbEntity
  8
0
100
AcDbLine
 62
7
  6
CONTINUOUS
 10
82.2743161846
 20
116.4043786506
 11
78.4581985645
 21
118.6075653385
  0
LINE
  5
29E
100
AcDbEntity
  8
0
100
AcDbLine
 62
7
  6
CONTINUOUS
 10
92.1149350044
 20
66.5183342666
 11
93.2463011439
 21
68.4779287802
  0
LINE
  5
29F
100
AcDbEntity
  8
0
100
AcDbLine
 62
7
  6
CONTINUOUS
 10
76.0699985763
 20
53.6214054401
 11
109.721820551
 21
73.0501779418
  0
LINE
  5
2A0
100
AcDbEntity
  8
0
100
AcDbLine
 62
7
  6
CONTINUOUS
 10
110.3647472175
 20
102.8810093511
 11
88.9256086942
 21
115.2586217042
  0
LINE
  5
2A1
100
AcDbEntity
  8
0
100
AcDbLine
 62
7
  6
CONTINUOUS
 10
109.721820551
 20
87.3389702416
 11
109.721820551
 21
73.0501779418
  0
LINE
  5
2A2
100
AcDbEntity
  8
0
100
AcDbLine
 62
7
  6
CONTINUOUS
 10
110.3647472175
 20
102.8810093511
 11
110.3647472175
 21
88.5922170513
  0
SPLINE
  5
2A3
100
AcDbEntity
  8
0
100
AcDbSpline
 62
7
  6
CONTINUOUS
 70
0
 71
3
 72
11
 73
7
 74
0
 42
0.0000001
 43
0.0000001
 44
0.0000000001
 40
0.0
 40
0.0
 40
0.0
 40
0.0
 40
0.2780147879
 40
0.5335179824
 40
0.7715896066
 40
1.0
 40
1.0
 40
1.0
 40
1.0
 10
19.2266189642
 20
101.1011847598
 30
0.0
 10
19.1617126979
 20
101.1234741446
 30
0.0
 10
19.0335955196
 20
101.1570157183
 30
0.0
 10
18.8423087229
 20
101.1703303235
 30
0.0
 10
18.6645311465
 20
101.1434337709
 30
0.0
 10
18.557113826
 20
101.0979737706
 30
0.0
 10
18.5084994778
 20
101.0694151505
 30
0.0
  0
SPLINE
  5
2A4
100
AcDbEntity
  8
0
100
AcDbSpline
 62
7
  6
CONTINUOUS
 70
0
 71
3
 72
9
 73
5
 74
0
 42
0.0000001
 43
0.0000001
 44
0.0000000001
 40
0.0
 40
0.0
 40
0.0
 40
0.0
 40
0.2441064357
 40
1.0
 40
1.0
 40
1.0
 40
1.0
 10
17.2467647758
 20
90.2516374906
 30
0.0
 10
17.2307953595
 20
90.2608572289
 30
0.0
 10
17.1659266314
 20
90.2995769755
 30
0.0
 10
17.1032614813
 20
90.3419585439
 30
0.0
 10
17.0571840376
 20
90.3756823956
 30
0.0
  0
SPLINE
  5
2A5
100
AcDbEntity
  8
0
100
AcDbSpline
 62
7
  6
CONTINUOUS
 70
0
 71
3
 72
11
 73
7
 74
0
 42
0.0000001
 43
0.0000001
 44
0.0000000001
 40
0.0
 40
0.0
 40
0.0
 40
0.0
 40
0.2771825356
 40
0.5340168967
 40
0.7735710075
 40
1.0
 40
1.0
 40
1.0
 40
1.0
 10
17.7323746619
 20
95.9041425698
 30
0.0
 10
17.6860017454
 20
95.9225396619
 30
0.0
 10
17.594257242
 20
95.9524103034
 30
0.0
 10
17.45623692
 20
95.9749698289
 30
0.0
 10
17.3254247382
 20
95.9730542149
 30
0.0
 10
17.2427740201
 20
95.9548619155
 30
0.0
 10
17.2042324042
 20
95.9416169177
 30
0.0
  0
SPLINE
  5
2A6
100
AcDbEntity
  8
0
100
AcDbSpline
 62
7
  6
CONTINUOUS
 70
0
 71
3
 72
12
 73
8
 74
0
 42
0.0000001
 43
0.0000001
 44
0.0000000001
 40
0.0
 40
0.0
 40
0.0
 40
0.0
 40
0.1080052025
 40
0.2180411439
 40
0.4507692532
 40
0.7099645771
 40
1.0
 40
1.0
 40
1.0
 40
1.0
 10
15.5524367474
 20
94.9834058977
 30
0.0
 10
15.5266747308
 20
94.9682719454
 30
0.0
 10
15.4771816841
 20
94.9331839507
 30
0.0
 10
15.3886764501
 20
94.8446242386
 30
0.0
 10
15.3015125203
 20
94.6995988341
 30
0.0
 10
15.2417627758
 20
94.4898258915
 30
0.0
 10
15.2308399511
 20
94.3372615334
 30
0.0
 10
15.2314489748
 20
94.257028908
 30
0.0
  0
SPLINE
  5
2A7
100
AcDbEntity
  8
0
100
AcDbSpline
 62
7
  6
CONTINUOUS
 70
0
 71
3
 72
9
 73
5
 74
0
 42
0.0000001
 43
0.0000001
 44
0.0000000001
 40
0.0
 40
0.0
 40
0.0
 40
0.0
 40
0.5153840639
 40
1.0
 40
1.0
 40
1.0
 40
1.0
 10
17.3194735891
 20
93.7707835858
 30
0.0
 10
17.3865843692
 20
93.6834440064
 30
0.0
 10
17.5273578521
 20
93.5217839134
 30
0.0
 10
17.6890539914
 20
93.3806462943
 30
0.0
 10
17.7724645045
 20
93.3192506068
 30
0.0
  0
SPLINE
  5
2A8
100
AcDbEntity
  8
0
100
AcDbSpline
 62
7
  6
CONTINUOUS
 70
0
 71
3
 72
11
 73
7
 74
0
 42
0.0000001
 43
0.0000001
 44
0.0000000001
 40
0.0
 40
0.0
 40
0.0
 40
0.0
 40
0.2273343524
 40
0.4760972594
 40
0.7372262199
 40
1.0
 40
1.0
 40
1.0
 40
1.0
 10
15.2314489748
 20
94.257028908
 30
0.0
 10
15.2323236581
 20
94.1417983792
 30
0.0
 10
15.2614895159
 20
93.9004237436
 30
0.0
 10
15.3691104243
 20
93.5411000629
 30
0.0
 10
15.5363693862
 20
93.1854892929
 30
0.0
 10
15.682748116
 20
92.962623835
 30
0.0
 10
15.7639043824
 20
92.8570051225
 30
0.0
  0
SPLINE
  5
2A9
100
AcDbEntity
  8
0
100
AcDbSpline
 62
7
  6
CONTINUOUS
 70
0
 71
3
 72
9
 73
5
 74
0
 42
0.0000001
 43
0.0000001
 44
0.0000000001
 40
0.0
 40
0.0
 40
0.0
 40
0.0
 40
0.2432819124
 40
1.0
 40
1.0
 40
1.0
 40
1.0
 10
16.9864450365
 20
99.6948190027
 30
0.0
 10
17.0022677583
 20
99.6881352592
 30
0.0
 10
17.0668423285
 20
99.6595694899
 30
0.0
 10
17.1295341456
 20
99.6268012273
 30
0.0
 10
17.1758032583
 20
99.600088347
 30
0.0
  0
SPLINE
  5
2AA
100
AcDbEntity
  8
0
100
AcDbSpline
 62
7
  6
CONTINUOUS
 70
0
 71
3
 72
13
 73
9
 74
0
 42
0.0000001
 43
0.0000001
 44
0.0000000001
 40
0.0
 40
0.0
 40
0.0
 40
0.0
 40
0.1155558728
 40
0.2396586563
 40
0.5021464807
 40
0.7634647506
 40
0.8861964607
 40
1.0
 40
1.0
 40
1.0
 40
1.0
 10
75.6799880802
 20
118.6355561907
 30
0.0
 10
75.7776002826
 20
118.6881091006
 30
0.0
 10
75.9893020619
 20
118.7803696082
 30
0.0
 10
76.4537797707
 20
118.9121318449
 30
0.0
 10
77.0779941127
 20
118.9724480169
 30
0.0
 10
77.6997380419
 20
118.9000382877
 30
0.0
 10
78.157151815
 20
118.7587828553
 30
0.0
 10
78.3636463076
 20
118.6621538744
 30
0.0
 10
78.4581985645
 20
118.6075653385
 30
0.0
  0
SPLINE
  5
2AB
100
AcDbEntity
  8
0
100
AcDbSpline
 62
7
  6
CONTINUOUS
 70
0
 71
3
 72
11
 73
7
 74
0
 42
0.0000001
 43
0.0000001
 44
0.0000000001
 40
0.0
 40
0.0
 40
0.0
 40
0.0
 40
0.2627053096
 40
0.523556562
 40
0.7722283445
 40
1.0
 40
1.0
 40
1.0
 40
1.0
 10
82.2743161846
 20
116.4043786505
 30
0.0
 10
82.8699540376
 20
116.4760502664
 30
0.0
 10
84.0690937134
 20
116.5316200139
 30
0.0
 10
85.8306122737
 20
116.3643671375
 30
0.0
 10
87.4710654349
 20
115.9580770138
 30
0.0
 10
88.4751368269
 20
115.5186958739
 30
0.0
 10
88.9256086942
 20
115.2586217042
 30
0.0
  0
SPLINE
  5
2AC
100
AcDbEntity
  8
0
100
AcDbSpline
 62
7
  6
CONTINUOUS
 70
0
 71
3
 72
18
 73
14
 74
0
 42
0.0000001
 43
0.0000001
 44
0.0000000001
 40
0.0
 40
0.0
 40
0.0
 40
0.0
 40
0.1286565287
 40
0.2702028843
 40
0.4173170073
 40
0.5616247181
 40
0.6952617801
 40
0.7562693436
 40
0.8127626744
 40
0.864712687
 40
0.912534462
 40
0.9571525353
 40
1.0
 40
1.0
 40
1.0
 40
1.0
 10
90.4885961788
 20
72.6012935
 30
0.0
 10
90.1702867248
 20
72.4175185481
 30
0.0
 10
89.552423633
 20
71.9420557532
 30
0.0
 10
88.7616539958
 20
71.0423873994
 30
0.0
 10
88.1106412295
 20
69.9835162224
 30
0.0
 10
87.6535392538
 20
68.8525290076
 30
0.0
 10
87.4584555
 20
67.8961524093
 30
0.0
 10
87.43999726
 20
67.177234457
 30
0.0
 10
87.4921017406
 20
66.6942498046
 30
0.0
 10
87.6091471298
 20
66.2612293205
 30
0.0
 10
87.7898361204
 20
65.8872365707
 30
0.0
 10
88.0316683185
 20
65.5814260848
 30
0.0
 10
88.2326405293
 20
65.427636043
 30
0.0
 10
88.3386484763
 20
65.3664302033
 30
0.0
  0
SPLINE
  5
2AD
100
AcDbEntity
  8
0
100
AcDbSpline
 62
7
  6
CONTINUOUS
 70
0
 71
3
 72
12
 73
8
 74
0
 42
0.0000001
 43
0.0000001
 44
0.0000000001
 40
0.0
 40
0.0
 40
0.0
 40
0.0
 40
0.1081598054
 40
0.2183678109
 40
0.4513498724
 40
0.7104491939
 40
1.0
 40
1.0
 40
1.0
 40
1.0
 10
88.3386484763
 20
65.3664302033
 30
0.0
 10
88.4091436456
 20
65.3257283865
 30
0.0
 10
88.5588276389
 20
65.2556056062
 30
0.0
 10
88.8875352656
 20
65.1647101854
 30
0.0
 10
89.3479308442
 20
65.1523656827
 30
0.0
 10
89.9244776061
 20
65.2918547197
 30
0.0
 10
90.2998741253
 20
65.4704146347
 30
0.0
 10
90.4885961788
 20
65.5793727127
 30
0.0
  0
ELLIPSE
  5
2AE
100
AcDbEntity
  8
0
100
AcDbEllipse
 62
7
  6
CONTINUOUS
 10
17.1250384634
 20
91.8131995671
 30
0.0
 11
-0.4008667676
 21
2.0774521665
 31
0.0
 40
0.2135259277
 41
0.8565903076
 42
2.2930079766
  0
ELLIPSE
  5
2AF
100
AcDbEntity
  8
0
100
AcDbEllipse
 62
7
  6
CONTINUOUS
 10
17.0787592128
 20
97.910015343
 30
0.0
 11
-0.4008667676
 21
2.0774521665
 31
0.0
 40
0.2135259277
 41
-0.5798273614
 42
0.8565903075
  0
ENDSEC
  0
SECTION
  2
OBJECTS
  0
DICTIONARY
  5
C
100
AcDbDictionary
280
0
281
1
  3
ACAD_GROUP
350
D
  3
ACAD_MLINESTYLE
350
17
  3
ACAD_LAYOUT
350
1A
  3
ACAD_PLOTSETTINGS
350
19
  3
ACAD_PLOTSTYLENAME
350
E
  0
DICTIONARY
  5
D
102
{ACAD_REACTORS
330
C
102
}
100
AcDbDictionary
280
0
281
1
  0
ACDBDICTIONARYWDFLT
  5
E
102
{ACAD_REACTORS
330
C
102
}
100
AcDbDictionary
281
1
  3
Normal
350
F
100
AcDbDictionaryWithDefault
340
F
  0
DICTIONARY
  5
17
102
{ACAD_REACTORS
330
C
102
}
100
AcDbDictionary
280
0
281
1
  3
Standard
350
18
  0
DICTIONARY
  5
19
102
{ACAD_REACTORS
330
C
102
}
100
AcDbDictionary
281
1
  0
DICTIONARY
  5
1A
102
{ACAD_REACTORS
330
C
102
}
100
AcDbDictionary
281
1
  3
Model
350
2B0
  3
Layout1
350
2B1
  0
ACDBPLACEHOLDER
  5
F
102
{ACAD_REACTORS
330
E
102
}
  0
MLINESTYLE
  5
18
102
{ACAD_REACTORS
330
17
102
}
100
AcDbMlineStyle
  2
STANDARD
 70
0
  3

 62
256
 51
90.0
 52
90.0
 71
2
 49
0.5
 62
256
  6
BYLAYER
 49
-0.5
 62
256
  6
BYLAYER
  0
LAYOUT
  5
2B0
102
{ACAD_REACTORS
330
1A
102
}
100
AcDbPlotSettings
  1

  2
none_device
  4

  6

 40
0.0
 41
0.0
 42
0.0
 43
0.0
 44
210.0
 45
297.0
 46
0.0
 47
0.0
 48
0.0
 49
0.0
140
0.0
141
0.0
142
1.0
143
1.0
 70
1024
 72
1
 73
0
 74
0
  7

 75
0
147
1.0
148
0.0
149
0.0
100
AcDbLayout
  1
Model
 70
0
 71
0
 10
0.0
 20
0.0
 11
210.0
 21
297.0
 12
0.0
 22
0.0
 32
0.0
 14
0.0
 24
0.0
 34
0.0
 15
0.0
 25
0.0
 35
0.0
146
0.0
 13
0.0
 23
0.0
 33
0.0
 16
1.0
 26
0.0
 36
0.0
 17
0.0
 27
1.0
 37
0.0
 76
0
330
210
345
0
346
0
  0
LAYOUT
  5
2B1
102
{ACAD_REACTORS
330
1A
102
}
100
AcDbPlotSettings
  1

  2
none_device
  4

  6

 40
0.0
 41
0.0
 42
0.0
 43
0.0
 44
210.0
 45
297.0
 46
0.0
 47
0.0
 48
0.0
 49
0.0
140
0.0
141
0.0
142
1.0
143
1.0
 70
0
 72
1
 73
0
 74
0
  7

 75
0
147
1.0
148
0.0
149
0.0
100
AcDbLayout
  1
Layout1
 70
0
 71
1
 10
0.0
 20
0.0
 11
210.0
 21
297.0
 12
0.0
 22
0.0
 32
0.0
 14
0.0
 24
0.0
 34
0.0
 15
0.0
 25
0.0
 35
0.0
146
0.0
 13
0.0
 23
0.0
 33
0.0
 16
1.0
 26
0.0
 36
0.0
 17
0.0
 27
1.0
 37
0.0
 76
0
330
211
345
0
346
0
  0
ENDSEC
  0
EOF
