999
DXF file: C:\Users\sesa63760\Documents\7-Dev\_Creo\CAD\MCADFD0001123_3D-CAD\drw0001_1.dxf
999
Pro/ENGINEER 2019471 by Parametric Technology Corporation
  0
SECTION
  2
HEADER
  9
$ACADVER
  1
AC1024
  9
$DWGCODEPAGE
  3
ANSI_1252
  9
$EXTMAX
 10
122.9776717098
 20
173.9255642753
 30
0.0
  9
$EXTMIN
 10
0.0
 20
0.0
 30
0.0
  9
$LIMMIN
 10
0.0
 20
0.0
  9
$LIMMAX
 10
122.9776717098
 20
173.9255642753
  9
$VIEWCTR
 10
61.4888358549
 20
86.9627821376
  9
$VIEWSIZE
 40
173.9255642753
  9
$CLAYER
  8
0
  9
$LTSCALE
 40
11.3373701157
  9
$CELTYPE
  6
BYLAYER
  9
$DIMSCALE
 40
1.0
  9
$DIMASZ
 40
1.4640199013
  9
$DIMEXO
 40
1.0
  9
$DIMDLI
 40
7.83309208
  9
$DIMEXE
 40
1.0
  9
$DIMCEN
 40
1.8552060189
  9
$DIMLFAC
 40
1.0
  9
$DIMBLK
  1
_FILLED
  9
$DIMALT
 70
0
  9
$DIMALTF
 40
0.0393700787
  9
$DIMTXT
 40
2.0496278618
  9
$DIMTOL
 70
1
  9
$DIMLIM
 70
0
  9
$DIMTFAC
 40
1.0
  9
$DIMTP
 40
0.01
  9
$DIMTM
 40
0.01
  9
$DIMGAP
 40
0.625
  9
$DIMDSEP
 70
46
  9
$AUNITS
 70
0
  9
$PDMODE
 70
3
  9
$PDSIZE
 40
0.3125
  9
$HANDSEED
  5
32D
  9
$TILEMODE
 70
1
  9
$MEASUREMENT
 70
1
  9
$INSUNITS
 70
4
  0
ENDSEC
  0
SECTION
  2
CLASSES
  0
CLASS
  1
ACDBDICTIONARYWDFLT
  2
AcDbDictionaryWithDefault
  3
AutoCAD 2000
 90
0
 91
1
280
0
281
0
  0
CLASS
  1
ACDBPLACEHOLDER
  2
AcDbPlaceHolder
  3
AutoCAD 2000
 90
0
 91
1
280
0
281
0
  0
CLASS
  1
LAYOUT
  2
AcDbLayout
  3
AutoCAD 2000
 90
0
 91
0
280
0
281
0
  0
ENDSEC
  0
SECTION
  2
TABLES
  0
TABLE
  2
VPORT
  5
8
100
AcDbSymbolTable
 70
2
  0
VPORT
  5
1F4
100
AcDbSymbolTableRecord
100
AcDbViewportTableRecord
  2
*ACTIVE
 70
0
 10
0.0
 20
0.0
 11
1.0
 21
1.0
 12
61.4888358549
 22
86.9627821376
 13
0.0
 23
0.0
 14
1.0
 24
1.0
 15
0.0
 25
0.0
 16
0.0
 26
0.0
 36
1.0
 17
0.0
 27
0.0
 37
0.0
 40
173.9255642753
 41
0.7070707071
 42
50.0
 43
0.0
 44
0.0
 50
0.0
 51
0.0
 71
0
 72
100
 73
1
 74
1
 75
0
 76
0
 77
0
 78
0
  0
ENDTAB
  0
TABLE
  2
LTYPE
  5
5
100
AcDbSymbolTable
 70
6
  0
LTYPE
  5
14
100
AcDbSymbolTableRecord
100
AcDbLinetypeTableRecord
  2
BYBLOCK
 70
0
  3

 72
65
 73
0
 40
0.0
  0
LTYPE
  5
15
100
AcDbSymbolTableRecord
100
AcDbLinetypeTableRecord
  2
BYLAYER
 70
0
  3

 72
65
 73
0
 40
0.0
  0
LTYPE
  5
16
100
AcDbSymbolTableRecord
100
AcDbLinetypeTableRecord
  2
CONTINUOUS
 70
64
  3
Solid line
 72
65
 73
0
 40
0.0
  0
LTYPE
  5
1F5
100
AcDbSymbolTableRecord
100
AcDbLinetypeTableRecord
  2
CENTER
 70
64
  3
____ _ ____ _ ____ _ ____ _ ____ _ ____ _ ____
 72
65
 73
4
 40
0.6
 49
0.375
 74
0
 49
-0.075
 74
0
 49
0.075
 74
0
 49
-0.075
 74
0
  0
LTYPE
  5
1F6
100
AcDbSymbolTableRecord
100
AcDbLinetypeTableRecord
  2
HIDDEN
 70
64
  3
- - - - - - - - - - - - - - - - - - - -
 72
65
 73
2
 40
0.2
 49
0.1
 74
0
 49
-0.1
 74
0
  0
LTYPE
  5
1F7
100
AcDbSymbolTableRecord
100
AcDbLinetypeTableRecord
  2
PHANTOM
 70
64
  3
_____ _ _ _____ _ _ _____ _ _ _____
 72
65
 73
6
 40
0.8
 49
0.45
 74
0
 49
-0.05
 74
0
 49
0.1
 74
0
 49
-0.05
 74
0
 49
0.1
 74
0
 49
-0.05
 74
0
  0
LTYPE
  5
1F8
100
AcDbSymbolTableRecord
100
AcDbLinetypeTableRecord
  2
DOT
 70
64
  3
. . . . . . . . . . . . . . . . . . . .
 72
65
 73
2
 40
0.2
 49
0.1
 74
0
 49
-0.1
 74
0
  0
LTYPE
  5
1F9
100
AcDbSymbolTableRecord
100
AcDbLinetypeTableRecord
  2
DASHED
 70
64
  3
- - - - - - - - - - - - - - - - - - - -
 72
65
 73
2
 40
0.2
 49
0.1
 74
0
 49
-0.1
 74
0
  0
ENDTAB
  0
TABLE
  2
LAYER
  5
2
100
AcDbSymbolTable
 70
36
  0
LAYER
  5
10
100
AcDbSymbolTableRecord
100
AcDbLayerTableRecord
  2
0
 70
0
 62
7
  6
CONTINUOUS
370
-3
390
F
  0
LAYER
  5
1FA
100
AcDbSymbolTableRecord
100
AcDbLayerTableRecord
  2
DEFAULT_1
 70
0
 62
7
  6
CENTER
370
-3
390
F
  0
LAYER
  5
1FB
100
AcDbSymbolTableRecord
100
AcDbLayerTableRecord
  2
DEFAULT_2
 70
0
 62
8
  6
HIDDEN
370
-3
390
F
  0
LAYER
  5
1FC
100
AcDbSymbolTableRecord
100
AcDbLayerTableRecord
  2
DEFAULT_3
 70
0
 62
7
  6
PHANTOM
370
-3
390
F
  0
LAYER
  5
1FD
100
AcDbSymbolTableRecord
100
AcDbLayerTableRecord
  2
00_COMPONENTS
 70
0
 62
7
  6
CONTINUOUS
370
-3
390
F
  0
LAYER
  5
1FE
100
AcDbSymbolTableRecord
100
AcDbLayerTableRecord
  2
01_1_DEFAULT_DATUMS
 70
0
 62
7
  6
CONTINUOUS
370
-3
390
F
  0
LAYER
  5
1FF
100
AcDbSymbolTableRecord
100
AcDbLayerTableRecord
  2
01_PLANES
 70
0
 62
7
  6
CONTINUOUS
370
-3
390
F
  0
LAYER
  5
200
100
AcDbSymbolTableRecord
100
AcDbLayerTableRecord
  2
02_COORD_SYS
 70
0
 62
7
  6
CONTINUOUS
370
-3
390
F
  0
LAYER
  5
201
100
AcDbSymbolTableRecord
100
AcDbLayerTableRecord
  2
03_AXES
 70
0
 62
7
  6
CONTINUOUS
370
-3
390
F
  0
LAYER
  5
202
100
AcDbSymbolTableRecord
100
AcDbLayerTableRecord
  2
04_POINTS
 70
0
 62
7
  6
CONTINUOUS
370
-3
390
F
  0
LAYER
  5
203
100
AcDbSymbolTableRecord
100
AcDbLayerTableRecord
  2
05_CURVES
 70
0
 62
7
  6
CONTINUOUS
370
-3
390
F
  0
LAYER
  5
204
100
AcDbSymbolTableRecord
100
AcDbLayerTableRecord
  2
06_SURFS
 70
0
 62
7
  6
CONTINUOUS
370
-3
390
F
  0
LAYER
  5
205
100
AcDbSymbolTableRecord
100
AcDbLayerTableRecord
  2
07_COSMETICS
 70
0
 62
7
  6
CONTINUOUS
370
-3
390
F
  0
LAYER
  5
206
100
AcDbSymbolTableRecord
100
AcDbLayerTableRecord
  2
10_NOTES
 70
0
 62
7
  6
CONTINUOUS
370
-3
390
F
  0
LAYER
  5
207
100
AcDbSymbolTableRecord
100
AcDbLayerTableRecord
  2
11_NOTES_PUB
 70
0
 62
7
  6
CONTINUOUS
370
-3
390
F
  0
LAYER
  5
208
100
AcDbSymbolTableRecord
100
AcDbLayerTableRecord
  2
13_REF_GTOL
 70
0
 62
7
  6
CONTINUOUS
370
-3
390
F
  0
LAYER
  5
209
100
AcDbSymbolTableRecord
100
AcDbLayerTableRecord
  2
16_MISC
 70
0
 62
7
  6
CONTINUOUS
370
-3
390
F
  0
LAYER
  5
20A
100
AcDbSymbolTableRecord
100
AcDbLayerTableRecord
  2
17_NO_PRINT
 70
0
 62
7
  6
CONTINUOUS
370
-3
390
F
  0
LAYER
  5
20B
100
AcDbSymbolTableRecord
100
AcDbLayerTableRecord
  2
18_DATUM_CAMS_JOINTS
 70
0
 62
7
  6
CONTINUOUS
370
-3
390
F
  0
LAYER
  5
20C
100
AcDbSymbolTableRecord
100
AcDbLayerTableRecord
  2
19_DATUM_FUNCTIONAL
 70
0
 62
7
  6
CONTINUOUS
370
-3
390
F
  0
LAYER
  5
20D
100
AcDbSymbolTableRecord
100
AcDbLayerTableRecord
  2
20_DATUM_KINEMATIC_SCHEME
 70
0
 62
7
  6
CONTINUOUS
370
-3
390
F
  0
ENDTAB
  0
TABLE
  2
STYLE
  5
3
100
AcDbSymbolTable
 70
1
  0
STYLE
  5
11
100
AcDbSymbolTableRecord
100
AcDbTextStyleTableRecord
  2
STANDARD
 70
0
 40
0.0
 41
0.8
 50
0.0
 71
0
 42
0.2
  3
txt
  4

  0
STYLE
  5
20E
100
AcDbSymbolTableRecord
100
AcDbTextStyleTableRecord
  2
TEXTSTYLE_1
 70
0
 40
0.0
 41
0.8
 50
0.0
 71
0
 42
0.2
  3
gdt
  4

  0
ENDTAB
  0
TABLE
  2
VIEW
  5
6
100
AcDbSymbolTable
 70
0
  0
ENDTAB
  0
TABLE
  2
UCS
  5
7
100
AcDbSymbolTable
 70
0
  0
ENDTAB
  0
TABLE
  2
APPID
  5
9
100
AcDbSymbolTable
 70
1
  0
APPID
  5
20F
100
AcDbSymbolTableRecord
100
AcDbRegAppTableRecord
  2
ACAD
 70
0
  0
ENDTAB
  0
TABLE
  2
BLOCK_RECORD
  5
1
100
AcDbSymbolTable
 70
0
  0
BLOCK_RECORD
  5
210
100
AcDbSymbolTableRecord
100
AcDbBlockTableRecord
  2
*Model_Space
  0
BLOCK_RECORD
  5
211
100
AcDbSymbolTableRecord
100
AcDbBlockTableRecord
  2
*Paper_Space
  0
BLOCK_RECORD
  5
212
100
AcDbSymbolTableRecord
100
AcDbBlockTableRecord
  2
_FILLED
  0
ENDTAB
  0
TABLE
  2
DIMSTYLE
  5
A
100
AcDbSymbolTable
 70
1
100
AcDbDimStyleTable
 71
0
  0
DIMSTYLE
105
213
100
AcDbSymbolTableRecord
100
AcDbDimStyleTableRecord
  2
STANDARD
 70
0
  3

  4

 40
1.0
 41
1.4640199013
 42
1.0
 43
0.38
 44
1.0
 45
0.0
 46
0.0
 47
0.01
 48
0.01
140
2.0496278618
141
0.09
142
0.0
143
25.4
144
1.0
145
0.0
146
1.0
147
0.625
 71
1
 72
0
 73
0
 74
0
 75
0
 76
0
 77
1
 78
8
 79
2
170
0
171
1
172
0
173
0
174
0
175
0
176
0
177
0
178
0
270
2
179
2
271
2
272
2
273
2
274
2
275
0
280
0
281
0
282
0
283
1
284
8
285
0
286
0
287
3
288
0
340
11
278
46
341
212
342
212
343
212
344
212
  0
ENDTAB
  0
ENDSEC
  0
SECTION
  2
BLOCKS
  0
BLOCK
  5
20
100
AcDbEntity
  8
0
100
AcDbBlockBegin
  2
*Model_Space
 70
0
 10
0.0
 20
0.0
 30
0.0
  3
*Model_Space
  1

  0
ENDBLK
  5
21
100
AcDbEntity
  8
0
100
AcDbBlockEnd
  0
BLOCK
  5
1C
100
AcDbEntity
  8
0
100
AcDbBlockBegin
  2
*Paper_Space
 70
0
 10
0.0
 20
0.0
 30
0.0
  3
*Paper_Space
  1

  0
ENDBLK
  5
1D
100
AcDbEntity
  8
0
100
AcDbBlockEnd
  0
BLOCK
  5
214
100
AcDbEntity
  8
0
100
AcDbBlockBegin
  2
_FILLED
 70
64
 10
0.0
 20
0.0
  3
_FILLED
  1

  0
SOLID
  5
215
100
AcDbEntity
  8
0
  6
BYBLOCK
 62
0
100
AcDbTrace
 10
0.0
 20
0.0
 11
-1.0
 21
0.25
 12
-1.0
 22
-0.25
 13
-1.0
 23
-0.25
  0
ENDBLK
  5
216
100
AcDbEntity
  8
0
  6
BYBLOCK
 62
0
100
AcDbBlockEnd
  0
ENDSEC
  0
SECTION
  2
ENTITIES
  0
LINE
  5
217
100
AcDbEntity
  8
0
100
AcDbLine
 62
7
  6
CONTINUOUS
 10
14.2668248101
 20
105.0756415156
 11
14.2668248101
 21
107.1985478002
  0
LINE
  5
218
100
AcDbEntity
  8
0
100
AcDbLine
 62
7
  6
CONTINUOUS
 10
18.0775466326
 20
118.8493679813
 11
21.5174439744
 21
120.9488974289
  0
LINE
  5
219
100
AcDbEntity
  8
0
100
AcDbLine
 62
7
  6
CONTINUOUS
 10
21.5174439744
 20
120.9488974289
 11
52.8404469138
 21
139.0331336595
  0
LINE
  5
21A
100
AcDbEntity
  8
0
100
AcDbLine
 62
7
  6
CONTINUOUS
 10
16.5295570891
 20
110.5461851354
 11
16.5295570891
 21
108.5049290926
  0
LINE
  5
21B
100
AcDbEntity
  8
0
100
AcDbLine
 62
7
  6
CONTINUOUS
 10
16.5295570891
 20
104.4224170069
 11
16.5295570891
 21
104.6337402455
  0
LINE
  5
21C
100
AcDbEntity
  8
0
100
AcDbLine
 62
7
  6
CONTINUOUS
 10
17.0472032224
 20
104.9326015959
 11
17.0472032224
 21
101.68879621
  0
LINE
  5
21D
100
AcDbEntity
  8
0
100
AcDbLine
 62
7
  6
CONTINUOUS
 10
17.0472032224
 20
107.3895912101
 11
17.0472032224
 21
111.0491301674
  0
LINE
  5
21E
100
AcDbEntity
  8
0
100
AcDbLine
 62
7
  6
CONTINUOUS
 10
17.8023734358
 20
103.034437743
 11
17.8023734358
 21
105.1573440276
  0
LINE
  5
21F
100
AcDbEntity
  8
0
100
AcDbLine
 62
7
  6
CONTINUOUS
 10
17.9437824274
 20
108.0967163008
 11
17.9437824274
 21
107.1577385211
  0
LINE
  5
220
100
AcDbEntity
  8
0
100
AcDbLine
 62
7
  6
CONTINUOUS
 10
18.0775466326
 20
89.4552809646
 11
18.0775466326
 21
102.6919963378
  0
LINE
  5
221
100
AcDbEntity
  8
0
100
AcDbLine
 62
7
  6
CONTINUOUS
 10
18.0775466326
 20
105.6126526081
 11
18.0775466326
 21
118.8493679813
  0
LINE
  5
222
100
AcDbEntity
  8
0
100
AcDbLine
 62
7
  6
CONTINUOUS
 10
16.7046307118
 20
111.3236843501
 11
18.0775466326
 21
112.1163329951
  0
LINE
  5
223
100
AcDbEntity
  8
0
100
AcDbLine
 62
7
  6
CONTINUOUS
 10
18.0775466326
 20
111.4399401989
 11
17.2366727022
 21
110.9544643067
  0
LINE
  5
224
100
AcDbEntity
  8
0
100
AcDbLine
 62
7
  6
CONTINUOUS
 10
25.859287328
 20
118.4421897093
 11
22.0115256397
 21
116.5781355247
  0
LINE
  5
225
100
AcDbEntity
  8
0
100
AcDbLine
 62
7
  6
CONTINUOUS
 10
22.0115256397
 20
114.6676956794
 11
25.859287328
 21
116.531749864
  0
LINE
  5
226
100
AcDbEntity
  8
0
100
AcDbLine
 62
7
  6
CONTINUOUS
 10
64.6480138235
 20
38.1970541522
 11
64.1891172894
 21
38.4349208727
  0
LINE
  5
227
100
AcDbEntity
  8
0
100
AcDbLine
 62
7
  6
CONTINUOUS
 10
66.4852934922
 20
37.8453989097
 11
65.1962241876
 21
38.5135815286
  0
LINE
  5
228
100
AcDbEntity
  8
0
100
AcDbLine
 62
7
  6
CONTINUOUS
 10
64.7373276535
 20
38.7514482491
 11
63.4482583489
 21
39.419630868
  0
LINE
  5
229
100
AcDbEntity
  8
0
100
AcDbLine
 62
7
  6
CONTINUOUS
 10
21.8309234325
 20
97.0598095591
 11
21.8309234325
 21
100.5250322552
  0
LINE
  5
22A
100
AcDbEntity
  8
0
100
AcDbLine
 62
7
  6
CONTINUOUS
 10
21.8309234325
 20
103.4456885256
 11
21.8309234325
 21
106.9109112217
  0
LINE
  5
22B
100
AcDbEntity
  8
0
100
AcDbLine
 62
7
  6
CONTINUOUS
 10
22.0115256397
 20
89.0944883533
 11
22.0115256397
 21
87.184048508
  0
LINE
  5
22C
100
AcDbEntity
  8
0
100
AcDbLine
 62
7
  6
CONTINUOUS
 10
22.0115256397
 20
114.6676956794
 11
22.0115256397
 21
116.5781355247
  0
LINE
  5
22D
100
AcDbEntity
  8
0
100
AcDbLine
 62
7
  6
CONTINUOUS
 10
22.8007870556
 20
100.1486675789
 11
22.8007870556
 21
97.6197572405
  0
LINE
  5
22E
100
AcDbEntity
  8
0
100
AcDbLine
 62
7
  6
CONTINUOUS
 10
22.8007870556
 20
104.005636207
 11
22.8007870556
 21
106.3509728654
  0
LINE
  5
22F
100
AcDbEntity
  8
0
100
AcDbLine
 62
7
  6
CONTINUOUS
 10
27.62810891
 20
113.3354730205
 11
30.856759583
 21
115.5569630301
  0
LINE
  5
230
100
AcDbEntity
  8
0
100
AcDbLine
 62
7
  6
CONTINUOUS
 10
14.2668248101
 20
107.1985478002
 11
16.5295570891
 21
108.5049290926
  0
LINE
  5
231
100
AcDbEntity
  8
0
100
AcDbLine
 62
7
  6
CONTINUOUS
 10
18.0775466326
 20
108.1739446397
 11
17.9437824274
 21
108.0967163008
  0
LINE
  5
232
100
AcDbEntity
  8
0
100
AcDbLine
 62
7
  6
CONTINUOUS
 10
15.6819287006
 20
106.3815556708
 11
17.2375571425
 21
107.2796928094
  0
LINE
  5
233
100
AcDbEntity
  8
0
100
AcDbLine
 62
7
  6
CONTINUOUS
 10
18.0775466326
 20
107.2350101548
 11
17.9437824274
 21
107.1577844487
  0
LINE
  5
234
100
AcDbEntity
  8
0
100
AcDbLine
 62
7
  6
CONTINUOUS
 10
17.3365320091
 20
105.0996446517
 11
15.7809035672
 21
104.2015075132
  0
LINE
  5
235
100
AcDbEntity
  8
0
100
AcDbLine
 62
7
  6
CONTINUOUS
 10
17.8023734358
 20
105.1573440276
 11
18.3342733229
 21
105.4644347375
  0
LINE
  5
236
100
AcDbEntity
  8
0
100
AcDbLine
 62
7
  6
CONTINUOUS
 10
65.4945997111
 20
131.7274204129
 11
75.9414352731
 21
137.3518361453
  0
LINE
  5
237
100
AcDbEntity
  8
0
100
AcDbLine
 62
7
  6
CONTINUOUS
 10
63.9104688842
 20
39.6865034002
 11
65.1995381888
 21
39.0183207813
  0
LINE
  5
238
100
AcDbEntity
  8
0
100
AcDbLine
 62
7
  6
CONTINUOUS
 10
65.6584347229
 20
38.7804540608
 11
66.9475040275
 21
38.1122714419
  0
LINE
  5
239
100
AcDbEntity
  8
0
100
AcDbLine
 62
7
  6
CONTINUOUS
 10
65.7477485529
 20
39.3348481577
 11
66.2066450871
 21
39.0969814372
  0
LINE
  5
23A
100
AcDbEntity
  8
0
100
AcDbLine
 62
7
  6
CONTINUOUS
 10
25.859287328
 20
116.531749864
 11
25.859287328
 21
118.4421897093
  0
LINE
  5
23B
100
AcDbEntity
  8
0
100
AcDbLine
 62
7
  6
CONTINUOUS
 10
26.2876901375
 20
97.5231718759
 11
26.2876901375
 21
98.1355486888
  0
LINE
  5
23C
100
AcDbEntity
  8
0
100
AcDbLine
 62
7
  6
CONTINUOUS
 10
26.2876901375
 20
100.2584549733
 11
26.2876901375
 21
100.9524820279
  0
LINE
  5
23D
100
AcDbEntity
  8
0
100
AcDbLine
 62
7
  6
CONTINUOUS
 10
27.62810891
 20
85.8518258491
 11
27.62810891
 21
83.9413860038
  0
LINE
  5
23E
100
AcDbEntity
  8
0
100
AcDbLine
 62
7
  6
CONTINUOUS
 10
27.62810891
 20
111.4250331752
 11
27.62810891
 21
113.3354730205
  0
LINE
  5
23F
100
AcDbEntity
  8
0
100
AcDbLine
 62
7
  6
CONTINUOUS
 10
29.1195844754
 20
103.1113836782
 11
29.1195844754
 21
101.7184088122
  0
LINE
  5
240
100
AcDbEntity
  8
0
100
AcDbLine
 62
7
  6
CONTINUOUS
 10
29.1195844754
 20
93.8362819169
 11
29.1195844754
 21
92.4432820052
  0
LINE
  5
241
100
AcDbEntity
  8
0
100
AcDbLine
 62
7
  6
CONTINUOUS
 10
29.6026282022
 20
99.0386449407
 11
30.1047223237
 21
100.9124987278
  0
LINE
  5
242
100
AcDbEntity
  8
0
100
AcDbLine
 62
7
  6
CONTINUOUS
 10
31.6603507656
 20
101.8106358663
 11
31.9445549853
 21
102.8713078213
  0
LINE
  5
243
100
AcDbEntity
  8
0
100
AcDbLine
 62
7
  6
CONTINUOUS
 10
18.0775466326
 20
102.6919963378
 11
18.2281668478
 21
102.7886113633
  0
LINE
  5
244
100
AcDbEntity
  8
0
100
AcDbLine
 62
7
  6
CONTINUOUS
 10
18.0775466325
 20
102.6919963377
 11
18.2324714235
 21
102.7861261716
  0
LINE
  5
245
100
AcDbEntity
  8
0
100
AcDbLine
 62
7
  6
CONTINUOUS
 10
18.2365283758
 20
102.7837839421
 11
18.0775466325
 21
102.6919963377
  0
LINE
  5
246
100
AcDbEntity
  8
0
100
AcDbLine
 62
7
  6
CONTINUOUS
 10
22.8007870556
 20
104.005636207
 11
21.8309234325
 21
103.4456885256
  0
LINE
  5
247
100
AcDbEntity
  8
0
100
AcDbLine
 62
7
  6
CONTINUOUS
 10
37.0795148055
 20
111.9643349035
 11
33.4486566638
 21
109.9750542308
  0
LINE
  5
248
100
AcDbEntity
  8
0
100
AcDbLine
 62
7
  6
CONTINUOUS
 10
15.6819287006
 20
106.3815556708
 11
15.5882048408
 21
106.3387582736
  0
LINE
  5
249
100
AcDbEntity
  8
0
100
AcDbLine
 62
7
  6
CONTINUOUS
 10
16.5295570891
 20
108.5049290926
 11
17.0472032224
 21
107.3895912101
  0
LINE
  5
24A
100
AcDbEntity
  8
0
100
AcDbLine
 62
7
  6
CONTINUOUS
 10
31.9445679387
 20
92.0935144344
 11
31.9445679387
 21
99.8502873971
  0
LINE
  5
24B
100
AcDbEntity
  8
0
100
AcDbLine
 62
7
  6
CONTINUOUS
 10
33.4486566638
 20
80.5809672142
 11
33.4486566638
 21
91.3369474651
  0
LINE
  5
24C
100
AcDbEntity
  8
0
100
AcDbLine
 62
7
  6
CONTINUOUS
 10
33.4486566638
 20
99.2190743614
 11
33.4486566638
 21
109.9750542308
  0
LINE
  5
24D
100
AcDbEntity
  8
0
100
AcDbLine
 62
7
  6
CONTINUOUS
 10
33.5001963806
 20
100.7484245356
 11
33.5001963806
 21
101.9731781613
  0
LINE
  5
24E
100
AcDbEntity
  8
0
100
AcDbLine
 62
7
  6
CONTINUOUS
 10
34.4439172711
 20
100.7488466113
 11
34.4439172711
 21
99.7474282139
  0
LINE
  5
24F
100
AcDbEntity
  8
0
100
AcDbLine
 62
7
  6
CONTINUOUS
 10
34.4439172711
 20
91.8822325225
 11
34.4439172711
 21
90.8977449486
  0
LINE
  5
250
100
AcDbEntity
  8
0
100
AcDbLine
 62
7
  6
CONTINUOUS
 10
21.9899051757
 20
100.6168198596
 11
21.8309234325
 21
100.5250322552
  0
LINE
  5
251
100
AcDbEntity
  8
0
100
AcDbLine
 62
7
  6
CONTINUOUS
 10
29.1195844754
 20
102.5874672266
 11
26.2876901376
 21
100.9524820279
  0
LINE
  5
252
100
AcDbEntity
  8
0
100
AcDbLine
 62
7
  6
CONTINUOUS
 10
22.8007870556
 20
97.6197572405
 11
21.8309234325
 21
97.0598095591
  0
LINE
  5
253
100
AcDbEntity
  8
0
100
AcDbLine
 62
7
  6
CONTINUOUS
 10
34.2779976481
 20
104.218513529
 11
31.9445549853
 21
102.8713078213
  0
LINE
  5
254
100
AcDbEntity
  8
0
100
AcDbLine
 62
7
  6
CONTINUOUS
 10
30.1047223237
 20
100.9124987278
 11
31.6603507656
 21
101.8106358663
  0
LINE
  5
255
100
AcDbEntity
  8
0
100
AcDbLine
 62
7
  6
CONTINUOUS
 10
64.301759308
 20
52.4236191191
 11
63.8425237409
 21
52.6709329569
  0
LINE
  5
256
100
AcDbEntity
  8
0
100
AcDbLine
 62
7
  6
CONTINUOUS
 10
66.1399913289
 20
52.0454263356
 11
64.8499696594
 21
52.7401465028
  0
LINE
  5
257
100
AcDbEntity
  8
0
100
AcDbLine
 62
7
  6
CONTINUOUS
 10
64.3907340923
 20
52.9874603406
 11
63.1007124228
 21
53.6821805077
  0
LINE
  5
258
100
AcDbEntity
  8
0
100
AcDbLine
 62
7
  6
CONTINUOUS
 10
63.5629229474
 20
53.9490530462
 11
64.8529446169
 21
53.254332879
  0
LINE
  5
259
100
AcDbEntity
  8
0
100
AcDbLine
 62
7
  6
CONTINUOUS
 10
65.3121801839
 20
53.0070190412
 11
66.6022018535
 21
52.312298874
  0
LINE
  5
25A
100
AcDbEntity
  8
0
100
AcDbLine
 62
7
  6
CONTINUOUS
 10
65.4011549683
 20
53.5708602627
 11
65.8603905354
 21
53.3235464249
  0
LINE
  5
25B
100
AcDbEntity
  8
0
100
AcDbLine
 62
7
  6
CONTINUOUS
 10
30.1047223237
 20
93.1557257651
 11
29.6026282022
 21
95.6093347888
  0
LINE
  5
25C
100
AcDbEntity
  8
0
100
AcDbLine
 62
7
  6
CONTINUOUS
 10
36.3286235053
 20
101.97318496
 11
36.3286235053
 21
100.7484313343
  0
LINE
  5
25D
100
AcDbEntity
  8
0
100
AcDbLine
 62
7
  6
CONTINUOUS
 10
36.3286235053
 20
92.0935249724
 11
36.3286235053
 21
91.7669047459
  0
LINE
  5
25E
100
AcDbEntity
  8
0
100
AcDbLine
 62
7
  6
CONTINUOUS
 10
36.894315407
 20
99.8502992948
 11
36.894315407
 21
92.0935263321
  0
LINE
  5
25F
100
AcDbEntity
  8
0
100
AcDbLine
 62
7
  6
CONTINUOUS
 10
37.0795148055
 20
82.5702478868
 11
37.0795148055
 21
92.2004294524
  0
LINE
  5
260
100
AcDbEntity
  8
0
100
AcDbLine
 62
7
  6
CONTINUOUS
 10
37.0795148055
 20
102.1928422265
 11
37.0795148055
 21
111.9643349035
  0
LINE
  5
261
100
AcDbEntity
  8
0
100
AcDbLine
 62
7
  6
CONTINUOUS
 10
37.2478584937
 20
102.5039023601
 11
37.2478584937
 21
100.0546412165
  0
LINE
  5
262
100
AcDbEntity
  8
0
100
AcDbLine
 62
7
  6
CONTINUOUS
 10
37.24824811
 20
100.0546412165
 11
37.24824811
 21
92.2978682537
  0
LINE
  5
263
100
AcDbEntity
  8
0
100
AcDbLine
 62
7
  6
CONTINUOUS
 10
24.8637023363
 20
96.7605775771
 11
25.2107591302
 21
96.9609497144
  0
LINE
  5
264
100
AcDbEntity
  8
0
100
AcDbLine
 62
7
  6
CONTINUOUS
 10
37.2478584937
 20
102.5039023601
 11
36.3286235053
 21
101.97318496
  0
LINE
  5
265
100
AcDbEntity
  8
0
100
AcDbLine
 62
7
  6
CONTINUOUS
 10
25.1993526012
 20
95.1150900672
 11
26.4565832238
 21
95.8409481728
  0
LINE
  5
266
100
AcDbEntity
  8
0
100
AcDbLine
 62
7
  6
CONTINUOUS
 10
36.6821754239
 20
100.9525534113
 11
36.3286235053
 21
100.7484313343
  0
LINE
  5
267
100
AcDbEntity
  8
0
100
AcDbLine
 62
7
  6
CONTINUOUS
 10
37.24824811
 20
100.0546412165
 11
36.894315407
 21
99.8502992948
  0
LINE
  5
268
100
AcDbEntity
  8
0
100
AcDbLine
 62
7
  6
CONTINUOUS
 10
34.4439172711
 20
100.7488466113
 11
37.0795148055
 21
102.1928422265
  0
LINE
  5
269
100
AcDbEntity
  8
0
100
AcDbLine
 62
7
  6
CONTINUOUS
 10
33.4486566638
 20
99.2190743614
 11
34.4439172711
 21
99.7474282139
  0
LINE
  5
26A
100
AcDbEntity
  8
0
100
AcDbLine
 62
7
  6
CONTINUOUS
 10
25.1993526012
 20
95.1150900672
 11
27.4658251581
 21
92.2955849149
  0
LINE
  5
26B
100
AcDbEntity
  8
0
100
AcDbLine
 62
7
  6
CONTINUOUS
 10
29.2340069588
 20
93.9102819591
 11
28.4827547076
 21
95.071904923
  0
LINE
  5
26C
100
AcDbEntity
  8
0
100
AcDbLine
 62
7
  6
CONTINUOUS
 10
29.8760803107
 20
94.273042384
 11
29.1195844754
 21
93.8362819169
  0
LINE
  5
26D
100
AcDbEntity
  8
0
100
AcDbLine
 62
7
  6
CONTINUOUS
 10
29.1195844754
 20
93.249909511
 11
28.7238990818
 21
93.0215183356
  0
LINE
  5
26E
100
AcDbEntity
  8
0
100
AcDbLine
 62
7
  6
CONTINUOUS
 10
28.7238923118
 20
93.020402371
 11
27.4658251581
 21
92.295584915
  0
LINE
  5
26F
100
AcDbEntity
  8
0
100
AcDbLine
 62
7
  6
CONTINUOUS
 10
71.5446281773
 20
59.1585745605
 11
76.2602627694
 21
57.2522526373
  0
LINE
  5
270
100
AcDbEntity
  8
0
100
AcDbLine
 62
7
  6
CONTINUOUS
 10
68.2408147473
 20
62.4045996485
 11
71.5446281773
 21
61.0690144057
  0
LINE
  5
271
100
AcDbEntity
  8
0
100
AcDbLine
 62
7
  6
CONTINUOUS
 10
65.476146225
 20
62.0903058091
 11
59.0899106911
 21
65.7773172024
  0
LINE
  5
272
100
AcDbEntity
  8
0
100
AcDbLine
 62
7
  6
CONTINUOUS
 10
33.4486566638
 20
80.5809672142
 11
27.62810891
 21
83.9413860038
  0
LINE
  5
273
100
AcDbEntity
  8
0
100
AcDbLine
 62
7
  6
CONTINUOUS
 10
22.0115256397
 20
87.184048508
 11
18.0775466326
 21
89.4552809646
  0
LINE
  5
274
100
AcDbEntity
  8
0
100
AcDbLine
 62
7
  6
CONTINUOUS
 10
68.2408147473
 20
62.4045996485
 11
65.476146225
 21
64.0007456544
  0
LINE
  5
275
100
AcDbEntity
  8
0
100
AcDbLine
 62
7
  6
CONTINUOUS
 10
22.0115256397
 20
89.0944883533
 11
27.62810891
 21
85.8518258491
  0
LINE
  5
276
100
AcDbEntity
  8
0
100
AcDbLine
 62
7
  6
CONTINUOUS
 10
28.7250603307
 20
93.0197052405
 11
26.4565832238
 21
95.8409481728
  0
LINE
  5
277
100
AcDbEntity
  8
0
100
AcDbLine
 62
7
  6
CONTINUOUS
 10
37.24824811
 20
92.2978682537
 11
36.3286235053
 21
91.7669047459
  0
LINE
  5
278
100
AcDbEntity
  8
0
100
AcDbLine
 62
7
  6
CONTINUOUS
 10
34.4439172711
 20
91.8822325225
 11
33.4486566638
 21
91.3369474651
  0
LINE
  5
279
100
AcDbEntity
  8
0
100
AcDbLine
 62
7
  6
CONTINUOUS
 10
36.0303164989
 20
91.7669040289
 11
34.4439172711
 21
90.8977449486
  0
LINE
  5
27A
100
AcDbEntity
  8
0
100
AcDbLine
 62
7
  6
CONTINUOUS
 10
22.0115256397
 20
87.184048508
 11
23.8107910752
 21
88.0557054702
  0
LINE
  5
27B
100
AcDbEntity
  8
0
100
AcDbLine
 62
7
  6
CONTINUOUS
 10
57.2012000282
 20
70.7053015039
 11
59.0899106911
 21
69.6148785629
  0
LINE
  5
27C
100
AcDbEntity
  8
0
100
AcDbLine
 62
7
  6
CONTINUOUS
 10
57.2048838124
 20
70.9511235328
 11
37.0795148055
 21
82.5702478868
  0
LINE
  5
27D
100
AcDbEntity
  8
0
100
AcDbLine
 62
7
  6
CONTINUOUS
 10
57.2542567995
 20
74.2458246648
 11
59.0899106911
 21
73.186033372
  0
LINE
  5
27E
100
AcDbEntity
  8
0
100
AcDbLine
 62
7
  6
CONTINUOUS
 10
29.1195844754
 20
103.1113836782
 11
27.4658251581
 21
105.1686590057
  0
LINE
  5
27F
100
AcDbEntity
  8
0
100
AcDbLine
 62
7
  6
CONTINUOUS
 10
36.6821754239
 20
100.9525534113
 11
37.24824811
 21
100.0546412165
  0
LINE
  5
280
100
AcDbEntity
  8
0
100
AcDbLine
 62
7
  6
CONTINUOUS
 10
59.0484128024
 20
75.2455126406
 11
59.0899106911
 21
75.2387869461
  0
LINE
  5
281
100
AcDbEntity
  8
0
100
AcDbLine
 62
7
  6
CONTINUOUS
 10
25.1993526012
 20
95.1150900672
 11
21.8309234325
 21
97.0598095591
  0
LINE
  5
282
100
AcDbEntity
  8
0
100
AcDbLine
 62
7
  6
CONTINUOUS
 10
30.1047223237
 20
93.1557257651
 11
31.9445679387
 21
92.0935144344
  0
LINE
  5
283
100
AcDbEntity
  8
0
100
AcDbLine
 62
7
  6
CONTINUOUS
 10
29.1195844754
 20
93.8362819169
 11
30.0787792562
 21
93.2825030799
  0
LINE
  5
284
100
AcDbEntity
  8
0
100
AcDbLine
 62
7
  6
CONTINUOUS
 10
32.1382137824
 20
92.0935148999
 11
33.4486566638
 21
91.3369474651
  0
LINE
  5
285
100
AcDbEntity
  8
0
100
AcDbLine
 62
7
  6
CONTINUOUS
 10
26.4565832238
 20
95.8409481728
 11
24.8637023363
 21
96.7605775771
  0
LINE
  5
286
100
AcDbEntity
  8
0
100
AcDbLine
 62
7
  6
CONTINUOUS
 10
28.4827547076
 20
95.071904923
 11
22.8007870556
 21
98.3523162635
  0
LINE
  5
287
100
AcDbEntity
  8
0
100
AcDbLine
 62
7
  6
CONTINUOUS
 10
18.0775466326
 20
101.0792187024
 11
17.2366727022
 21
101.5646865097
  0
LINE
  5
288
100
AcDbEntity
  8
0
100
AcDbLine
 62
7
  6
CONTINUOUS
 10
34.4439172711
 20
91.8822325225
 11
34.0779491041
 21
92.0935195624
  0
LINE
  5
289
100
AcDbEntity
  8
0
100
AcDbLine
 62
7
  6
CONTINUOUS
 10
29.6026282022
 20
95.6093347888
 11
26.2876901375
 21
97.5231718759
  0
LINE
  5
28A
100
AcDbEntity
  8
0
100
AcDbLine
 62
7
  6
CONTINUOUS
 10
57.25428914
 20
88.9428861929
 11
57.2012000282
 21
92.4242657996
  0
LINE
  5
28B
100
AcDbEntity
  8
0
100
AcDbLine
 62
7
  6
CONTINUOUS
 10
57.2542567995
 20
74.2458246648
 11
57.2012000282
 21
70.7053015039
  0
LINE
  5
28C
100
AcDbEntity
  8
0
100
AcDbLine
 62
7
  6
CONTINUOUS
 10
59.0899106911
 20
95.1714042191
 11
62.5354649108
 21
97.2676677407
  0
LINE
  5
28D
100
AcDbEntity
  8
0
100
AcDbLine
 62
7
  6
CONTINUOUS
 10
57.2012000282
 20
92.4242657996
 11
58.9953560311
 21
93.4962783599
  0
LINE
  5
28E
100
AcDbEntity
  8
0
100
AcDbLine
 62
7
  6
CONTINUOUS
 10
33.4486566638
 20
80.5809672142
 11
37.0795148055
 21
82.5702478868
  0
LINE
  5
28F
100
AcDbEntity
  8
0
100
AcDbLine
 62
7
  6
CONTINUOUS
 10
21.8309234325
 20
100.5250322552
 11
18.0775466326
 21
102.6919963378
  0
LINE
  5
290
100
AcDbEntity
  8
0
100
AcDbLine
 62
7
  6
CONTINUOUS
 10
14.2668248101
 20
105.0756415156
 11
15.7809035672
 21
104.2015075132
  0
LINE
  5
291
100
AcDbEntity
  8
0
100
AcDbLine
 62
7
  6
CONTINUOUS
 10
17.8023734358
 20
103.034437743
 11
26.2876901375
 21
98.1355486888
  0
LINE
  5
292
100
AcDbEntity
  8
0
100
AcDbLine
 62
7
  6
CONTINUOUS
 10
14.2668248101
 20
107.1985478002
 11
15.6819287006
 21
106.3815556708
  0
LINE
  5
293
100
AcDbEntity
  8
0
100
AcDbLine
 62
7
  6
CONTINUOUS
 10
26.2876901375
 20
100.2584549733
 11
17.8023734358
 21
105.1573440276
  0
LINE
  5
294
100
AcDbEntity
  8
0
100
AcDbLine
 62
7
  6
CONTINUOUS
 10
21.8309234325
 20
103.4456885256
 11
18.0775466326
 21
105.6126526081
  0
LINE
  5
295
100
AcDbEntity
  8
0
100
AcDbLine
 62
7
  6
CONTINUOUS
 10
26.2876901375
 20
100.9524820279
 11
29.6026282022
 21
99.0386449407
  0
LINE
  5
296
100
AcDbEntity
  8
0
100
AcDbLine
 62
7
  6
CONTINUOUS
 10
17.0472032224
 20
107.3895912101
 11
17.2375571425
 21
107.2796928094
  0
LINE
  5
297
100
AcDbEntity
  8
0
100
AcDbLine
 62
7
  6
CONTINUOUS
 10
31.9445679387
 20
99.8502873971
 11
30.1047223237
 21
100.9124987278
  0
LINE
  5
298
100
AcDbEntity
  8
0
100
AcDbLine
 62
7
  6
CONTINUOUS
 10
62.8749261413
 20
36.5377470007
 11
62.783337917
 21
38.6618390319
  0
LINE
  5
299
100
AcDbEntity
  8
0
100
AcDbLine
 62
7
  6
CONTINUOUS
 10
63.9328059283
 20
39.1684680567
 11
63.9104688842
 21
39.6865034002
  0
LINE
  5
29A
100
AcDbEntity
  8
0
100
AcDbLine
 62
7
  6
CONTINUOUS
 10
64.7584822161
 20
38.2608367305
 11
64.7373276535
 21
38.7514482491
  0
LINE
  5
29B
100
AcDbEntity
  8
0
100
AcDbLine
 62
7
  6
CONTINUOUS
 10
62.4959273795
 20
50.8206131437
 11
62.4356579232
 21
52.9281549866
  0
LINE
  5
29C
100
AcDbEntity
  8
0
100
AcDbLine
 62
7
  6
CONTINUOUS
 10
63.5779036813
 20
53.4251969247
 11
63.5629229474
 21
53.9490530462
  0
LINE
  5
29D
100
AcDbEntity
  8
0
100
AcDbLine
 62
7
  6
CONTINUOUS
 10
59.0899106911
 20
65.7773172024
 11
59.0899106911
 21
95.1714042191
  0
LINE
  5
29E
100
AcDbEntity
  8
0
100
AcDbLine
 62
7
  6
CONTINUOUS
 10
110.6209507173
 20
121.587523524
 11
97.3207599083
 21
113.3529939408
  0
LINE
  5
29F
100
AcDbEntity
  8
0
100
AcDbLine
 62
7
  6
CONTINUOUS
 10
69.3239079133
 20
93.3484470104
 11
65.476146225
 21
91.4843928258
  0
LINE
  5
2A0
100
AcDbEntity
  8
0
100
AcDbLine
 62
7
  6
CONTINUOUS
 10
65.476146225
 20
89.5739529805
 11
69.3239079133
 21
91.4380071652
  0
LINE
  5
2A1
100
AcDbEntity
  8
0
100
AcDbLine
 62
7
  6
CONTINUOUS
 10
29.1195844754
 20
101.7184088122
 11
30.3101060851
 21
101.0310763899
  0
LINE
  5
2A2
100
AcDbEntity
  8
0
100
AcDbLine
 62
7
  6
CONTINUOUS
 10
21.8309234325
 20
106.9109112217
 11
25.1993526012
 21
104.9661917299
  0
LINE
  5
2A3
100
AcDbEntity
  8
0
100
AcDbLine
 62
7
  6
CONTINUOUS
 10
31.6603507656
 20
101.8106358663
 11
33.5001963806
 21
100.7484245356
  0
LINE
  5
2A4
100
AcDbEntity
  8
0
100
AcDbLine
 62
7
  6
CONTINUOUS
 10
17.2366727022
 20
110.9544643067
 11
18.0775466326
 21
110.4689964994
  0
LINE
  5
2A5
100
AcDbEntity
  8
0
100
AcDbLine
 62
7
  6
CONTINUOUS
 10
27.2860281664
 20
105.1525974801
 11
27.6456239375
 21
104.9449894615
  0
LINE
  5
2A6
100
AcDbEntity
  8
0
100
AcDbLine
 62
7
  6
CONTINUOUS
 10
31.9445549853
 20
102.8713078213
 11
33.5001963806
 21
101.9731781613
  0
LINE
  5
2A7
100
AcDbEntity
  8
0
100
AcDbLine
 62
7
  6
CONTINUOUS
 10
87.446839844
 20
70.9232861486
 11
90.7433853827
 21
69.020067751
  0
LINE
  5
2A8
100
AcDbEntity
  8
0
100
AcDbLine
 62
7
  6
CONTINUOUS
 10
59.0899106911
 20
87.8831135715
 11
57.25428914
 21
88.9428861929
  0
LINE
  5
2A9
100
AcDbEntity
  8
0
100
AcDbLine
 62
7
  6
CONTINUOUS
 10
89.0651560164
 20
71.8576158492
 11
92.3617015551
 21
69.9543974516
  0
LINE
  5
2AA
100
AcDbEntity
  8
0
100
AcDbLine
 62
7
  6
CONTINUOUS
 10
89.0731786696
 20
72.1480235485
 11
92.3697242083
 21
70.2448051509
  0
LINE
  5
2AB
100
AcDbEntity
  8
0
100
AcDbLine
 62
7
  6
CONTINUOUS
 10
65.2218752328
 20
38.5002854378
 11
65.1995381888
 21
39.0183207813
  0
LINE
  5
2AC
100
AcDbEntity
  8
0
100
AcDbLine
 62
7
  6
CONTINUOUS
 10
65.680771767
 20
38.2624187172
 11
65.6584347229
 21
38.7804540608
  0
LINE
  5
2AD
100
AcDbEntity
  8
0
100
AcDbLine
 62
7
  6
CONTINUOUS
 10
65.7689031155
 20
38.8442366391
 11
65.7477485529
 21
39.3348481577
  0
LINE
  5
2AE
100
AcDbEntity
  8
0
100
AcDbLine
 62
7
  6
CONTINUOUS
 10
67.7040126839
 20
36.7459712468
 11
67.6124244595
 21
38.870063278
  0
LINE
  5
2AF
100
AcDbEntity
  8
0
100
AcDbLine
 62
7
  6
CONTINUOUS
 10
64.4051511331
 20
52.48331581
 11
64.3907340923
 21
52.9874603406
  0
LINE
  5
2B0
100
AcDbEntity
  8
0
100
AcDbLine
 62
7
  6
CONTINUOUS
 10
64.8679253508
 20
52.7304767575
 11
64.8529446169
 21
53.254332879
  0
LINE
  5
2B1
100
AcDbEntity
  8
0
100
AcDbLine
 62
7
  6
CONTINUOUS
 10
65.3271609179
 20
52.4831629197
 11
65.3121801839
 21
53.0070190412
  0
LINE
  5
2B2
100
AcDbEntity
  8
0
100
AcDbLine
 62
7
  6
CONTINUOUS
 10
65.4155720091
 20
53.0667157321
 11
65.4011549683
 21
53.5708602627
  0
LINE
  5
2B3
100
AcDbEntity
  8
0
100
AcDbLine
 62
7
  6
CONTINUOUS
 10
67.3275258092
 20
50.9587825523
 11
67.267256353
 21
53.0663243952
  0
LINE
  5
2B4
100
AcDbEntity
  8
0
100
AcDbLine
 62
7
  6
CONTINUOUS
 10
65.476146225
 20
64.0007456544
 11
65.476146225
 21
62.0903058091
  0
LINE
  5
2B5
100
AcDbEntity
  8
0
100
AcDbLine
 62
7
  6
CONTINUOUS
 10
65.476146225
 20
89.5739529805
 11
65.476146225
 21
91.4843928258
  0
LINE
  5
2B6
100
AcDbEntity
  8
0
100
AcDbLine
 62
7
  6
CONTINUOUS
 10
71.5446281773
 20
88.5526615771
 11
74.3213801684
 21
90.4632203313
  0
LINE
  5
2B7
100
AcDbEntity
  8
0
100
AcDbLine
 62
7
  6
CONTINUOUS
 10
34.4439172711
 20
91.7669002156
 11
36.3286235053
 21
91.7669047459
  0
LINE
  5
2B8
100
AcDbEntity
  8
0
100
AcDbLine
 62
7
  6
CONTINUOUS
 10
31.9445679387
 20
92.0935144344
 11
36.894315407
 21
92.0935263321
  0
LINE
  5
2B9
100
AcDbEntity
  8
0
100
AcDbLine
 62
7
  6
CONTINUOUS
 10
29.1195844754
 20
102.8378146734
 11
22.8007870556
 21
105.0454122823
  0
LINE
  5
2BA
100
AcDbEntity
  8
0
100
AcDbLine
 62
7
  6
CONTINUOUS
 10
71.5446281773
 20
86.6422217318
 11
68.2408147473
 21
87.9778069746
  0
LINE
  5
2BB
100
AcDbEntity
  8
0
100
AcDbLine
 62
7
  6
CONTINUOUS
 10
76.2602627694
 20
86.646339654
 11
71.5446281773
 21
88.5526615771
  0
LINE
  5
2BC
100
AcDbEntity
  8
0
100
AcDbLine
 62
7
  6
CONTINUOUS
 10
34.2779976481
 20
104.218513529
 11
37.2478584937
 21
102.5039023601
  0
LINE
  5
2BD
100
AcDbEntity
  8
0
100
AcDbLine
 62
7
  6
CONTINUOUS
 10
59.0899106911
 20
91.3338428586
 11
57.2012000282
 21
92.4242657996
  0
LINE
  5
2BE
100
AcDbEntity
  8
0
100
AcDbLine
 62
7
  6
CONTINUOUS
 10
90.2045448092
 20
74.1076180621
 11
93.5010903478
 21
72.2043996645
  0
LINE
  5
2BF
100
AcDbEntity
  8
0
100
AcDbLine
 62
7
  6
CONTINUOUS
 10
90.7702278789
 20
74.4342133852
 11
94.0667734176
 21
72.5309949876
  0
LINE
  5
2C0
100
AcDbEntity
  8
0
100
AcDbLine
 62
7
  6
CONTINUOUS
 10
68.2408147473
 20
87.9778069746
 11
65.476146225
 21
89.5739529805
  0
LINE
  5
2C1
100
AcDbEntity
  8
0
100
AcDbLine
 62
7
  6
CONTINUOUS
 10
22.0115256397
 20
114.6676956794
 11
27.62810891
 21
111.4250331752
  0
LINE
  5
2C2
100
AcDbEntity
  8
0
100
AcDbLine
 62
7
  6
CONTINUOUS
 10
65.476146225
 20
91.4843928258
 11
59.0899106911
 21
95.1714042191
  0
LINE
  5
2C3
100
AcDbEntity
  8
0
100
AcDbLine
 62
7
  6
CONTINUOUS
 10
33.4486566638
 20
109.9750542308
 11
27.62810891
 21
113.3354730205
  0
LINE
  5
2C4
100
AcDbEntity
  8
0
100
AcDbLine
 62
7
  6
CONTINUOUS
 10
22.0115256397
 20
116.5781355247
 11
18.0775466326
 21
118.8493679813
  0
LINE
  5
2C5
100
AcDbEntity
  8
0
100
AcDbLine
 62
7
  6
CONTINUOUS
 10
68.2408147473
 20
62.4045996485
 11
68.2408147473
 21
87.9778069746
  0
LINE
  5
2C6
100
AcDbEntity
  8
0
100
AcDbLine
 62
7
  6
CONTINUOUS
 10
69.3239079133
 20
91.4380071652
 11
69.3239079133
 21
93.3484470104
  0
LINE
  5
2C7
100
AcDbEntity
  8
0
100
AcDbLine
 62
7
  6
CONTINUOUS
 10
71.5446281773
 20
61.0690144057
 11
71.5446281773
 21
59.1585745605
  0
LINE
  5
2C8
100
AcDbEntity
  8
0
100
AcDbLine
 62
7
  6
CONTINUOUS
 10
71.5446281773
 20
86.6422217318
 11
71.5446281773
 21
88.5526615771
  0
LINE
  5
2C9
100
AcDbEntity
  8
0
100
AcDbLine
 62
7
  6
CONTINUOUS
 10
109.9749127057
 20
106.0472806942
 11
78.4358841174
 21
87.8383227417
  0
LINE
  5
2CA
100
AcDbEntity
  8
0
100
AcDbLine
 62
7
  6
CONTINUOUS
 10
59.0484128024
 20
75.2455126406
 11
57.2542567995
 21
74.2458246648
  0
LINE
  5
2CB
100
AcDbEntity
  8
0
100
AcDbLine
 62
7
  6
CONTINUOUS
 10
78.4358841174
 20
87.8383227417
 11
76.2602627694
 21
86.646339654
  0
LINE
  5
2CC
100
AcDbEntity
  8
0
100
AcDbLine
 62
7
  6
CONTINUOUS
 10
27.4658251581
 20
92.2955849149
 11
29.1195844754
 21
92.4432820052
  0
LINE
  5
2CD
100
AcDbEntity
  8
0
100
AcDbLine
 62
7
  6
CONTINUOUS
 10
58.9953560311
 20
93.4962783599
 11
59.0899106911
 21
93.4823487255
  0
LINE
  5
2CE
100
AcDbEntity
  8
0
100
AcDbLine
 62
7
  6
CONTINUOUS
 10
93.5010903478
 20
76.7768132005
 11
92.1222315277
 21
77.5729131549
  0
LINE
  5
2CF
100
AcDbEntity
  8
0
100
AcDbLine
 62
7
  6
CONTINUOUS
 10
25.859287328
 20
116.531749864
 11
29.3469988364
 21
114.5181642392
  0
LINE
  5
2D0
100
AcDbEntity
  8
0
100
AcDbLine
 62
7
  6
CONTINUOUS
 10
69.3239079133
 20
91.4380071652
 11
72.8116194217
 21
89.4244215403
  0
LINE
  5
2D1
100
AcDbEntity
  8
0
100
AcDbLine
 62
7
  6
CONTINUOUS
 10
62.5354649108
 20
97.2676677407
 11
37.0795148055
 21
111.9643349035
  0
LINE
  5
2D2
100
AcDbEntity
  8
0
100
AcDbLine
 62
7
  6
CONTINUOUS
 10
25.859287328
 20
118.4421897093
 11
30.856759583
 21
115.5569630301
  0
LINE
  5
2D3
100
AcDbEntity
  8
0
100
AcDbLine
 62
7
  6
CONTINUOUS
 10
69.3239079133
 20
93.3484470104
 11
74.3213801684
 21
90.4632203313
  0
LINE
  5
2D4
100
AcDbEntity
  8
0
100
AcDbLine
 62
7
  6
CONTINUOUS
 10
76.2602627694
 20
57.2522526373
 11
76.2602627694
 21
86.646339654
  0
LINE
  5
2D5
100
AcDbEntity
  8
0
100
AcDbLine
 62
7
  6
CONTINUOUS
 10
93.5010903478
 20
91.4738567088
 11
94.0667734176
 21
91.8004520319
  0
LINE
  5
2D6
100
AcDbEntity
  8
0
100
AcDbLine
 62
7
  6
CONTINUOUS
 10
90.7702278789
 20
89.1312568935
 11
90.2045448092
 21
88.8046615704
  0
LINE
  5
2D7
100
AcDbEntity
  8
0
100
AcDbLine
 62
7
  6
CONTINUOUS
 10
89.0651560164
 20
86.5546593575
 11
87.446839844
 21
85.6203296569
  0
LINE
  5
2D8
100
AcDbEntity
  8
0
100
AcDbLine
 62
7
  6
CONTINUOUS
 10
90.7433853827
 20
91.4738842221
 11
92.3697242083
 21
92.3965157277
  0
LINE
  5
2D9
100
AcDbEntity
  8
0
100
AcDbLine
 62
7
  6
CONTINUOUS
 10
36.894315407
 20
99.8502992948
 11
34.4439172711
 21
99.8502934048
  0
LINE
  5
2DA
100
AcDbEntity
  8
0
100
AcDbLine
 62
7
  6
CONTINUOUS
 10
33.5001963806
 20
100.7484245356
 11
36.3286235053
 21
100.7484313343
  0
LINE
  5
2DB
100
AcDbEntity
  8
0
100
AcDbLine
 62
7
  6
CONTINUOUS
 10
87.446839844
 20
85.6203296569
 11
90.7433853827
 21
83.7171112594
  0
LINE
  5
2DC
100
AcDbEntity
  8
0
100
AcDbLine
 62
7
  6
CONTINUOUS
 10
89.0651560164
 20
86.5546593575
 11
92.3617015551
 21
84.6514409599
  0
LINE
  5
2DD
100
AcDbEntity
  8
0
100
AcDbLine
 62
7
  6
CONTINUOUS
 10
89.0731786696
 20
86.8450670568
 11
92.3697242083
 21
84.9418486593
  0
LINE
  5
2DE
100
AcDbEntity
  8
0
100
AcDbLine
 62
7
  6
CONTINUOUS
 10
78.4358841175
 20
58.444235725
 11
78.4358841175
 21
87.8383227417
  0
LINE
  5
2DF
100
AcDbEntity
  8
0
100
AcDbLine
 62
7
  6
CONTINUOUS
 10
94.0667734176
 20
87.228038496
 11
93.5010903478
 21
86.9014431729
  0
LINE
  5
2E0
100
AcDbEntity
  8
0
100
AcDbLine
 62
7
  6
CONTINUOUS
 10
92.3617015551
 20
84.6514409599
 11
90.7433853827
 21
83.7171112594
  0
LINE
  5
2E1
100
AcDbEntity
  8
0
100
AcDbLine
 62
7
  6
CONTINUOUS
 10
36.3286235053
 20
101.97318496
 11
33.5001963806
 21
101.9731781613
  0
LINE
  5
2E2
100
AcDbEntity
  8
0
100
AcDbLine
 62
7
  6
CONTINUOUS
 10
90.2045448092
 20
88.8046615704
 11
93.5010903478
 21
86.9014431729
  0
LINE
  5
2E3
100
AcDbEntity
  8
0
100
AcDbLine
 62
7
  6
CONTINUOUS
 10
90.7702278789
 20
89.1312568935
 11
94.0667734176
 21
87.228038496
  0
LINE
  5
2E4
100
AcDbEntity
  8
0
100
AcDbLine
 62
7
  6
CONTINUOUS
 10
93.5010903478
 20
91.4738567088
 11
92.1343269818
 21
92.2629735075
  0
LINE
  5
2E5
100
AcDbEntity
  8
0
100
AcDbLine
 62
7
  6
CONTINUOUS
 10
90.2045448092
 20
88.8046615704
 11
89.0731786696
 21
86.8450670568
  0
LINE
  5
2E6
100
AcDbEntity
  8
0
100
AcDbLine
 62
7
  6
CONTINUOUS
 10
109.9749127057
 20
91.7934558458
 11
110.6209507173
 21
92.1934365074
  0
LINE
  5
2E7
100
AcDbEntity
  8
0
100
AcDbLine
 62
7
  6
CONTINUOUS
 10
90.7433853827
 20
76.7768407138
 11
92.3617015551
 21
77.7111704143
  0
LINE
  5
2E8
100
AcDbEntity
  8
0
100
AcDbLine
 62
7
  6
CONTINUOUS
 10
65.476146225
 20
62.0903058091
 11
67.2754116605
 21
62.9619627713
  0
LINE
  5
2E9
100
AcDbEntity
  8
0
100
AcDbLine
 62
7
  6
CONTINUOUS
 10
27.4658251581
 20
105.1686590057
 11
25.1993526012
 21
104.9661917299
  0
LINE
  5
2EA
100
AcDbEntity
  8
0
100
AcDbLine
 62
7
  6
CONTINUOUS
 10
90.7702278789
 20
91.4891121269
 11
90.7702278789
 21
89.1312568935
  0
LINE
  5
2EB
100
AcDbEntity
  8
0
100
AcDbLine
 62
7
  6
CONTINUOUS
 10
90.7702278789
 20
76.7923381437
 11
90.7702278789
 21
74.4342133852
  0
LINE
  5
2EC
100
AcDbEntity
  8
0
100
AcDbLine
 62
7
  6
CONTINUOUS
 10
89.0731786696
 20
86.8450670568
 11
89.0651560164
 21
86.5546593575
  0
LINE
  5
2ED
100
AcDbEntity
  8
0
100
AcDbLine
 62
7
  6
CONTINUOUS
 10
89.0731786696
 20
72.1480235485
 11
89.0651560164
 21
71.8576158492
  0
LINE
  5
2EE
100
AcDbEntity
  8
0
100
AcDbLine
 62
7
  6
CONTINUOUS
 10
92.3697242083
 20
84.9418486593
 11
93.5010903478
 21
86.9014431729
  0
LINE
  5
2EF
100
AcDbEntity
  8
0
100
AcDbLine
 62
7
  6
CONTINUOUS
 10
93.5010903478
 20
76.7768132005
 11
94.0667734176
 21
77.1034085236
  0
LINE
  5
2F0
100
AcDbEntity
  8
0
100
AcDbLine
 62
7
  6
CONTINUOUS
 10
90.7702278789
 20
74.4342133852
 11
90.2045448092
 21
74.1076180621
  0
LINE
  5
2F1
100
AcDbEntity
  8
0
100
AcDbLine
 62
7
  6
CONTINUOUS
 10
89.0651560164
 20
71.8576158492
 11
87.446839844
 21
70.9232861486
  0
LINE
  5
2F2
100
AcDbEntity
  8
0
100
AcDbLine
 62
7
  6
CONTINUOUS
 10
94.0667734176
 20
72.5309949876
 11
93.5010903478
 21
72.2043996645
  0
LINE
  5
2F3
100
AcDbEntity
  8
0
100
AcDbLine
 62
7
  6
CONTINUOUS
 10
92.3617015551
 20
77.7111704143
 11
92.3697242083
 21
77.4300264217
  0
LINE
  5
2F4
100
AcDbEntity
  8
0
100
AcDbLine
 62
7
  6
CONTINUOUS
 10
92.3697242083
 20
92.3965157277
 11
92.3697242083
 21
92.12706993
  0
LINE
  5
2F5
100
AcDbEntity
  8
0
100
AcDbLine
 62
7
  6
CONTINUOUS
 10
94.0667734176
 20
91.8004520319
 11
94.0667734176
 21
87.228038496
  0
LINE
  5
2F6
100
AcDbEntity
  8
0
100
AcDbLine
 62
7
  6
CONTINUOUS
 10
94.0667734176
 20
77.1034085236
 11
94.0667734176
 21
72.5309949876
  0
LINE
  5
2F7
100
AcDbEntity
  8
0
100
AcDbLine
 62
7
  6
CONTINUOUS
 10
92.3697242083
 20
84.9418486593
 11
92.3617015551
 21
84.6514409599
  0
LINE
  5
2F8
100
AcDbEntity
  8
0
100
AcDbLine
 62
7
  6
CONTINUOUS
 10
92.3697242083
 20
70.2448051509
 11
92.3617015551
 21
69.9543974516
  0
LINE
  5
2F9
100
AcDbEntity
  8
0
100
AcDbLine
 62
7
  6
CONTINUOUS
 10
90.2045448092
 20
74.1076180621
 11
89.0731786696
 21
72.1480235485
  0
LINE
  5
2FA
100
AcDbEntity
  8
0
100
AcDbLine
 62
7
  6
CONTINUOUS
 10
63.1007124228
 20
53.6821805077
 11
63.5629229474
 21
53.9490530462
  0
LINE
  5
2FB
100
AcDbEntity
  8
0
100
AcDbLine
 62
7
  6
CONTINUOUS
 10
92.3617015551
 20
69.9543974516
 11
90.7433853827
 21
69.020067751
  0
LINE
  5
2FC
100
AcDbEntity
  8
0
100
AcDbLine
 62
7
  6
CONTINUOUS
 10
63.8425237409
 20
52.6709329569
 11
64.3907340923
 21
52.9874603406
  0
LINE
  5
2FD
100
AcDbEntity
  8
0
100
AcDbLine
 62
7
  6
CONTINUOUS
 10
64.8529446169
 20
53.254332879
 11
65.4011549683
 21
53.5708602627
  0
LINE
  5
2FE
100
AcDbEntity
  8
0
100
AcDbLine
 62
7
  6
CONTINUOUS
 10
65.8603905354
 20
53.3235464249
 11
65.3121801839
 21
53.0070190412
  0
LINE
  5
2FF
100
AcDbEntity
  8
0
100
AcDbLine
 62
7
  6
CONTINUOUS
 10
64.8499696594
 20
52.7401465028
 11
64.301759308
 21
52.4236191191
  0
LINE
  5
300
100
AcDbEntity
  8
0
100
AcDbLine
 62
7
  6
CONTINUOUS
 10
66.6022018535
 20
52.312298874
 11
66.1399913289
 21
52.0454263356
  0
LINE
  5
301
100
AcDbEntity
  8
0
100
AcDbLine
 62
7
  6
CONTINUOUS
 10
109.9749127057
 20
76.6531936776
 11
78.4358841175
 21
58.444235725
  0
LINE
  5
302
100
AcDbEntity
  8
0
100
AcDbLine
 62
7
  6
CONTINUOUS
 10
76.2602627694
 20
57.2522526373
 11
78.4358841174
 21
58.444235725
  0
LINE
  5
303
100
AcDbEntity
  8
0
100
AcDbLine
 62
7
  6
CONTINUOUS
 10
92.3697242083
 20
70.2448051509
 11
93.5010903478
 21
72.2043996645
  0
LINE
  5
304
100
AcDbEntity
  8
0
100
AcDbLine
 62
7
  6
CONTINUOUS
 10
63.4482583489
 20
39.419630868
 11
63.9104688842
 21
39.6865034002
  0
LINE
  5
305
100
AcDbEntity
  8
0
100
AcDbLine
 62
7
  6
CONTINUOUS
 10
64.1891172894
 20
38.4349208727
 11
64.7373276535
 21
38.7514482491
  0
LINE
  5
306
100
AcDbEntity
  8
0
100
AcDbLine
 62
7
  6
CONTINUOUS
 10
65.1995381888
 20
39.0183207813
 11
65.7477485529
 21
39.3348481577
  0
LINE
  5
307
100
AcDbEntity
  8
0
100
AcDbLine
 62
7
  6
CONTINUOUS
 10
52.8404469138
 20
139.0331336595
 11
65.4945997111
 21
131.7274204129
  0
LINE
  5
308
100
AcDbEntity
  8
0
100
AcDbLine
 62
7
  6
CONTINUOUS
 10
97.3207599083
 20
113.3529939408
 11
109.9749127057
 21
106.0472806942
  0
LINE
  5
309
100
AcDbEntity
  8
0
100
AcDbLine
 62
7
  6
CONTINUOUS
 10
109.9749127057
 20
76.6531936776
 11
109.9749127057
 21
106.0472806942
  0
LINE
  5
30A
100
AcDbEntity
  8
0
100
AcDbLine
 62
7
  6
CONTINUOUS
 10
66.2066450871
 20
39.0969814372
 11
65.6584347229
 21
38.7804540608
  0
LINE
  5
30B
100
AcDbEntity
  8
0
100
AcDbLine
 62
7
  6
CONTINUOUS
 10
65.1962241876
 20
38.5135815286
 11
64.6480138235
 21
38.1970541522
  0
LINE
  5
30C
100
AcDbEntity
  8
0
100
AcDbLine
 62
7
  6
CONTINUOUS
 10
66.9475040275
 20
38.1122714419
 11
66.4852934922
 21
37.8453989097
  0
LINE
  5
30D
100
AcDbEntity
  8
0
100
AcDbLine
 62
7
  6
CONTINUOUS
 10
110.6209507173
 20
92.1934365074
 11
110.6209507173
 21
121.587523524
  0
LINE
  5
30E
100
AcDbEntity
  8
0
100
AcDbLine
 62
7
  6
CONTINUOUS
 10
78.7196457575
 20
137.3238452915
 11
82.5386947429
 21
135.1189662127
  0
LINE
  5
30F
100
AcDbEntity
  8
0
100
AcDbLine
 62
7
  6
CONTINUOUS
 10
89.1716298361
 20
133.9710145568
 11
110.6209507173
 21
121.587523524
  0
SPLINE
  5
310
100
AcDbEntity
  8
0
100
AcDbSpline
 62
7
  6
CONTINUOUS
 70
0
 71
3
 72
26
 73
22
 74
0
 42
0.0000001
 43
0.0000001
 44
0.0000000001
 40
0.0
 40
0.0
 40
0.0
 40
0.0
 40
0.0631490616
 40
0.1303869569
 40
0.2009401682
 40
0.2738719523
 40
0.3481449564
 40
0.4226643814
 40
0.4963260144
 40
0.5680608302
 40
0.6368818693
 40
0.701934915
 40
0.762557852
 40
0.8183525971
 40
0.8692747414
 40
0.8930460024
 40
0.9158013824
 40
0.937680801
 40
0.9588623109
 40
0.9795564396
 40
1.0
 40
1.0
 40
1.0
 40
1.0
 10
63.4911174203
 20
39.6506436073
 30
0.0
 10
63.5771597641
 20
39.7003229988
 30
0.0
 10
63.761235855
 20
39.7920149258
 30
0.0
 10
64.0576538146
 20
39.9032548772
 30
0.0
 10
64.3778977925
 20
39.9907464682
 30
0.0
 10
64.7152617766
 20
40.0526411478
 30
0.0
 10
65.0627201823
 20
40.0876580314
 30
0.0
 10
65.4130041387
 20
40.0950592208
 30
0.0
 10
65.7587865637
 20
40.0746919236
 30
0.0
 10
66.0928435606
 20
40.0269835329
 30
0.0
 10
66.4082218913
 20
39.9529248341
 30
0.0
 10
66.6983880524
 20
39.8540406684
 30
0.0
 10
66.9574045796
 20
39.7322882195
 30
0.0
 10
67.1799343022
 20
39.5900669919
 30
0.0
 10
67.3346968052
 20
39.4534586132
 30
0.0
 10
67.4341182985
 20
39.3364455844
 30
0.0
 10
67.4951564856
 20
39.2475480064
 30
0.0
 10
67.5439867706
 20
39.1559717289
 30
0.0
 10
67.5803252164
 20
39.0621970319
 30
0.0
 10
67.60390356
 20
38.966754359
 30
0.0
 10
67.6110386974
 20
38.9021979566
 30
0.0
 10
67.6124235932
 20
38.8700632409
 30
0.0
  0
SPLINE
  5
311
100
AcDbEntity
  8
0
100
AcDbSpline
 62
7
  6
CONTINUOUS
 70
0
 71
3
 72
15
 73
11
 74
0
 42
0.0000001
 43
0.0000001
 44
0.0000000001
 40
0.0
 40
0.0
 40
0.0
 40
0.0
 40
0.1521174279
 40
0.2955941154
 40
0.4302978637
 40
0.5565798341
 40
0.6751861895
 40
0.7873759222
 40
0.8949149563
 40
1.0
 40
1.0
 40
1.0
 40
1.0
 10
66.9962331805
 20
35.7571666714
 30
0.0
 10
67.0522965768
 20
35.7895367266
 30
0.0
 10
67.1587775253
 20
35.85687007
 30
0.0
 10
67.3040874049
 20
35.96877726
 30
0.0
 10
67.4290161636
 20
36.0877070561
 30
0.0
 10
67.5322618049
 20
36.2125149805
 30
0.0
 10
67.6126962698
 20
36.3420629148
 30
0.0
 10
67.6693349675
 20
36.4751346832
 30
0.0
 10
67.7013641091
 20
36.6103090869
 30
0.0
 10
67.705937482
 20
36.7012911347
 30
0.0
 10
67.7040118734
 20
36.7459712121
 30
0.0
  0
SPLINE
  5
312
100
AcDbEntity
  8
0
100
AcDbSpline
 62
7
  6
CONTINUOUS
 70
0
 71
3
 72
15
 73
11
 74
0
 42
0.0000001
 43
0.0000001
 44
0.0000000001
 40
0.0
 40
0.0
 40
0.0
 40
0.0
 40
0.1050846409
 40
0.2126233494
 40
0.3248128953
 40
0.4434192566
 40
0.5697013226
 40
0.7044052844
 40
0.8478824972
 40
1.0
 40
1.0
 40
1.0
 40
1.0
 10
62.7833387832
 20
38.661839069
 30
0.0
 10
62.7814132329
 20
38.7065189761
 30
0.0
 10
62.7859863875
 20
38.7975007087
 30
0.0
 10
62.8180154076
 20
38.9326747516
 30
0.0
 10
62.8746539173
 20
39.06574635
 30
0.0
 10
62.9550881925
 20
39.1952943522
 30
0.0
 10
63.0583337371
 20
39.32010253
 30
0.0
 10
63.1832627132
 20
39.4390326172
 30
0.0
 10
63.3285728686
 20
39.5509400073
 30
0.0
 10
63.4350539979
 20
39.618273537
 30
0.0
 10
63.4911174203
 20
39.6506436073
 30
0.0
  0
SPLINE
  5
313
100
AcDbEntity
  8
0
100
AcDbSpline
 62
7
  6
CONTINUOUS
 70
0
 71
3
 72
26
 73
22
 74
0
 42
0.0000001
 43
0.0000001
 44
0.0000000001
 40
0.0
 40
0.0
 40
0.0
 40
0.0
 40
0.0204436003
 40
0.041137764
 40
0.0623193102
 40
0.0841987692
 40
0.1069542013
 40
0.1307255264
 40
0.1816478198
 40
0.2374426677
 40
0.2980655732
 40
0.363118452
 40
0.4319392748
 40
0.5036738944
 40
0.5773353308
 40
0.6518545377
 40
0.7261274024
 40
0.7990592346
 40
0.8696126263
 40
0.9368507742
 40
1.0
 40
1.0
 40
1.0
 40
1.0
 10
62.8749269518
 20
36.5377470354
 30
0.0
 10
62.8763118868
 20
36.5056122584
 30
0.0
 10
62.8834470653
 20
36.4410557452
 30
0.0
 10
62.9070254507
 20
36.3456128994
 30
0.0
 10
62.9433640395
 20
36.2518380663
 30
0.0
 10
62.9921944863
 20
36.1602616454
 30
0.0
 10
63.053232891
 20
36.0713639158
 30
0.0
 10
63.1526547738
 20
35.9543506685
 30
0.0
 10
63.3074178067
 20
35.817742131
 30
0.0
 10
63.529947985
 20
35.6755209708
 30
0.0
 10
63.7889644908
 20
35.5537688362
 30
0.0
 10
64.0791300944
 20
35.45488507
 30
0.0
 10
64.3945075565
 20
35.3808266766
 30
0.0
 10
64.7285636029
 20
35.333118428
 30
0.0
 10
65.0743450618
 20
35.3127511108
 30
0.0
 10
65.4246281475
 20
35.3201521308
 30
0.0
 10
65.7720860905
 20
35.3551687454
 30
0.0
 10
66.1094502528
 20
35.41706323
 30
0.0
 10
66.4296950294
 20
35.5045547854
 30
0.0
 10
66.7261139081
 20
35.6157949765
 30
0.0
 10
66.9101906128
 20
35.7074871505
 30
0.0
 10
66.9962331805
 20
35.7571666714
 30
0.0
  0
SPLINE
  5
314
100
AcDbEntity
  8
0
100
AcDbSpline
 62
7
  6
CONTINUOUS
 70
0
 71
3
 72
15
 73
11
 74
0
 42
0.0000001
 43
0.0000001
 44
0.0000000001
 40
0.0
 40
0.0
 40
0.0
 40
0.0
 40
0.1050846409
 40
0.2126233494
 40
0.3248128953
 40
0.4434192566
 40
0.5697013226
 40
0.7044052844
 40
0.8478824972
 40
1.0
 40
1.0
 40
1.0
 40
1.0
 10
67.6124235932
 20
38.8700632409
 30
0.0
 10
67.6143491435
 20
38.8253833338
 30
0.0
 10
67.6097759889
 20
38.7344016012
 30
0.0
 10
67.5777469688
 20
38.5992275583
 30
0.0
 10
67.5211084591
 20
38.4661559599
 30
0.0
 10
67.440674184
 20
38.3366079577
 30
0.0
 10
67.3374286393
 20
38.2117997799
 30
0.0
 10
67.2124996632
 20
38.0928696927
 30
0.0
 10
67.0671895078
 20
37.9809623026
 30
0.0
 10
66.9607083785
 20
37.9136287729
 30
0.0
 10
66.9046449561
 20
37.8812587026
 30
0.0
  0
SPLINE
  5
315
100
AcDbEntity
  8
0
100
AcDbSpline
 62
7
  6
CONTINUOUS
 70
0
 71
3
 72
26
 73
22
 74
0
 42
0.0000001
 43
0.0000001
 44
0.0000000001
 40
0.0
 40
0.0
 40
0.0
 40
0.0
 40
0.0631490616
 40
0.1303869569
 40
0.2009401682
 40
0.2738719523
 40
0.3481449564
 40
0.4226643814
 40
0.4963260144
 40
0.5680608302
 40
0.6368818693
 40
0.701934915
 40
0.762557852
 40
0.8183525971
 40
0.8692747414
 40
0.8930460024
 40
0.9158013824
 40
0.937680801
 40
0.9588623109
 40
0.9795564396
 40
1.0
 40
1.0
 40
1.0
 40
1.0
 10
66.9046449561
 20
37.8812587026
 30
0.0
 10
66.8186026123
 20
37.8315793111
 30
0.0
 10
66.6345265215
 20
37.7398873841
 30
0.0
 10
66.3381085618
 20
37.6286474327
 30
0.0
 10
66.0178645839
 20
37.5411558417
 30
0.0
 10
65.6805005998
 20
37.4792611621
 30
0.0
 10
65.3330421942
 20
37.4442442785
 30
0.0
 10
64.9827582377
 20
37.4368430891
 30
0.0
 10
64.6369758127
 20
37.4572103863
 30
0.0
 10
64.3029188159
 20
37.504918777
 30
0.0
 10
63.9875404851
 20
37.5789774759
 30
0.0
 10
63.697374324
 20
37.6778616416
 30
0.0
 10
63.4383577968
 20
37.7996140904
 30
0.0
 10
63.2158280743
 20
37.941835318
 30
0.0
 10
63.0610655712
 20
38.0784436967
 30
0.0
 10
62.961644078
 20
38.1954567255
 30
0.0
 10
62.9006058908
 20
38.2843543035
 30
0.0
 10
62.8517756058
 20
38.375930581
 30
0.0
 10
62.81543716
 20
38.469705278
 30
0.0
 10
62.7918588164
 20
38.5651479509
 30
0.0
 10
62.784723679
 20
38.6297043533
 30
0.0
 10
62.7833387832
 20
38.661839069
 30
0.0
  0
SPLINE
  5
316
100
AcDbEntity
  8
0
100
AcDbSpline
 62
7
  6
CONTINUOUS
 70
0
 71
3
 72
26
 73
22
 74
0
 42
0.0000001
 43
0.0000001
 44
0.0000000001
 40
0.0
 40
0.0
 40
0.0
 40
0.0
 40
0.0628814366
 40
0.1298056194
 40
0.2000248311
 40
0.2726241719
 40
0.3465851559
 40
0.4208294745
 40
0.4942676124
 40
0.5658439434
 40
0.6345840087
 40
0.699645491
 40
0.7603776155
 40
0.8163924393
 40
0.8676524746
 40
0.8916371315
 40
0.9146338612
 40
0.9367798537
 40
0.9582489015
 40
0.9792457623
 40
1.0
 40
1.0
 40
1.0
 40
1.0
 10
63.1434324125
 20
53.9170685984
 30
0.0
 10
63.2297351326
 20
53.9668983292
 30
0.0
 10
63.414476101
 20
54.0586024444
 30
0.0
 10
63.7121499443
 20
54.168993671
 30
0.0
 10
64.0337857693
 20
54.2547377464
 30
0.0
 10
64.3726034627
 20
54.314012998
 30
0.0
 10
64.7215024846
 20
54.3455879113
 30
0.0
 10
65.0731366599
 20
54.3487927059
 30
0.0
 10
65.4201029321
 20
54.3235617303
 30
0.0
 10
65.7551050812
 20
54.2704262274
 30
0.0
 10
66.0711233738
 20
54.1904950379
 30
0.0
 10
66.3615654281
 20
54.0854222221
 30
0.0
 10
66.6204411116
 20
53.957301715
 30
0.0
 10
66.842368757
 20
53.8086782484
 30
0.0
 10
66.9960744507
 20
53.6668134186
 30
0.0
 10
67.0944047993
 20
53.5458043991
 30
0.0
 10
67.1545811709
 20
53.4540051218
 30
0.0
 10
67.2024296069
 20
53.3596457544
 30
0.0
 10
67.2376724
 20
53.2632269465
 30
0.0
 10
67.2600498924
 20
53.1652979651
 30
0.0
 10
67.2663160062
 20
53.0992025022
 30
0.0
 10
67.2672551946
 20
53.0663243626
 30
0.0
  0
SPLINE
  5
317
100
AcDbEntity
  8
0
100
AcDbSpline
 62
7
  6
CONTINUOUS
 70
0
 71
3
 72
15
 73
11
 74
0
 42
0.0000001
 43
0.0000001
 44
0.0000000001
 40
0.0
 40
0.0
 40
0.0
 40
0.0
 40
0.1508765182
 40
0.2934489
 40
0.4276228579
 40
0.5537718602
 40
0.6726393011
 40
0.7854452142
 40
0.8938743744
 40
1.0
 40
1.0
 40
1.0
 40
1.0
 10
66.61975132
 20
49.9698689405
 30
0.0
 10
66.6753013207
 20
50.0019425713
 30
0.0
 10
66.7808781231
 20
50.0687647134
 30
0.0
 10
66.9250315566
 20
50.1800074995
 30
0.0
 10
67.0492086272
 20
50.2985061389
 30
0.0
 10
67.1521348821
 20
50.4231373047
 30
0.0
 10
67.232707244
 20
50.5527770662
 30
0.0
 10
67.2899661427
 20
50.6862190969
 30
0.0
 10
67.3231266328
 20
50.8220613734
 30
0.0
 10
67.3288130668
 20
50.9136820492
 30
0.0
 10
67.3275247153
 20
50.9587825217
 30
0.0
  0
SPLINE
  5
318
100
AcDbEntity
  8
0
100
AcDbSpline
 62
7
  6
CONTINUOUS
 70
0
 71
3
 72
15
 73
11
 74
0
 42
0.0000001
 43
0.0000001
 44
0.0000000001
 40
0.0
 40
0.0
 40
0.0
 40
0.0
 40
0.106125217
 40
0.2145540524
 40
0.3273597896
 40
0.446227249
 40
0.572376341
 40
0.7065505158
 40
0.849123416
 40
1.0
 40
1.0
 40
1.0
 40
1.0
 10
62.4356590817
 20
52.9281550192
 30
0.0
 10
62.4343707583
 20
52.9732553175
 30
0.0
 10
62.4400570169
 20
53.0648756788
 30
0.0
 10
62.4732173389
 20
53.2007176041
 30
0.0
 10
62.5304760741
 20
53.3341594715
 30
0.0
 10
62.6110482711
 20
53.4637992913
 30
0.0
 10
62.7139744142
 20
53.5884307277
 30
0.0
 10
62.8381517075
 20
53.7069296475
 30
0.0
 10
62.982305412
 20
53.8181726293
 30
0.0
 10
63.087882389
 20
53.8849949545
 30
0.0
 10
63.1434324125
 20
53.9170685984
 30
0.0
  0
SPLINE
  5
319
100
AcDbEntity
  8
0
100
AcDbSpline
 62
7
  6
CONTINUOUS
 70
0
 71
3
 72
26
 73
22
 74
0
 42
0.0000001
 43
0.0000001
 44
0.0000000001
 40
0.0
 40
0.0
 40
0.0
 40
0.0
 40
0.0207542784
 40
0.0417511746
 40
0.0632202598
 40
0.0853662916
 40
0.1083630736
 40
0.1323477934
 40
0.1836079783
 40
0.2396229082
 40
0.3003550054
 40
0.3654163226
 40
0.4341561711
 40
0.505732305
 40
0.5791702471
 40
0.6534143481
 40
0.727375191
 40
0.7999745767
 40
0.8701939671
 40
0.9371183999
 40
1.0
 40
1.0
 40
1.0
 40
1.0
 10
62.4959284734
 20
50.8206131743
 30
0.0
 10
62.4968676804
 20
50.7877349707
 30
0.0
 10
62.5031338951
 20
50.7216393988
 30
0.0
 10
62.5255113656
 20
50.6237102271
 30
0.0
 10
62.5607543479
 20
50.5272912942
 30
0.0
 10
62.6086029091
 20
50.4329317631
 30
0.0
 10
62.6687795193
 20
50.3411323456
 30
0.0
 10
62.767110238
 20
50.2201230862
 30
0.0
 10
62.9208164761
 20
50.0782580902
 30
0.0
 10
63.1427445912
 20
49.929634675
 30
0.0
 10
63.4016202769
 20
49.801514485
 30
0.0
 10
63.6920617877
 20
49.6964420867
 30
0.0
 10
64.0080792133
 20
49.6165112263
 30
0.0
 10
64.3430804068
 20
49.5633758857
 30
0.0
 10
64.6900457065
 20
49.5381449053
 30
0.0
 10
65.0416790018
 20
49.5413495395
 30
0.0
 10
65.3905775481
 20
49.5729241843
 30
0.0
 10
65.7293954101
 20
49.6321992315
 30
0.0
 10
66.0510320288
 20
49.7179432604
 30
0.0
 10
66.3487067927
 20
49.8283347192
 30
0.0
 10
66.5334483752
 20
49.92003908
 30
0.0
 10
66.61975132
 20
49.9698689405
 30
0.0
  0
SPLINE
  5
31A
100
AcDbEntity
  8
0
100
AcDbSpline
 62
7
  6
CONTINUOUS
 70
0
 71
3
 72
15
 73
11
 74
0
 42
0.0000001
 43
0.0000001
 44
0.0000000001
 40
0.0
 40
0.0
 40
0.0
 40
0.0
 40
0.106125217
 40
0.2145540524
 40
0.3273597896
 40
0.446227249
 40
0.572376341
 40
0.7065505158
 40
0.849123416
 40
1.0
 40
1.0
 40
1.0
 40
1.0
 10
67.2672551946
 20
53.0663243626
 30
0.0
 10
67.268543518
 20
53.0212240643
 30
0.0
 10
67.2628572593
 20
52.929603703
 30
0.0
 10
67.2296969374
 20
52.7937617777
 30
0.0
 10
67.1724382022
 20
52.6603199103
 30
0.0
 10
67.0918660052
 20
52.5306800905
 30
0.0
 10
66.988939862
 20
52.4060486541
 30
0.0
 10
66.8647625688
 20
52.2875497343
 30
0.0
 10
66.7206088642
 20
52.1763067525
 30
0.0
 10
66.6150318872
 20
52.1094844273
 30
0.0
 10
66.5594818638
 20
52.0774107834
 30
0.0
  0
SPLINE
  5
31B
100
AcDbEntity
  8
0
100
AcDbSpline
 62
7
  6
CONTINUOUS
 70
0
 71
3
 72
26
 73
22
 74
0
 42
0.0000001
 43
0.0000001
 44
0.0000000001
 40
0.0
 40
0.0
 40
0.0
 40
0.0
 40
0.0628814366
 40
0.1298056194
 40
0.2000248311
 40
0.2726241719
 40
0.3465851559
 40
0.4208294745
 40
0.4942676124
 40
0.5658439434
 40
0.6345840087
 40
0.699645491
 40
0.7603776155
 40
0.8163924393
 40
0.8676524746
 40
0.8916371315
 40
0.9146338612
 40
0.9367798537
 40
0.9582489015
 40
0.9792457623
 40
1.0
 40
1.0
 40
1.0
 40
1.0
 10
66.5594818638
 20
52.0774107834
 30
0.0
 10
66.4731791436
 20
52.0275810526
 30
0.0
 10
66.2884381752
 20
51.9358769374
 30
0.0
 10
65.9907643319
 20
51.8254857108
 30
0.0
 10
65.669128507
 20
51.7397416354
 30
0.0
 10
65.3303108135
 20
51.6804663838
 30
0.0
 10
64.9814117916
 20
51.6488914705
 30
0.0
 10
64.6297776164
 20
51.6456866759
 30
0.0
 10
64.2828113442
 20
51.6709176515
 30
0.0
 10
63.9478091951
 20
51.7240531544
 30
0.0
 10
63.6317909024
 20
51.8039843439
 30
0.0
 10
63.3413488481
 20
51.9090571596
 30
0.0
 10
63.0824731646
 20
52.0371776667
 30
0.0
 10
62.8605455193
 20
52.1858011334
 30
0.0
 10
62.7068398255
 20
52.3276659632
 30
0.0
 10
62.608509477
 20
52.4486749827
 30
0.0
 10
62.5483331053
 20
52.54047426
 30
0.0
 10
62.5004846694
 20
52.6348336274
 30
0.0
 10
62.4652418763
 20
52.7312524352
 30
0.0
 10
62.4428643838
 20
52.8291814167
 30
0.0
 10
62.43659827
 20
52.8952768796
 30
0.0
 10
62.4356590817
 20
52.9281550192
 30
0.0
  0
SPLINE
  5
31C
100
AcDbEntity
  8
0
100
AcDbSpline
 62
7
  6
CONTINUOUS
 70
0
 71
3
 72
9
 73
5
 74
0
 42
0.0000001
 43
0.0000001
 44
0.0000000001
 40
0.0
 40
0.0
 40
0.0
 40
0.0
 40
0.244150015
 40
1.0
 40
1.0
 40
1.0
 40
1.0
 10
17.2366727022
 20
101.5646865097
 30
0.0
 10
17.2207044124
 20
101.5739055976
 30
0.0
 10
17.1558566839
 20
101.6126240027
 30
0.0
 10
17.0932324979
 20
101.6550362422
 30
0.0
 10
17.0472032224
 20
101.68879621
 30
0.0
  0
SPLINE
  5
31D
100
AcDbEntity
  8
0
100
AcDbSpline
 62
7
  6
CONTINUOUS
 70
0
 71
3
 72
11
 73
7
 74
0
 42
0.0000001
 43
0.0000001
 44
0.0000000001
 40
0.0
 40
0.0
 40
0.0
 40
0.0
 40
0.285409977
 40
0.5450940702
 40
0.7812897524
 40
1.0
 40
1.0
 40
1.0
 40
1.0
 10
17.9437824274
 20
107.1577385211
 30
0.0
 10
17.8830198773
 20
107.1928190021
 30
0.0
 10
17.7620533021
 20
107.2519297015
 30
0.0
 10
17.5764338669
 20
107.3056026358
 30
0.0
 10
17.3997338817
 20
107.3180784954
 30
0.0
 10
17.288155713
 20
107.297368604
 30
0.0
 10
17.2373342978
 20
107.2798214659
 30
0.0
  0
SPLINE
  5
31E
100
AcDbEntity
  8
0
100
AcDbSpline
 62
7
  6
CONTINUOUS
 70
0
 71
3
 72
11
 73
7
 74
0
 42
0.0000001
 43
0.0000001
 44
0.0000000001
 40
0.0
 40
0.0
 40
0.0
 40
0.0
 40
0.2202909458
 40
0.458045398
 40
0.7176458475
 40
1.0
 40
1.0
 40
1.0
 40
1.0
 10
18.0713512393
 20
108.4908574675
 30
0.0
 10
18.0501744403
 20
108.4681019283
 30
0.0
 10
18.0121473689
 20
108.4149573108
 30
0.0
 10
17.9723859305
 20
108.3211250912
 30
0.0
 10
17.948625066
 20
108.2131738415
 30
0.0
 10
17.9437824274
 20
108.1365588475
 30
0.0
 10
17.9437824274
 20
108.0967163008
 30
0.0
  0
SPLINE
  5
31F
100
AcDbEntity
  8
0
100
AcDbSpline
 62
7
  6
CONTINUOUS
 70
0
 71
3
 72
9
 73
5
 74
0
 42
0.0000001
 43
0.0000001
 44
0.0000000001
 40
0.0
 40
0.0
 40
0.0
 40
0.0
 40
0.5160375968
 40
1.0
 40
1.0
 40
1.0
 40
1.0
 10
17.3365320091
 20
105.0996446517
 30
0.0
 10
17.4051168714
 20
105.0096694489
 30
0.0
 10
17.5492962003
 20
104.8435626057
 30
0.0
 10
17.7158414215
 20
104.6994162417
 30
0.0
 10
17.8018120868
 20
104.6372328381
 30
0.0
  0
SPLINE
  5
320
100
AcDbEntity
  8
0
100
AcDbSpline
 62
7
  6
CONTINUOUS
 70
0
 71
3
 72
11
 73
7
 74
0
 42
0.0000001
 43
0.0000001
 44
0.0000000001
 40
0.0
 40
0.0
 40
0.0
 40
0.0
 40
0.2278091369
 40
0.4766820515
 40
0.7376213296
 40
1.0
 40
1.0
 40
1.0
 40
1.0
 10
15.2567784253
 20
105.6063827224
 30
0.0
 10
15.2567784253
 20
105.4907620416
 30
0.0
 10
15.2841684026
 20
105.2485618053
 30
0.0
 10
15.3895056115
 20
104.8878374966
 30
0.0
 10
15.5547935608
 20
104.5310025644
 30
0.0
 10
15.7001752259
 20
104.3074135197
 30
0.0
 10
15.7809035672
 20
104.2015075132
 30
0.0
  0
SPLINE
  5
321
100
AcDbEntity
  8
0
100
AcDbSpline
 62
7
  6
CONTINUOUS
 70
0
 71
3
 72
12
 73
8
 74
0
 42
0.0000001
 43
0.0000001
 44
0.0000000001
 40
0.0
 40
0.0
 40
0.0
 40
0.0
 40
0.1082234987
 40
0.2184539469
 40
0.4513971552
 40
0.7104747467
 40
1.0
 40
1.0
 40
1.0
 40
1.0
 10
15.5881692005
 20
106.3388200019
 30
0.0
 10
15.5619226236
 20
106.323664514
 30
0.0
 10
15.5114510829
 20
106.2884695185
 30
0.0
 10
15.420984824
 20
106.1994486667
 30
0.0
 10
15.3313976916
 20
106.0533632665
 30
0.0
 10
15.2690727438
 20
105.8416483986
 30
0.0
 10
15.2567784253
 20
105.6874641507
 30
0.0
 10
15.2567784253
 20
105.6063827224
 30
0.0
  0
SPLINE
  5
322
100
AcDbEntity
  8
0
100
AcDbSpline
 62
7
  6
CONTINUOUS
 70
0
 71
3
 72
9
 73
5
 74
0
 42
0.0000001
 43
0.0000001
 44
0.0000000001
 40
0.0
 40
0.0
 40
0.0
 40
0.0
 40
0.2433554438
 40
1.0
 40
1.0
 40
1.0
 40
1.0
 10
17.0472032224
 20
111.0491301674
 30
0.0
 10
17.0630428158
 20
111.0424580737
 30
0.0
 10
17.1276646501
 20
111.0139398108
 30
0.0
 10
17.1903923984
 20
110.9811836481
 30
0.0
 10
17.2366727022
 20
110.9544643067
 30
0.0
  0
SPLINE
  5
323
100
AcDbEntity
  8
0
100
AcDbSpline
 62
7
  6
CONTINUOUS
 70
0
 71
3
 72
12
 73
8
 74
0
 42
0.0000001
 43
0.0000001
 44
0.0000000001
 40
0.0
 40
0.0
 40
0.0
 40
0.0
 40
0.2392338747
 40
0.5018683438
 40
0.763332605
 40
0.8861328819
 40
1.0
 40
1.0
 40
1.0
 40
1.0
 10
75.9414352731
 20
137.3518361453
 30
0.0
 10
76.1434077556
 20
137.4605750262
 30
0.0
 10
76.6058711788
 20
137.6178366491
 30
0.0
 10
77.3390335575
 20
137.6886909534
 30
0.0
 10
77.9612329037
 20
137.6163225687
 30
0.0
 10
78.4185905633
 20
137.4750620418
 30
0.0
 10
78.6250935007
 20
137.3784338274
 30
0.0
 10
78.7196457575
 20
137.3238452915
 30
0.0
  0
SPLINE
  5
324
100
AcDbEntity
  8
0
100
AcDbSpline
 62
7
  6
CONTINUOUS
 70
0
 71
3
 72
11
 73
7
 74
0
 42
0.0000001
 43
0.0000001
 44
0.0000000001
 40
0.0
 40
0.0
 40
0.0
 40
0.0
 40
0.2627664657
 40
0.5236005328
 40
0.7722343725
 40
1.0
 40
1.0
 40
1.0
 40
1.0
 10
82.5386947429
 20
135.1189662127
 30
0.0
 10
83.132976532
 20
135.1895557599
 30
0.0
 10
84.329032303
 20
135.2434578314
 30
0.0
 10
86.0856436147
 20
135.0750162813
 30
0.0
 10
87.7212658476
 20
134.6688171263
 30
0.0
 10
88.7223819199
 20
134.2303820944
 30
0.0
 10
89.1716298361
 20
133.9710145568
 30
0.0
  0
SPLINE
  5
325
100
AcDbEntity
  8
0
100
AcDbSpline
 62
7
  6
CONTINUOUS
 70
0
 71
3
 72
18
 73
14
 74
0
 42
0.0000001
 43
0.0000001
 44
0.0000000001
 40
0.0
 40
0.0
 40
0.0
 40
0.0
 40
0.1286558983
 40
0.270202307
 40
0.4173170005
 40
0.5616252743
 40
0.6952620535
 40
0.7562693591
 40
0.8127624765
 40
0.8647124073
 40
0.9125342195
 40
0.9571524133
 40
1.0
 40
1.0
 40
1.0
 40
1.0
 10
90.7433853827
 20
91.4738842221
 30
0.0
 10
90.391766197
 20
91.2708780024
 30
0.0
 10
89.7092444165
 20
90.7456588318
 30
0.0
 10
88.8357185472
 20
89.7518402334
 30
0.0
 10
88.1165746247
 20
88.5821536415
 30
0.0
 10
87.611635444
 20
87.3328047134
 30
0.0
 10
87.3961368326
 20
86.2763419754
 30
0.0
 10
87.375746984
 20
85.4821908144
 30
0.0
 10
87.433304161
 20
84.9486630224
 30
0.0
 10
87.562597823
 20
84.4703271302
 30
0.0
 10
87.7621958416
 20
84.0571951928
 30
0.0
 10
88.0293362813
 20
83.7193803313
 30
0.0
 10
88.2513410086
 20
83.5494953461
 30
0.0
 10
88.3684431962
 20
83.4818841419
 30
0.0
  0
SPLINE
  5
326
100
AcDbEntity
  8
0
100
AcDbSpline
 62
7
  6
CONTINUOUS
 70
0
 71
3
 72
18
 73
14
 74
0
 42
0.0000001
 43
0.0000001
 44
0.0000000001
 40
0.0
 40
0.0
 40
0.0
 40
0.0
 40
0.1286558983
 40
0.270202307
 40
0.4173170005
 40
0.5616252743
 40
0.6952620535
 40
0.7562693591
 40
0.8127624765
 40
0.8647124073
 40
0.9125342195
 40
0.9571524133
 40
1.0
 40
1.0
 40
1.0
 40
1.0
 10
90.7433853827
 20
76.7768407138
 30
0.0
 10
90.391766197
 20
76.573834494
 30
0.0
 10
89.7092444166
 20
76.0486153235
 30
0.0
 10
88.8357185472
 20
75.0547967251
 30
0.0
 10
88.1165746247
 20
73.8851101332
 30
0.0
 10
87.611635444
 20
72.635761205
 30
0.0
 10
87.3961368326
 20
71.5792984671
 30
0.0
 10
87.375746984
 20
70.785147306
 30
0.0
 10
87.433304161
 20
70.2516195141
 30
0.0
 10
87.562597823
 20
69.7732836219
 30
0.0
 10
87.7621958416
 20
69.3601516845
 30
0.0
 10
88.0293362813
 20
69.0223368229
 30
0.0
 10
88.2513410086
 20
68.8524518377
 30
0.0
 10
88.3684431962
 20
68.7848406335
 30
0.0
  0
SPLINE
  5
327
100
AcDbEntity
  8
0
100
AcDbSpline
 62
7
  6
CONTINUOUS
 70
0
 71
3
 72
12
 73
8
 74
0
 42
0.0000001
 43
0.0000001
 44
0.0000000001
 40
0.0
 40
0.0
 40
0.0
 40
0.0
 40
0.1081601692
 40
0.2183682983
 40
0.4513507505
 40
0.7104497776
 40
1.0
 40
1.0
 40
1.0
 40
1.0
 10
88.3684431962
 20
68.7848406335
 30
0.0
 10
88.4463160688
 20
68.7398792301
 30
0.0
 10
88.6116649468
 20
68.6624176887
 30
0.0
 10
88.9747729133
 20
68.5620094252
 30
0.0
 10
89.4833497036
 20
68.5483745478
 30
0.0
 10
90.1202324593
 20
68.7024604699
 30
0.0
 10
90.534913753
 20
68.899707318
 30
0.0
 10
90.7433853827
 20
69.020067751
 30
0.0
  0
SPLINE
  5
328
100
AcDbEntity
  8
0
100
AcDbSpline
 62
7
  6
CONTINUOUS
 70
0
 71
3
 72
12
 73
8
 74
0
 42
0.0000001
 43
0.0000001
 44
0.0000000001
 40
0.0
 40
0.0
 40
0.0
 40
0.0
 40
0.1081601692
 40
0.2183682983
 40
0.4513507505
 40
0.7104497776
 40
1.0
 40
1.0
 40
1.0
 40
1.0
 10
88.3684431962
 20
83.4818841419
 30
0.0
 10
88.4463160688
 20
83.4369227385
 30
0.0
 10
88.6116649468
 20
83.359461197
 30
0.0
 10
88.9747729133
 20
83.2590529335
 30
0.0
 10
89.4833497036
 20
83.2454180561
 30
0.0
 10
90.1202324593
 20
83.3995039782
 30
0.0
 10
90.534913753
 20
83.5967508263
 30
0.0
 10
90.7433853827
 20
83.7171112594
 30
0.0
  0
ELLIPSE
  5
329
100
AcDbEntity
  8
0
100
AcDbEllipse
 62
7
  6
CONTINUOUS
 10
17.1272833579
 20
103.1345357536
 30
0.0
 11
-0.3890042982
 21
2.0780099902
 31
0.0
 40
0.218391506
 41
0.8621497852
 42
2.2985674542
  0
ELLIPSE
  5
32A
100
AcDbEntity
  8
0
100
AcDbEllipse
 62
7
  6
CONTINUOUS
 10
17.1272833579
 20
109.2583038821
 30
0.0
 11
-0.3890042982
 21
2.0780099902
 31
0.0
 40
0.218391506
 41
-0.5742678838
 42
0.8621497851
  0
ENDSEC
  0
SECTION
  2
OBJECTS
  0
DICTIONARY
  5
C
100
AcDbDictionary
280
0
281
1
  3
ACAD_GROUP
350
D
  3
ACAD_MLINESTYLE
350
17
  3
ACAD_LAYOUT
350
1A
  3
ACAD_PLOTSETTINGS
350
19
  3
ACAD_PLOTSTYLENAME
350
E
  0
DICTIONARY
  5
D
102
{ACAD_REACTORS
330
C
102
}
100
AcDbDictionary
280
0
281
1
  0
ACDBDICTIONARYWDFLT
  5
E
102
{ACAD_REACTORS
330
C
102
}
100
AcDbDictionary
281
1
  3
Normal
350
F
100
AcDbDictionaryWithDefault
340
F
  0
DICTIONARY
  5
17
102
{ACAD_REACTORS
330
C
102
}
100
AcDbDictionary
280
0
281
1
  3
Standard
350
18
  0
DICTIONARY
  5
19
102
{ACAD_REACTORS
330
C
102
}
100
AcDbDictionary
281
1
  0
DICTIONARY
  5
1A
102
{ACAD_REACTORS
330
C
102
}
100
AcDbDictionary
281
1
  3
Model
350
32B
  3
Layout1
350
32C
  0
ACDBPLACEHOLDER
  5
F
102
{ACAD_REACTORS
330
E
102
}
  0
MLINESTYLE
  5
18
102
{ACAD_REACTORS
330
17
102
}
100
AcDbMlineStyle
  2
STANDARD
 70
0
  3

 62
256
 51
90.0
 52
90.0
 71
2
 49
0.5
 62
256
  6
BYLAYER
 49
-0.5
 62
256
  6
BYLAYER
  0
LAYOUT
  5
32B
102
{ACAD_REACTORS
330
1A
102
}
100
AcDbPlotSettings
  1

  2
none_device
  4

  6

 40
0.0
 41
0.0
 42
0.0
 43
0.0
 44
210.0
 45
297.0
 46
0.0
 47
0.0
 48
0.0
 49
0.0
140
0.0
141
0.0
142
1.0
143
1.0
 70
1024
 72
1
 73
0
 74
0
  7

 75
0
147
1.0
148
0.0
149
0.0
100
AcDbLayout
  1
Model
 70
0
 71
0
 10
0.0
 20
0.0
 11
210.0
 21
297.0
 12
0.0
 22
0.0
 32
0.0
 14
0.0
 24
0.0
 34
0.0
 15
0.0
 25
0.0
 35
0.0
146
0.0
 13
0.0
 23
0.0
 33
0.0
 16
1.0
 26
0.0
 36
0.0
 17
0.0
 27
1.0
 37
0.0
 76
0
330
210
345
0
346
0
  0
LAYOUT
  5
32C
102
{ACAD_REACTORS
330
1A
102
}
100
AcDbPlotSettings
  1

  2
none_device
  4

  6

 40
0.0
 41
0.0
 42
0.0
 43
0.0
 44
210.0
 45
297.0
 46
0.0
 47
0.0
 48
0.0
 49
0.0
140
0.0
141
0.0
142
1.0
143
1.0
 70
0
 72
1
 73
0
 74
0
  7

 75
0
147
1.0
148
0.0
149
0.0
100
AcDbLayout
  1
Layout1
 70
0
 71
1
 10
0.0
 20
0.0
 11
210.0
 21
297.0
 12
0.0
 22
0.0
 32
0.0
 14
0.0
 24
0.0
 34
0.0
 15
0.0
 25
0.0
 35
0.0
146
0.0
 13
0.0
 23
0.0
 33
0.0
 16
1.0
 26
0.0
 36
0.0
 17
0.0
 27
1.0
 37
0.0
 76
0
330
211
345
0
346
0
  0
ENDSEC
  0
EOF
