999
DXF file: C:\Users\sesa63760\Documents\7-Dev\_Creo\CAD\MCADFD0001121_3D-CAD\drw0001_1.dxf
999
Pro/ENGINEER 2019471 by Parametric Technology Corporation
  0
SECTION
  2
HEADER
  9
$ACADVER
  1
AC1024
  9
$DWGCODEPAGE
  3
ANSI_1252
  9
$EXTMAX
 10
121.4733947108
 20
171.7980868053
 30
0.0
  9
$EXTMIN
 10
0.0
 20
0.0
 30
0.0
  9
$LIMMIN
 10
0.0
 20
0.0
  9
$LIMMAX
 10
121.4733947108
 20
171.7980868053
  9
$VIEWCTR
 10
60.7366973554
 20
85.8990434027
  9
$VIEWSIZE
 40
171.7980868053
  9
$CLAYER
  8
0
  9
$LTSCALE
 40
11.1986901029
  9
$CELTYPE
  6
BYLAYER
  9
$DIMSCALE
 40
1.0
  9
$DIMASZ
 40
1.4461118418
  9
$DIMEXO
 40
1.0
  9
$DIMDLI
 40
7.7372767983
  9
$DIMEXE
 40
1.0
  9
$DIMCEN
 40
1.8325129259
  9
$DIMLFAC
 40
1.0
  9
$DIMBLK
  1
_FILLED
  9
$DIMALT
 70
0
  9
$DIMALTF
 40
0.0393700787
  9
$DIMTXT
 40
2.0245565785
  9
$DIMTOL
 70
1
  9
$DIMLIM
 70
0
  9
$DIMTFAC
 40
1.0
  9
$DIMTP
 40
0.01
  9
$DIMTM
 40
0.01
  9
$DIMGAP
 40
0.625
  9
$DIMDSEP
 70
46
  9
$AUNITS
 70
0
  9
$PDMODE
 70
3
  9
$PDSIZE
 40
0.3125
  9
$HANDSEED
  5
36D
  9
$TILEMODE
 70
1
  9
$MEASUREMENT
 70
1
  9
$INSUNITS
 70
4
  0
ENDSEC
  0
SECTION
  2
CLASSES
  0
CLASS
  1
ACDBDICTIONARYWDFLT
  2
AcDbDictionaryWithDefault
  3
AutoCAD 2000
 90
0
 91
1
280
0
281
0
  0
CLASS
  1
ACDBPLACEHOLDER
  2
AcDbPlaceHolder
  3
AutoCAD 2000
 90
0
 91
1
280
0
281
0
  0
CLASS
  1
LAYOUT
  2
AcDbLayout
  3
AutoCAD 2000
 90
0
 91
0
280
0
281
0
  0
ENDSEC
  0
SECTION
  2
TABLES
  0
TABLE
  2
VPORT
  5
8
100
AcDbSymbolTable
 70
2
  0
VPORT
  5
1F4
100
AcDbSymbolTableRecord
100
AcDbViewportTableRecord
  2
*ACTIVE
 70
0
 10
0.0
 20
0.0
 11
1.0
 21
1.0
 12
60.7366973554
 22
85.8990434027
 13
0.0
 23
0.0
 14
1.0
 24
1.0
 15
0.0
 25
0.0
 16
0.0
 26
0.0
 36
1.0
 17
0.0
 27
0.0
 37
0.0
 40
171.7980868053
 41
0.7070707071
 42
50.0
 43
0.0
 44
0.0
 50
0.0
 51
0.0
 71
0
 72
100
 73
1
 74
1
 75
0
 76
0
 77
0
 78
0
  0
ENDTAB
  0
TABLE
  2
LTYPE
  5
5
100
AcDbSymbolTable
 70
6
  0
LTYPE
  5
14
100
AcDbSymbolTableRecord
100
AcDbLinetypeTableRecord
  2
BYBLOCK
 70
0
  3

 72
65
 73
0
 40
0.0
  0
LTYPE
  5
15
100
AcDbSymbolTableRecord
100
AcDbLinetypeTableRecord
  2
BYLAYER
 70
0
  3

 72
65
 73
0
 40
0.0
  0
LTYPE
  5
16
100
AcDbSymbolTableRecord
100
AcDbLinetypeTableRecord
  2
CONTINUOUS
 70
64
  3
Solid line
 72
65
 73
0
 40
0.0
  0
LTYPE
  5
1F5
100
AcDbSymbolTableRecord
100
AcDbLinetypeTableRecord
  2
CENTER
 70
64
  3
____ _ ____ _ ____ _ ____ _ ____ _ ____ _ ____
 72
65
 73
4
 40
0.6
 49
0.375
 74
0
 49
-0.075
 74
0
 49
0.075
 74
0
 49
-0.075
 74
0
  0
LTYPE
  5
1F6
100
AcDbSymbolTableRecord
100
AcDbLinetypeTableRecord
  2
HIDDEN
 70
64
  3
- - - - - - - - - - - - - - - - - - - -
 72
65
 73
2
 40
0.2
 49
0.1
 74
0
 49
-0.1
 74
0
  0
LTYPE
  5
1F7
100
AcDbSymbolTableRecord
100
AcDbLinetypeTableRecord
  2
PHANTOM
 70
64
  3
_____ _ _ _____ _ _ _____ _ _ _____
 72
65
 73
6
 40
0.8
 49
0.45
 74
0
 49
-0.05
 74
0
 49
0.1
 74
0
 49
-0.05
 74
0
 49
0.1
 74
0
 49
-0.05
 74
0
  0
LTYPE
  5
1F8
100
AcDbSymbolTableRecord
100
AcDbLinetypeTableRecord
  2
DOT
 70
64
  3
. . . . . . . . . . . . . . . . . . . .
 72
65
 73
2
 40
0.2
 49
0.1
 74
0
 49
-0.1
 74
0
  0
LTYPE
  5
1F9
100
AcDbSymbolTableRecord
100
AcDbLinetypeTableRecord
  2
DASHED
 70
64
  3
- - - - - - - - - - - - - - - - - - - -
 72
65
 73
2
 40
0.2
 49
0.1
 74
0
 49
-0.1
 74
0
  0
ENDTAB
  0
TABLE
  2
LAYER
  5
2
100
AcDbSymbolTable
 70
36
  0
LAYER
  5
10
100
AcDbSymbolTableRecord
100
AcDbLayerTableRecord
  2
0
 70
0
 62
7
  6
CONTINUOUS
370
-3
390
F
  0
LAYER
  5
1FA
100
AcDbSymbolTableRecord
100
AcDbLayerTableRecord
  2
DEFAULT_1
 70
0
 62
7
  6
CENTER
370
-3
390
F
  0
LAYER
  5
1FB
100
AcDbSymbolTableRecord
100
AcDbLayerTableRecord
  2
DEFAULT_2
 70
0
 62
8
  6
HIDDEN
370
-3
390
F
  0
LAYER
  5
1FC
100
AcDbSymbolTableRecord
100
AcDbLayerTableRecord
  2
DEFAULT_3
 70
0
 62
7
  6
PHANTOM
370
-3
390
F
  0
LAYER
  5
1FD
100
AcDbSymbolTableRecord
100
AcDbLayerTableRecord
  2
00_COMPONENTS
 70
0
 62
7
  6
CONTINUOUS
370
-3
390
F
  0
LAYER
  5
1FE
100
AcDbSymbolTableRecord
100
AcDbLayerTableRecord
  2
01_1_DEFAULT_DATUMS
 70
0
 62
7
  6
CONTINUOUS
370
-3
390
F
  0
LAYER
  5
1FF
100
AcDbSymbolTableRecord
100
AcDbLayerTableRecord
  2
01_PLANES
 70
0
 62
7
  6
CONTINUOUS
370
-3
390
F
  0
LAYER
  5
200
100
AcDbSymbolTableRecord
100
AcDbLayerTableRecord
  2
02_COORD_SYS
 70
0
 62
7
  6
CONTINUOUS
370
-3
390
F
  0
LAYER
  5
201
100
AcDbSymbolTableRecord
100
AcDbLayerTableRecord
  2
03_AXES
 70
0
 62
7
  6
CONTINUOUS
370
-3
390
F
  0
LAYER
  5
202
100
AcDbSymbolTableRecord
100
AcDbLayerTableRecord
  2
04_POINTS
 70
0
 62
7
  6
CONTINUOUS
370
-3
390
F
  0
LAYER
  5
203
100
AcDbSymbolTableRecord
100
AcDbLayerTableRecord
  2
05_CURVES
 70
0
 62
7
  6
CONTINUOUS
370
-3
390
F
  0
LAYER
  5
204
100
AcDbSymbolTableRecord
100
AcDbLayerTableRecord
  2
06_SURFS
 70
0
 62
7
  6
CONTINUOUS
370
-3
390
F
  0
LAYER
  5
205
100
AcDbSymbolTableRecord
100
AcDbLayerTableRecord
  2
07_COSMETICS
 70
0
 62
7
  6
CONTINUOUS
370
-3
390
F
  0
LAYER
  5
206
100
AcDbSymbolTableRecord
100
AcDbLayerTableRecord
  2
10_NOTES
 70
0
 62
7
  6
CONTINUOUS
370
-3
390
F
  0
LAYER
  5
207
100
AcDbSymbolTableRecord
100
AcDbLayerTableRecord
  2
11_NOTES_PUB
 70
0
 62
7
  6
CONTINUOUS
370
-3
390
F
  0
LAYER
  5
208
100
AcDbSymbolTableRecord
100
AcDbLayerTableRecord
  2
13_REF_GTOL
 70
0
 62
7
  6
CONTINUOUS
370
-3
390
F
  0
LAYER
  5
209
100
AcDbSymbolTableRecord
100
AcDbLayerTableRecord
  2
16_MISC
 70
0
 62
7
  6
CONTINUOUS
370
-3
390
F
  0
LAYER
  5
20A
100
AcDbSymbolTableRecord
100
AcDbLayerTableRecord
  2
17_NO_PRINT
 70
0
 62
7
  6
CONTINUOUS
370
-3
390
F
  0
LAYER
  5
20B
100
AcDbSymbolTableRecord
100
AcDbLayerTableRecord
  2
18_DATUM_CAMS_JOINTS
 70
0
 62
7
  6
CONTINUOUS
370
-3
390
F
  0
LAYER
  5
20C
100
AcDbSymbolTableRecord
100
AcDbLayerTableRecord
  2
19_DATUM_FUNCTIONAL
 70
0
 62
7
  6
CONTINUOUS
370
-3
390
F
  0
LAYER
  5
20D
100
AcDbSymbolTableRecord
100
AcDbLayerTableRecord
  2
20_DATUM_KINEMATIC_SCHEME
 70
0
 62
7
  6
CONTINUOUS
370
-3
390
F
  0
ENDTAB
  0
TABLE
  2
STYLE
  5
3
100
AcDbSymbolTable
 70
1
  0
STYLE
  5
11
100
AcDbSymbolTableRecord
100
AcDbTextStyleTableRecord
  2
STANDARD
 70
0
 40
0.0
 41
0.8
 50
0.0
 71
0
 42
0.2
  3
txt
  4

  0
STYLE
  5
20E
100
AcDbSymbolTableRecord
100
AcDbTextStyleTableRecord
  2
TEXTSTYLE_1
 70
0
 40
0.0
 41
0.8
 50
0.0
 71
0
 42
0.2
  3
gdt
  4

  0
ENDTAB
  0
TABLE
  2
VIEW
  5
6
100
AcDbSymbolTable
 70
0
  0
ENDTAB
  0
TABLE
  2
UCS
  5
7
100
AcDbSymbolTable
 70
0
  0
ENDTAB
  0
TABLE
  2
APPID
  5
9
100
AcDbSymbolTable
 70
1
  0
APPID
  5
20F
100
AcDbSymbolTableRecord
100
AcDbRegAppTableRecord
  2
ACAD
 70
0
  0
ENDTAB
  0
TABLE
  2
BLOCK_RECORD
  5
1
100
AcDbSymbolTable
 70
0
  0
BLOCK_RECORD
  5
210
100
AcDbSymbolTableRecord
100
AcDbBlockTableRecord
  2
*Model_Space
  0
BLOCK_RECORD
  5
211
100
AcDbSymbolTableRecord
100
AcDbBlockTableRecord
  2
*Paper_Space
  0
BLOCK_RECORD
  5
212
100
AcDbSymbolTableRecord
100
AcDbBlockTableRecord
  2
_FILLED
  0
ENDTAB
  0
TABLE
  2
DIMSTYLE
  5
A
100
AcDbSymbolTable
 70
1
100
AcDbDimStyleTable
 71
0
  0
DIMSTYLE
105
213
100
AcDbSymbolTableRecord
100
AcDbDimStyleTableRecord
  2
STANDARD
 70
0
  3

  4

 40
1.0
 41
1.4461118418
 42
1.0
 43
0.38
 44
1.0
 45
0.0
 46
0.0
 47
0.01
 48
0.01
140
2.0245565785
141
0.09
142
0.0
143
25.4
144
1.0
145
0.0
146
1.0
147
0.625
 71
1
 72
0
 73
0
 74
0
 75
0
 76
0
 77
1
 78
8
 79
2
170
0
171
1
172
0
173
0
174
0
175
0
176
0
177
0
178
0
270
2
179
2
271
2
272
2
273
2
274
2
275
0
280
0
281
0
282
0
283
1
284
8
285
0
286
0
287
3
288
0
340
11
278
46
341
212
342
212
343
212
344
212
  0
ENDTAB
  0
ENDSEC
  0
SECTION
  2
BLOCKS
  0
BLOCK
  5
20
100
AcDbEntity
  8
0
100
AcDbBlockBegin
  2
*Model_Space
 70
0
 10
0.0
 20
0.0
 30
0.0
  3
*Model_Space
  1

  0
ENDBLK
  5
21
100
AcDbEntity
  8
0
100
AcDbBlockEnd
  0
BLOCK
  5
1C
100
AcDbEntity
  8
0
100
AcDbBlockBegin
  2
*Paper_Space
 70
0
 10
0.0
 20
0.0
 30
0.0
  3
*Paper_Space
  1

  0
ENDBLK
  5
1D
100
AcDbEntity
  8
0
100
AcDbBlockEnd
  0
BLOCK
  5
214
100
AcDbEntity
  8
0
100
AcDbBlockBegin
  2
_FILLED
 70
64
 10
0.0
 20
0.0
  3
_FILLED
  1

  0
SOLID
  5
215
100
AcDbEntity
  8
0
  6
BYBLOCK
 62
0
100
AcDbTrace
 10
0.0
 20
0.0
 11
-1.0
 21
0.25
 12
-1.0
 22
-0.25
 13
-1.0
 23
-0.25
  0
ENDBLK
  5
216
100
AcDbEntity
  8
0
  6
BYBLOCK
 62
0
100
AcDbBlockEnd
  0
ENDSEC
  0
SECTION
  2
ENTITIES
  0
LINE
  5
217
100
AcDbEntity
  8
0
100
AcDbLine
 62
7
  6
CONTINUOUS
 10
16.0351899763
 20
121.2981571305
 11
20.1699377936
 21
123.8135654113
  0
LINE
  5
218
100
AcDbEntity
  8
0
100
AcDbLine
 62
7
  6
CONTINUOUS
 10
20.1699377936
 20
123.8135654113
 11
51.4929407484
 21
141.8978016508
  0
LINE
  5
219
100
AcDbEntity
  8
0
100
AcDbLine
 62
7
  6
CONTINUOUS
 10
14.0923113711
 20
109.1329702129
 11
14.0923113711
 21
107.0100639284
  0
LINE
  5
21A
100
AcDbEntity
  8
0
100
AcDbLine
 62
7
  6
CONTINUOUS
 10
14.0923113711
 20
79.7919558533
 11
14.0923113711
 21
77.6690495688
  0
LINE
  5
21B
100
AcDbEntity
  8
0
100
AcDbLine
 62
7
  6
CONTINUOUS
 10
16.035178632
 20
108.0869105946
 11
16.0351899763
 21
121.2981571305
  0
LINE
  5
21C
100
AcDbEntity
  8
0
100
AcDbLine
 62
7
  6
CONTINUOUS
 10
16.0351899763
 20
62.5099830972
 11
16.0351792621
 21
75.7294055715
  0
LINE
  5
21D
100
AcDbEntity
  8
0
100
AcDbLine
 62
7
  6
CONTINUOUS
 10
16.035178632
 20
78.6928235779
 11
16.0351789467
 21
105.1234938628
  0
LINE
  5
21E
100
AcDbEntity
  8
0
100
AcDbLine
 62
7
  6
CONTINUOUS
 10
16.3551147457
 20
106.5681765405
 11
16.3551147457
 21
106.3567983722
  0
LINE
  5
21F
100
AcDbEntity
  8
0
100
AcDbLine
 62
7
  6
CONTINUOUS
 10
16.3551147457
 20
77.227162181
 11
16.3551147457
 21
77.0157840127
  0
LINE
  5
220
100
AcDbEntity
  8
0
100
AcDbLine
 62
7
  6
CONTINUOUS
 10
16.8727001791
 20
76.2648987992
 11
16.8727001791
 21
77.5259697086
  0
LINE
  5
221
100
AcDbEntity
  8
0
100
AcDbLine
 62
7
  6
CONTINUOUS
 10
16.8727001791
 20
105.6589867032
 11
16.8727001791
 21
106.8669840681
  0
LINE
  5
222
100
AcDbEntity
  8
0
100
AcDbLine
 62
7
  6
CONTINUOUS
 10
17.6277489074
 20
107.0917023052
 11
17.6277489074
 21
104.9687960206
  0
LINE
  5
223
100
AcDbEntity
  8
0
100
AcDbLine
 62
7
  6
CONTINUOUS
 10
17.6277489074
 20
77.7506879456
 11
17.6277489074
 21
75.6277816611
  0
LINE
  5
224
100
AcDbEntity
  8
0
100
AcDbLine
 62
7
  6
CONTINUOUS
 10
25.6291031862
 20
115.7592340634
 11
29.5033032542
 21
118.4247276252
  0
LINE
  5
225
100
AcDbEntity
  8
0
100
AcDbLine
 62
7
  6
CONTINUOUS
 10
16.0351804934
 20
110.2546090409
 11
14.0923113711
 21
109.1329702129
  0
LINE
  5
226
100
AcDbEntity
  8
0
100
AcDbLine
 62
7
  6
CONTINUOUS
 10
19.888744405
 20
117.1425545162
 11
24.5059880233
 21
119.5504429503
  0
LINE
  5
227
100
AcDbEntity
  8
0
100
AcDbLine
 62
7
  6
CONTINUOUS
 10
24.5059880233
 20
121.3100449589
 11
19.888744405
 21
119.0733567755
  0
LINE
  5
228
100
AcDbEntity
  8
0
100
AcDbLine
 62
7
  6
CONTINUOUS
 10
69.5444382696
 20
32.1875651729
 11
74.1649790758
 21
30.3195605342
  0
LINE
  5
229
100
AcDbEntity
  8
0
100
AcDbLine
 62
7
  6
CONTINUOUS
 10
66.2426250776
 20
35.4613721592
 11
69.5444382696
 21
34.1065486845
  0
LINE
  5
22A
100
AcDbEntity
  8
0
100
AcDbLine
 62
7
  6
CONTINUOUS
 10
19.7515215219
 20
70.1399818074
 11
19.7515215219
 21
73.5838236354
  0
LINE
  5
22B
100
AcDbEntity
  8
0
100
AcDbLine
 62
7
  6
CONTINUOUS
 10
19.7515215219
 20
76.5472416422
 11
19.7515215219
 21
79.9910834701
  0
LINE
  5
22C
100
AcDbEntity
  8
0
100
AcDbLine
 62
7
  6
CONTINUOUS
 10
19.7515215219
 20
99.5340688241
 11
19.7515215219
 21
102.977910652
  0
LINE
  5
22D
100
AcDbEntity
  8
0
100
AcDbLine
 62
7
  6
CONTINUOUS
 10
19.7515215219
 20
105.9413286589
 11
19.7515215219
 21
109.3851704868
  0
LINE
  5
22E
100
AcDbEntity
  8
0
100
AcDbLine
 62
7
  6
CONTINUOUS
 10
19.888744405
 20
62.2241500256
 11
19.888744405
 21
60.2851827422
  0
LINE
  5
22F
100
AcDbEntity
  8
0
100
AcDbLine
 62
7
  6
CONTINUOUS
 10
19.888744405
 20
117.1425545162
 11
19.888744405
 21
119.0733567755
  0
LINE
  5
230
100
AcDbEntity
  8
0
100
AcDbLine
 62
7
  6
CONTINUOUS
 10
21.527374797
 20
71.165200626
 11
21.527374797
 21
73.3762410529
  0
LINE
  5
231
100
AcDbEntity
  8
0
100
AcDbLine
 62
7
  6
CONTINUOUS
 10
21.527374797
 20
77.5724604607
 11
21.527374797
 21
78.9658172983
  0
LINE
  5
232
100
AcDbEntity
  8
0
100
AcDbLine
 62
7
  6
CONTINUOUS
 10
21.527374797
 20
100.5592876427
 11
21.527374797
 21
102.7172554124
  0
LINE
  5
233
100
AcDbEntity
  8
0
100
AcDbLine
 62
7
  6
CONTINUOUS
 10
21.527374797
 20
106.9665474774
 11
21.527374797
 21
108.359904315
  0
LINE
  5
234
100
AcDbEntity
  8
0
100
AcDbLine
 62
7
  6
CONTINUOUS
 10
17.6277489074
 20
106.1417670876
 11
16.0354246879
 21
105.1236302838
  0
LINE
  5
235
100
AcDbEntity
  8
0
100
AcDbLine
 62
7
  6
CONTINUOUS
 10
17.6277489074
 20
106.0910087507
 11
16.0354199267
 21
105.1236289949
  0
LINE
  5
236
100
AcDbEntity
  8
0
100
AcDbLine
 62
7
  6
CONTINUOUS
 10
15.5073707981
 20
108.3159524135
 11
16.0351790904
 21
108.6206617053
  0
LINE
  5
237
100
AcDbEntity
  8
0
100
AcDbLine
 62
7
  6
CONTINUOUS
 10
17.1620198749
 20
107.0340113788
 11
15.6063425548
 21
106.1359024604
  0
LINE
  5
238
100
AcDbEntity
  8
0
100
AcDbLine
 62
7
  6
CONTINUOUS
 10
17.693360866
 20
107.1295807806
 11
17.6277489074
 21
107.0917023052
  0
LINE
  5
239
100
AcDbEntity
  8
0
100
AcDbLine
 62
7
  6
CONTINUOUS
 10
17.6277489074
 20
106.0429027784
 11
16.0354182591
 21
105.1236338527
  0
LINE
  5
23A
100
AcDbEntity
  8
0
100
AcDbLine
 62
7
  6
CONTINUOUS
 10
64.1424347454
 20
134.594778103
 11
74.5366897641
 21
140.1895692771
  0
LINE
  5
23B
100
AcDbEntity
  8
0
100
AcDbLine
 62
7
  6
CONTINUOUS
 10
15.5073707981
 20
108.3159524135
 11
15.4136624587
 21
108.2731639569
  0
LINE
  5
23C
100
AcDbEntity
  8
0
100
AcDbLine
 62
7
  6
CONTINUOUS
 10
63.3526070628
 20
35.1909460041
 11
57.046734596
 21
38.8315608086
  0
LINE
  5
23D
100
AcDbEntity
  8
0
100
AcDbLine
 62
7
  6
CONTINUOUS
 10
31.3692547589
 20
53.6570569471
 11
25.6291031862
 21
56.97106003
  0
LINE
  5
23E
100
AcDbEntity
  8
0
100
AcDbLine
 62
7
  6
CONTINUOUS
 10
19.888744405
 20
60.2851827422
 11
16.0351899763
 21
62.5099830972
  0
LINE
  5
23F
100
AcDbEntity
  8
0
100
AcDbLine
 62
7
  6
CONTINUOUS
 10
66.2426250776
 20
35.4613721592
 11
63.3526070628
 21
37.1298907527
  0
LINE
  5
240
100
AcDbEntity
  8
0
100
AcDbLine
 62
7
  6
CONTINUOUS
 10
19.888744405
 20
62.2241500256
 11
25.6291031862
 21
58.9100200406
  0
LINE
  5
241
100
AcDbEntity
  8
0
100
AcDbLine
 62
7
  6
CONTINUOUS
 10
57.046734596
 20
43.7335565235
 11
35.7250421523
 21
56.0433629104
  0
LINE
  5
242
100
AcDbEntity
  8
0
100
AcDbLine
 62
7
  6
CONTINUOUS
 10
23.1014343725
 20
68.205952475
 11
25.4049395701
 21
65.3403785012
  0
LINE
  5
243
100
AcDbEntity
  8
0
100
AcDbLine
 62
7
  6
CONTINUOUS
 10
24.5059880233
 20
119.5504429503
 11
24.5059880233
 21
121.3100449589
  0
LINE
  5
244
100
AcDbEntity
  8
0
100
AcDbLine
 62
7
  6
CONTINUOUS
 10
25.6291031862
 20
58.9100200406
 11
25.6291031862
 21
56.97106003
  0
LINE
  5
245
100
AcDbEntity
  8
0
100
AcDbLine
 62
7
  6
CONTINUOUS
 10
25.6291031862
 20
113.828439077
 11
25.6291031862
 21
115.7592340634
  0
LINE
  5
246
100
AcDbEntity
  8
0
100
AcDbLine
 62
7
  6
CONTINUOUS
 10
26.1127989945
 20
102.8866863812
 11
26.1127989945
 21
102.1926593266
  0
LINE
  5
247
100
AcDbEntity
  8
0
100
AcDbLine
 62
7
  6
CONTINUOUS
 10
26.1127989945
 20
100.0697530421
 11
26.1127989945
 21
99.4573762293
  0
LINE
  5
248
100
AcDbEntity
  8
0
100
AcDbLine
 62
7
  6
CONTINUOUS
 10
26.1127989945
 20
73.5456720217
 11
26.1127989945
 21
72.8516449671
  0
LINE
  5
249
100
AcDbEntity
  8
0
100
AcDbLine
 62
7
  6
CONTINUOUS
 10
26.1127989945
 20
70.7287386826
 11
26.1127989945
 21
70.1163618697
  0
LINE
  5
24A
100
AcDbEntity
  8
0
100
AcDbLine
 62
7
  6
CONTINUOUS
 10
27.0957569386
 20
105.5581494539
 11
27.0957569386
 21
104.1525972345
  0
LINE
  5
24B
100
AcDbEntity
  8
0
100
AcDbLine
 62
7
  6
CONTINUOUS
 10
27.0957569386
 20
96.2864413482
 11
27.0957569386
 21
94.8855086816
  0
LINE
  5
24C
100
AcDbEntity
  8
0
100
AcDbLine
 62
7
  6
CONTINUOUS
 10
27.0957569386
 20
76.1594428708
 11
27.0957569386
 21
74.7585102178
  0
LINE
  5
24D
100
AcDbEntity
  8
0
100
AcDbLine
 62
7
  6
CONTINUOUS
 10
27.0957569386
 20
66.8923543316
 11
27.0957569386
 21
65.4914216649
  0
LINE
  5
24E
100
AcDbEntity
  8
0
100
AcDbLine
 62
7
  6
CONTINUOUS
 10
29.4276329014
 20
100.9727891608
 11
29.8530938033
 21
102.5606840673
  0
LINE
  5
24F
100
AcDbEntity
  8
0
100
AcDbLine
 62
7
  6
CONTINUOUS
 10
21.527374797
 20
106.9665474774
 11
19.7515215219
 21
105.9413286589
  0
LINE
  5
250
100
AcDbEntity
  8
0
100
AcDbLine
 62
7
  6
CONTINUOUS
 10
20.4137592782
 20
103.3602274907
 11
19.7515215219
 21
102.977910652
  0
LINE
  5
251
100
AcDbEntity
  8
0
100
AcDbLine
 62
7
  6
CONTINUOUS
 10
35.7250421523
 20
114.8315369438
 11
31.3692547589
 21
112.4452309805
  0
LINE
  5
252
100
AcDbEntity
  8
0
100
AcDbLine
 62
7
  6
CONTINUOUS
 10
55.8466963069
 20
45.4950312578
 11
57.046734596
 21
44.8021609631
  0
LINE
  5
253
100
AcDbEntity
  8
0
100
AcDbLine
 62
7
  6
CONTINUOUS
 10
55.8996634354
 20
49.0294604645
 11
57.046734596
 21
48.3671719856
  0
LINE
  5
254
100
AcDbEntity
  8
0
100
AcDbLine
 62
7
  6
CONTINUOUS
 10
23.1014343725
 20
68.205952475
 11
19.7515215219
 21
70.1399818074
  0
LINE
  5
255
100
AcDbEntity
  8
0
100
AcDbLine
 62
7
  6
CONTINUOUS
 10
27.0957569386
 20
66.8923543316
 11
31.3692547589
 21
64.4251050313
  0
LINE
  5
256
100
AcDbEntity
  8
0
100
AcDbLine
 62
7
  6
CONTINUOUS
 10
28.3422308867
 20
67.6119568834
 11
28.3078923512
 21
67.6650550972
  0
LINE
  5
257
100
AcDbEntity
  8
0
100
AcDbLine
 62
7
  6
CONTINUOUS
 10
29.9297112468
 20
65.7488465176
 11
29.4276329014
 21
68.2024646493
  0
LINE
  5
258
100
AcDbEntity
  8
0
100
AcDbLine
 62
7
  6
CONTINUOUS
 10
31.3692547589
 20
53.6570569471
 11
31.3692547589
 21
64.4251050313
  0
LINE
  5
259
100
AcDbEntity
  8
0
100
AcDbLine
 62
7
  6
CONTINUOUS
 10
31.3692547589
 20
72.2912609175
 11
31.3692547589
 21
93.8191920479
  0
LINE
  5
25A
100
AcDbEntity
  8
0
100
AcDbLine
 62
7
  6
CONTINUOUS
 10
31.3692547589
 20
101.6853479342
 11
31.3692547589
 21
112.4452309805
  0
LINE
  5
25B
100
AcDbEntity
  8
0
100
AcDbLine
 62
7
  6
CONTINUOUS
 10
31.7694990526
 20
101.7843891342
 11
31.7694990526
 21
94.0276161715
  0
LINE
  5
25C
100
AcDbEntity
  8
0
100
AcDbLine
 62
7
  6
CONTINUOUS
 10
31.7694990526
 20
72.4433747747
 11
31.7694990526
 21
64.686601812
  0
LINE
  5
25D
100
AcDbEntity
  8
0
100
AcDbLine
 62
7
  6
CONTINUOUS
 10
21.527374797
 20
100.5592876427
 11
19.7515215219
 21
99.5340688241
  0
LINE
  5
25E
100
AcDbEntity
  8
0
100
AcDbLine
 62
7
  6
CONTINUOUS
 10
26.1127989945
 20
102.8866863812
 11
27.7006503947
 21
103.8033697353
  0
LINE
  5
25F
100
AcDbEntity
  8
0
100
AcDbLine
 62
7
  6
CONTINUOUS
 10
35.725452729
 20
105.472905636
 11
33.0901862603
 21
103.9515302071
  0
LINE
  5
260
100
AcDbEntity
  8
0
100
AcDbLine
 62
7
  6
CONTINUOUS
 10
25.1904047823
 20
98.8060241333
 11
23.1014343725
 21
97.6000394917
  0
LINE
  5
261
100
AcDbEntity
  8
0
100
AcDbLine
 62
7
  6
CONTINUOUS
 10
31.7694990526
 20
64.686601812
 11
29.9297112468
 21
65.7488465176
  0
LINE
  5
262
100
AcDbEntity
  8
0
100
AcDbLine
 62
7
  6
CONTINUOUS
 10
33.0901864486
 20
64.4956340572
 11
33.3251763727
 21
64.3599571047
  0
LINE
  5
263
100
AcDbEntity
  8
0
100
AcDbLine
 62
7
  6
CONTINUOUS
 10
21.527374797
 20
71.579946179
 11
28.3078923512
 21
67.6650550972
  0
LINE
  5
264
100
AcDbEntity
  8
0
100
AcDbLine
 62
7
  6
CONTINUOUS
 10
26.1127989945
 20
70.1163618697
 11
29.4276329014
 21
68.2024646493
  0
LINE
  5
265
100
AcDbEntity
  8
0
100
AcDbLine
 62
7
  6
CONTINUOUS
 10
26.1127989945
 20
70.7287386826
 11
17.6277489074
 21
75.6277816611
  0
LINE
  5
266
100
AcDbEntity
  8
0
100
AcDbLine
 62
7
  6
CONTINUOUS
 10
15.6063425548
 20
76.7948881008
 11
14.0923113711
 21
77.6690495688
  0
LINE
  5
267
100
AcDbEntity
  8
0
100
AcDbLine
 62
7
  6
CONTINUOUS
 10
15.5073707981
 20
78.9749380539
 11
14.0923113711
 21
79.7919558533
  0
LINE
  5
268
100
AcDbEntity
  8
0
100
AcDbLine
 62
7
  6
CONTINUOUS
 10
17.6277489074
 20
77.7506879456
 11
26.1127989945
 21
72.8516449671
  0
LINE
  5
269
100
AcDbEntity
  8
0
100
AcDbLine
 62
7
  6
CONTINUOUS
 10
19.7515215219
 20
76.5472416422
 11
16.035178632
 21
78.6928235779
  0
LINE
  5
26A
100
AcDbEntity
  8
0
100
AcDbLine
 62
7
  6
CONTINUOUS
 10
19.7515215219
 20
73.5838236354
 11
16.0354442521
 21
75.729559291
  0
LINE
  5
26B
100
AcDbEntity
  8
0
100
AcDbLine
 62
7
  6
CONTINUOUS
 10
28.8859693469
 20
67.9258628291
 11
29.5693095653
 21
67.510101725
  0
LINE
  5
26C
100
AcDbEntity
  8
0
100
AcDbLine
 62
7
  6
CONTINUOUS
 10
27.0957569386
 20
76.1594428708
 11
25.4049395701
 21
78.2628295922
  0
LINE
  5
26D
100
AcDbEntity
  8
0
100
AcDbLine
 62
7
  6
CONTINUOUS
 10
29.9297112468
 20
95.0898608771
 11
29.4276329014
 21
97.5434790089
  0
LINE
  5
26E
100
AcDbEntity
  8
0
100
AcDbLine
 62
7
  6
CONTINUOUS
 10
33.0901862603
 20
102.5774485668
 11
33.0901862603
 21
103.9515302071
  0
LINE
  5
26F
100
AcDbEntity
  8
0
100
AcDbLine
 62
7
  6
CONTINUOUS
 10
33.0901862603
 20
64.044537782
 11
33.0901865283
 21
64.6865810288
  0
LINE
  5
270
100
AcDbEntity
  8
0
100
AcDbLine
 62
7
  6
CONTINUOUS
 10
33.0901862603
 20
93.4386247987
 11
33.0901841157
 21
94.0275953884
  0
LINE
  5
271
100
AcDbEntity
  8
0
100
AcDbLine
 62
7
  6
CONTINUOUS
 10
33.0901733019
 20
73.1833547989
 11
33.0901854751
 21
74.5574427371
  0
LINE
  5
272
100
AcDbEntity
  8
0
100
AcDbLine
 62
7
  6
CONTINUOUS
 10
33.3251763726
 20
103.9072516784
 11
33.3251763726
 21
102.6824980527
  0
LINE
  5
273
100
AcDbEntity
  8
0
100
AcDbLine
 62
7
  6
CONTINUOUS
 10
33.3251763726
 20
74.5662373188
 11
33.3251763726
 21
73.3414836931
  0
LINE
  5
274
100
AcDbEntity
  8
0
100
AcDbLine
 62
7
  6
CONTINUOUS
 10
33.3251763727
 20
64.3599571047
 11
33.3251763727
 21
64.6865773308
  0
LINE
  5
275
100
AcDbEntity
  8
0
100
AcDbLine
 62
7
  6
CONTINUOUS
 10
33.3251763727
 20
93.7009714642
 11
33.3251763727
 21
94.0275916904
  0
LINE
  5
276
100
AcDbEntity
  8
0
100
AcDbLine
 62
7
  6
CONTINUOUS
 10
35.7250565707
 20
76.0785853617
 11
35.7250565707
 21
93.7009336981
  0
LINE
  5
277
100
AcDbEntity
  8
0
100
AcDbLine
 62
7
  6
CONTINUOUS
 10
35.7250565707
 20
105.4726750233
 11
35.7250421523
 21
114.8315369438
  0
LINE
  5
278
100
AcDbEntity
  8
0
100
AcDbLine
 62
7
  6
CONTINUOUS
 10
35.7250421523
 20
56.0433629104
 11
35.7250549538
 21
64.3599193386
  0
LINE
  5
279
100
AcDbEntity
  8
0
100
AcDbLine
 62
7
  6
CONTINUOUS
 10
35.7258667794
 20
105.4731280483
 11
35.7258667794
 21
105.2156303229
  0
LINE
  5
27A
100
AcDbEntity
  8
0
100
AcDbLine
 62
7
  6
CONTINUOUS
 10
35.7258667794
 20
76.0790410317
 11
35.7258667794
 21
75.8746159633
  0
LINE
  5
27B
100
AcDbEntity
  8
0
100
AcDbLine
 62
7
  6
CONTINUOUS
 10
36.1536034963
 20
64.3599125947
 11
36.1536034963
 21
64.6865328208
  0
LINE
  5
27C
100
AcDbEntity
  8
0
100
AcDbLine
 62
7
  6
CONTINUOUS
 10
36.1536034963
 20
73.3414391831
 11
36.1536034963
 21
74.5661928088
  0
LINE
  5
27D
100
AcDbEntity
  8
0
100
AcDbLine
 62
7
  6
CONTINUOUS
 10
36.1536034963
 20
93.7009269542
 11
36.1536034963
 21
94.0275471804
  0
LINE
  5
27E
100
AcDbEntity
  8
0
100
AcDbLine
 62
7
  6
CONTINUOUS
 10
36.1536034963
 20
102.6824535427
 11
36.1536034963
 21
103.9072071684
  0
LINE
  5
27F
100
AcDbEntity
  8
0
100
AcDbLine
 62
7
  6
CONTINUOUS
 10
36.719246519
 20
64.6865239195
 11
36.719246519
 21
72.4432968822
  0
LINE
  5
280
100
AcDbEntity
  8
0
100
AcDbLine
 62
7
  6
CONTINUOUS
 10
36.719246519
 20
94.027538279
 11
36.719246519
 21
101.7843112418
  0
LINE
  5
281
100
AcDbEntity
  8
0
100
AcDbLine
 62
7
  6
CONTINUOUS
 10
37.0731903427
 20
64.8908594206
 11
37.0728673673
 21
75.0968935333
  0
LINE
  5
282
100
AcDbEntity
  8
0
100
AcDbLine
 62
7
  6
CONTINUOUS
 10
37.0731903427
 20
94.2318737801
 11
37.0728673673
 21
104.4379078929
  0
LINE
  5
283
100
AcDbEntity
  8
0
100
AcDbLine
 62
7
  6
CONTINUOUS
 10
29.4276329014
 20
71.6317748012
 11
29.8407785704
 21
73.1737070928
  0
LINE
  5
284
100
AcDbEntity
  8
0
100
AcDbLine
 62
7
  6
CONTINUOUS
 10
36.1536034963
 20
103.9072071684
 11
37.0728673673
 21
104.4379078929
  0
LINE
  5
285
100
AcDbEntity
  8
0
100
AcDbLine
 62
7
  6
CONTINUOUS
 10
36.1536034963
 20
102.6824535427
 11
36.5071665236
 21
102.886569206
  0
LINE
  5
286
100
AcDbEntity
  8
0
100
AcDbLine
 62
7
  6
CONTINUOUS
 10
28.8859641093
 20
97.319946822
 11
27.0957569386
 21
96.2864413482
  0
LINE
  5
287
100
AcDbEntity
  8
0
100
AcDbLine
 62
7
  6
CONTINUOUS
 10
36.719246519
 20
101.7843112418
 11
37.0731903427
 21
101.9886467428
  0
LINE
  5
288
100
AcDbEntity
  8
0
100
AcDbLine
 62
7
  6
CONTINUOUS
 10
27.0957569386
 20
95.710592211
 11
25.4049395701
 21
94.7344655179
  0
LINE
  5
289
100
AcDbEntity
  8
0
100
AcDbLine
 62
7
  6
CONTINUOUS
 10
33.0901862603
 20
102.5774485668
 11
31.3692547589
 21
101.6853479342
  0
LINE
  5
28A
100
AcDbEntity
  8
0
100
AcDbLine
 62
7
  6
CONTINUOUS
 10
29.4276329014
 20
71.6317748012
 11
26.1127989945
 21
73.5456720217
  0
LINE
  5
28B
100
AcDbEntity
  8
0
100
AcDbLine
 62
7
  6
CONTINUOUS
 10
27.0957569386
 20
74.7585102178
 11
31.3692547589
 21
72.2912609175
  0
LINE
  5
28C
100
AcDbEntity
  8
0
100
AcDbLine
 62
7
  6
CONTINUOUS
 10
31.7189716128
 20
72.4725479789
 11
31.7694990526
 21
72.4433747747
  0
LINE
  5
28D
100
AcDbEntity
  8
0
100
AcDbLine
 62
7
  6
CONTINUOUS
 10
19.7515215219
 20
79.9910834701
 11
23.1014343725
 21
78.0570541377
  0
LINE
  5
28E
100
AcDbEntity
  8
0
100
AcDbLine
 62
7
  6
CONTINUOUS
 10
33.3251763726
 20
73.3414836931
 11
33.0901759048
 21
73.4771667333
  0
LINE
  5
28F
100
AcDbEntity
  8
0
100
AcDbLine
 62
7
  6
CONTINUOUS
 10
33.3251763726
 20
74.5662373188
 11
33.2153034272
 21
74.6296750447
  0
LINE
  5
290
100
AcDbEntity
  8
0
100
AcDbLine
 62
7
  6
CONTINUOUS
 10
87.0575397022
 20
43.8386710331
 11
89.3884273025
 21
42.4928783253
  0
LINE
  5
291
100
AcDbEntity
  8
0
100
AcDbLine
 62
7
  6
CONTINUOUS
 10
36.5071665236
 20
73.5455548464
 11
37.0731903427
 21
72.6476323833
  0
LINE
  5
292
100
AcDbEntity
  8
0
100
AcDbLine
 62
7
  6
CONTINUOUS
 10
31.7401845444
 20
94.0445415914
 11
31.3692547589
 21
93.8191920479
  0
LINE
  5
293
100
AcDbEntity
  8
0
100
AcDbLine
 62
7
  6
CONTINUOUS
 10
31.3692547589
 20
93.8191920479
 11
31.7596952276
 21
94.0445980198
  0
LINE
  5
294
100
AcDbEntity
  8
0
100
AcDbLine
 62
7
  6
CONTINUOUS
 10
36.1536034963
 20
93.7009269543
 11
37.0731903427
 21
94.2318737801
  0
LINE
  5
295
100
AcDbEntity
  8
0
100
AcDbLine
 62
7
  6
CONTINUOUS
 10
33.0901862603
 20
93.4386247987
 11
33.5962668105
 21
93.7009671982
  0
LINE
  5
296
100
AcDbEntity
  8
0
100
AcDbLine
 62
7
  6
CONTINUOUS
 10
33.3251763727
 20
64.3599571047
 11
36.1536034963
 21
64.3599125947
  0
LINE
  5
297
100
AcDbEntity
  8
0
100
AcDbLine
 62
7
  6
CONTINUOUS
 10
31.7694990526
 20
64.686601812
 11
36.719246519
 21
64.6865239195
  0
LINE
  5
298
100
AcDbEntity
  8
0
100
AcDbLine
 62
7
  6
CONTINUOUS
 10
27.0957569386
 20
76.0769729193
 11
21.527374797
 21
78.0225601617
  0
LINE
  5
299
100
AcDbEntity
  8
0
100
AcDbLine
 62
7
  6
CONTINUOUS
 10
91.0147661288
 20
43.4359223918
 11
88.6839296277
 21
44.7816855962
  0
LINE
  5
29A
100
AcDbEntity
  8
0
100
AcDbLine
 62
7
  6
CONTINUOUS
 10
91.0147661288
 20
43.7176157257
 11
88.6839296277
 21
45.0633789301
  0
LINE
  5
29B
100
AcDbEntity
  8
0
100
AcDbLine
 62
7
  6
CONTINUOUS
 10
37.0728673673
 20
75.0968935333
 11
35.5488130325
 21
75.976842103
  0
LINE
  5
29C
100
AcDbEntity
  8
0
100
AcDbLine
 62
7
  6
CONTINUOUS
 10
92.1461322689
 20
45.6772102396
 11
89.815331315
 21
47.02295292
  0
LINE
  5
29D
100
AcDbEntity
  8
0
100
AcDbLine
 62
7
  6
CONTINUOUS
 10
92.1461322689
 20
46.2895870525
 11
89.815331315
 21
47.6353297329
  0
LINE
  5
29E
100
AcDbEntity
  8
0
100
AcDbLine
 62
7
  6
CONTINUOUS
 10
23.1014343725
 20
97.6000394917
 11
25.4049395701
 21
94.7344655179
  0
LINE
  5
29F
100
AcDbEntity
  8
0
100
AcDbLine
 62
7
  6
CONTINUOUS
 10
28.3172393613
 20
96.991616029
 11
28.3078923512
 21
97.0060694568
  0
LINE
  5
2A0
100
AcDbEntity
  8
0
100
AcDbLine
 62
7
  6
CONTINUOUS
 10
17.6277489074
 20
76.7476800252
 11
16.0354481318
 21
75.7295564369
  0
LINE
  5
2A1
100
AcDbEntity
  8
0
100
AcDbLine
 62
7
  6
CONTINUOUS
 10
17.6277489074
 20
76.6969215282
 11
16.0354443805
 21
75.7295528204
  0
LINE
  5
2A2
100
AcDbEntity
  8
0
100
AcDbLine
 62
7
  6
CONTINUOUS
 10
16.0351786585
 20
80.913593622
 11
14.0923113711
 21
79.7919558533
  0
LINE
  5
2A3
100
AcDbEntity
  8
0
100
AcDbLine
 62
7
  6
CONTINUOUS
 10
15.5073707981
 20
78.9749380539
 11
16.035178639
 21
79.2796470852
  0
LINE
  5
2A4
100
AcDbEntity
  8
0
100
AcDbLine
 62
7
  6
CONTINUOUS
 10
17.1620198749
 20
77.6929970192
 11
15.6063425548
 21
76.7948881008
  0
LINE
  5
2A5
100
AcDbEntity
  8
0
100
AcDbLine
 62
7
  6
CONTINUOUS
 10
17.6473964837
 20
77.7620306986
 11
17.6277489074
 21
77.7506879456
  0
LINE
  5
2A6
100
AcDbEntity
  8
0
100
AcDbLine
 62
7
  6
CONTINUOUS
 10
25.4049395701
 20
65.3403785012
 11
27.0957569386
 21
65.4914216649
  0
LINE
  5
2A7
100
AcDbEntity
  8
0
100
AcDbLine
 62
7
  6
CONTINUOUS
 10
92.711815339
 20
46.6161823757
 11
90.3810321587
 21
47.9619147941
  0
LINE
  5
2A8
100
AcDbEntity
  8
0
100
AcDbLine
 62
7
  6
CONTINUOUS
 10
92.1461322689
 20
49.6372469627
 11
90.2369630075
 21
50.7395506815
  0
LINE
  5
2A9
100
AcDbEntity
  8
0
100
AcDbLine
 62
7
  6
CONTINUOUS
 10
92.146132269
 20
50.2496237755
 11
90.7672812246
 21
51.0457282192
  0
LINE
  5
2AA
100
AcDbEntity
  8
0
100
AcDbLine
 62
7
  6
CONTINUOUS
 10
27.0957569386
 20
105.5581494539
 11
25.4048217448
 21
107.6569060834
  0
LINE
  5
2AB
100
AcDbEntity
  8
0
100
AcDbLine
 62
7
  6
CONTINUOUS
 10
57.046734596
 20
97.6197348419
 11
61.1810132147
 21
100.1348576817
  0
LINE
  5
2AC
100
AcDbEntity
  8
0
100
AcDbLine
 62
7
  6
CONTINUOUS
 10
55.846696307
 20
93.9831905995
 11
57.046734596
 21
94.7001720886
  0
LINE
  5
2AD
100
AcDbEntity
  8
0
100
AcDbLine
 62
7
  6
CONTINUOUS
 10
17.6277489074
 20
76.6488157057
 11
16.0354423581
 21
75.7295596561
  0
LINE
  5
2AE
100
AcDbEntity
  8
0
100
AcDbLine
 62
7
  6
CONTINUOUS
 10
21.527374797
 20
77.5724604608
 11
19.7515215219
 21
76.5472416422
  0
LINE
  5
2AF
100
AcDbEntity
  8
0
100
AcDbLine
 62
7
  6
CONTINUOUS
 10
20.4597222045
 20
73.992675356
 11
19.7515215219
 21
73.5838236354
  0
LINE
  5
2B0
100
AcDbEntity
  8
0
100
AcDbLine
 62
7
  6
CONTINUOUS
 10
15.5073707981
 20
78.9749380539
 11
15.4136624587
 21
78.9321495973
  0
LINE
  5
2B1
100
AcDbEntity
  8
0
100
AcDbLine
 62
7
  6
CONTINUOUS
 10
36.719246519
 20
72.4432968822
 11
31.7694990526
 21
72.4433747747
  0
LINE
  5
2B2
100
AcDbEntity
  8
0
100
AcDbLine
 62
7
  6
CONTINUOUS
 10
33.3251763727
 20
73.3414836931
 11
36.1536034963
 21
73.3414391831
  0
LINE
  5
2B3
100
AcDbEntity
  8
0
100
AcDbLine
 62
7
  6
CONTINUOUS
 10
36.1536034963
 20
74.5661928088
 11
33.3251763726
 21
74.5662373188
  0
LINE
  5
2B4
100
AcDbEntity
  8
0
100
AcDbLine
 62
7
  6
CONTINUOUS
 10
87.0575397022
 20
58.5357145414
 11
89.3884273025
 21
57.1899218337
  0
LINE
  5
2B5
100
AcDbEntity
  8
0
100
AcDbLine
 62
7
  6
CONTINUOUS
 10
91.0067434756
 20
58.1242515347
 11
88.6759067224
 21
59.4700148847
  0
LINE
  5
2B6
100
AcDbEntity
  8
0
100
AcDbLine
 62
7
  6
CONTINUOUS
 10
23.1014343725
 20
97.6000394917
 11
19.7515215219
 21
99.5340688241
  0
LINE
  5
2B7
100
AcDbEntity
  8
0
100
AcDbLine
 62
7
  6
CONTINUOUS
 10
91.0147661288
 20
58.414659234
 11
88.6839296277
 21
59.7604224385
  0
LINE
  5
2B8
100
AcDbEntity
  8
0
100
AcDbLine
 62
7
  6
CONTINUOUS
 10
36.5071665236
 20
102.886569206
 11
37.0731903427
 21
101.9886467428
  0
LINE
  5
2B9
100
AcDbEntity
  8
0
100
AcDbLine
 62
7
  6
CONTINUOUS
 10
55.8996957212
 20
90.5078012429
 11
55.8466963069
 21
93.9831905995
  0
LINE
  5
2BA
100
AcDbEntity
  8
0
100
AcDbLine
 62
7
  6
CONTINUOUS
 10
57.046734596
 20
38.8315608086
 11
57.046734596
 21
97.6197348419
  0
LINE
  5
2BB
100
AcDbEntity
  8
0
100
AcDbLine
 62
7
  6
CONTINUOUS
 10
55.8996634354
 20
49.0294604645
 11
55.8466963069
 21
45.4950312578
  0
LINE
  5
2BC
100
AcDbEntity
  8
0
100
AcDbLine
 62
7
  6
CONTINUOUS
 10
109.2678225481
 20
124.453841165
 11
95.9667999066
 21
116.2193153149
  0
LINE
  5
2BD
100
AcDbEntity
  8
0
100
AcDbLine
 62
7
  6
CONTINUOUS
 10
21.527374797
 20
71.165200626
 11
19.7515215219
 21
70.1399818074
  0
LINE
  5
2BE
100
AcDbEntity
  8
0
100
AcDbLine
 62
7
  6
CONTINUOUS
 10
26.1127989945
 20
73.5456720217
 11
27.6546860242
 21
74.43581966
  0
LINE
  5
2BF
100
AcDbEntity
  8
0
100
AcDbLine
 62
7
  6
CONTINUOUS
 10
35.725452729
 20
76.0788186193
 11
33.0901854751
 21
74.5574427371
  0
LINE
  5
2C0
100
AcDbEntity
  8
0
100
AcDbLine
 62
7
  6
CONTINUOUS
 10
63.3526070628
 20
92.048340313
 11
67.9692429196
 21
94.4559118
  0
LINE
  5
2C1
100
AcDbEntity
  8
0
100
AcDbLine
 62
7
  6
CONTINUOUS
 10
67.9692429196
 20
96.2155138086
 11
63.3526070628
 21
93.9791200374
  0
LINE
  5
2C2
100
AcDbEntity
  8
0
100
AcDbLine
 62
7
  6
CONTINUOUS
 10
25.4049395701
 20
78.2628295922
 11
23.1014343725
 21
78.0570541377
  0
LINE
  5
2C3
100
AcDbEntity
  8
0
100
AcDbLine
 62
7
  6
CONTINUOUS
 10
27.0957569386
 20
96.2864413482
 11
31.3692547589
 21
93.8191920479
  0
LINE
  5
2C4
100
AcDbEntity
  8
0
100
AcDbLine
 62
7
  6
CONTINUOUS
 10
31.7694990526
 20
94.0276161715
 11
29.9297112468
 21
95.0898608771
  0
LINE
  5
2C5
100
AcDbEntity
  8
0
100
AcDbLine
 62
7
  6
CONTINUOUS
 10
33.090184811
 20
93.8366493622
 11
33.3251763727
 21
93.7009714642
  0
LINE
  5
2C6
100
AcDbEntity
  8
0
100
AcDbLine
 62
7
  6
CONTINUOUS
 10
21.527374797
 20
100.9209605385
 11
28.3078923512
 21
97.0060694568
  0
LINE
  5
2C7
100
AcDbEntity
  8
0
100
AcDbLine
 62
7
  6
CONTINUOUS
 10
92.1461322689
 20
60.3742537479
 11
89.815331315
 21
61.7199964283
  0
LINE
  5
2C8
100
AcDbEntity
  8
0
100
AcDbLine
 62
7
  6
CONTINUOUS
 10
92.711815339
 20
60.7008490712
 11
90.3810321587
 21
62.0465814896
  0
LINE
  5
2C9
100
AcDbEntity
  8
0
100
AcDbLine
 62
7
  6
CONTINUOUS
 10
19.7515215219
 20
102.977910652
 11
16.0354198384
 21
105.1236325767
  0
LINE
  5
2CA
100
AcDbEntity
  8
0
100
AcDbLine
 62
7
  6
CONTINUOUS
 10
26.1127989945
 20
99.4573762293
 11
29.4276329014
 21
97.5434790089
  0
LINE
  5
2CB
100
AcDbEntity
  8
0
100
AcDbLine
 62
7
  6
CONTINUOUS
 10
26.1127989945
 20
100.0697530421
 11
17.6277489074
 21
104.9687960206
  0
LINE
  5
2CC
100
AcDbEntity
  8
0
100
AcDbLine
 62
7
  6
CONTINUOUS
 10
15.6063425548
 20
106.1359024604
 11
14.0923113711
 21
107.0100639284
  0
LINE
  5
2CD
100
AcDbEntity
  8
0
100
AcDbLine
 62
7
  6
CONTINUOUS
 10
28.8859641093
 20
97.319946822
 11
29.5569065104
 21
96.9117288568
  0
LINE
  5
2CE
100
AcDbEntity
  8
0
100
AcDbLine
 62
7
  6
CONTINUOUS
 10
69.5444382696
 20
90.9757392062
 11
72.9665581505
 21
93.3301964749
  0
LINE
  5
2CF
100
AcDbEntity
  8
0
100
AcDbLine
 62
7
  6
CONTINUOUS
 10
25.2363677086
 20
69.4384719986
 11
23.1014343725
 21
68.205952475
  0
LINE
  5
2D0
100
AcDbEntity
  8
0
100
AcDbLine
 62
7
  6
CONTINUOUS
 10
36.1536034963
 20
74.5661928088
 11
37.0728673673
 21
75.0968935333
  0
LINE
  5
2D1
100
AcDbEntity
  8
0
100
AcDbLine
 62
7
  6
CONTINUOUS
 10
36.1536034963
 20
73.3414391831
 11
36.5071665236
 21
73.5455548464
  0
LINE
  5
2D2
100
AcDbEntity
  8
0
100
AcDbLine
 62
7
  6
CONTINUOUS
 10
28.8859693469
 20
67.9258628291
 11
27.0957569386
 21
66.8923543316
  0
LINE
  5
2D3
100
AcDbEntity
  8
0
100
AcDbLine
 62
7
  6
CONTINUOUS
 10
36.719246519
 20
72.4432968822
 11
37.0731903427
 21
72.6476323833
  0
LINE
  5
2D4
100
AcDbEntity
  8
0
100
AcDbLine
 62
7
  6
CONTINUOUS
 10
27.0957569386
 20
66.3165051944
 11
25.4049395701
 21
65.3403785012
  0
LINE
  5
2D5
100
AcDbEntity
  8
0
100
AcDbLine
 62
7
  6
CONTINUOUS
 10
33.0901733019
 20
73.1833547989
 11
31.3692547589
 21
72.2912609175
  0
LINE
  5
2D6
100
AcDbEntity
  8
0
100
AcDbLine
 62
7
  6
CONTINUOUS
 10
17.6277489074
 20
107.0917023052
 11
26.1127989945
 21
102.1926593266
  0
LINE
  5
2D7
100
AcDbEntity
  8
0
100
AcDbLine
 62
7
  6
CONTINUOUS
 10
15.5073707981
 20
108.3159524135
 11
14.0923113711
 21
109.1329702129
  0
LINE
  5
2D8
100
AcDbEntity
  8
0
100
AcDbLine
 62
7
  6
CONTINUOUS
 10
19.7515215219
 20
105.9413286588
 11
16.035178632
 21
108.0869105946
  0
LINE
  5
2D9
100
AcDbEntity
  8
0
100
AcDbLine
 62
7
  6
CONTINUOUS
 10
29.4276329014
 20
100.9727891608
 11
26.1127989945
 21
102.8866863812
  0
LINE
  5
2DA
100
AcDbEntity
  8
0
100
AcDbLine
 62
7
  6
CONTINUOUS
 10
92.146132269
 20
64.9466672839
 11
90.7672812246
 21
65.7427717276
  0
LINE
  5
2DB
100
AcDbEntity
  8
0
100
AcDbLine
 62
7
  6
CONTINUOUS
 10
27.0957569386
 20
104.1525972345
 11
31.3692547589
 21
101.6853479342
  0
LINE
  5
2DC
100
AcDbEntity
  8
0
100
AcDbLine
 62
7
  6
CONTINUOUS
 10
31.6705368623
 20
101.8415272794
 11
31.7694990526
 21
101.7843891342
  0
LINE
  5
2DD
100
AcDbEntity
  8
0
100
AcDbLine
 62
7
  6
CONTINUOUS
 10
19.7515215219
 20
109.3851704868
 11
23.1014343725
 21
107.4511411543
  0
LINE
  5
2DE
100
AcDbEntity
  8
0
100
AcDbLine
 62
7
  6
CONTINUOUS
 10
33.3251763726
 20
102.6824980527
 11
33.0901862603
 21
102.8181751138
  0
LINE
  5
2DF
100
AcDbEntity
  8
0
100
AcDbLine
 62
7
  6
CONTINUOUS
 10
63.3526070628
 20
37.1298907527
 11
63.3526070628
 21
35.1909460041
  0
LINE
  5
2E0
100
AcDbEntity
  8
0
100
AcDbLine
 62
7
  6
CONTINUOUS
 10
63.3526070628
 20
92.048340313
 11
63.3526070628
 21
93.9791200374
  0
LINE
  5
2E1
100
AcDbEntity
  8
0
100
AcDbLine
 62
7
  6
CONTINUOUS
 10
66.2426250776
 20
35.4613721592
 11
66.2426250776
 21
90.3798290426
  0
LINE
  5
2E2
100
AcDbEntity
  8
0
100
AcDbLine
 62
7
  6
CONTINUOUS
 10
31.7996828962
 20
64.686601337
 11
31.3692547589
 21
64.4251050313
  0
LINE
  5
2E3
100
AcDbEntity
  8
0
100
AcDbLine
 62
7
  6
CONTINUOUS
 10
31.3692547589
 20
64.4251050313
 11
31.8222091229
 21
64.6866009825
  0
LINE
  5
2E4
100
AcDbEntity
  8
0
100
AcDbLine
 62
7
  6
CONTINUOUS
 10
108.619954635
 20
108.9141782907
 11
77.29695168
 21
90.8299420511
  0
LINE
  5
2E5
100
AcDbEntity
  8
0
100
AcDbLine
 62
7
  6
CONTINUOUS
 10
77.29695168
 20
90.8299420511
 11
74.1649790758
 21
89.1077345675
  0
LINE
  5
2E6
100
AcDbEntity
  8
0
100
AcDbLine
 62
7
  6
CONTINUOUS
 10
19.888744405
 20
60.2851827422
 11
21.7149281659
 21
61.169823878
  0
LINE
  5
2E7
100
AcDbEntity
  8
0
100
AcDbLine
 62
7
  6
CONTINUOUS
 10
57.046734596
 20
89.845531405
 11
55.8996957212
 21
90.5078012429
  0
LINE
  5
2E8
100
AcDbEntity
  8
0
100
AcDbLine
 62
7
  6
CONTINUOUS
 10
33.3251763726
 20
103.9072516784
 11
33.1693406265
 21
103.9972271069
  0
LINE
  5
2E9
100
AcDbEntity
  8
0
100
AcDbLine
 62
7
  6
CONTINUOUS
 10
87.0575397022
 20
73.2327580497
 11
89.3884273025
 21
71.886965342
  0
LINE
  5
2EA
100
AcDbEntity
  8
0
100
AcDbLine
 62
7
  6
CONTINUOUS
 10
91.0067434756
 20
72.821295043
 11
88.6759067224
 21
74.167058393
  0
LINE
  5
2EB
100
AcDbEntity
  8
0
100
AcDbLine
 62
7
  6
CONTINUOUS
 10
91.0147661288
 20
73.1117027424
 11
88.6839296277
 21
74.4574659468
  0
LINE
  5
2EC
100
AcDbEntity
  8
0
100
AcDbLine
 62
7
  6
CONTINUOUS
 10
37.0728673673
 20
104.4379078929
 11
35.5028502317
 21
105.3443941652
  0
LINE
  5
2ED
100
AcDbEntity
  8
0
100
AcDbLine
 62
7
  6
CONTINUOUS
 10
57.046734596
 20
93.2903203049
 11
55.846696307
 21
93.9831905995
  0
LINE
  5
2EE
100
AcDbEntity
  8
0
100
AcDbLine
 62
7
  6
CONTINUOUS
 10
67.9692429196
 20
94.4559118
 11
67.9692429196
 21
96.2155138086
  0
LINE
  5
2EF
100
AcDbEntity
  8
0
100
AcDbLine
 62
7
  6
CONTINUOUS
 10
69.5444382696
 20
34.1065486845
 11
69.5444382696
 21
32.1875651729
  0
LINE
  5
2F0
100
AcDbEntity
  8
0
100
AcDbLine
 62
7
  6
CONTINUOUS
 10
69.5444382696
 20
89.0649207187
 11
69.5444382696
 21
90.9757392062
  0
LINE
  5
2F1
100
AcDbEntity
  8
0
100
AcDbLine
 62
7
  6
CONTINUOUS
 10
36.1536034963
 20
64.3599125947
 11
37.0731903427
 21
64.8908594206
  0
LINE
  5
2F2
100
AcDbEntity
  8
0
100
AcDbLine
 62
7
  6
CONTINUOUS
 10
89.3884273025
 20
94.3407818131
 11
91.0067434756
 21
95.2751115141
  0
LINE
  5
2F3
100
AcDbEntity
  8
0
100
AcDbLine
 62
7
  6
CONTINUOUS
 10
92.1461322689
 20
94.3407543005
 11
92.711815339
 21
94.6673496238
  0
LINE
  5
2F4
100
AcDbEntity
  8
0
100
AcDbLine
 62
7
  6
CONTINUOUS
 10
90.3810321587
 20
91.4406685063
 11
89.815331315
 21
91.114083445
  0
LINE
  5
2F5
100
AcDbEntity
  8
0
100
AcDbLine
 62
7
  6
CONTINUOUS
 10
33.0901862603
 20
64.044537782
 11
33.6986453213
 21
64.3599512275
  0
LINE
  5
2F6
100
AcDbEntity
  8
0
100
AcDbLine
 62
7
  6
CONTINUOUS
 10
33.3251763727
 20
93.7009714642
 11
36.1536034963
 21
93.7009269543
  0
LINE
  5
2F7
100
AcDbEntity
  8
0
100
AcDbLine
 62
7
  6
CONTINUOUS
 10
31.7694990526
 20
94.0276161715
 11
36.719246519
 21
94.027538279
  0
LINE
  5
2F8
100
AcDbEntity
  8
0
100
AcDbLine
 62
7
  6
CONTINUOUS
 10
27.0957569386
 20
105.4179872788
 11
21.527374797
 21
107.3635745213
  0
LINE
  5
2F9
100
AcDbEntity
  8
0
100
AcDbLine
 62
7
  6
CONTINUOUS
 10
69.5444382696
 20
89.0649207187
 11
66.2426250776
 21
90.3798290426
  0
LINE
  5
2FA
100
AcDbEntity
  8
0
100
AcDbLine
 62
7
  6
CONTINUOUS
 10
74.1649790758
 20
89.1077345675
 11
69.5444382696
 21
90.9757392062
  0
LINE
  5
2FB
100
AcDbEntity
  8
0
100
AcDbLine
 62
7
  6
CONTINUOUS
 10
92.1461322689
 20
75.0712972563
 11
89.815331315
 21
76.4170399367
  0
LINE
  5
2FC
100
AcDbEntity
  8
0
100
AcDbLine
 62
7
  6
CONTINUOUS
 10
66.2426250776
 20
90.3798290426
 11
63.3526070628
 21
92.048340313
  0
LINE
  5
2FD
100
AcDbEntity
  8
0
100
AcDbLine
 62
7
  6
CONTINUOUS
 10
19.888744405
 20
117.1425545162
 11
25.6291031862
 21
113.828439077
  0
LINE
  5
2FE
100
AcDbEntity
  8
0
100
AcDbLine
 62
7
  6
CONTINUOUS
 10
92.711815339
 20
75.3978925795
 11
90.3810321587
 21
76.7436249979
  0
LINE
  5
2FF
100
AcDbEntity
  8
0
100
AcDbLine
 62
7
  6
CONTINUOUS
 10
63.3526070628
 20
93.9791200374
 11
57.046734596
 21
97.6197348419
  0
LINE
  5
300
100
AcDbEntity
  8
0
100
AcDbLine
 62
7
  6
CONTINUOUS
 10
31.3692547589
 20
112.4452309805
 11
25.6291031862
 21
115.7592340634
  0
LINE
  5
301
100
AcDbEntity
  8
0
100
AcDbLine
 62
7
  6
CONTINUOUS
 10
19.888744405
 20
119.0733567755
 11
16.0351899763
 21
121.2981571305
  0
LINE
  5
302
100
AcDbEntity
  8
0
100
AcDbLine
 62
7
  6
CONTINUOUS
 10
92.146132269
 20
79.6437107922
 11
90.7672812246
 21
80.4398152359
  0
LINE
  5
303
100
AcDbEntity
  8
0
100
AcDbLine
 62
7
  6
CONTINUOUS
 10
24.5059880233
 20
119.5504429503
 11
28.1127365476
 21
117.4680019686
  0
LINE
  5
304
100
AcDbEntity
  8
0
100
AcDbLine
 62
7
  6
CONTINUOUS
 10
67.9692429196
 20
94.4559118
 11
71.5759914438
 21
92.3734708183
  0
LINE
  5
305
100
AcDbEntity
  8
0
100
AcDbLine
 62
7
  6
CONTINUOUS
 10
74.1649790758
 20
30.3195605342
 11
74.1649790758
 21
89.1077345675
  0
LINE
  5
306
100
AcDbEntity
  8
0
100
AcDbLine
 62
7
  6
CONTINUOUS
 10
88.6759067224
 20
88.8641019013
 11
87.0575397022
 21
87.9298015581
  0
LINE
  5
307
100
AcDbEntity
  8
0
100
AcDbLine
 62
7
  6
CONTINUOUS
 10
92.711815339
 20
90.0949360879
 11
92.1461322689
 21
89.7683407646
  0
LINE
  5
308
100
AcDbEntity
  8
0
100
AcDbLine
 62
7
  6
CONTINUOUS
 10
91.0067434756
 20
87.5183385514
 11
89.3884273025
 21
86.5840088503
  0
LINE
  5
309
100
AcDbEntity
  8
0
100
AcDbLine
 62
7
  6
CONTINUOUS
 10
31.3692547589
 20
53.6570569471
 11
35.7250421523
 21
56.0433629104
  0
LINE
  5
30A
100
AcDbEntity
  8
0
100
AcDbLine
 62
7
  6
CONTINUOUS
 10
25.4049395701
 20
94.7344655179
 11
27.0957569386
 21
94.8855086816
  0
LINE
  5
30B
100
AcDbEntity
  8
0
100
AcDbLine
 62
7
  6
CONTINUOUS
 10
24.5059880233
 20
121.3100449589
 11
29.5033032542
 21
118.4247276252
  0
LINE
  5
30C
100
AcDbEntity
  8
0
100
AcDbLine
 62
7
  6
CONTINUOUS
 10
67.9692429196
 20
96.2155138086
 11
72.9665581505
 21
93.3301964749
  0
LINE
  5
30D
100
AcDbEntity
  8
0
100
AcDbLine
 62
7
  6
CONTINUOUS
 10
61.1810132147
 20
100.1348576817
 11
35.7250421523
 21
114.8315369438
  0
LINE
  5
30E
100
AcDbEntity
  8
0
100
AcDbLine
 62
7
  6
CONTINUOUS
 10
87.0575397022
 20
87.9298015581
 11
89.3884273025
 21
86.5840088503
  0
LINE
  5
30F
100
AcDbEntity
  8
0
100
AcDbLine
 62
7
  6
CONTINUOUS
 10
77.2969516801
 20
32.0417680179
 11
77.2969516801
 21
90.8299420512
  0
LINE
  5
310
100
AcDbEntity
  8
0
100
AcDbLine
 62
7
  6
CONTINUOUS
 10
89.3884273025
 20
79.6437383047
 11
91.0067434756
 21
80.5780680057
  0
LINE
  5
311
100
AcDbEntity
  8
0
100
AcDbLine
 62
7
  6
CONTINUOUS
 10
36.719246519
 20
101.7843112418
 11
31.7694990526
 21
101.7843891342
  0
LINE
  5
312
100
AcDbEntity
  8
0
100
AcDbLine
 62
7
  6
CONTINUOUS
 10
33.3251763727
 20
102.6824980527
 11
36.1536034963
 21
102.6824535427
  0
LINE
  5
313
100
AcDbEntity
  8
0
100
AcDbLine
 62
7
  6
CONTINUOUS
 10
36.1536034963
 20
103.9072071684
 11
33.3251763726
 21
103.9072516784
  0
LINE
  5
314
100
AcDbEntity
  8
0
100
AcDbLine
 62
7
  6
CONTINUOUS
 10
91.0067434756
 20
87.5183385514
 11
88.6759067224
 21
88.8641019013
  0
LINE
  5
315
100
AcDbEntity
  8
0
100
AcDbLine
 62
7
  6
CONTINUOUS
 10
91.0147661288
 20
87.8087462507
 11
88.6839296277
 21
89.1545094551
  0
LINE
  5
316
100
AcDbEntity
  8
0
100
AcDbLine
 62
7
  6
CONTINUOUS
 10
92.1461322689
 20
89.7683407646
 11
89.815331315
 21
91.114083445
  0
LINE
  5
317
100
AcDbEntity
  8
0
100
AcDbLine
 62
7
  6
CONTINUOUS
 10
92.711815339
 20
90.0949360879
 11
90.3810321587
 21
91.4406685063
  0
LINE
  5
318
100
AcDbEntity
  8
0
100
AcDbLine
 62
7
  6
CONTINUOUS
 10
89.815331315
 20
91.114083445
 11
88.6839296277
 21
89.1545094551
  0
LINE
  5
319
100
AcDbEntity
  8
0
100
AcDbLine
 62
7
  6
CONTINUOUS
 10
91.0147661288
 20
87.8087462507
 11
92.146132269
 21
89.7683407646
  0
LINE
  5
31A
100
AcDbEntity
  8
0
100
AcDbLine
 62
7
  6
CONTINUOUS
 10
92.1461322689
 20
79.6437107922
 11
92.711815339
 21
79.9703061155
  0
LINE
  5
31B
100
AcDbEntity
  8
0
100
AcDbLine
 62
7
  6
CONTINUOUS
 10
90.3810321587
 20
76.7436249979
 11
89.815331315
 21
76.4170399367
  0
LINE
  5
31C
100
AcDbEntity
  8
0
100
AcDbLine
 62
7
  6
CONTINUOUS
 10
88.6759067224
 20
74.167058393
 11
87.0575397022
 21
73.2327580497
  0
LINE
  5
31D
100
AcDbEntity
  8
0
100
AcDbLine
 62
7
  6
CONTINUOUS
 10
92.711815339
 20
75.3978925795
 11
92.1461322689
 21
75.0712972563
  0
LINE
  5
31E
100
AcDbEntity
  8
0
100
AcDbLine
 62
7
  6
CONTINUOUS
 10
25.4048217448
 20
107.6569060834
 11
23.1014343725
 21
107.4511411543
  0
LINE
  5
31F
100
AcDbEntity
  8
0
100
AcDbLine
 62
7
  6
CONTINUOUS
 10
92.146132269
 20
94.3407543005
 11
90.7672812246
 21
95.1368587442
  0
LINE
  5
320
100
AcDbEntity
  8
0
100
AcDbLine
 62
7
  6
CONTINUOUS
 10
91.0067434756
 20
51.1839809891
 11
91.0147661288
 21
50.9028369964
  0
LINE
  5
321
100
AcDbEntity
  8
0
100
AcDbLine
 62
7
  6
CONTINUOUS
 10
91.0067434756
 20
65.8810244974
 11
91.0147661288
 21
65.5998805048
  0
LINE
  5
322
100
AcDbEntity
  8
0
100
AcDbLine
 62
7
  6
CONTINUOUS
 10
91.0067434756
 20
80.5780680057
 11
91.0147661288
 21
80.2969240131
  0
LINE
  5
323
100
AcDbEntity
  8
0
100
AcDbLine
 62
7
  6
CONTINUOUS
 10
91.0067434756
 20
95.2751115141
 11
91.0147661288
 21
94.9939675214
  0
LINE
  5
324
100
AcDbEntity
  8
0
100
AcDbLine
 62
7
  6
CONTINUOUS
 10
88.6839296277
 20
45.0633789301
 11
88.6839296277
 21
44.7816855962
  0
LINE
  5
325
100
AcDbEntity
  8
0
100
AcDbLine
 62
7
  6
CONTINUOUS
 10
89.815331315
 20
47.6353297329
 11
89.815331315
 21
47.02295292
  0
LINE
  5
326
100
AcDbEntity
  8
0
100
AcDbLine
 62
7
  6
CONTINUOUS
 10
90.3810321587
 20
94.9138590732
 11
90.3810321587
 21
91.4406685063
  0
LINE
  5
327
100
AcDbEntity
  8
0
100
AcDbLine
 62
7
  6
CONTINUOUS
 10
90.3810321587
 20
80.2168155649
 11
90.3810321587
 21
76.7436249979
  0
LINE
  5
328
100
AcDbEntity
  8
0
100
AcDbLine
 62
7
  6
CONTINUOUS
 10
90.3810321587
 20
65.5197720565
 11
90.3810321587
 21
62.0465814896
  0
LINE
  5
329
100
AcDbEntity
  8
0
100
AcDbLine
 62
7
  6
CONTINUOUS
 10
90.3810321587
 20
50.6563689729
 11
90.3810321587
 21
47.9619147941
  0
LINE
  5
32A
100
AcDbEntity
  8
0
100
AcDbLine
 62
7
  6
CONTINUOUS
 10
91.0147661288
 20
43.7176157257
 11
91.0147661288
 21
43.4359223918
  0
LINE
  5
32B
100
AcDbEntity
  8
0
100
AcDbLine
 62
7
  6
CONTINUOUS
 10
88.6839296277
 20
89.1545094551
 11
88.6759067224
 21
88.8641019013
  0
LINE
  5
32C
100
AcDbEntity
  8
0
100
AcDbLine
 62
7
  6
CONTINUOUS
 10
88.6839296277
 20
74.4574659468
 11
88.6759067224
 21
74.167058393
  0
LINE
  5
32D
100
AcDbEntity
  8
0
100
AcDbLine
 62
7
  6
CONTINUOUS
 10
88.6839296277
 20
59.7604224385
 11
88.6759067224
 21
59.4700148847
  0
LINE
  5
32E
100
AcDbEntity
  8
0
100
AcDbLine
 62
7
  6
CONTINUOUS
 10
91.0147661289
 20
87.8087462507
 11
91.0067434756
 21
87.5183385514
  0
LINE
  5
32F
100
AcDbEntity
  8
0
100
AcDbLine
 62
7
  6
CONTINUOUS
 10
91.0147661289
 20
73.1117027424
 11
91.0067434756
 21
72.821295043
  0
LINE
  5
330
100
AcDbEntity
  8
0
100
AcDbLine
 62
7
  6
CONTINUOUS
 10
89.815331315
 20
76.4170399367
 11
88.6839296277
 21
74.4574659468
  0
LINE
  5
331
100
AcDbEntity
  8
0
100
AcDbLine
 62
7
  6
CONTINUOUS
 10
91.0067434756
 20
72.821295043
 11
89.3884273025
 21
71.886965342
  0
LINE
  5
332
100
AcDbEntity
  8
0
100
AcDbLine
 62
7
  6
CONTINUOUS
 10
57.046734596
 20
49.668557557
 11
55.8996634354
 21
49.0294604645
  0
LINE
  5
333
100
AcDbEntity
  8
0
100
AcDbLine
 62
7
  6
CONTINUOUS
 10
92.1461322689
 20
50.2496237755
 11
92.1461322689
 21
49.6372469627
  0
LINE
  5
334
100
AcDbEntity
  8
0
100
AcDbLine
 62
7
  6
CONTINUOUS
 10
92.1461322689
 20
46.2895870525
 11
92.1461322689
 21
45.6772102396
  0
LINE
  5
335
100
AcDbEntity
  8
0
100
AcDbLine
 62
7
  6
CONTINUOUS
 10
92.711815339
 20
94.6673496238
 11
92.711815339
 21
90.0949360879
  0
LINE
  5
336
100
AcDbEntity
  8
0
100
AcDbLine
 62
7
  6
CONTINUOUS
 10
92.711815339
 20
79.9703061155
 11
92.711815339
 21
75.3978925795
  0
LINE
  5
337
100
AcDbEntity
  8
0
100
AcDbLine
 62
7
  6
CONTINUOUS
 10
92.711815339
 20
65.2732626071
 11
92.711815339
 21
60.7008490712
  0
LINE
  5
338
100
AcDbEntity
  8
0
100
AcDbLine
 62
7
  6
CONTINUOUS
 10
92.711815339
 20
49.9638422859
 11
92.711815339
 21
46.6161823757
  0
LINE
  5
339
100
AcDbEntity
  8
0
100
AcDbLine
 62
7
  6
CONTINUOUS
 10
91.0147661289
 20
58.414659234
 11
91.0067434756
 21
58.1242515347
  0
LINE
  5
33A
100
AcDbEntity
  8
0
100
AcDbLine
 62
7
  6
CONTINUOUS
 10
91.0147661288
 20
73.1117027423
 11
92.1461322689
 21
75.0712972563
  0
LINE
  5
33B
100
AcDbEntity
  8
0
100
AcDbLine
 62
7
  6
CONTINUOUS
 10
89.3884273025
 20
64.9466947964
 11
91.0067434756
 21
65.8810244974
  0
LINE
  5
33C
100
AcDbEntity
  8
0
100
AcDbLine
 62
7
  6
CONTINUOUS
 10
92.1461322689
 20
64.9466672839
 11
92.711815339
 21
65.2732626071
  0
LINE
  5
33D
100
AcDbEntity
  8
0
100
AcDbLine
 62
7
  6
CONTINUOUS
 10
89.815331315
 20
61.7199964283
 11
88.6839296277
 21
59.7604224385
  0
LINE
  5
33E
100
AcDbEntity
  8
0
100
AcDbLine
 62
7
  6
CONTINUOUS
 10
91.0147661288
 20
58.414659234
 11
92.146132269
 21
60.3742537479
  0
LINE
  5
33F
100
AcDbEntity
  8
0
100
AcDbLine
 62
7
  6
CONTINUOUS
 10
90.3810321587
 20
62.0465814896
 11
89.815331315
 21
61.7199964283
  0
LINE
  5
340
100
AcDbEntity
  8
0
100
AcDbLine
 62
7
  6
CONTINUOUS
 10
88.6759067224
 20
59.4700148847
 11
87.0575397022
 21
58.5357145414
  0
LINE
  5
341
100
AcDbEntity
  8
0
100
AcDbLine
 62
7
  6
CONTINUOUS
 10
92.711815339
 20
60.7008490712
 11
92.1461322689
 21
60.3742537479
  0
LINE
  5
342
100
AcDbEntity
  8
0
100
AcDbLine
 62
7
  6
CONTINUOUS
 10
91.0067434756
 20
58.1242515347
 11
89.3884273025
 21
57.1899218337
  0
LINE
  5
343
100
AcDbEntity
  8
0
100
AcDbLine
 62
7
  6
CONTINUOUS
 10
89.815331315
 20
47.02295292
 11
88.6839296277
 21
45.0633789301
  0
LINE
  5
344
100
AcDbEntity
  8
0
100
AcDbLine
 62
7
  6
CONTINUOUS
 10
108.619954635
 20
65.2645787927
 11
109.2678225481
 21
65.6656671317
  0
LINE
  5
345
100
AcDbEntity
  8
0
100
AcDbLine
 62
7
  6
CONTINUOUS
 10
95.9667999066
 20
116.2193153149
 11
108.619954635
 21
108.9141782907
  0
LINE
  5
346
100
AcDbEntity
  8
0
100
AcDbLine
 62
7
  6
CONTINUOUS
 10
51.4929407484
 20
141.8978016508
 11
64.1424347454
 21
134.594778103
  0
LINE
  5
347
100
AcDbEntity
  8
0
100
AcDbLine
 62
7
  6
CONTINUOUS
 10
108.619954635
 20
50.1260042573
 11
108.619954635
 21
108.9141782907
  0
LINE
  5
348
100
AcDbEntity
  8
0
100
AcDbLine
 62
7
  6
CONTINUOUS
 10
109.2678225481
 20
65.6656671317
 11
109.2678225481
 21
124.453841165
  0
LINE
  5
349
100
AcDbEntity
  8
0
100
AcDbLine
 62
7
  6
CONTINUOUS
 10
91.0147661288
 20
43.7176157257
 11
92.146132269
 21
45.6772102396
  0
LINE
  5
34A
100
AcDbEntity
  8
0
100
AcDbLine
 62
7
  6
CONTINUOUS
 10
88.6839296277
 20
44.7816855962
 11
87.0575397022
 21
43.8386710331
  0
LINE
  5
34B
100
AcDbEntity
  8
0
100
AcDbLine
 62
7
  6
CONTINUOUS
 10
89.3884273025
 20
50.2496512881
 11
91.0067434756
 21
51.1839809891
  0
LINE
  5
34C
100
AcDbEntity
  8
0
100
AcDbLine
 62
7
  6
CONTINUOUS
 10
92.1461322689
 20
49.6372469627
 11
92.711815339
 21
49.9638422859
  0
LINE
  5
34D
100
AcDbEntity
  8
0
100
AcDbLine
 62
7
  6
CONTINUOUS
 10
90.3810321587
 20
47.9619147941
 11
89.815331315
 21
47.6353297329
  0
LINE
  5
34E
100
AcDbEntity
  8
0
100
AcDbLine
 62
7
  6
CONTINUOUS
 10
63.3526070628
 20
35.1909460041
 11
65.1787695996
 21
36.0755768585
  0
LINE
  5
34F
100
AcDbEntity
  8
0
100
AcDbLine
 62
7
  6
CONTINUOUS
 10
91.0147661288
 20
43.4359223918
 11
89.3884273025
 21
42.4928783253
  0
LINE
  5
350
100
AcDbEntity
  8
0
100
AcDbLine
 62
7
  6
CONTINUOUS
 10
92.711815339
 20
46.6161823757
 11
92.1461322689
 21
46.2895870525
  0
LINE
  5
351
100
AcDbEntity
  8
0
100
AcDbLine
 62
7
  6
CONTINUOUS
 10
108.619954635
 20
50.1260042573
 11
77.2969516801
 21
32.0417680179
  0
LINE
  5
352
100
AcDbEntity
  8
0
100
AcDbLine
 62
7
  6
CONTINUOUS
 10
74.1649790758
 20
30.3195605342
 11
77.29695168
 21
32.0417680178
  0
LINE
  5
353
100
AcDbEntity
  8
0
100
AcDbLine
 62
7
  6
CONTINUOUS
 10
77.3651613235
 20
140.1895504212
 11
81.1827573951
 21
137.9853716553
  0
LINE
  5
354
100
AcDbEntity
  8
0
100
AcDbLine
 62
7
  6
CONTINUOUS
 10
87.8191756197
 20
136.83772129
 11
109.2678225481
 21
124.453841165
  0
SPLINE
  5
355
100
AcDbEntity
  8
0
100
AcDbSpline
 62
7
  6
CONTINUOUS
 70
0
 71
3
 72
12
 73
8
 74
0
 42
0.0000001
 43
0.0000001
 44
0.0000000001
 40
0.0
 40
0.0
 40
0.0
 40
0.0
 40
0.1082217956
 40
0.2184507914
 40
0.4513924989
 40
0.7104711439
 40
1.0
 40
1.0
 40
1.0
 40
1.0
 10
15.4136268111
 20
78.9322113421
 30
0.0
 10
15.3873801165
 20
78.9170567347
 30
0.0
 10
15.3369082475
 20
78.8818632115
 30
0.0
 10
15.2464411866
 20
78.7928441373
 30
0.0
 10
15.1568533128
 20
78.6467586946
 30
0.0
 10
15.0945281586
 20
78.4350418881
 30
0.0
 10
15.0822338812
 20
78.2808556259
 30
0.0
 10
15.0822338812
 20
78.1997728178
 30
0.0
  0
SPLINE
  5
356
100
AcDbEntity
  8
0
100
AcDbSpline
 62
7
  6
CONTINUOUS
 70
0
 71
3
 72
9
 73
5
 74
0
 42
0.0000001
 43
0.0000001
 44
0.0000000001
 40
0.0
 40
0.0
 40
0.0
 40
0.0
 40
0.5160340478
 40
1.0
 40
1.0
 40
1.0
 40
1.0
 10
17.1620198749
 20
77.6929970192
 30
0.0
 10
17.2305892922
 20
77.6030380081
 30
0.0
 10
17.3747351764
 20
77.4369578047
 30
0.0
 10
17.541238417
 20
77.2928276002
 30
0.0
 10
17.6271875769
 20
77.2306474825
 30
0.0
  0
SPLINE
  5
357
100
AcDbEntity
  8
0
100
AcDbSpline
 62
7
  6
CONTINUOUS
 70
0
 71
3
 72
11
 73
7
 74
0
 42
0.0000001
 43
0.0000001
 44
0.0000000001
 40
0.0
 40
0.0
 40
0.0
 40
0.0
 40
0.2278092478
 40
0.4766825084
 40
0.7376218803
 40
1.0
 40
1.0
 40
1.0
 40
1.0
 10
15.0822338812
 20
78.1997728178
 30
0.0
 10
15.0822338812
 20
78.0841519615
 30
0.0
 10
15.1096230453
 20
77.8419512708
 30
0.0
 10
15.2149568318
 20
77.4812253806
 30
0.0
 10
15.3802394244
 20
77.1243876863
 30
0.0
 10
15.5256166102
 20
76.9007957553
 30
0.0
 10
15.6063425548
 20
76.7948881008
 30
0.0
  0
SPLINE
  5
358
100
AcDbEntity
  8
0
100
AcDbSpline
 62
7
  6
CONTINUOUS
 70
0
 71
3
 72
12
 73
8
 74
0
 42
0.0000001
 43
0.0000001
 44
0.0000000001
 40
0.0
 40
0.0
 40
0.0
 40
0.0
 40
0.1082217956
 40
0.2184507914
 40
0.4513924989
 40
0.7104711439
 40
1.0
 40
1.0
 40
1.0
 40
1.0
 10
15.4136268111
 20
108.2732257017
 30
0.0
 10
15.3873801165
 20
108.2580710943
 30
0.0
 10
15.3369082475
 20
108.2228775711
 30
0.0
 10
15.2464411866
 20
108.1338584969
 30
0.0
 10
15.1568533128
 20
107.9877730542
 30
0.0
 10
15.0945281586
 20
107.7760562476
 30
0.0
 10
15.0822338812
 20
107.6218699854
 30
0.0
 10
15.0822338812
 20
107.5407871773
 30
0.0
  0
SPLINE
  5
359
100
AcDbEntity
  8
0
100
AcDbSpline
 62
7
  6
CONTINUOUS
 70
0
 71
3
 72
9
 73
5
 74
0
 42
0.0000001
 43
0.0000001
 44
0.0000000001
 40
0.0
 40
0.0
 40
0.0
 40
0.0
 40
0.5160340478
 40
1.0
 40
1.0
 40
1.0
 40
1.0
 10
17.1620198749
 20
107.0340113788
 30
0.0
 10
17.2305892922
 20
106.9440523676
 30
0.0
 10
17.3747351764
 20
106.7779721642
 30
0.0
 10
17.541238417
 20
106.6338419597
 30
0.0
 10
17.6271875769
 20
106.5716618421
 30
0.0
  0
SPLINE
  5
35A
100
AcDbEntity
  8
0
100
AcDbSpline
 62
7
  6
CONTINUOUS
 70
0
 71
3
 72
11
 73
7
 74
0
 42
0.0000001
 43
0.0000001
 44
0.0000000001
 40
0.0
 40
0.0
 40
0.0
 40
0.0
 40
0.2278092478
 40
0.4766825084
 40
0.7376218803
 40
1.0
 40
1.0
 40
1.0
 40
1.0
 10
15.0822338812
 20
107.5407871773
 30
0.0
 10
15.0822338812
 20
107.4251663211
 30
0.0
 10
15.1096230453
 20
107.1829656303
 30
0.0
 10
15.2149568318
 20
106.8222397401
 30
0.0
 10
15.3802394244
 20
106.4654020459
 30
0.0
 10
15.5256166102
 20
106.2418101148
 30
0.0
 10
15.6063425548
 20
106.1359024604
 30
0.0
  0
SPLINE
  5
35B
100
AcDbEntity
  8
0
100
AcDbSpline
 62
7
  6
CONTINUOUS
 70
0
 71
3
 72
11
 73
7
 74
0
 42
0.0000001
 43
0.0000001
 44
0.0000000001
 40
0.0
 40
0.0
 40
0.0
 40
0.0
 40
0.2372407484
 40
0.5000013905
 40
0.7627612719
 40
1.0
 40
1.0
 40
1.0
 40
1.0
 10
74.5366897641
 20
140.1895692771
 30
0.0
 10
74.737472202
 20
140.3054903798
 30
0.0
 10
75.2043900173
 20
140.4746451598
 30
0.0
 10
75.950931539
 20
140.5556846137
 30
0.0
 10
76.6974700446
 20
140.4746357753
 30
0.0
 10
77.1643829139
 20
140.3054745522
 30
0.0
 10
77.3651613235
 20
140.1895504212
 30
0.0
  0
SPLINE
  5
35C
100
AcDbEntity
  8
0
100
AcDbSpline
 62
7
  6
CONTINUOUS
 70
0
 71
3
 72
11
 73
7
 74
0
 42
0.0000001
 43
0.0000001
 44
0.0000000001
 40
0.0
 40
0.0
 40
0.0
 40
0.0
 40
0.2627566361
 40
0.5235946037
 40
0.7722350222
 40
1.0
 40
1.0
 40
1.0
 40
1.0
 10
81.1827573951
 20
137.9853716553
 30
0.0
 10
81.7773036986
 20
138.0561588201
 30
0.0
 10
82.9739551973
 20
138.1103609038
 30
0.0
 10
84.731505415
 20
137.9421169787
 30
0.0
 10
86.3680388703
 20
137.5358707396
 30
0.0
 10
87.3697045401
 20
137.0972339757
 30
0.0
 10
87.8191756197
 20
136.83772129
 30
0.0
  0
SPLINE
  5
35D
100
AcDbEntity
  8
0
100
AcDbSpline
 62
7
  6
CONTINUOUS
 70
0
 71
3
 72
18
 73
14
 74
0
 42
0.0000001
 43
0.0000001
 44
0.0000000001
 40
0.0
 40
0.0
 40
0.0
 40
0.0
 40
0.1286570628
 40
0.270202998
 40
0.4173200764
 40
0.5616274009
 40
0.695263367
 40
0.7562692465
 40
0.8127602889
 40
0.864712914
 40
0.9125330023
 40
0.95715126
 40
1.0
 40
1.0
 40
1.0
 40
1.0
 10
89.3884273002
 20
94.3407818117
 30
0.0
 10
89.0368069379
 20
94.1377749127
 30
0.0
 10
88.3542810861
 20
93.6125641883
 30
0.0
 10
87.4807726805
 20
92.6187257726
 30
0.0
 10
86.7616372409
 20
91.4490417652
 30
0.0
 10
86.256679115
 20
90.1997088715
 30
0.0
 10
86.0411545781
 20
89.1432662066
 30
0.0
 10
86.0207969337
 20
88.3491272546
 30
0.0
 10
86.07838912
 20
87.8156181825
 30
0.0
 10
86.207566787
 20
87.3372490029
 30
0.0
 10
86.4072693909
 20
86.9241693197
 30
0.0
 10
86.6743319922
 20
86.586302328
 30
0.0
 10
86.8963520799
 20
86.4164314151
 30
0.0
 10
87.0134445393
 20
86.3487976304
 30
0.0
  0
SPLINE
  5
35E
100
AcDbEntity
  8
0
100
AcDbSpline
 62
7
  6
CONTINUOUS
 70
0
 71
3
 72
18
 73
14
 74
0
 42
0.0000001
 43
0.0000001
 44
0.0000000001
 40
0.0
 40
0.0
 40
0.0
 40
0.0
 40
0.1286570628
 40
0.270202998
 40
0.4173200764
 40
0.5616274009
 40
0.695263367
 40
0.7562692465
 40
0.8127602889
 40
0.864712914
 40
0.9125330023
 40
0.95715126
 40
1.0
 40
1.0
 40
1.0
 40
1.0
 10
89.3884273002
 20
79.6437383034
 30
0.0
 10
89.0368069379
 20
79.4407314044
 30
0.0
 10
88.3542810861
 20
78.91552068
 30
0.0
 10
87.4807726805
 20
77.9216822643
 30
0.0
 10
86.7616372409
 20
76.7519982569
 30
0.0
 10
86.256679115
 20
75.5026653631
 30
0.0
 10
86.0411545781
 20
74.4462226983
 30
0.0
 10
86.0207969337
 20
73.6520837463
 30
0.0
 10
86.07838912
 20
73.1185746742
 30
0.0
 10
86.207566787
 20
72.6402054945
 30
0.0
 10
86.4072693909
 20
72.2271258114
 30
0.0
 10
86.6743319922
 20
71.8892588197
 30
0.0
 10
86.8963520799
 20
71.7193879067
 30
0.0
 10
87.0134445393
 20
71.651754122
 30
0.0
  0
SPLINE
  5
35F
100
AcDbEntity
  8
0
100
AcDbSpline
 62
7
  6
CONTINUOUS
 70
0
 71
3
 72
18
 73
14
 74
0
 42
0.0000001
 43
0.0000001
 44
0.0000000001
 40
0.0
 40
0.0
 40
0.0
 40
0.0
 40
0.1286570628
 40
0.270202998
 40
0.4173200764
 40
0.5616274009
 40
0.695263367
 40
0.7562692465
 40
0.8127602889
 40
0.864712914
 40
0.9125330023
 40
0.95715126
 40
1.0
 40
1.0
 40
1.0
 40
1.0
 10
89.3884273002
 20
64.9466947951
 30
0.0
 10
89.0368069379
 20
64.7436878961
 30
0.0
 10
88.3542810861
 20
64.2184771717
 30
0.0
 10
87.4807726805
 20
63.224638756
 30
0.0
 10
86.7616372409
 20
62.0549547485
 30
0.0
 10
86.256679115
 20
60.8056218548
 30
0.0
 10
86.0411545781
 20
59.7491791899
 30
0.0
 10
86.0207969337
 20
58.955040238
 30
0.0
 10
86.07838912
 20
58.4215311658
 30
0.0
 10
86.207566787
 20
57.9431619862
 30
0.0
 10
86.4072693909
 20
57.5300823031
 30
0.0
 10
86.6743319922
 20
57.1922153113
 30
0.0
 10
86.8963520799
 20
57.0223443984
 30
0.0
 10
87.0134445393
 20
56.9547106137
 30
0.0
  0
SPLINE
  5
360
100
AcDbEntity
  8
0
100
AcDbSpline
 62
7
  6
CONTINUOUS
 70
0
 71
3
 72
18
 73
14
 74
0
 42
0.0000001
 43
0.0000001
 44
0.0000000001
 40
0.0
 40
0.0
 40
0.0
 40
0.0
 40
0.1286570628
 40
0.270202998
 40
0.4173200764
 40
0.5616274009
 40
0.695263367
 40
0.7562692465
 40
0.8127602889
 40
0.864712914
 40
0.9125330023
 40
0.95715126
 40
1.0
 40
1.0
 40
1.0
 40
1.0
 10
89.3884273002
 20
50.2496512867
 30
0.0
 10
89.0368069379
 20
50.0466443877
 30
0.0
 10
88.3542810861
 20
49.5214336633
 30
0.0
 10
87.4807726805
 20
48.5275952476
 30
0.0
 10
86.7616372409
 20
47.3579112402
 30
0.0
 10
86.256679115
 20
46.1085783465
 30
0.0
 10
86.0411545781
 20
45.0521356816
 30
0.0
 10
86.0207969337
 20
44.2579967296
 30
0.0
 10
86.07838912
 20
43.7244876575
 30
0.0
 10
86.207566787
 20
43.2461184779
 30
0.0
 10
86.4072693909
 20
42.8330387947
 30
0.0
 10
86.6743319922
 20
42.495171803
 30
0.0
 10
86.8963520799
 20
42.3253008901
 30
0.0
 10
87.0134445393
 20
42.2576671054
 30
0.0
  0
SPLINE
  5
361
100
AcDbEntity
  8
0
100
AcDbSpline
 62
7
  6
CONTINUOUS
 70
0
 71
3
 72
9
 73
5
 74
0
 42
0.0000001
 43
0.0000001
 44
0.0000000001
 40
0.0
 40
0.0
 40
0.0
 40
0.0
 40
0.2634365722
 40
1.0
 40
1.0
 40
1.0
 40
1.0
 10
87.0575397022
 20
58.5357145414
 30
0.0
 10
86.9854966451
 20
58.494123325
 30
0.0
 10
86.7077368493
 20
58.3440311181
 30
0.0
 10
86.4117385806
 20
58.2257896547
 30
0.0
 10
86.1870526346
 20
58.1656763829
 30
0.0
  0
SPLINE
  5
362
100
AcDbEntity
  8
0
100
AcDbSpline
 62
7
  6
CONTINUOUS
 70
0
 71
3
 72
9
 73
5
 74
0
 42
0.0000001
 43
0.0000001
 44
0.0000000001
 40
0.0
 40
0.0
 40
0.0
 40
0.0
 40
0.2634365722
 40
1.0
 40
1.0
 40
1.0
 40
1.0
 10
87.0575397022
 20
73.2327580497
 30
0.0
 10
86.9854966451
 20
73.1911668333
 30
0.0
 10
86.7077368493
 20
73.0410746265
 30
0.0
 10
86.4117385806
 20
72.922833163
 30
0.0
 10
86.1870526346
 20
72.8627198912
 30
0.0
  0
SPLINE
  5
363
100
AcDbEntity
  8
0
100
AcDbSpline
 62
7
  6
CONTINUOUS
 70
0
 71
3
 72
12
 73
8
 74
0
 42
0.0000001
 43
0.0000001
 44
0.0000000001
 40
0.0
 40
0.0
 40
0.0
 40
0.0
 40
0.1081634927
 40
0.218373861
 40
0.4513415406
 40
0.7104799327
 40
1.0
 40
1.0
 40
1.0
 40
1.0
 10
87.0134445393
 20
56.9547106137
 30
0.0
 10
87.0913125729
 20
56.9097332527
 30
0.0
 10
87.2566968702
 20
56.8323270748
 30
0.0
 10
87.6197814492
 20
56.7318761697
 30
0.0
 10
88.1283969905
 20
56.7182204711
 30
0.0
 10
88.7652694258
 20
56.8723524743
 30
0.0
 10
89.1799750018
 20
57.0695725602
 30
0.0
 10
89.3884273002
 20
57.1899218323
 30
0.0
  0
SPLINE
  5
364
100
AcDbEntity
  8
0
100
AcDbSpline
 62
7
  6
CONTINUOUS
 70
0
 71
3
 72
9
 73
5
 74
0
 42
0.0000001
 43
0.0000001
 44
0.0000000001
 40
0.0
 40
0.0
 40
0.0
 40
0.0
 40
0.2634365722
 40
1.0
 40
1.0
 40
1.0
 40
1.0
 10
87.0575397022
 20
43.8386710331
 30
0.0
 10
86.9854966451
 20
43.7970798167
 30
0.0
 10
86.7077368493
 20
43.6469876098
 30
0.0
 10
86.4117385806
 20
43.5287461464
 30
0.0
 10
86.1870526346
 20
43.4686328745
 30
0.0
  0
SPLINE
  5
365
100
AcDbEntity
  8
0
100
AcDbSpline
 62
7
  6
CONTINUOUS
 70
0
 71
3
 72
9
 73
5
 74
0
 42
0.0000001
 43
0.0000001
 44
0.0000000001
 40
0.0
 40
0.0
 40
0.0
 40
0.0
 40
0.2634365722
 40
1.0
 40
1.0
 40
1.0
 40
1.0
 10
87.0575397022
 20
87.9298015581
 30
0.0
 10
86.9854966451
 20
87.8882103417
 30
0.0
 10
86.7077368493
 20
87.7381181348
 30
0.0
 10
86.4117385806
 20
87.6198766714
 30
0.0
 10
86.1870526346
 20
87.5597633995
 30
0.0
  0
SPLINE
  5
366
100
AcDbEntity
  8
0
100
AcDbSpline
 62
7
  6
CONTINUOUS
 70
0
 71
3
 72
12
 73
8
 74
0
 42
0.0000001
 43
0.0000001
 44
0.0000000001
 40
0.0
 40
0.0
 40
0.0
 40
0.0
 40
0.1081634927
 40
0.218373861
 40
0.4513415406
 40
0.7104799327
 40
1.0
 40
1.0
 40
1.0
 40
1.0
 10
87.0134445393
 20
71.651754122
 30
0.0
 10
87.0913125729
 20
71.606776761
 30
0.0
 10
87.2566968702
 20
71.5293705831
 30
0.0
 10
87.6197814492
 20
71.428919678
 30
0.0
 10
88.1283969905
 20
71.4152639794
 30
0.0
 10
88.7652694258
 20
71.5693959826
 30
0.0
 10
89.1799750018
 20
71.7666160685
 30
0.0
 10
89.3884273002
 20
71.8869653407
 30
0.0
  0
SPLINE
  5
367
100
AcDbEntity
  8
0
100
AcDbSpline
 62
7
  6
CONTINUOUS
 70
0
 71
3
 72
12
 73
8
 74
0
 42
0.0000001
 43
0.0000001
 44
0.0000000001
 40
0.0
 40
0.0
 40
0.0
 40
0.0
 40
0.1081634927
 40
0.218373861
 40
0.4513415406
 40
0.7104799327
 40
1.0
 40
1.0
 40
1.0
 40
1.0
 10
87.0134445393
 20
86.3487976304
 30
0.0
 10
87.0913125729
 20
86.3038202693
 30
0.0
 10
87.2566968702
 20
86.2264140914
 30
0.0
 10
87.6197814492
 20
86.1259631864
 30
0.0
 10
88.1283969905
 20
86.1123074877
 30
0.0
 10
88.7652694258
 20
86.2664394909
 30
0.0
 10
89.1799750018
 20
86.4636595768
 30
0.0
 10
89.3884273002
 20
86.584008849
 30
0.0
  0
SPLINE
  5
368
100
AcDbEntity
  8
0
100
AcDbSpline
 62
7
  6
CONTINUOUS
 70
0
 71
3
 72
12
 73
8
 74
0
 42
0.0000001
 43
0.0000001
 44
0.0000000001
 40
0.0
 40
0.0
 40
0.0
 40
0.0
 40
0.1081634927
 40
0.218373861
 40
0.4513415406
 40
0.7104799327
 40
1.0
 40
1.0
 40
1.0
 40
1.0
 10
87.0134445393
 20
42.2576671054
 30
0.0
 10
87.0913125729
 20
42.2126897443
 30
0.0
 10
87.2566968702
 20
42.1352835664
 30
0.0
 10
87.6197814492
 20
42.0348326614
 30
0.0
 10
88.1283969905
 20
42.0211769627
 30
0.0
 10
88.7652694259
 20
42.1753089659
 30
0.0
 10
89.1799750018
 20
42.3725290518
 30
0.0
 10
89.3884273002
 20
42.492878324
 30
0.0
  0
ELLIPSE
  5
369
100
AcDbEntity
  8
0
100
AcDbEllipse
 62
7
  6
CONTINUOUS
 10
16.9527709243
 20
75.727891917
 30
0.0
 11
-0.3889560292
 21
2.0780175433
 31
0.0
 40
0.2183661981
 41
0.8621556337
 42
1.4021921709
  0
ELLIPSE
  5
36A
100
AcDbEntity
  8
0
100
AcDbEllipse
 62
7
  6
CONTINUOUS
 10
16.9527709243
 20
105.0689062766
 30
0.0
 11
-0.3889560292
 21
2.0780175433
 31
0.0
 40
0.2183661981
 41
0.8621556337
 42
1.3781544801
  0
ENDSEC
  0
SECTION
  2
OBJECTS
  0
DICTIONARY
  5
C
100
AcDbDictionary
280
0
281
1
  3
ACAD_GROUP
350
D
  3
ACAD_MLINESTYLE
350
17
  3
ACAD_LAYOUT
350
1A
  3
ACAD_PLOTSETTINGS
350
19
  3
ACAD_PLOTSTYLENAME
350
E
  0
DICTIONARY
  5
D
102
{ACAD_REACTORS
330
C
102
}
100
AcDbDictionary
280
0
281
1
  0
ACDBDICTIONARYWDFLT
  5
E
102
{ACAD_REACTORS
330
C
102
}
100
AcDbDictionary
281
1
  3
Normal
350
F
100
AcDbDictionaryWithDefault
340
F
  0
DICTIONARY
  5
17
102
{ACAD_REACTORS
330
C
102
}
100
AcDbDictionary
280
0
281
1
  3
Standard
350
18
  0
DICTIONARY
  5
19
102
{ACAD_REACTORS
330
C
102
}
100
AcDbDictionary
281
1
  0
DICTIONARY
  5
1A
102
{ACAD_REACTORS
330
C
102
}
100
AcDbDictionary
281
1
  3
Model
350
36B
  3
Layout1
350
36C
  0
ACDBPLACEHOLDER
  5
F
102
{ACAD_REACTORS
330
E
102
}
  0
MLINESTYLE
  5
18
102
{ACAD_REACTORS
330
17
102
}
100
AcDbMlineStyle
  2
STANDARD
 70
0
  3

 62
256
 51
90.0
 52
90.0
 71
2
 49
0.5
 62
256
  6
BYLAYER
 49
-0.5
 62
256
  6
BYLAYER
  0
LAYOUT
  5
36B
102
{ACAD_REACTORS
330
1A
102
}
100
AcDbPlotSettings
  1

  2
none_device
  4

  6

 40
0.0
 41
0.0
 42
0.0
 43
0.0
 44
210.0
 45
297.0
 46
0.0
 47
0.0
 48
0.0
 49
0.0
140
0.0
141
0.0
142
1.0
143
1.0
 70
1024
 72
1
 73
0
 74
0
  7

 75
0
147
1.0
148
0.0
149
0.0
100
AcDbLayout
  1
Model
 70
0
 71
0
 10
0.0
 20
0.0
 11
210.0
 21
297.0
 12
0.0
 22
0.0
 32
0.0
 14
0.0
 24
0.0
 34
0.0
 15
0.0
 25
0.0
 35
0.0
146
0.0
 13
0.0
 23
0.0
 33
0.0
 16
1.0
 26
0.0
 36
0.0
 17
0.0
 27
1.0
 37
0.0
 76
0
330
210
345
0
346
0
  0
LAYOUT
  5
36C
102
{ACAD_REACTORS
330
1A
102
}
100
AcDbPlotSettings
  1

  2
none_device
  4

  6

 40
0.0
 41
0.0
 42
0.0
 43
0.0
 44
210.0
 45
297.0
 46
0.0
 47
0.0
 48
0.0
 49
0.0
140
0.0
141
0.0
142
1.0
143
1.0
 70
0
 72
1
 73
0
 74
0
  7

 75
0
147
1.0
148
0.0
149
0.0
100
AcDbLayout
  1
Layout1
 70
0
 71
1
 10
0.0
 20
0.0
 11
210.0
 21
297.0
 12
0.0
 22
0.0
 32
0.0
 14
0.0
 24
0.0
 34
0.0
 15
0.0
 25
0.0
 35
0.0
146
0.0
 13
0.0
 23
0.0
 33
0.0
 16
1.0
 26
0.0
 36
0.0
 17
0.0
 27
1.0
 37
0.0
 76
0
330
211
345
0
346
0
  0
ENDSEC
  0
EOF
