999
DXF file: C:\Users\sesa63760\Documents\7-Dev\_Creo\CAD\MCADFD0001125_3D-CAD\drw0001_1.dxf
999
Pro/ENGINEER 2019471 by Parametric Technology Corporation
  0
SECTION
  2
HEADER
  9
$ACADVER
  1
AC1024
  9
$DWGCODEPAGE
  3
ANSI_1252
  9
$EXTMAX
 10
83.0144677877
 20
117.4061758711
 30
0.0
  9
$EXTMIN
 10
0.0
 20
0.0
 30
0.0
  9
$LIMMIN
 10
0.0
 20
0.0
  9
$LIMMAX
 10
83.0144677877
 20
117.4061758711
  9
$VIEWCTR
 10
41.5072338938
 20
58.7030879356
  9
$VIEWSIZE
 40
117.4061758711
  9
$CLAYER
  8
0
  9
$LTSCALE
 40
7.653143316
  9
$CELTYPE
  6
BYLAYER
  9
$DIMSCALE
 40
1.0
  9
$DIMASZ
 40
0.9882674737
  9
$DIMEXO
 40
1.0
  9
$DIMDLI
 40
5.2876262911
  9
$DIMEXE
 40
1.0
  9
$DIMCEN
 40
1.2523325426
  9
$DIMLFAC
 40
1.0
  9
$DIMBLK
  1
_FILLED
  9
$DIMALT
 70
0
  9
$DIMALTF
 40
0.0393700787
  9
$DIMTXT
 40
1.3835744631
  9
$DIMTOL
 70
1
  9
$DIMLIM
 70
0
  9
$DIMTFAC
 40
1.0
  9
$DIMTP
 40
0.01
  9
$DIMTM
 40
0.01
  9
$DIMGAP
 40
0.625
  9
$DIMDSEP
 70
46
  9
$AUNITS
 70
0
  9
$PDMODE
 70
3
  9
$PDSIZE
 40
0.3125
  9
$HANDSEED
  5
2E9
  9
$TILEMODE
 70
1
  9
$MEASUREMENT
 70
1
  9
$INSUNITS
 70
4
  0
ENDSEC
  0
SECTION
  2
CLASSES
  0
CLASS
  1
ACDBDICTIONARYWDFLT
  2
AcDbDictionaryWithDefault
  3
AutoCAD 2000
 90
0
 91
1
280
0
281
0
  0
CLASS
  1
ACDBPLACEHOLDER
  2
AcDbPlaceHolder
  3
AutoCAD 2000
 90
0
 91
1
280
0
281
0
  0
CLASS
  1
LAYOUT
  2
AcDbLayout
  3
AutoCAD 2000
 90
0
 91
0
280
0
281
0
  0
ENDSEC
  0
SECTION
  2
TABLES
  0
TABLE
  2
VPORT
  5
8
100
AcDbSymbolTable
 70
2
  0
VPORT
  5
1F4
100
AcDbSymbolTableRecord
100
AcDbViewportTableRecord
  2
*ACTIVE
 70
0
 10
0.0
 20
0.0
 11
1.0
 21
1.0
 12
41.5072338938
 22
58.7030879356
 13
0.0
 23
0.0
 14
1.0
 24
1.0
 15
0.0
 25
0.0
 16
0.0
 26
0.0
 36
1.0
 17
0.0
 27
0.0
 37
0.0
 40
117.4061758711
 41
0.7070707071
 42
50.0
 43
0.0
 44
0.0
 50
0.0
 51
0.0
 71
0
 72
100
 73
1
 74
1
 75
0
 76
0
 77
0
 78
0
  0
ENDTAB
  0
TABLE
  2
LTYPE
  5
5
100
AcDbSymbolTable
 70
6
  0
LTYPE
  5
14
100
AcDbSymbolTableRecord
100
AcDbLinetypeTableRecord
  2
BYBLOCK
 70
0
  3

 72
65
 73
0
 40
0.0
  0
LTYPE
  5
15
100
AcDbSymbolTableRecord
100
AcDbLinetypeTableRecord
  2
BYLAYER
 70
0
  3

 72
65
 73
0
 40
0.0
  0
LTYPE
  5
16
100
AcDbSymbolTableRecord
100
AcDbLinetypeTableRecord
  2
CONTINUOUS
 70
64
  3
Solid line
 72
65
 73
0
 40
0.0
  0
LTYPE
  5
1F5
100
AcDbSymbolTableRecord
100
AcDbLinetypeTableRecord
  2
CENTER
 70
64
  3
____ _ ____ _ ____ _ ____ _ ____ _ ____ _ ____
 72
65
 73
4
 40
0.6
 49
0.375
 74
0
 49
-0.075
 74
0
 49
0.075
 74
0
 49
-0.075
 74
0
  0
LTYPE
  5
1F6
100
AcDbSymbolTableRecord
100
AcDbLinetypeTableRecord
  2
HIDDEN
 70
64
  3
- - - - - - - - - - - - - - - - - - - -
 72
65
 73
2
 40
0.2
 49
0.1
 74
0
 49
-0.1
 74
0
  0
LTYPE
  5
1F7
100
AcDbSymbolTableRecord
100
AcDbLinetypeTableRecord
  2
PHANTOM
 70
64
  3
_____ _ _ _____ _ _ _____ _ _ _____
 72
65
 73
6
 40
0.8
 49
0.45
 74
0
 49
-0.05
 74
0
 49
0.1
 74
0
 49
-0.05
 74
0
 49
0.1
 74
0
 49
-0.05
 74
0
  0
LTYPE
  5
1F8
100
AcDbSymbolTableRecord
100
AcDbLinetypeTableRecord
  2
DOT
 70
64
  3
. . . . . . . . . . . . . . . . . . . .
 72
65
 73
2
 40
0.2
 49
0.1
 74
0
 49
-0.1
 74
0
  0
LTYPE
  5
1F9
100
AcDbSymbolTableRecord
100
AcDbLinetypeTableRecord
  2
DASHED
 70
64
  3
- - - - - - - - - - - - - - - - - - - -
 72
65
 73
2
 40
0.2
 49
0.1
 74
0
 49
-0.1
 74
0
  0
ENDTAB
  0
TABLE
  2
LAYER
  5
2
100
AcDbSymbolTable
 70
36
  0
LAYER
  5
10
100
AcDbSymbolTableRecord
100
AcDbLayerTableRecord
  2
0
 70
0
 62
7
  6
CONTINUOUS
370
-3
390
F
  0
LAYER
  5
1FA
100
AcDbSymbolTableRecord
100
AcDbLayerTableRecord
  2
DEFAULT_1
 70
0
 62
7
  6
CENTER
370
-3
390
F
  0
LAYER
  5
1FB
100
AcDbSymbolTableRecord
100
AcDbLayerTableRecord
  2
DEFAULT_2
 70
0
 62
8
  6
HIDDEN
370
-3
390
F
  0
LAYER
  5
1FC
100
AcDbSymbolTableRecord
100
AcDbLayerTableRecord
  2
DEFAULT_3
 70
0
 62
7
  6
PHANTOM
370
-3
390
F
  0
LAYER
  5
1FD
100
AcDbSymbolTableRecord
100
AcDbLayerTableRecord
  2
00_COMPONENTS
 70
0
 62
7
  6
CONTINUOUS
370
-3
390
F
  0
LAYER
  5
1FE
100
AcDbSymbolTableRecord
100
AcDbLayerTableRecord
  2
01_1_DEFAULT_DATUMS
 70
0
 62
7
  6
CONTINUOUS
370
-3
390
F
  0
LAYER
  5
1FF
100
AcDbSymbolTableRecord
100
AcDbLayerTableRecord
  2
01_PLANES
 70
0
 62
7
  6
CONTINUOUS
370
-3
390
F
  0
LAYER
  5
200
100
AcDbSymbolTableRecord
100
AcDbLayerTableRecord
  2
02_COORD_SYS
 70
0
 62
7
  6
CONTINUOUS
370
-3
390
F
  0
LAYER
  5
201
100
AcDbSymbolTableRecord
100
AcDbLayerTableRecord
  2
03_AXES
 70
0
 62
7
  6
CONTINUOUS
370
-3
390
F
  0
LAYER
  5
202
100
AcDbSymbolTableRecord
100
AcDbLayerTableRecord
  2
04_POINTS
 70
0
 62
7
  6
CONTINUOUS
370
-3
390
F
  0
LAYER
  5
203
100
AcDbSymbolTableRecord
100
AcDbLayerTableRecord
  2
05_CURVES
 70
0
 62
7
  6
CONTINUOUS
370
-3
390
F
  0
LAYER
  5
204
100
AcDbSymbolTableRecord
100
AcDbLayerTableRecord
  2
06_SURFS
 70
0
 62
7
  6
CONTINUOUS
370
-3
390
F
  0
LAYER
  5
205
100
AcDbSymbolTableRecord
100
AcDbLayerTableRecord
  2
07_COSMETICS
 70
0
 62
7
  6
CONTINUOUS
370
-3
390
F
  0
LAYER
  5
206
100
AcDbSymbolTableRecord
100
AcDbLayerTableRecord
  2
10_NOTES
 70
0
 62
7
  6
CONTINUOUS
370
-3
390
F
  0
LAYER
  5
207
100
AcDbSymbolTableRecord
100
AcDbLayerTableRecord
  2
11_NOTES_PUB
 70
0
 62
7
  6
CONTINUOUS
370
-3
390
F
  0
LAYER
  5
208
100
AcDbSymbolTableRecord
100
AcDbLayerTableRecord
  2
13_REF_GTOL
 70
0
 62
7
  6
CONTINUOUS
370
-3
390
F
  0
LAYER
  5
209
100
AcDbSymbolTableRecord
100
AcDbLayerTableRecord
  2
16_MISC
 70
0
 62
7
  6
CONTINUOUS
370
-3
390
F
  0
LAYER
  5
20A
100
AcDbSymbolTableRecord
100
AcDbLayerTableRecord
  2
17_NO_PRINT
 70
0
 62
7
  6
CONTINUOUS
370
-3
390
F
  0
LAYER
  5
20B
100
AcDbSymbolTableRecord
100
AcDbLayerTableRecord
  2
18_DATUM_CAMS_JOINTS
 70
0
 62
7
  6
CONTINUOUS
370
-3
390
F
  0
LAYER
  5
20C
100
AcDbSymbolTableRecord
100
AcDbLayerTableRecord
  2
19_DATUM_FUNCTIONAL
 70
0
 62
7
  6
CONTINUOUS
370
-3
390
F
  0
LAYER
  5
20D
100
AcDbSymbolTableRecord
100
AcDbLayerTableRecord
  2
20_DATUM_KINEMATIC_SCHEME
 70
0
 62
7
  6
CONTINUOUS
370
-3
390
F
  0
ENDTAB
  0
TABLE
  2
STYLE
  5
3
100
AcDbSymbolTable
 70
1
  0
STYLE
  5
11
100
AcDbSymbolTableRecord
100
AcDbTextStyleTableRecord
  2
STANDARD
 70
0
 40
0.0
 41
0.8
 50
0.0
 71
0
 42
0.2
  3
txt
  4

  0
STYLE
  5
20E
100
AcDbSymbolTableRecord
100
AcDbTextStyleTableRecord
  2
TEXTSTYLE_1
 70
0
 40
0.0
 41
0.8
 50
0.0
 71
0
 42
0.2
  3
gdt
  4

  0
ENDTAB
  0
TABLE
  2
VIEW
  5
6
100
AcDbSymbolTable
 70
0
  0
ENDTAB
  0
TABLE
  2
UCS
  5
7
100
AcDbSymbolTable
 70
0
  0
ENDTAB
  0
TABLE
  2
APPID
  5
9
100
AcDbSymbolTable
 70
1
  0
APPID
  5
20F
100
AcDbSymbolTableRecord
100
AcDbRegAppTableRecord
  2
ACAD
 70
0
  0
ENDTAB
  0
TABLE
  2
BLOCK_RECORD
  5
1
100
AcDbSymbolTable
 70
0
  0
BLOCK_RECORD
  5
210
100
AcDbSymbolTableRecord
100
AcDbBlockTableRecord
  2
*Model_Space
  0
BLOCK_RECORD
  5
211
100
AcDbSymbolTableRecord
100
AcDbBlockTableRecord
  2
*Paper_Space
  0
BLOCK_RECORD
  5
212
100
AcDbSymbolTableRecord
100
AcDbBlockTableRecord
  2
_FILLED
  0
ENDTAB
  0
TABLE
  2
DIMSTYLE
  5
A
100
AcDbSymbolTable
 70
1
100
AcDbDimStyleTable
 71
0
  0
DIMSTYLE
105
213
100
AcDbSymbolTableRecord
100
AcDbDimStyleTableRecord
  2
STANDARD
 70
0
  3

  4

 40
1.0
 41
0.9882674737
 42
1.0
 43
0.38
 44
1.0
 45
0.0
 46
0.0
 47
0.01
 48
0.01
140
1.3835744631
141
0.09
142
0.0
143
25.4
144
1.0
145
0.0
146
1.0
147
0.625
 71
1
 72
0
 73
0
 74
0
 75
0
 76
0
 77
1
 78
8
 79
2
170
0
171
1
172
0
173
0
174
0
175
0
176
0
177
0
178
0
270
2
179
2
271
2
272
2
273
2
274
2
275
0
280
0
281
0
282
0
283
1
284
8
285
0
286
0
287
3
288
0
340
11
278
46
341
212
342
212
343
212
344
212
  0
ENDTAB
  0
ENDSEC
  0
SECTION
  2
BLOCKS
  0
BLOCK
  5
20
100
AcDbEntity
  8
0
100
AcDbBlockBegin
  2
*Model_Space
 70
0
 10
0.0
 20
0.0
 30
0.0
  3
*Model_Space
  1

  0
ENDBLK
  5
21
100
AcDbEntity
  8
0
100
AcDbBlockEnd
  0
BLOCK
  5
1C
100
AcDbEntity
  8
0
100
AcDbBlockBegin
  2
*Paper_Space
 70
0
 10
0.0
 20
0.0
 30
0.0
  3
*Paper_Space
  1

  0
ENDBLK
  5
1D
100
AcDbEntity
  8
0
100
AcDbBlockEnd
  0
BLOCK
  5
214
100
AcDbEntity
  8
0
100
AcDbBlockBegin
  2
_FILLED
 70
64
 10
0.0
 20
0.0
  3
_FILLED
  1

  0
SOLID
  5
215
100
AcDbEntity
  8
0
  6
BYBLOCK
 62
0
100
AcDbTrace
 10
0.0
 20
0.0
 11
-1.0
 21
0.25
 12
-1.0
 22
-0.25
 13
-1.0
 23
-0.25
  0
ENDBLK
  5
216
100
AcDbEntity
  8
0
  6
BYBLOCK
 62
0
100
AcDbBlockEnd
  0
ENDSEC
  0
SECTION
  2
ENTITIES
  0
LINE
  5
217
100
AcDbEntity
  8
0
100
AcDbLine
 62
7
  6
CONTINUOUS
 10
10.2995234935
 20
23.1340620659
 11
22.9391098305
 21
15.8367585788
  0
LINE
  5
218
100
AcDbEntity
  8
0
100
AcDbLine
 62
7
  6
CONTINUOUS
 10
22.7342806004
 20
16.2303024591
 11
10.0946942634
 21
23.5276059461
  0
LINE
  5
219
100
AcDbEntity
  8
0
100
AcDbLine
 62
7
  6
CONTINUOUS
 10
28.2290863485
 20
17.9730829635
 11
40.8686726855
 21
10.6757794764
  0
LINE
  5
21A
100
AcDbEntity
  8
0
100
AcDbLine
 62
7
  6
CONTINUOUS
 10
40.6678884162
 20
11.0281943739
 11
28.0283020792
 21
18.325497861
  0
LINE
  5
21B
100
AcDbEntity
  8
0
100
AcDbLine
 62
7
  6
CONTINUOUS
 10
36.4216980746
 20
18.7828256334
 11
37.4942779943
 21
18.7352992246
  0
LINE
  5
21C
100
AcDbEntity
  8
0
100
AcDbLine
 62
7
  6
CONTINUOUS
 10
33.3205891095
 20
17.2771422306
 11
33.7846896041
 21
16.9697844217
  0
LINE
  5
21D
100
AcDbEntity
  8
0
100
AcDbLine
 62
7
  6
CONTINUOUS
 10
60.5199753179
 20
105.6739006755
 11
62.8534179807
 21
107.0211063833
  0
LINE
  5
21E
100
AcDbEntity
  8
0
100
AcDbLine
 62
7
  6
CONTINUOUS
 10
28.729079087
 20
87.2620116859
 11
60.4231688794
 21
105.560493732
  0
LINE
  5
21F
100
AcDbEntity
  8
0
100
AcDbLine
 62
7
  6
CONTINUOUS
 10
63.1213334302
 20
107.0396881412
 11
60.7878907674
 21
105.6924824334
  0
LINE
  5
220
100
AcDbEntity
  8
0
100
AcDbLine
 62
7
  6
CONTINUOUS
 10
61.1321064447
 20
105.5019052977
 11
63.4655491075
 21
106.8491110055
  0
LINE
  5
221
100
AcDbEntity
  8
0
100
AcDbLine
 62
7
  6
CONTINUOUS
 10
36.8702264512
 20
23.6407038702
 11
38.0894952533
 21
22.9367746242
  0
LINE
  5
222
100
AcDbEntity
  8
0
100
AcDbLine
 62
7
  6
CONTINUOUS
 10
36.9676651316
 20
23.6969597828
 11
37.9743283784
 21
23.1157756343
  0
LINE
  5
223
100
AcDbEntity
  8
0
100
AcDbLine
 62
7
  6
CONTINUOUS
 10
12.8700536738
 20
52.7185195821
 11
12.873011037
 21
52.7566302552
  0
LINE
  5
224
100
AcDbEntity
  8
0
100
AcDbLine
 62
7
  6
CONTINUOUS
 10
13.1511234555
 20
56.0348890968
 11
13.1633719936
 21
56.1711590621
  0
LINE
  5
225
100
AcDbEntity
  8
0
100
AcDbLine
 62
7
  6
CONTINUOUS
 10
13.2415950248
 20
56.026757118
 11
12.9212148517
 21
52.7528260749
  0
LINE
  5
226
100
AcDbEntity
  8
0
100
AcDbLine
 62
7
  6
CONTINUOUS
 10
64.347526674
 20
106.6121177623
 11
62.0140840112
 21
105.2649120545
  0
LINE
  5
227
100
AcDbEntity
  8
0
100
AcDbLine
 62
7
  6
CONTINUOUS
 10
65.1131164064
 20
106.173351049
 11
62.7796737436
 21
104.8261453412
  0
LINE
  5
228
100
AcDbEntity
  8
0
100
AcDbLine
 62
7
  6
CONTINUOUS
 10
65.843017087
 20
105.9340743871
 11
63.5095744242
 21
104.5868686794
  0
LINE
  5
229
100
AcDbEntity
  8
0
100
AcDbLine
 62
7
  6
CONTINUOUS
 10
63.8469861992
 20
104.4106710996
 11
66.180428862
 21
105.7578768073
  0
LINE
  5
22A
100
AcDbEntity
  8
0
100
AcDbLine
 62
7
  6
CONTINUOUS
 10
66.3537379885
 20
105.6013180492
 11
67.131422986
 21
106.0503120117
  0
LINE
  5
22B
100
AcDbEntity
  8
0
100
AcDbLine
 62
7
  6
CONTINUOUS
 10
67.5314211952
 20
106.0106925885
 11
66.5532111192
 21
105.445926109
  0
LINE
  5
22C
100
AcDbEntity
  8
0
100
AcDbLine
 62
7
  6
CONTINUOUS
 10
67.1538398731
 20
105.1395065656
 11
68.0971089753
 21
105.6840999849
  0
LINE
  5
22D
100
AcDbEntity
  8
0
100
AcDbLine
 62
7
  6
CONTINUOUS
 10
67.3267897969
 20
105.0960399857
 11
64.9933471341
 21
103.7488342779
  0
LINE
  5
22E
100
AcDbEntity
  8
0
100
AcDbLine
 62
7
  6
CONTINUOUS
 10
65.3307589091
 20
103.5354311135
 11
67.6642015719
 21
104.8826368212
  0
LINE
  5
22F
100
AcDbEntity
  8
0
100
AcDbLine
 62
7
  6
CONTINUOUS
 10
64.4153669514
 20
102.8644026514
 11
63.2887911064
 21
102.2139776665
  0
LINE
  5
230
100
AcDbEntity
  8
0
100
AcDbLine
 62
7
  6
CONTINUOUS
 10
48.1570027213
 20
93.4776707865
 11
47.3797464059
 21
93.0289243222
  0
LINE
  5
231
100
AcDbEntity
  8
0
100
AcDbLine
 62
7
  6
CONTINUOUS
 10
39.7431474024
 20
25.2993756538
 11
39.8130058286
 21
25.2590437851
  0
LINE
  5
232
100
AcDbEntity
  8
0
100
AcDbLine
 62
7
  6
CONTINUOUS
 10
68.6627967554
 20
104.7043054476
 11
68.175737279
 21
104.4231032063
  0
LINE
  5
233
100
AcDbEntity
  8
0
100
AcDbLine
 62
7
  6
CONTINUOUS
 10
68.3941033379
 20
104.2791152142
 11
66.0606606751
 21
102.9319095064
  0
LINE
  5
234
100
AcDbEntity
  8
0
100
AcDbLine
 62
7
  6
CONTINUOUS
 10
69.1596919849
 20
103.8338756769
 11
66.8262493221
 21
102.4866699691
  0
LINE
  5
235
100
AcDbEntity
  8
0
100
AcDbLine
 62
7
  6
CONTINUOUS
 10
70.0416695514
 20
103.0524719885
 11
67.7082268886
 21
101.7052662807
  0
LINE
  5
236
100
AcDbEntity
  8
0
100
AcDbLine
 62
7
  6
CONTINUOUS
 10
70.3858852287
 20
102.8455920879
 11
68.0524425659
 21
101.4983863801
  0
LINE
  5
237
100
AcDbEntity
  8
0
100
AcDbLine
 62
7
  6
CONTINUOUS
 10
51.3410110051
 20
90.7436133297
 11
52.116817182
 21
91.1915225611
  0
LINE
  5
238
100
AcDbEntity
  8
0
100
AcDbLine
 62
7
  6
CONTINUOUS
 10
70.819490249
 20
101.960108953
 11
68.4860475862
 21
100.6129032453
  0
LINE
  5
239
100
AcDbEntity
  8
0
100
AcDbLine
 62
7
  6
CONTINUOUS
 10
38.0895427788
 20
22.9368567955
 11
37.9743283784
 21
23.1157756344
  0
LINE
  5
23A
100
AcDbEntity
  8
0
100
AcDbLine
 62
7
  6
CONTINUOUS
 10
20.3058182778
 20
48.6436020862
 11
20.2895512205
 21
48.4349675832
  0
LINE
  5
23B
100
AcDbEntity
  8
0
100
AcDbLine
 62
7
  6
CONTINUOUS
 10
20.1541098442
 20
48.5770066736
 11
20.4744900173
 21
51.8509377168
  0
LINE
  5
23C
100
AcDbEntity
  8
0
100
AcDbLine
 62
7
  6
CONTINUOUS
 10
33.7628481359
 20
76.4093177541
 11
33.7459019747
 21
76.3995339417
  0
LINE
  5
23D
100
AcDbEntity
  8
0
100
AcDbLine
 62
7
  6
CONTINUOUS
 10
12.8700536738
 20
52.7185195821
 11
20.2895512205
 21
48.4349675832
  0
LINE
  5
23E
100
AcDbEntity
  8
0
100
AcDbLine
 62
7
  6
CONTINUOUS
 10
12.9212148517
 20
52.7528260749
 11
20.1541098442
 21
48.5770066736
  0
LINE
  5
23F
100
AcDbEntity
  8
0
100
AcDbLine
 62
7
  6
CONTINUOUS
 10
28.0040137245
 20
18.5212291111
 11
28.0283173217
 21
18.3253770762
  0
LINE
  5
240
100
AcDbEntity
  8
0
100
AcDbLine
 62
7
  6
CONTINUOUS
 10
28.0078958456
 20
18.5240654516
 11
28.0283173217
 21
18.3253770762
  0
LINE
  5
241
100
AcDbEntity
  8
0
100
AcDbLine
 62
7
  6
CONTINUOUS
 10
25.3347420414
 20
69.3171433602
 11
25.1228183637
 21
68.0324119225
  0
LINE
  5
242
100
AcDbEntity
  8
0
100
AcDbLine
 62
7
  6
CONTINUOUS
 10
73.9661480904
 20
98.7847612506
 11
41.3686657235
 21
79.9647083717
  0
LINE
  5
243
100
AcDbEntity
  8
0
100
AcDbLine
 62
7
  6
CONTINUOUS
 10
25.1228183637
 20
68.0324119225
 11
11.3869516501
 21
60.1020529157
  0
LINE
  5
244
100
AcDbEntity
  8
0
100
AcDbLine
 62
7
  6
CONTINUOUS
 10
20.4744900173
 20
51.8509377168
 11
13.2415950248
 21
56.026757118
  0
LINE
  5
245
100
AcDbEntity
  8
0
100
AcDbLine
 62
7
  6
CONTINUOUS
 10
20.5828695403
 20
51.8876070631
 11
13.1633719936
 21
56.1711590621
  0
LINE
  5
246
100
AcDbEntity
  8
0
100
AcDbLine
 62
7
  6
CONTINUOUS
 10
23.3244514115
 20
51.6799935811
 11
10.6848650745
 21
58.9772970682
  0
LINE
  5
247
100
AcDbEntity
  8
0
100
AcDbLine
 62
7
  6
CONTINUOUS
 10
27.1734194916
 20
70.9319608772
 11
27.1734194916
 21
69.326878709
  0
LINE
  5
248
100
AcDbEntity
  8
0
100
AcDbLine
 62
7
  6
CONTINUOUS
 10
11.3869516501
 20
60.1020529157
 11
24.0265379871
 21
52.8047494286
  0
LINE
  5
249
100
AcDbEntity
  8
0
100
AcDbLine
 62
7
  6
CONTINUOUS
 10
37.9743283784
 20
23.1157756344
 11
37.7624047007
 21
24.155800148
  0
LINE
  5
24A
100
AcDbEntity
  8
0
100
AcDbLine
 62
7
  6
CONTINUOUS
 10
13.2415950248
 20
56.026757118
 11
13.3392355247
 21
56.069626502
  0
LINE
  5
24B
100
AcDbEntity
  8
0
100
AcDbLine
 62
7
  6
CONTINUOUS
 10
30.0193797647
 20
75.5131961123
 11
29.8690217834
 21
76.1012716453
  0
LINE
  5
24C
100
AcDbEntity
  8
0
100
AcDbLine
 62
7
  6
CONTINUOUS
 10
37.7624047007
 20
60.7351084354
 11
37.9743283784
 21
62.0198398732
  0
LINE
  5
24D
100
AcDbEntity
  8
0
100
AcDbLine
 62
7
  6
CONTINUOUS
 10
39.8130058286
 20
61.9190164816
 11
38.8218370661
 21
61.3467683457
  0
LINE
  5
24E
100
AcDbEntity
  8
0
100
AcDbLine
 62
7
  6
CONTINUOUS
 10
37.7624047007
 20
60.7351084354
 11
24.0265379871
 21
52.8047494286
  0
LINE
  5
24F
100
AcDbEntity
  8
0
100
AcDbLine
 62
7
  6
CONTINUOUS
 10
12.8700536738
 20
52.7185195821
 11
12.9255745863
 21
52.7428962222
  0
LINE
  5
250
100
AcDbEntity
  8
0
100
AcDbLine
 62
7
  6
CONTINUOUS
 10
38.8218370661
 20
61.5086437816
 11
38.8150357915
 21
62.4046418364
  0
LINE
  5
251
100
AcDbEntity
  8
0
100
AcDbLine
 62
7
  6
CONTINUOUS
 10
38.8218370661
 20
24.6055846224
 11
38.8218370661
 21
24.7674600583
  0
LINE
  5
252
100
AcDbEntity
  8
0
100
AcDbLine
 62
7
  6
CONTINUOUS
 10
38.8218370661
 20
61.3467683457
 11
38.8218370661
 21
61.5086437816
  0
LINE
  5
253
100
AcDbEntity
  8
0
100
AcDbLine
 62
7
  6
CONTINUOUS
 10
39.8130058286
 20
63.6346573902
 11
39.8130058286
 21
61.9190164816
  0
LINE
  5
254
100
AcDbEntity
  8
0
100
AcDbLine
 62
7
  6
CONTINUOUS
 10
39.8130058286
 20
25.3397081942
 11
39.8130058286
 21
25.2590437851
  0
LINE
  5
255
100
AcDbEntity
  8
0
100
AcDbLine
 62
7
  6
CONTINUOUS
 10
38.8144673435
 20
23.7006442715
 11
38.8218370661
 21
24.6055846224
  0
LINE
  5
256
100
AcDbEntity
  8
0
100
AcDbLine
 62
7
  6
CONTINUOUS
 10
70.7841538986
 20
76.3717861018
 11
74.6732250032
 21
78.6171289481
  0
LINE
  5
257
100
AcDbEntity
  8
0
100
AcDbLine
 62
7
  6
CONTINUOUS
 10
20.4744900173
 20
51.8509377168
 11
20.5721305171
 21
51.8938071008
  0
LINE
  5
258
100
AcDbEntity
  8
0
100
AcDbLine
 62
7
  6
CONTINUOUS
 10
37.7624047007
 20
60.7351084354
 11
25.1228183637
 21
68.0324119225
  0
LINE
  5
259
100
AcDbEntity
  8
0
100
AcDbLine
 62
7
  6
CONTINUOUS
 10
38.6894785653
 20
62.6782142861
 11
38.8145047547
 21
62.3996581326
  0
LINE
  5
25A
100
AcDbEntity
  8
0
100
AcDbLine
 62
7
  6
CONTINUOUS
 10
20.1541098442
 20
48.5770066736
 11
20.3062588833
 21
48.6438082119
  0
LINE
  5
25B
100
AcDbEntity
  8
0
100
AcDbLine
 62
7
  6
CONTINUOUS
 10
38.3894901632
 20
62.6485088274
 11
38.6894785653
 21
62.6782142861
  0
LINE
  5
25C
100
AcDbEntity
  8
0
100
AcDbLine
 62
7
  6
CONTINUOUS
 10
37.9743283784
 20
62.0198398732
 11
25.3347420414
 21
69.3171433602
  0
LINE
  5
25D
100
AcDbEntity
  8
0
100
AcDbLine
 62
7
  6
CONTINUOUS
 10
39.8130058286
 20
61.9190164816
 11
38.7564485656
 21
62.5290063021
  0
LINE
  5
25E
100
AcDbEntity
  8
0
100
AcDbLine
 62
7
  6
CONTINUOUS
 10
26.0498987361
 20
69.9755290452
 11
38.6894850731
 21
62.6782255581
  0
LINE
  5
25F
100
AcDbEntity
  8
0
100
AcDbLine
 62
7
  6
CONTINUOUS
 10
39.8130058286
 20
63.6346573902
 11
27.1734194916
 21
70.9319608772
  0
LINE
  5
260
100
AcDbEntity
  8
0
100
AcDbLine
 62
7
  6
CONTINUOUS
 10
48.1570030328
 20
92.5818596029
 11
48.1570027213
 21
93.4776707865
  0
LINE
  5
261
100
AcDbEntity
  8
0
100
AcDbLine
 62
7
  6
CONTINUOUS
 10
71.6326785032
 20
47.7125427949
 11
70.7841538986
 21
48.2024276212
  0
LINE
  5
262
100
AcDbEntity
  8
0
100
AcDbLine
 62
7
  6
CONTINUOUS
 10
72.6696248438
 20
50.3851366097
 11
70.7841538986
 21
51.4736891411
  0
LINE
  5
263
100
AcDbEntity
  8
0
100
AcDbLine
 62
7
  6
CONTINUOUS
 10
73.9661480904
 20
51.1336801869
 11
70.8548652997
 21
52.9299395068
  0
LINE
  5
264
100
AcDbEntity
  8
0
100
AcDbLine
 62
7
  6
CONTINUOUS
 10
74.4661238351
 20
51.1832118427
 11
71.3548410445
 21
52.9794711625
  0
LINE
  5
265
100
AcDbEntity
  8
0
100
AcDbLine
 62
7
  6
CONTINUOUS
 10
33.7459019747
 20
76.3995339417
 11
33.8032946266
 21
76.3663990283
  0
LINE
  5
266
100
AcDbEntity
  8
0
100
AcDbLine
 62
7
  6
CONTINUOUS
 10
26.0498718448
 20
69.9754825591
 11
25.7499038262
 21
69.9458123145
  0
LINE
  5
267
100
AcDbEntity
  8
0
100
AcDbLine
 62
7
  6
CONTINUOUS
 10
36.3608668733
 20
71.8520196553
 11
37.4349914207
 21
71.7331558584
  0
LINE
  5
268
100
AcDbEntity
  8
0
100
AcDbLine
 62
7
  6
CONTINUOUS
 10
70.8548652997
 20
52.9299395068
 11
70.7841538986
 21
52.889114504
  0
LINE
  5
269
100
AcDbEntity
  8
0
100
AcDbLine
 62
7
  6
CONTINUOUS
 10
28.0282971218
 20
86.149892417
 11
40.6678834588
 21
78.8525889299
  0
LINE
  5
26A
100
AcDbEntity
  8
0
100
AcDbLine
 62
7
  6
CONTINUOUS
 10
41.3686657235
 20
79.9647083717
 11
28.729079087
 21
87.2620116859
  0
LINE
  5
26B
100
AcDbEntity
  8
0
100
AcDbLine
 62
7
  6
CONTINUOUS
 10
73.9661480904
 20
51.1336801869
 11
72.6696248438
 21
50.3851366097
  0
LINE
  5
26C
100
AcDbEntity
  8
0
100
AcDbLine
 62
7
  6
CONTINUOUS
 10
68.6627967554
 20
104.1263491865
 11
68.6627967554
 21
104.7043054476
  0
LINE
  5
26D
100
AcDbEntity
  8
0
100
AcDbLine
 62
7
  6
CONTINUOUS
 10
68.8678199478
 20
104.3393255087
 11
68.8678199478
 21
104.9900739757
  0
LINE
  5
26E
100
AcDbEntity
  8
0
100
AcDbLine
 62
7
  6
CONTINUOUS
 10
68.8678199031
 20
104.3395443428
 11
68.8652818374
 21
104.2779143831
  0
LINE
  5
26F
100
AcDbEntity
  8
0
100
AcDbLine
 62
7
  6
CONTINUOUS
 10
71.6326785032
 20
47.7125427949
 11
70.7841538986
 21
47.2226498103
  0
LINE
  5
270
100
AcDbEntity
  8
0
100
AcDbLine
 62
7
  6
CONTINUOUS
 10
70.7841538986
 20
47.2226498103
 11
70.7841538986
 21
76.3717861018
  0
LINE
  5
271
100
AcDbEntity
  8
0
100
AcDbLine
 62
7
  6
CONTINUOUS
 10
71.6326785032
 20
47.7125427949
 11
72.6696248438
 21
50.3851366097
  0
LINE
  5
272
100
AcDbEntity
  8
0
100
AcDbLine
 62
7
  6
CONTINUOUS
 10
23.4391013469
 20
15.8862864634
 11
37.7624047007
 21
24.155800148
  0
LINE
  5
273
100
AcDbEntity
  8
0
100
AcDbLine
 62
7
  6
CONTINUOUS
 10
38.8218370661
 20
24.7674600583
 11
39.8130058286
 21
25.3397081942
  0
LINE
  5
274
100
AcDbEntity
  8
0
100
AcDbLine
 62
7
  6
CONTINUOUS
 10
74.6732250032
 20
37.8256309209
 11
74.6732250032
 21
50.7254374689
  0
LINE
  5
275
100
AcDbEntity
  8
0
100
AcDbLine
 62
7
  6
CONTINUOUS
 10
74.6732250032
 20
78.6171289481
 11
74.6732250032
 21
98.3765185326
  0
LINE
  5
276
100
AcDbEntity
  8
0
100
AcDbLine
 62
7
  6
CONTINUOUS
 10
74.6732250032
 20
37.8256309209
 11
73.574175329
 21
29.9937446187
  0
LINE
  5
277
100
AcDbEntity
  8
0
100
AcDbLine
 62
7
  6
CONTINUOUS
 10
47.3797464059
 20
93.0289243222
 11
47.5473673297
 21
92.9338249777
  0
LINE
  5
278
100
AcDbEntity
  8
0
100
AcDbLine
 62
7
  6
CONTINUOUS
 10
47.5473673297
 20
92.9338249777
 11
51.3410110051
 21
90.7436133297
  0
LINE
  5
279
100
AcDbEntity
  8
0
100
AcDbLine
 62
7
  6
CONTINUOUS
 10
53.5044143061
 20
90.3904111115
 11
52.116817182
 21
91.1915225611
  0
LINE
  5
27A
100
AcDbEntity
  8
0
100
AcDbLine
 62
7
  6
CONTINUOUS
 10
48.1570027213
 20
93.4776707865
 11
46.7694050863
 21
94.2787825118
  0
LINE
  5
27B
100
AcDbEntity
  8
0
100
AcDbLine
 62
7
  6
CONTINUOUS
 10
41.3686644997
 20
10.7253026988
 11
72.8778404793
 21
28.9170252924
  0
LINE
  5
27C
100
AcDbEntity
  8
0
100
AcDbLine
 62
7
  6
CONTINUOUS
 10
63.5095744242
 20
104.5868686794
 11
63.8469861991
 21
104.4106710996
  0
LINE
  5
27D
100
AcDbEntity
  8
0
100
AcDbLine
 62
7
  6
CONTINUOUS
 10
60.7878907674
 20
105.6924824334
 11
61.1321064448
 21
105.5019052977
  0
LINE
  5
27E
100
AcDbEntity
  8
0
100
AcDbLine
 62
7
  6
CONTINUOUS
 10
66.3647184108
 20
100.4381303844
 11
65.5515422269
 21
100.9076072521
  0
LINE
  5
27F
100
AcDbEntity
  8
0
100
AcDbLine
 62
7
  6
CONTINUOUS
 10
63.2887911064
 20
102.2139776665
 11
62.4756149225
 21
102.6834545342
  0
LINE
  5
280
100
AcDbEntity
  8
0
100
AcDbLine
 62
7
  6
CONTINUOUS
 10
73.9661480904
 20
98.7847612506
 11
70.819490249
 21
100.6014439035
  0
LINE
  5
281
100
AcDbEntity
  8
0
100
AcDbLine
 62
7
  6
CONTINUOUS
 10
74.4661238351
 20
98.8342929063
 11
70.819490249
 21
100.9396301598
  0
LINE
  5
282
100
AcDbEntity
  8
0
100
AcDbLine
 62
7
  6
CONTINUOUS
 10
64.9933471341
 20
103.7488342779
 11
65.3307589091
 21
103.5354311134
  0
LINE
  5
283
100
AcDbEntity
  8
0
100
AcDbLine
 62
7
  6
CONTINUOUS
 10
66.180428862
 20
105.7578768073
 11
65.843017087
 21
105.9340743871
  0
LINE
  5
284
100
AcDbEntity
  8
0
100
AcDbLine
 62
7
  6
CONTINUOUS
 10
63.4655491076
 20
106.8491110055
 11
63.1213334302
 21
107.0396881412
  0
LINE
  5
285
100
AcDbEntity
  8
0
100
AcDbLine
 62
7
  6
CONTINUOUS
 10
68.0971089753
 20
105.6840999849
 11
67.5314211952
 21
106.0106925885
  0
LINE
  5
286
100
AcDbEntity
  8
0
100
AcDbLine
 62
7
  6
CONTINUOUS
 10
68.4471030369
 20
105.7187695041
 11
67.8814152567
 21
106.0453621077
  0
LINE
  5
287
100
AcDbEntity
  8
0
100
AcDbLine
 62
7
  6
CONTINUOUS
 10
67.6642015719
 20
104.8826368212
 11
67.3267897969
 21
105.0960399857
  0
ARC
  5
288
100
AcDbEntity
  8
0
100
AcDbCircle
 62
7
  6
CONTINUOUS
 10
255.6670785539
 20
30.176623186
 40
236.0846292084
100
AcDbArc
 50
174.7234691658
 51
175.5136344885
  0
ARC
  5
289
100
AcDbEntity
  8
0
100
AcDbCircle
 62
7
  6
CONTINUOUS
 10
247.065716466
 20
34.560790079
 40
234.8985139924
100
AcDbArc
 50
174.7548090365
 51
175.5572716185
  0
ARC
  5
28A
100
AcDbEntity
  8
0
100
AcDbCircle
 62
7
  6
CONTINUOUS
 10
54.2187075584
 20
79.0237116732
 40
28.9616514295
100
AcDbArc
 50
58.943134434
 51
60.6952999188
  0
ARC
  5
28B
100
AcDbEntity
  8
0
100
AcDbCircle
 62
7
  6
CONTINUOUS
 10
52.0137933065
 20
77.8975103552
 40
28.7060206879
100
AcDbArc
 50
58.9353321903
 51
60.7031021626
  0
ARC
  5
28C
100
AcDbEntity
  8
0
100
AcDbCircle
 62
7
  6
CONTINUOUS
 10
27.813892962
 20
17.16827144
 40
9.8823668982
100
AcDbArc
 50
25.8018852241
 51
36.3023090406
  0
ARC
  5
28D
100
AcDbEntity
  8
0
100
AcDbCircle
 62
7
  6
CONTINUOUS
 10
37.2227379478
 20
75.8146829283
 40
7.2793204975
100
AcDbArc
 50
203.2796572589
 51
215.4956720802
  0
SPLINE
  5
28E
100
AcDbEntity
  8
0
100
AcDbSpline
 62
7
  6
CONTINUOUS
 70
0
 71
3
 72
11
 73
7
 74
0
 42
0.0000001
 43
0.0000001
 44
0.0000000001
 40
0.0
 40
0.0
 40
0.0
 40
0.0
 40
0.2395531423
 40
0.4900579422
 40
0.7456306928
 40
1.0
 40
1.0
 40
1.0
 40
1.0
 10
35.6430962031
 20
19.8522402965
 30
0.0
 10
35.4796244723
 20
19.993638087
 30
0.0
 10
35.1649343295
 20
20.306250851
 30
0.0
 10
34.7465915648
 20
20.8348938755
 30
0.0
 10
34.3827944955
 20
21.4182198873
 30
0.0
 10
34.1832630743
 20
21.8340705813
 30
0.0
 10
34.0961011959
 20
22.0463830598
 30
0.0
  0
SPLINE
  5
28F
100
AcDbEntity
  8
0
100
AcDbSpline
 62
7
  6
CONTINUOUS
 70
0
 71
3
 72
13
 73
9
 74
0
 42
0.0000001
 43
0.0000001
 44
0.0000000001
 40
0.0
 40
0.0
 40
0.0
 40
0.0
 40
0.1249295085
 40
0.2500036976
 40
0.5000310051
 40
0.7500397974
 40
0.8750850934
 40
1.0
 40
1.0
 40
1.0
 40
1.0
 10
68.4471030369
 20
105.7187695041
 30
0.0
 10
68.4787862722
 20
105.7004775935
 30
0.0
 10
68.5397343566
 20
105.6594158336
 30
0.0
 10
68.6494168996
 20
105.5618829908
 30
0.0
 10
68.7613808008
 20
105.414394266
 30
0.0
 10
68.8331145941
 20
105.2436912547
 30
0.0
 10
68.8627366164
 20
105.0999550195
 30
0.0
 10
68.8678199478
 20
105.0266541417
 30
0.0
 10
68.8678199478
 20
104.9900739757
 30
0.0
  0
SPLINE
  5
290
100
AcDbEntity
  8
0
100
AcDbSpline
 62
7
  6
CONTINUOUS
 70
0
 71
3
 72
11
 73
7
 74
0
 42
0.0000001
 43
0.0000001
 44
0.0000000001
 40
0.0
 40
0.0
 40
0.0
 40
0.0
 40
0.2501193974
 40
0.5001768638
 40
0.7501357843
 40
1.0
 40
1.0
 40
1.0
 40
1.0
 10
67.131422986
 20
106.0503120117
 30
0.0
 10
67.1879872671
 20
106.0829692197
 30
0.0
 10
67.3105120702
 20
106.133311271
 30
0.0
 10
67.507168786
 20
106.1574109153
 30
0.0
 10
67.7031884716
 20
106.1294675483
 30
0.0
 10
67.8249084495
 20
106.07798559
 30
0.0
 10
67.8814152567
 20
106.0453621077
 30
0.0
  0
SPLINE
  5
291
100
AcDbEntity
  8
0
100
AcDbSpline
 62
7
  6
CONTINUOUS
 70
0
 71
3
 72
11
 73
7
 74
0
 42
0.0000001
 43
0.0000001
 44
0.0000000001
 40
0.0
 40
0.0
 40
0.0
 40
0.0
 40
0.2761467541
 40
0.5323922289
 40
0.7720358039
 40
1.0
 40
1.0
 40
1.0
 40
1.0
 10
68.7425211628
 20
104.0815652331
 30
0.0
 10
68.7592709094
 20
104.0954703097
 30
0.0
 10
68.7898646449
 20
104.1244556378
 30
0.0
 10
68.8270587685
 20
104.1729981846
 30
0.0
 10
68.8530552887
 20
104.2241878631
 30
0.0
 10
68.8626525068
 20
104.2601367644
 30
0.0
 10
68.8652818374
 20
104.2779143831
 30
0.0
  0
SPLINE
  5
292
100
AcDbEntity
  8
0
100
AcDbSpline
 62
7
  6
CONTINUOUS
 70
0
 71
3
 72
15
 73
11
 74
0
 42
0.0000001
 43
0.0000001
 44
0.0000000001
 40
0.0
 40
0.0
 40
0.0
 40
0.0
 40
0.1118613556
 40
0.2315720031
 40
0.3574030891
 40
0.4872869538
 40
0.6188848534
 40
0.7497590358
 40
0.8775474462
 40
1.0
 40
1.0
 40
1.0
 40
1.0
 10
70.819490249
 20
101.960108953
 30
0.0
 10
70.819490249
 20
101.9978799348
 30
0.0
 10
70.813653528
 20
102.0761331134
 30
0.0
 10
70.7899510658
 20
102.1947131244
 30
0.0
 10
70.7516156472
 20
102.3157921436
 30
0.0
 10
70.6997133297
 20
102.4360592771
 30
0.0
 10
70.6356416826
 20
102.5522486986
 30
0.0
 10
70.5611551299
 20
102.661206329
 30
0.0
 10
70.4782888033
 20
102.7599304311
 30
0.0
 10
70.4173176036
 20
102.818729544
 30
0.0
 10
70.3858852287
 20
102.8455920879
 30
0.0
  0
SPLINE
  5
293
100
AcDbEntity
  8
0
100
AcDbSpline
 62
7
  6
CONTINUOUS
 70
0
 71
3
 72
9
 73
5
 74
0
 42
0.0000001
 43
0.0000001
 44
0.0000000001
 40
0.0
 40
0.0
 40
0.0
 40
0.0
 40
0.5262145257
 40
1.0
 40
1.0
 40
1.0
 40
1.0
 10
70.3858852287
 20
102.8455920879
 30
0.0
 10
70.3321090991
 20
102.8915499147
 30
0.0
 10
70.2234606054
 20
102.9717448397
 30
0.0
 10
70.1017906176
 20
103.0314485134
 30
0.0
 10
70.0416695514
 20
103.0524719885
 30
0.0
  0
SPLINE
  5
294
100
AcDbEntity
  8
0
100
AcDbSpline
 62
7
  6
CONTINUOUS
 70
0
 71
3
 72
11
 73
7
 74
0
 42
0.0000001
 43
0.0000001
 44
0.0000000001
 40
0.0
 40
0.0
 40
0.0
 40
0.0
 40
0.2320924501
 40
0.4775087191
 40
0.734289725
 40
1.0
 40
1.0
 40
1.0
 40
1.0
 10
70.0416695514
 20
103.0524719885
 30
0.0
 10
69.9623103825
 20
103.0982889895
 30
0.0
 10
69.8044188292
 20
103.2020881367
 30
0.0
 10
69.5788745421
 20
103.3848815507
 30
0.0
 10
69.3611584887
 20
103.5964157882
 30
0.0
 10
69.2254815237
 20
103.7521593109
 30
0.0
 10
69.1596919849
 20
103.8338756769
 30
0.0
  0
SPLINE
  5
295
100
AcDbEntity
  8
0
100
AcDbSpline
 62
7
  6
CONTINUOUS
 70
0
 71
3
 72
11
 73
7
 74
0
 42
0.0000001
 43
0.0000001
 44
0.0000000001
 40
0.0
 40
0.0
 40
0.0
 40
0.0
 40
0.2343516268
 40
0.4800183804
 40
0.7357552984
 40
1.0
 40
1.0
 40
1.0
 40
1.0
 10
68.3941033379
 20
104.2791152142
 30
0.0
 10
68.3297941218
 20
104.3162433408
 30
0.0
 10
68.201604482
 20
104.3985376072
 30
0.0
 10
68.016336281
 20
104.5404329562
 30
0.0
 10
67.8353530936
 20
104.7023157248
 30
0.0
 10
67.7205013847
 20
104.8206613366
 30
0.0
 10
67.6642015719
 20
104.8826368212
 30
0.0
  0
SPLINE
  5
296
100
AcDbEntity
  8
0
100
AcDbSpline
 62
7
  6
CONTINUOUS
 70
0
 71
3
 72
9
 73
5
 74
0
 42
0.0000001
 43
0.0000001
 44
0.0000000001
 40
0.0
 40
0.0
 40
0.0
 40
0.0
 40
0.476816391
 40
1.0
 40
1.0
 40
1.0
 40
1.0
 10
67.3267897969
 20
105.0960399857
 30
0.0
 10
67.2303914271
 20
105.1135416681
 30
0.0
 10
67.0319465113
 20
105.1720514008
 30
0.0
 10
66.8467089712
 20
105.2629304104
 30
0.0
 10
66.7536093294
 20
105.3166802976
 30
0.0
  0
SPLINE
  5
297
100
AcDbEntity
  8
0
100
AcDbSpline
 62
7
  6
CONTINUOUS
 70
0
 71
3
 72
9
 73
5
 74
0
 42
0.0000001
 43
0.0000001
 44
0.0000000001
 40
0.0
 40
0.0
 40
0.0
 40
0.0
 40
0.4832258417
 40
1.0
 40
1.0
 40
1.0
 40
1.0
 10
66.7536093294
 20
105.3166802976
 30
0.0
 10
66.6525173369
 20
105.3750444664
 30
0.0
 10
66.4520836281
 20
105.5113358863
 30
0.0
 10
66.2698944061
 20
105.6708162201
 30
0.0
 10
66.180428862
 20
105.7578768073
 30
0.0
  0
SPLINE
  5
298
100
AcDbEntity
  8
0
100
AcDbSpline
 62
7
  6
CONTINUOUS
 70
0
 71
3
 72
10
 73
6
 74
0
 42
0.0000001
 43
0.0000001
 44
0.0000000001
 40
0.0
 40
0.0
 40
0.0
 40
0.0
 40
0.469434149
 40
0.7270437258
 40
1.0
 40
1.0
 40
1.0
 40
1.0
 10
65.843017087
 20
105.9340743871
 30
0.0
 10
65.7220963134
 20
105.9405875255
 30
0.0
 10
65.5358542799
 20
105.9800123445
 30
0.0
 10
65.2958491274
 20
106.0749457834
 30
0.0
 10
65.1740956012
 20
106.1381455562
 30
0.0
 10
65.1131164064
 20
106.173351049
 30
0.0
  0
SPLINE
  5
299
100
AcDbEntity
  8
0
100
AcDbSpline
 62
7
  6
CONTINUOUS
 70
0
 71
3
 72
9
 73
5
 74
0
 42
0.0000001
 43
0.0000001
 44
0.0000000001
 40
0.0
 40
0.0
 40
0.0
 40
0.0
 40
0.5155770529
 40
1.0
 40
1.0
 40
1.0
 40
1.0
 10
65.1131164064
 20
106.173351049
 30
0.0
 10
64.9897149937
 20
106.2618788581
 30
0.0
 10
64.7422004992
 20
106.4225799448
 30
0.0
 10
64.4786784172
 20
106.5558943588
 30
0.0
 10
64.347526674
 20
106.6121177623
 30
0.0
  0
SPLINE
  5
29A
100
AcDbEntity
  8
0
100
AcDbSpline
 62
7
  6
CONTINUOUS
 70
0
 71
3
 72
11
 73
7
 74
0
 42
0.0000001
 43
0.0000001
 44
0.0000000001
 40
0.0
 40
0.0
 40
0.0
 40
0.0
 40
0.2234551327
 40
0.463368141
 40
0.7219942073
 40
1.0
 40
1.0
 40
1.0
 40
1.0
 10
64.347526674
 20
106.6121177623
 30
0.0
 10
64.2787832778
 20
106.6061086878
 30
0.0
 10
64.1347034491
 20
106.6083524282
 30
0.0
 10
63.914886268
 20
106.6507410925
 30
0.0
 10
63.6881084129
 20
106.7310234771
 30
0.0
 10
63.5398990282
 20
106.8061860299
 30
0.0
 10
63.4655491076
 20
106.8491110055
 30
0.0
  0
SPLINE
  5
29B
100
AcDbEntity
  8
0
100
AcDbSpline
 62
7
  6
CONTINUOUS
 70
0
 71
3
 72
11
 73
7
 74
0
 42
0.0000001
 43
0.0000001
 44
0.0000000001
 40
0.0
 40
0.0
 40
0.0
 40
0.0
 40
0.2747618894
 40
0.5295707108
 40
0.7689498616
 40
1.0
 40
1.0
 40
1.0
 40
1.0
 10
63.1213334302
 20
107.0396881412
 30
0.0
 10
63.0971384511
 20
107.0469480996
 30
0.0
 10
63.0493516854
 20
107.0575313412
 30
0.0
 10
62.9782720796
 20
107.0602522054
 30
0.0
 10
62.9120448012
 20
107.0488688102
 30
0.0
 10
62.8718163678
 20
107.0317234463
 30
0.0
 10
62.8534189816
 20
107.0211046474
 30
0.0
  0
SPLINE
  5
29C
100
AcDbEntity
  8
0
100
AcDbSpline
 62
7
  6
CONTINUOUS
 70
0
 71
3
 72
15
 73
11
 74
0
 42
0.0000001
 43
0.0000001
 44
0.0000000001
 40
0.0
 40
0.0
 40
0.0
 40
0.0
 40
0.1141555516
 40
0.2373276756
 40
0.3669773296
 40
0.5000011
 40
0.6330247168
 40
0.7626739247
 40
0.885845342
 40
1.0
 40
1.0
 40
1.0
 40
1.0
 10
67.0718281359
 20
99.2133872127
 30
0.0
 10
67.0718281359
 20
99.2692832876
 30
0.0
 10
67.0615899746
 20
99.3855989284
 30
0.0
 10
67.0207757498
 20
99.5610737027
 30
0.0
 10
66.9553937165
 20
99.7388155765
 30
0.0
 10
66.8678873316
 20
99.9121408864
 30
0.0
 10
66.761535747
 20
100.0745856048
 30
0.0
 10
66.6402974229
 20
100.2200779148
 30
0.0
 10
66.5087388669
 20
100.3431599409
 30
0.0
 10
66.4131257265
 20
100.4101830399
 30
0.0
 10
66.3647184108
 20
100.4381303844
 30
0.0
  0
SPLINE
  5
29D
100
AcDbEntity
  8
0
100
AcDbSpline
 62
7
  6
CONTINUOUS
 70
0
 71
3
 72
14
 73
10
 74
0
 42
0.0000001
 43
0.0000001
 44
0.0000000001
 40
0.0
 40
0.0
 40
0.0
 40
0.0
 40
0.2892720607
 40
0.422554976
 40
0.5484985194
 40
0.6678874407
 40
0.781868291
 40
0.8919528621
 40
1.0
 40
1.0
 40
1.0
 40
1.0
 10
62.4756149225
 20
102.6834545342
 30
0.0
 10
62.4317206953
 20
102.7087963048
 30
0.0
 10
62.3643279889
 20
102.7408718424
 30
0.0
 10
62.2719076571
 20
102.7678169293
 30
0.0
 10
62.2063089327
 20
102.7788241812
 30
0.0
 10
62.1431916424
 20
102.7810071287
 30
0.0
 10
62.0831472609
 20
102.7743232832
 30
0.0
 10
62.0268252639
 20
102.758737337
 30
0.0
 10
61.9920130515
 20
102.7424429553
 30
0.0
 10
61.9756180145
 20
102.7329773348
 30
0.0
  0
SPLINE
  5
29E
100
AcDbEntity
  8
0
100
AcDbSpline
 62
7
  6
CONTINUOUS
 70
0
 71
3
 72
24
 73
20
 74
0
 42
0.0000001
 43
0.0000001
 44
0.0000000001
 40
0.0
 40
0.0
 40
0.0
 40
0.0
 40
0.0623814138
 40
0.1287361684
 40
0.1983290361
 40
0.2703117022
 40
0.3436930286
 40
0.4174309201
 40
0.4904614699
 40
0.5617535979
 40
0.6303564803
 40
0.6954492849
 40
0.7564011749
 40
0.8128422995
 40
0.8647467468
 40
0.9125255991
 40
0.9571038978
 40
0.9786660301
 40
1.0
 40
1.0
 40
1.0
 40
1.0
 10
65.5515422269
 20
100.9076072521
 30
0.0
 10
65.5515422269
 20
100.9739781066
 30
0.0
 10
65.5425426411
 20
101.1110379552
 30
0.0
 10
65.5055504564
 20
101.3191401961
 30
0.0
 10
65.4453773071
 20
101.5323805623
 30
0.0
 10
65.3633561515
 20
101.7461890728
 30
0.0
 10
65.2612005865
 20
101.9560439478
 30
0.0
 10
65.1410989777
 20
102.1574631583
 30
0.0
 10
65.0056131507
 20
102.3461532274
 30
0.0
 10
64.8576311236
 20
102.5180915653
 30
0.0
 10
64.7002931012
 20
102.6696238256
 30
0.0
 10
64.5369089746
 20
102.7975362988
 30
0.0
 10
64.3708678224
 20
102.8991139574
 30
0.0
 10
64.205553424
 20
102.9721783108
 30
0.0
 10
64.0442269855
 20
103.0150263347
 30
0.0
 10
63.8901504196
 20
103.0264100344
 30
0.0
 10
63.7690177989
 20
103.0085843367
 30
0.0
 10
63.6808708246
 20
102.9780850083
 30
0.0
 10
63.6398309179
 20
102.9577784988
 30
0.0
 10
63.6201724892
 20
102.9464312395
 30
0.0
  0
SPLINE
  5
29F
100
AcDbEntity
  8
0
100
AcDbSpline
 62
7
  6
CONTINUOUS
 70
0
 71
3
 72
14
 73
10
 74
0
 42
0.0000001
 43
0.0000001
 44
0.0000000001
 40
0.0
 40
0.0
 40
0.0
 40
0.0
 40
0.2892774367
 40
0.422555338
 40
0.5484990094
 40
0.6678905058
 40
0.7818694812
 40
0.8919524783
 40
1.0
 40
1.0
 40
1.0
 40
1.0
 10
60.354285747
 20
105.3076719223
 30
0.0
 10
60.354285747
 20
105.3482213011
 30
0.0
 10
60.3590196355
 20
105.4077442771
 30
0.0
 10
60.3773197467
 20
105.4825552985
 30
0.0
 10
60.3959342903
 20
105.5324070001
 30
0.0
 10
60.4196674606
 20
105.5770116217
 30
0.0
 10
60.4483179772
 20
105.615938004
 30
0.0
 10
60.4816437964
 20
105.648726916
 30
0.0
 10
60.506858999
 20
105.6663277456
 30
0.0
 10
60.5199763188
 20
105.6738989396
 30
0.0
  0
SPLINE
  5
2A0
100
AcDbEntity
  8
0
100
AcDbSpline
 62
7
  6
CONTINUOUS
 70
0
 71
3
 72
15
 73
11
 74
0
 42
0.0000001
 43
0.0000001
 44
0.0000000001
 40
0.0
 40
0.0
 40
0.0
 40
0.0
 40
0.1080105376
 40
0.2180571258
 40
0.3319978057
 40
0.4513545417
 40
0.5772600922
 40
0.7104917943
 40
0.8514580452
 40
1.0
 40
1.0
 40
1.0
 40
1.0
 10
63.6201724892
 20
102.9464312395
 30
0.0
 10
63.5939387406
 20
102.9312885671
 30
0.0
 10
63.5435057112
 20
102.8960921388
 30
0.0
 10
63.4768590419
 20
102.8305108869
 30
0.0
 10
63.4195521625
 20
102.7526630591
 30
0.0
 10
63.3720894097
 20
102.6634472799
 30
0.0
 10
63.3348622475
 20
102.5637535008
 30
0.0
 10
63.3081370876
 20
102.4545393581
 30
0.0
 10
63.292161792
 20
102.3368793562
 30
0.0
 10
63.2887911064
 20
102.2556347089
 30
0.0
 10
63.2887911064
 20
102.2139776665
 30
0.0
  0
SPLINE
  5
2A1
100
AcDbEntity
  8
0
100
AcDbSpline
 62
7
  6
CONTINUOUS
 70
0
 71
3
 72
13
 73
9
 74
0
 42
0.0000001
 43
0.0000001
 44
0.0000000001
 40
0.0
 40
0.0
 40
0.0
 40
0.0
 40
0.10808411
 40
0.2182200047
 40
0.332240015
 40
0.4516675144
 40
0.7106220375
 40
1.0
 40
1.0
 40
1.0
 40
1.0
 10
68.8678173248
 20
104.9900739757
 30
0.0
 10
68.8678179183
 20
104.9768236153
 30
0.0
 10
68.8655225801
 20
104.9500163713
 30
0.0
 10
68.8552370338
 20
104.9104271624
 30
0.0
 10
68.8382938836
 20
104.8716824781
 30
0.0
 10
68.8062146857
 20
104.8203283743
 30
0.0
 10
68.7492352278
 20
104.7603872427
 30
0.0
 10
68.6935196814
 20
104.7220432313
 30
0.0
 10
68.6627967554
 20
104.7043054476
 30
0.0
  0
SPLINE
  5
2A2
100
AcDbEntity
  8
0
100
AcDbSpline
 62
7
  6
CONTINUOUS
 70
0
 71
3
 72
14
 73
10
 74
0
 42
0.0000001
 43
0.0000001
 44
0.0000000001
 40
0.0
 40
0.0
 40
0.0
 40
0.0
 40
0.1080466357
 40
0.2181307812
 40
0.3321113461
 40
0.4515001674
 40
0.5774437985
 40
0.7107269735
 40
1.0
 40
1.0
 40
1.0
 40
1.0
 10
61.9756180145
 20
102.7329773348
 30
0.0
 10
61.9592226146
 20
102.7235115047
 30
0.0
 10
61.9277043726
 20
102.7015100322
 30
0.0
 10
61.8860445912
 20
102.6605257568
 30
0.0
 10
61.850233305
 20
102.6118664031
 30
0.0
 10
61.8205646945
 20
102.5561121302
 30
0.0
 10
61.7972977067
 20
102.4937964593
 30
0.0
 10
61.7744227861
 20
102.400282637
 30
0.0
 10
61.7685051973
 20
102.3258787998
 30
0.0
 10
61.7685051973
 20
102.2751928716
 30
0.0
  0
SPLINE
  5
2A3
100
AcDbEntity
  8
0
100
AcDbSpline
 62
7
  6
CONTINUOUS
 70
0
 71
3
 72
14
 73
10
 74
0
 42
0.0000001
 43
0.0000001
 44
0.0000000001
 40
0.0
 40
0.0
 40
0.0
 40
0.0
 40
0.2892830205
 40
0.4225644822
 40
0.5485051505
 40
0.6678907886
 40
0.7818668273
 40
0.8919508119
 40
1.0
 40
1.0
 40
1.0
 40
1.0
 10
67.5314211952
 20
106.0106925885
 30
0.0
 10
67.496304407
 20
106.030966817
 30
0.0
 10
67.4423888973
 20
106.0566278276
 30
0.0
 10
67.368451453
 20
106.0781840342
 30
0.0
 10
67.3159733316
 20
106.0869885989
 30
0.0
 10
67.2654809557
 20
106.0887367913
 30
0.0
 10
67.2174466802
 20
106.0833882115
 30
0.0
 10
67.172389403
 20
106.070920363
 30
0.0
 10
67.1445389495
 20
106.0578852627
 30
0.0
 10
67.1314231023
 20
106.0503118103
 30
0.0
  0
SPLINE
  5
2A4
100
AcDbEntity
  8
0
100
AcDbSpline
 62
7
  6
CONTINUOUS
 70
0
 71
3
 72
13
 73
9
 74
0
 42
0.0000001
 43
0.0000001
 44
0.0000000001
 40
0.0
 40
0.0
 40
0.0
 40
0.0
 40
0.1080850452
 40
0.2182217446
 40
0.3322423179
 40
0.451670065
 40
0.7106240136
 40
1.0
 40
1.0
 40
1.0
 40
1.0
 10
67.8814139453
 20
106.0453598363
 30
0.0
 10
67.8699389584
 20
106.0519854588
 30
0.0
 10
67.8455753262
 20
106.0634011385
 30
0.0
 10
67.8061470984
 20
106.0742881373
 30
0.0
 10
67.7641215626
 20
106.078987332
 30
0.0
 10
67.7036081281
 20
106.0768832023
 30
0.0
 10
67.623208233
 20
106.0575087121
 30
0.0
 10
67.5621438334
 20
106.0284302061
 30
0.0
 10
67.5314211952
 20
106.0106925885
 30
0.0
  0
SPLINE
  5
2A5
100
AcDbEntity
  8
0
100
AcDbSpline
 62
7
  6
CONTINUOUS
 70
0
 71
3
 72
11
 73
7
 74
0
 42
0.0000001
 43
0.0000001
 44
0.0000000001
 40
0.0
 40
0.0
 40
0.0
 40
0.0
 40
0.2310501384
 40
0.4704292892
 40
0.7252381106
 40
1.0
 40
1.0
 40
1.0
 40
1.0
 10
60.5199763188
 20
105.6738989396
 30
0.0
 10
60.538373705
 20
105.6845177385
 30
0.0
 10
60.5786021384
 20
105.7016631024
 30
0.0
 10
60.6448294168
 20
105.7130464976
 30
0.0
 10
60.7159090226
 20
105.7103256334
 30
0.0
 10
60.7636957883
 20
105.6997423918
 30
0.0
 10
60.7878907674
 20
105.6924824334
 30
0.0
  0
SPLINE
  5
2A6
100
AcDbEntity
  8
0
100
AcDbSpline
 62
7
  6
CONTINUOUS
 70
0
 71
3
 72
15
 73
11
 74
0
 42
0.0000001
 43
0.0000001
 44
0.0000000001
 40
0.0
 40
0.0
 40
0.0
 40
0.0
 40
0.1141527168
 40
0.2373150593
 40
0.3669511855
 40
0.4999671722
 40
0.6329917929
 40
0.7626498762
 40
0.8858369861
 40
1.0
 40
1.0
 40
1.0
 40
1.0
 10
68.6627967554
 20
104.7043054476
 30
0.0
 10
68.6627967554
 20
104.74902121
 30
0.0
 10
68.6546072021
 20
104.8420688322
 30
0.0
 10
68.6219592988
 20
104.9824389117
 30
0.0
 10
68.569660929
 20
105.1246220308
 30
0.0
 10
68.4996629338
 20
105.2632770094
 30
0.0
 10
68.4145843888
 20
105.3932355423
 30
0.0
 10
68.3175909881
 20
105.5096403219
 30
0.0
 10
68.212335399
 20
105.6081157177
 30
0.0
 10
68.1358376738
 20
105.6617404663
 30
0.0
 10
68.0971089753
 20
105.6840999849
 30
0.0
  0
SPLINE
  5
2A7
100
AcDbEntity
  8
0
100
AcDbSpline
 62
7
  6
CONTINUOUS
 70
0
 71
3
 72
13
 73
9
 74
0
 42
0.0000001
 43
0.0000001
 44
0.0000000001
 40
0.0
 40
0.0
 40
0.0
 40
0.0
 40
0.2893922364
 40
0.5483151692
 40
0.6677391517
 40
0.7817635884
 40
0.8919021255
 40
1.0
 40
1.0
 40
1.0
 40
1.0
 10
68.0971089753
 20
105.6840999849
 30
0.0
 10
68.1278333795
 20
105.701838622
 30
0.0
 10
68.188895645
 20
105.7309168926
 30
0.0
 10
68.2692938606
 20
105.7502926126
 30
0.0
 10
68.329803235
 20
105.7523913153
 30
0.0
 10
68.3718301315
 20
105.7477011316
 30
0.0
 10
68.4112598132
 20
105.7368088931
 30
0.0
 10
68.4356247678
 20
105.7253926222
 30
0.0
 10
68.4471017253
 20
105.7187672322
 30
0.0
  0
SPLINE
  5
2A8
100
AcDbEntity
  8
0
100
AcDbSpline
 62
7
  6
CONTINUOUS
 70
0
 71
3
 72
11
 73
7
 74
0
 42
0.0000001
 43
0.0000001
 44
0.0000000001
 40
0.0
 40
0.0
 40
0.0
 40
0.0
 40
0.2780057927
 40
0.536631859
 40
0.7765448673
 40
1.0
 40
1.0
 40
1.0
 40
1.0
 10
61.1321064448
 20
105.5019052977
 30
0.0
 10
61.2064563655
 20
105.4589803221
 30
0.0
 10
61.3546657501
 20
105.3838177694
 30
0.0
 10
61.5814436052
 20
105.3035353848
 30
0.0
 10
61.8012607863
 20
105.2611467204
 30
0.0
 10
61.945340615
 20
105.25890298
 30
0.0
 10
62.0140840112
 20
105.2649120545
 30
0.0
  0
SPLINE
  5
2A9
100
AcDbEntity
  8
0
100
AcDbSpline
 62
7
  6
CONTINUOUS
 70
0
 71
3
 72
9
 73
5
 74
0
 42
0.0000001
 43
0.0000001
 44
0.0000000001
 40
0.0
 40
0.0
 40
0.0
 40
0.0
 40
0.4844229471
 40
1.0
 40
1.0
 40
1.0
 40
1.0
 10
62.0140840112
 20
105.2649120545
 30
0.0
 10
62.1452357544
 20
105.208688651
 30
0.0
 10
62.4087578364
 20
105.075374237
 30
0.0
 10
62.6562723309
 20
104.9146731504
 30
0.0
 10
62.7796737436
 20
104.8261453412
 30
0.0
  0
SPLINE
  5
2AA
100
AcDbEntity
  8
0
100
AcDbSpline
 62
7
  6
CONTINUOUS
 70
0
 71
3
 72
10
 73
6
 74
0
 42
0.0000001
 43
0.0000001
 44
0.0000000001
 40
0.0
 40
0.0
 40
0.0
 40
0.0
 40
0.2729562742
 40
0.530565851
 40
1.0
 40
1.0
 40
1.0
 40
1.0
 10
62.7796737436
 20
104.8261453412
 30
0.0
 10
62.8406529384
 20
104.7909398484
 30
0.0
 10
62.9624064646
 20
104.7277400756
 30
0.0
 10
63.2024116171
 20
104.6328066367
 30
0.0
 10
63.3886536506
 20
104.5933818178
 30
0.0
 10
63.5095744242
 20
104.5868686794
 30
0.0
  0
SPLINE
  5
2AB
100
AcDbEntity
  8
0
100
AcDbSpline
 62
7
  6
CONTINUOUS
 70
0
 71
3
 72
9
 73
5
 74
0
 42
0.0000001
 43
0.0000001
 44
0.0000000001
 40
0.0
 40
0.0
 40
0.0
 40
0.0
 40
0.5167741583
 40
1.0
 40
1.0
 40
1.0
 40
1.0
 10
63.8469861991
 20
104.4106710996
 30
0.0
 10
63.9364517433
 20
104.3236105124
 30
0.0
 10
64.1186409653
 20
104.1641301785
 30
0.0
 10
64.3190746741
 20
104.0278387586
 30
0.0
 10
64.4201666666
 20
103.9694745898
 30
0.0
  0
SPLINE
  5
2AC
100
AcDbEntity
  8
0
100
AcDbSpline
 62
7
  6
CONTINUOUS
 70
0
 71
3
 72
9
 73
5
 74
0
 42
0.0000001
 43
0.0000001
 44
0.0000000001
 40
0.0
 40
0.0
 40
0.0
 40
0.0
 40
0.523183609
 40
1.0
 40
1.0
 40
1.0
 40
1.0
 10
64.4201666666
 20
103.9694745898
 30
0.0
 10
64.5132663084
 20
103.9157247026
 30
0.0
 10
64.6985038485
 20
103.824845693
 30
0.0
 10
64.8969487643
 20
103.7663359603
 30
0.0
 10
64.9933471341
 20
103.7488342779
 30
0.0
  0
SPLINE
  5
2AD
100
AcDbEntity
  8
0
100
AcDbSpline
 62
7
  6
CONTINUOUS
 70
0
 71
3
 72
11
 73
7
 74
0
 42
0.0000001
 43
0.0000001
 44
0.0000000001
 40
0.0
 40
0.0
 40
0.0
 40
0.0
 40
0.2642447016
 40
0.5199816196
 40
0.7656483732
 40
1.0
 40
1.0
 40
1.0
 40
1.0
 10
65.3307589091
 20
103.5354311134
 30
0.0
 10
65.3870587219
 20
103.4734556288
 30
0.0
 10
65.5019104308
 20
103.355110017
 30
0.0
 10
65.6828936182
 20
103.1932272484
 30
0.0
 10
65.8681618192
 20
103.0513318994
 30
0.0
 10
65.996351459
 20
102.969037633
 30
0.0
 10
66.0606606751
 20
102.9319095064
 30
0.0
  0
SPLINE
  5
2AE
100
AcDbEntity
  8
0
100
AcDbSpline
 62
7
  6
CONTINUOUS
 70
0
 71
3
 72
11
 73
7
 74
0
 42
0.0000001
 43
0.0000001
 44
0.0000000001
 40
0.0
 40
0.0
 40
0.0
 40
0.0
 40
0.265710275
 40
0.5224912809
 40
0.7679075499
 40
1.0
 40
1.0
 40
1.0
 40
1.0
 10
66.8262493221
 20
102.4866699691
 30
0.0
 10
66.8920388609
 20
102.4049536031
 30
0.0
 10
67.0277158258
 20
102.2492100804
 30
0.0
 10
67.2454318793
 20
102.0376758429
 30
0.0
 10
67.4709761664
 20
101.8548824289
 30
0.0
 10
67.6288677197
 20
101.7510832817
 30
0.0
 10
67.7082268886
 20
101.7052662807
 30
0.0
  0
SPLINE
  5
2AF
100
AcDbEntity
  8
0
100
AcDbSpline
 62
7
  6
CONTINUOUS
 70
0
 71
3
 72
9
 73
5
 74
0
 42
0.0000001
 43
0.0000001
 44
0.0000000001
 40
0.0
 40
0.0
 40
0.0
 40
0.0
 40
0.4737854743
 40
1.0
 40
1.0
 40
1.0
 40
1.0
 10
67.7082268886
 20
101.7052662807
 30
0.0
 10
67.7683479548
 20
101.6842428057
 30
0.0
 10
67.8900179426
 20
101.6245391319
 30
0.0
 10
67.9986664363
 20
101.544344207
 30
0.0
 10
68.0524425659
 20
101.4983863801
 30
0.0
  0
SPLINE
  5
2B0
100
AcDbEntity
  8
0
100
AcDbSpline
 62
7
  6
CONTINUOUS
 70
0
 71
3
 72
15
 73
11
 74
0
 42
0.0000001
 43
0.0000001
 44
0.0000000001
 40
0.0
 40
0.0
 40
0.0
 40
0.0
 40
0.1224525538
 40
0.2502409642
 40
0.3811151466
 40
0.5127130462
 40
0.6425969109
 40
0.7684279969
 40
0.8881386444
 40
1.0
 40
1.0
 40
1.0
 40
1.0
 10
68.0524425659
 20
101.4983863801
 30
0.0
 10
68.0838749408
 20
101.4715238363
 30
0.0
 10
68.1448461405
 20
101.4127247234
 30
0.0
 10
68.2277124671
 20
101.3140006212
 30
0.0
 10
68.3021990198
 20
101.2050429908
 30
0.0
 10
68.3662706669
 20
101.0888535693
 30
0.0
 10
68.4181729844
 20
100.9685864358
 30
0.0
 10
68.456508403
 20
100.8475074166
 30
0.0
 10
68.4802108652
 20
100.7289274057
 30
0.0
 10
68.4860475862
 20
100.650674227
 30
0.0
 10
68.4860475862
 20
100.6129032453
 30
0.0
  0
SPLINE
  5
2B1
100
AcDbEntity
  8
0
100
AcDbSpline
 62
7
  6
CONTINUOUS
 70
0
 71
3
 72
15
 73
11
 74
0
 42
0.0000001
 43
0.0000001
 44
0.0000000001
 40
0.0
 40
0.0
 40
0.0
 40
0.0
 40
0.1208566004
 40
0.246295824
 40
0.3747034945
 40
0.5043346911
 40
0.6333922976
 40
0.7601058167
 40
0.8828061725
 40
1.0
 40
1.0
 40
1.0
 40
1.0
 10
35.6197486354
 20
72.9452278357
 30
0.0
 10
35.4983544146
 20
73.0516424286
 30
0.0
 10
35.2619508551
 20
73.2812997954
 30
0.0
 10
34.9359526474
 20
73.6618841165
 30
0.0
 10
34.6370894379
 20
74.0786518209
 30
0.0
 10
34.371544838
 20
74.5230052658
 30
0.0
 10
34.1447614338
 20
74.9858256291
 30
0.0
 10
33.9613900365
 20
75.4576321017
 30
0.0
 10
33.8252109053
 20
75.9286848012
 30
0.0
 10
33.7661651529
 20
76.2443104375
 30
0.0
 10
33.7459019747
 20
76.3995339417
 30
0.0
  0
SPLINE
  5
2B2
100
AcDbEntity
  8
0
100
AcDbSpline
 62
7
  6
CONTINUOUS
 70
0
 71
3
 72
11
 73
7
 74
0
 42
0.0000001
 43
0.0000001
 44
0.0000000001
 40
0.0
 40
0.0
 40
0.0
 40
0.0
 40
0.2372619086
 40
0.4999477586
 40
0.7627302359
 40
1.0
 40
1.0
 40
1.0
 40
1.0
 10
38.8141713153
 20
23.7029833564
 30
0.0
 10
38.8140355578
 20
23.6332955545
 30
0.0
 10
38.7880489871
 20
23.4863834473
 30
0.0
 10
38.6972206804
 20
23.2797568668
 30
0.0
 10
38.5640531186
 20
23.0975395951
 30
0.0
 10
38.449877765
 20
23.001366075
 30
0.0
 10
38.3895250474
 20
22.9665195654
 30
0.0
  0
SPLINE
  5
2B3
100
AcDbEntity
  8
0
100
AcDbSpline
 62
7
  6
CONTINUOUS
 70
0
 71
3
 72
11
 73
7
 74
0
 42
0.0000001
 43
0.0000001
 44
0.0000000001
 40
0.0
 40
0.0
 40
0.0
 40
0.0
 40
0.2894615377
 40
0.5491751463
 40
0.782346563
 40
1.0
 40
1.0
 40
1.0
 40
1.0
 10
38.3895250474
 20
22.9665195654
 30
0.0
 10
38.3632176726
 20
22.9513301883
 30
0.0
 10
38.3108174248
 20
22.9264501371
 30
0.0
 10
38.2303179477
 20
22.9069158452
 30
0.0
 10
38.1547481621
 20
22.908859365
 30
0.0
 10
38.1092826537
 20
22.9253639865
 30
0.0
 10
38.0895030877
 20
22.9367880562
 30
0.0
  0
SPLINE
  5
2B4
100
AcDbEntity
  8
0
100
AcDbSpline
 62
7
  6
CONTINUOUS
 70
0
 71
3
 72
11
 73
7
 74
0
 42
0.0000001
 43
0.0000001
 44
0.0000000001
 40
0.0
 40
0.0
 40
0.0
 40
0.0
 40
0.2895960905
 40
0.5491070775
 40
0.7822346764
 40
1.0
 40
1.0
 40
1.0
 40
1.0
 10
23.4391013469
 20
15.8862864634
 30
0.0
 10
23.3952398512
 20
15.8609631682
 30
0.0
 10
23.3079372248
 20
15.8194659383
 30
0.0
 10
23.1737903332
 20
15.7870251213
 30
0.0
 10
23.0478705802
 20
15.7901819706
 30
0.0
 10
22.9721195813
 20
15.817764323
 30
0.0
 10
22.939130361
 20
15.8367942997
 30
0.0
  0
SPLINE
  5
2B5
100
AcDbEntity
  8
0
100
AcDbSpline
 62
7
  6
CONTINUOUS
 70
0
 71
3
 72
11
 73
7
 74
0
 42
0.0000001
 43
0.0000001
 44
0.0000000001
 40
0.0
 40
0.0
 40
0.0
 40
0.0
 40
0.2896296339
 40
0.5491000058
 40
0.7822244192
 40
1.0
 40
1.0
 40
1.0
 40
1.0
 10
41.3686644997
 20
10.7253026988
 30
0.0
 10
41.3247975119
 20
10.6999769264
 30
0.0
 10
41.2374991995
 20
10.6584717121
 30
0.0
 10
41.103348626
 20
10.6260463709
 30
0.0
 10
40.9774374581
 20
10.6292105006
 30
0.0
 10
40.9016807854
 20
10.6567785539
 30
0.0
 10
40.8686872912
 20
10.6758049044
 30
0.0
  0
SPLINE
  5
2B6
100
AcDbEntity
  8
0
100
AcDbSpline
 62
7
  6
CONTINUOUS
 70
0
 71
3
 72
11
 73
7
 74
0
 42
0.0000001
 43
0.0000001
 44
0.0000000001
 40
0.0
 40
0.0
 40
0.0
 40
0.0
 40
0.2813074262
 40
0.5381564212
 40
0.7747275606
 40
1.0
 40
1.0
 40
1.0
 40
1.0
 10
28.0283173217
 20
18.3253770762
 30
0.0
 10
28.0332011188
 20
18.2863443551
 30
0.0
 10
28.0483929118
 20
18.2121828283
 30
0.0
 10
28.0904188838
 20
18.1114490094
 30
0.0
 10
28.1502961561
 20
18.0294382072
 30
0.0
 10
28.2018115846
 20
17.9888444599
 30
0.0
 10
28.2291004777
 20
17.9731075655
 30
0.0
  0
SPLINE
  5
2B7
100
AcDbEntity
  8
0
100
AcDbSpline
 62
7
  6
CONTINUOUS
 70
0
 71
3
 72
11
 73
7
 74
0
 42
0.0000001
 43
0.0000001
 44
0.0000000001
 40
0.0
 40
0.0
 40
0.0
 40
0.0
 40
0.2651218343
 40
0.5278316327
 40
0.7761887262
 40
1.0
 40
1.0
 40
1.0
 40
1.0
 10
34.4912065332
 20
22.2762506089
 30
0.0
 10
34.6820449385
 20
22.0401836806
 30
0.0
 10
35.0289780737
 20
21.5426286391
 30
0.0
 10
35.4371263943
 20
20.7502101536
 30
0.0
 10
35.7161063304
 20
19.9535196231
 30
0.0
 10
35.8117234852
 20
19.4176863445
 30
0.0
 10
35.828868248
 20
19.1620028862
 30
0.0
  0
SPLINE
  5
2B8
100
AcDbEntity
  8
0
100
AcDbSpline
 62
7
  6
CONTINUOUS
 70
0
 71
3
 72
11
 73
7
 74
0
 42
0.0000001
 43
0.0000001
 44
0.0000000001
 40
0.0
 40
0.0
 40
0.0
 40
0.0
 40
0.2329925641
 40
0.483357921
 40
0.7421878272
 40
1.0
 40
1.0
 40
1.0
 40
1.0
 10
33.3205821498
 20
17.2773516025
 30
0.0
 10
33.0706308304
 20
17.4429124295
 30
0.0
 10
32.5802465414
 20
17.8297127837
 30
0.0
 10
31.9121981268
 20
18.5153437961
 30
0.0
 10
31.3116461238
 20
19.3013887901
 30
0.0
 10
30.9720687492
 20
19.8751629673
 30
0.0
 10
30.8215078379
 20
20.1707771378
 30
0.0
  0
SPLINE
  5
2B9
100
AcDbEntity
  8
0
100
AcDbSpline
 62
7
  6
CONTINUOUS
 70
0
 71
3
 72
11
 73
7
 74
0
 42
0.0000001
 43
0.0000001
 44
0.0000000001
 40
0.0
 40
0.0
 40
0.0
 40
0.0
 40
0.2336518302
 40
0.4922079514
 40
0.7549399127
 40
1.0
 40
1.0
 40
1.0
 40
1.0
 10
28.7290791035
 20
87.262011692
 30
0.0
 10
28.6377521208
 20
87.2092822104
 30
0.0
 10
28.4632654016
 20
87.0667928013
 30
0.0
 10
28.2526731966
 20
86.7961475907
 30
0.0
 10
28.0976658147
 20
86.4844920699
 30
0.0
 10
28.040317262
 20
86.2598738294
 30
0.0
 10
28.0283005016
 20
86.1499233293
 30
0.0
  0
SPLINE
  5
2BA
100
AcDbEntity
  8
0
100
AcDbSpline
 62
7
  6
CONTINUOUS
 70
0
 71
3
 72
9
 73
5
 74
0
 42
0.0000001
 43
0.0000001
 44
0.0000000001
 40
0.0
 40
0.0
 40
0.0
 40
0.0
 40
0.5077709531
 40
1.0
 40
1.0
 40
1.0
 40
1.0
 10
28.0283005016
 20
86.1499233293
 30
0.0
 10
27.7479383071
 20
83.5844366038
 30
0.0
 10
27.3229741858
 20
78.517111647
 30
0.0
 10
27.1734194916
 20
73.4337292552
 30
0.0
 10
27.1734194916
 20
70.9319608772
 30
0.0
  0
SPLINE
  5
2BB
100
AcDbEntity
  8
0
100
AcDbSpline
 62
7
  6
CONTINUOUS
 70
0
 71
3
 72
11
 73
7
 74
0
 42
0.0000001
 43
0.0000001
 44
0.0000000001
 40
0.0
 40
0.0
 40
0.0
 40
0.0
 40
0.2320163165
 40
0.4885099326
 40
0.7511206533
 40
1.0
 40
1.0
 40
1.0
 40
1.0
 10
25.7499038262
 20
69.9458123145
 30
0.0
 10
25.6980803817
 20
69.9158922135
 30
0.0
 10
25.5985878134
 20
69.8359822687
 30
0.0
 10
25.4763470562
 20
69.6842123406
 30
0.0
 10
25.3831596677
 20
69.5081302977
 30
0.0
 10
25.3451893101
 20
69.3804771725
 30
0.0
 10
25.3347420414
 20
69.3171433602
 30
0.0
  0
SPLINE
  5
2BC
100
AcDbEntity
  8
0
100
AcDbSpline
 62
7
  6
CONTINUOUS
 70
0
 71
3
 72
11
 73
7
 74
0
 42
0.0000001
 43
0.0000001
 44
0.0000000001
 40
0.0
 40
0.0
 40
0.0
 40
0.0
 40
0.2340062058
 40
0.4929972126
 40
0.755746981
 40
1.0
 40
1.0
 40
1.0
 40
1.0
 10
11.3869516501
 20
60.1020529157
 30
0.0
 10
11.2946318737
 20
60.0487523861
 30
0.0
 10
11.1184250242
 20
59.9043819108
 30
0.0
 10
10.90652374
 20
59.6301911603
 30
0.0
 10
10.7517143117
 20
59.3149512403
 30
0.0
 10
10.6957019127
 20
59.0880375688
 30
0.0
 10
10.6848650746
 20
58.9772970682
 30
0.0
  0
SPLINE
  5
2BD
100
AcDbEntity
  8
0
100
AcDbSpline
 62
7
  6
CONTINUOUS
 70
0
 71
3
 72
9
 73
5
 74
0
 42
0.0000001
 43
0.0000001
 44
0.0000000001
 40
0.0
 40
0.0
 40
0.0
 40
0.0
 40
0.5122148748
 40
1.0
 40
1.0
 40
1.0
 40
1.0
 10
10.6848650746
 20
58.9772970682
 30
0.0
 10
10.0947716354
 20
52.9471947364
 30
0.0
 10
9.3856113333
 20
41.1257112468
 30
0.0
 10
9.6763878734
 20
29.2823535369
 30
0.0
 10
10.0946942634
 20
23.5276059462
 30
0.0
  0
SPLINE
  5
2BE
100
AcDbEntity
  8
0
100
AcDbSpline
 62
7
  6
CONTINUOUS
 70
0
 71
3
 72
11
 73
7
 74
0
 42
0.0000001
 43
0.0000001
 44
0.0000000001
 40
0.0
 40
0.0
 40
0.0
 40
0.0
 40
0.2847234982
 40
0.5426338724
 40
0.7777664846
 40
1.0
 40
1.0
 40
1.0
 40
1.0
 10
10.0946942634
 20
23.5276059462
 30
0.0
 10
10.0978644838
 20
23.4839924171
 30
0.0
 10
10.1104947232
 20
23.4010922633
 30
0.0
 10
10.1518100097
 20
23.2879815018
 30
0.0
 10
10.214345005
 20
23.196094414
 30
0.0
 10
10.2699791653
 20
23.1511523818
 30
0.0
 10
10.2995440193
 20
23.1340977791
 30
0.0
  0
SPLINE
  5
2BF
100
AcDbEntity
  8
0
100
AcDbSpline
 62
7
  6
CONTINUOUS
 70
0
 71
3
 72
9
 73
5
 74
0
 42
0.0000001
 43
0.0000001
 44
0.0000000001
 40
0.0
 40
0.0
 40
0.0
 40
0.0
 40
0.2593592447
 40
1.0
 40
1.0
 40
1.0
 40
1.0
 10
56.4139772652
 20
91.1007282811
 30
0.0
 10
56.4519766665
 20
91.1303397939
 30
0.0
 10
56.5960627837
 20
91.2475548316
 30
0.0
 10
56.73001402
 20
91.3775087012
 30
0.0
 10
56.820764383
 20
91.4809008292
 30
0.0
  0
SPLINE
  5
2C0
100
AcDbEntity
  8
0
100
AcDbSpline
 62
7
  6
CONTINUOUS
 70
0
 71
3
 72
11
 73
7
 74
0
 42
0.0000001
 43
0.0000001
 44
0.0000000001
 40
0.0
 40
0.0
 40
0.0
 40
0.0
 40
0.2693777609
 40
0.5228286104
 40
0.7645599046
 40
1.0
 40
1.0
 40
1.0
 40
1.0
 10
56.820764383
 20
91.4809008292
 30
0.0
 10
56.8993420911
 20
91.5704246194
 30
0.0
 10
57.0401067832
 20
91.7551587857
 30
0.0
 10
57.1989055909
 20
92.0555281598
 30
0.0
 10
57.2958345515
 20
92.3657308587
 30
0.0
 10
57.3175766723
 20
92.577334929
 30
0.0
 10
57.317576671
 20
92.6814453131
 30
0.0
  0
SPLINE
  5
2C1
100
AcDbEntity
  8
0
100
AcDbSpline
 62
7
  6
CONTINUOUS
 70
0
 71
3
 72
20
 73
16
 74
0
 42
0.0000001
 43
0.0000001
 44
0.0000000001
 40
0.0
 40
0.0
 40
0.0
 40
0.0
 40
0.0454195823
 40
0.0919591196
 40
0.1409153024
 40
0.1932361764
 40
0.2494435182
 40
0.3096734466
 40
0.3737275151
 40
0.4411307555
 40
0.5829699143
 40
0.7284661049
 40
0.8697990552
 40
0.936726592
 40
1.0
 40
1.0
 40
1.0
 40
1.0
 10
31.5142786648
 20
76.8399044535
 30
0.0
 10
31.6095956866
 20
76.8949162534
 30
0.0
 10
31.81669001
 20
76.9836435781
 30
0.0
 10
32.156059096
 20
77.0414422534
 30
0.0
 10
32.516346784
 20
77.0241714435
 30
0.0
 10
32.8889353529
 20
76.9328349216
 30
0.0
 10
33.2659598558
 20
76.7703776311
 30
0.0
 10
33.6396463245
 20
76.5406460886
 30
0.0
 10
34.0022981436
 20
76.2486629645
 30
0.0
 10
34.4689830515
 20
75.7772719061
 30
0.0
 10
34.9756965241
 20
75.0756786303
 30
0.0
 10
35.4264592616
 20
74.1345801292
 30
0.0
 10
35.6575752602
 20
73.3033741054
 30
0.0
 10
35.7375063348
 20
72.6493584685
 30
0.0
 10
35.7417465747
 20
72.3330426483
 30
0.0
 10
35.7340592643
 20
72.1799223341
 30
0.0
  0
SPLINE
  5
2C2
100
AcDbEntity
  8
0
100
AcDbSpline
 62
7
  6
CONTINUOUS
 70
0
 71
3
 72
11
 73
7
 74
0
 42
0.0000001
 43
0.0000001
 44
0.0000000001
 40
0.0
 40
0.0
 40
0.0
 40
0.0
 40
0.2664694284
 40
0.5246786982
 40
0.7702308162
 40
1.0
 40
1.0
 40
1.0
 40
1.0
 10
53.5044143061
 20
90.3904111115
 30
0.0
 10
53.8250737942
 20
90.4148998301
 30
0.0
 10
54.454625709
 20
90.4929458933
 30
0.0
 10
55.3628793764
 20
90.6983068275
 30
0.0
 10
56.2020441085
 20
90.9857691323
 30
0.0
 10
56.7201677285
 20
91.2365127815
 30
0.0
 10
56.9603253675
 20
91.375149358
 30
0.0
  0
SPLINE
  5
2C3
100
AcDbEntity
  8
0
100
AcDbSpline
 62
7
  6
CONTINUOUS
 70
0
 71
3
 72
13
 73
9
 74
0
 42
0.0000001
 43
0.0000001
 44
0.0000000001
 40
0.0
 40
0.0
 40
0.0
 40
0.0
 40
0.2980042046
 40
0.558537115
 40
0.6764403788
 40
0.7878475667
 40
0.8948605691
 40
1.0
 40
1.0
 40
1.0
 40
1.0
 10
35.828868248
 20
19.1620028862
 30
0.0
 10
35.8405327026
 20
18.9880484175
 30
0.0
 10
35.8378512255
 20
18.6594442928
 30
0.0
 10
35.7522966347
 20
18.2686003736
 30
0.0
 10
35.6325123033
 20
18.0071236046
 30
0.0
 10
35.5227206652
 20
17.8427096103
 30
0.0
 10
35.3910550603
 20
17.7053154172
 30
0.0
 10
35.28919152
 20
17.6328662716
 30
0.0
 10
35.2359158123
 20
17.6021204471
 30
0.0
  0
SPLINE
  5
2C4
100
AcDbEntity
  8
0
100
AcDbSpline
 62
7
  6
CONTINUOUS
 70
0
 71
3
 72
12
 73
8
 74
0
 42
0.0000001
 43
0.0000001
 44
0.0000000001
 40
0.0
 40
0.0
 40
0.0
 40
0.0
 40
0.2875018785
 40
0.5468654452
 40
0.7810944401
 40
0.8917639942
 40
1.0
 40
1.0
 40
1.0
 40
1.0
 10
35.7340592643
 20
72.1799223341
 30
0.0
 10
35.7245934895
 20
71.9913775334
 30
0.0
 10
35.6786139908
 20
71.632981489
 30
0.0
 10
35.5135916668
 20
71.1432946441
 30
0.0
 10
35.2948367591
 20
70.8054609127
 30
0.0
 10
35.0797149436
 20
70.5983725103
 30
0.0
 10
34.9609694964
 20
70.5160247641
 30
0.0
 10
34.8994141546
 20
70.4804998007
 30
0.0
  0
SPLINE
  5
2C5
100
AcDbEntity
  8
0
100
AcDbSpline
 62
7
  6
CONTINUOUS
 70
0
 71
3
 72
11
 73
7
 74
0
 42
0.0000001
 43
0.0000001
 44
0.0000000001
 40
0.0
 40
0.0
 40
0.0
 40
0.0
 40
0.2252559218
 40
0.4618182756
 40
0.718681921
 40
1.0
 40
1.0
 40
1.0
 40
1.0
 10
40.8686872912
 20
10.6758049044
 30
0.0
 10
40.8413837392
 20
10.6915500371
 30
0.0
 10
40.7898405334
 20
10.7321679221
 30
0.0
 10
40.7299405249
 20
10.8142395995
 30
0.0
 10
40.6879383506
 20
10.9150589938
 30
0.0
 10
40.6727586472
 20
10.9892708766
 30
0.0
 10
40.6678717
 20
11.0283287747
 30
0.0
  0
SPLINE
  5
2C6
100
AcDbEntity
  8
0
100
AcDbSpline
 62
7
  6
CONTINUOUS
 70
0
 71
3
 72
11
 73
7
 74
0
 42
0.0000001
 43
0.0000001
 44
0.0000000001
 40
0.0
 40
0.0
 40
0.0
 40
0.0
 40
0.2488793467
 40
0.5114900674
 40
0.7679836835
 40
1.0
 40
1.0
 40
1.0
 40
1.0
 10
37.9743283784
 20
62.0198398732
 30
0.0
 10
37.9847756471
 20
62.0831736855
 30
0.0
 10
38.0227460047
 20
62.2108268106
 30
0.0
 10
38.1159333932
 20
62.3869088536
 30
0.0
 10
38.2381741504
 20
62.5386787816
 30
0.0
 10
38.3376667187
 20
62.6185887264
 30
0.0
 10
38.3894901632
 20
62.6485088274
 30
0.0
  0
SPLINE
  5
2C7
100
AcDbEntity
  8
0
100
AcDbSpline
 62
7
  6
CONTINUOUS
 70
0
 71
3
 72
10
 73
6
 74
0
 42
0.0000001
 43
0.0000001
 44
0.0000000001
 40
0.0
 40
0.0
 40
0.0
 40
0.0
 40
0.5207277888
 40
0.7671407892
 40
1.0
 40
1.0
 40
1.0
 40
1.0
 10
30.5360505096
 20
72.9377543562
 30
0.0
 10
30.3545287581
 20
73.3596095471
 30
0.0
 10
30.1449438045
 20
74.0098478943
 30
0.0
 10
30.0182099367
 20
74.8840204129
 30
0.0
 10
30.0088794361
 20
75.3081536565
 30
0.0
 10
30.0194820044
 20
75.5132480131
 30
0.0
  0
SPLINE
  5
2C8
100
AcDbEntity
  8
0
100
AcDbSpline
 62
7
  6
CONTINUOUS
 70
0
 71
3
 72
19
 73
15
 74
0
 42
0.0000001
 43
0.0000001
 44
0.0000000001
 40
0.0
 40
0.0
 40
0.0
 40
0.0
 40
0.1416650169
 40
0.2703213557
 40
0.3304073481
 40
0.3882104163
 40
0.4443713383
 40
0.4996578792
 40
0.5549229394
 40
0.6110457864
 40
0.6688211273
 40
0.728921058
 40
0.8577407609
 40
1.0
 40
1.0
 40
1.0
 40
1.0
 10
30.0194820044
 20
75.5132480131
 30
0.0
 10
30.0315234186
 20
75.7610912155
 30
0.0
 10
30.0967541208
 20
76.2334882641
 30
0.0
 10
30.2989177173
 20
76.7822653118
 30
0.0
 10
30.5274298828
 20
77.1502448749
 30
0.0
 10
30.7246398522
 20
77.3842362876
 30
0.0
 10
30.9492650382
 20
77.5796037943
 30
0.0
 10
31.1988269446
 20
77.7337548152
 30
0.0
 10
31.470416946
 20
77.8444783832
 30
0.0
 10
31.7606951333
 20
77.9100098826
 30
0.0
 10
32.0659920236
 20
77.9300431377
 30
0.0
 10
32.4980061692
 20
77.8949073375
 30
0.0
 10
33.0606457663
 20
77.7294827938
 30
0.0
 10
33.4784959974
 20
77.4966113671
 30
0.0
 10
33.6846760023
 20
77.3566875813
 30
0.0
  0
SPLINE
  5
2C9
100
AcDbEntity
  8
0
100
AcDbSpline
 62
7
  6
CONTINUOUS
 70
0
 71
3
 72
14
 73
10
 74
0
 42
0.0000001
 43
0.0000001
 44
0.0000000001
 40
0.0
 40
0.0
 40
0.0
 40
0.0
 40
0.1160933045
 40
0.2396775085
 40
0.5000489922
 40
0.6319009384
 40
0.7608666748
 40
0.8843612119
 40
1.0
 40
1.0
 40
1.0
 40
1.0
 10
33.6846760023
 20
77.3566875813
 30
0.0
 10
33.888041065
 20
77.2186741522
 30
0.0
 10
34.2837772259
 20
76.8971445691
 30
0.0
 10
35.004684227
 20
76.1186944245
 30
0.0
 10
35.5884851024
 20
75.1811679793
 30
0.0
 10
36.0099665333
 20
74.1599301865
 30
0.0
 10
36.2343243336
 20
73.3757573249
 30
0.0
 10
36.3585748898
 20
72.6046861856
 30
0.0
 10
36.3737604394
 20
72.0965493666
 30
0.0
 10
36.3609690355
 20
71.8520716007
 30
0.0
  0
SPLINE
  5
2CA
100
AcDbEntity
  8
0
100
AcDbSpline
 62
7
  6
CONTINUOUS
 70
0
 71
3
 72
21
 73
17
 74
0
 42
0.0000001
 43
0.0000001
 44
0.0000000001
 40
0.0
 40
0.0
 40
0.0
 40
0.0
 40
0.067907198
 40
0.1313306372
 40
0.1902512131
 40
0.2451506589
 40
0.2969675562
 40
0.3470358737
 40
0.3969909003
 40
0.4485163704
 40
0.503014325
 40
0.5614616023
 40
0.6916899011
 40
0.7637049209
 40
0.8396077954
 40
1.0
 40
1.0
 40
1.0
 40
1.0
 10
36.3609690355
 20
71.8520716007
 30
0.0
 10
36.3528862702
 20
71.6874114372
 30
0.0
 10
36.3195125389
 20
71.3694268107
 30
0.0
 10
36.2132213086
 20
70.9185616757
 30
0.0
 10
36.0539810652
 20
70.5168678754
 30
0.0
 10
35.8426449091
 20
70.1720638834
 30
0.0
 10
35.5818774016
 20
69.8909807313
 30
0.0
 10
35.2756681111
 20
69.6801123701
 30
0.0
 10
34.9299401789
 20
69.5450845158
 30
0.0
 10
34.5525437035
 20
69.4888270561
 30
0.0
 10
34.1514461936
 20
69.5105748777
 30
0.0
 10
33.574288062
 20
69.6457529429
 30
0.0
 10
32.9999199666
 20
69.9323357737
 30
0.0
 10
32.45334845
 20
70.32972976
 30
0.0
 10
31.8947582785
 20
70.8296214667
 30
0.0
 10
31.522443954
 20
71.2710867824
 30
0.0
 10
31.2962108828
 20
71.5880076566
 30
0.0
  0
SPLINE
  5
2CB
100
AcDbEntity
  8
0
100
AcDbSpline
 62
7
  6
CONTINUOUS
 70
0
 71
3
 72
12
 73
8
 74
0
 42
0.0000001
 43
0.0000001
 44
0.0000000001
 40
0.0
 40
0.0
 40
0.0
 40
0.0
 40
0.2833135093
 40
0.5413379633
 40
0.777292382
 40
0.8897155388
 40
1.0
 40
1.0
 40
1.0
 40
1.0
 10
30.6428692433
 20
75.1192557667
 30
0.0
 10
30.6523740637
 20
75.3085783012
 30
0.0
 10
30.7005971203
 20
75.6700828411
 30
0.0
 10
30.8744862983
 20
76.1646279023
 30
0.0
 10
31.1033210161
 20
76.5065451144
 30
0.0
 10
31.3270412479
 20
76.7180807593
 30
0.0
 10
31.4503692125
 20
76.8030193941
 30
0.0
 10
31.5142786648
 20
76.8399044535
 30
0.0
  0
SPLINE
  5
2CC
100
AcDbEntity
  8
0
100
AcDbSpline
 62
7
  6
CONTINUOUS
 70
0
 71
3
 72
20
 73
16
 74
0
 42
0.0000001
 43
0.0000001
 44
0.0000000001
 40
0.0
 40
0.0
 40
0.0
 40
0.0
 40
0.1438697586
 40
0.2086838463
 40
0.2689358632
 40
0.3251800743
 40
0.3782984879
 40
0.4294639297
 40
0.48008538
 40
0.5316659031
 40
0.5856154646
 40
0.7045046062
 40
0.7710317353
 40
0.8425296153
 40
1.0
 40
1.0
 40
1.0
 40
1.0
 10
36.4218408263
 20
18.7829204502
 30
0.0
 10
36.4374433818
 20
18.5577383528
 30
0.0
 10
36.4338717438
 20
18.2274977606
 30
0.0
 10
36.3585698991
 20
17.8114985221
 30
0.0
 10
36.2725470709
 20
17.5393857973
 30
0.0
 10
36.1550493971
 20
17.2993619851
 30
0.0
 10
36.0067363144
 20
17.0941180746
 30
0.0
 10
35.8287561152
 20
16.9263414715
 30
0.0
 10
35.6229345805
 20
16.7985842567
 30
0.0
 10
35.3918191935
 20
16.7126901479
 30
0.0
 10
35.0429723142
 20
16.6534068877
 30
0.0
 10
34.662553426
 20
16.6870961347
 30
0.0
 10
34.2734259001
 20
16.7933346817
 30
0.0
 10
33.8408991025
 20
16.962506751
 30
0.0
 10
33.5265562104
 20
17.1409200931
 30
0.0
 10
33.3205821498
 20
17.2773516025
 30
0.0
  0
SPLINE
  5
2CD
100
AcDbEntity
  8
0
100
AcDbSpline
 62
7
  6
CONTINUOUS
 70
0
 71
3
 72
12
 73
8
 74
0
 42
0.0000001
 43
0.0000001
 44
0.0000000001
 40
0.0
 40
0.0
 40
0.0
 40
0.0
 40
0.2660639567
 40
0.5284414505
 40
0.7760876628
 40
0.8915976377
 40
1.0
 40
1.0
 40
1.0
 40
1.0
 10
34.8827497831
 20
22.5069882082
 30
0.0
 10
35.1032011894
 20
22.2200005873
 30
0.0
 10
35.5027057674
 20
21.6195108001
 30
0.0
 10
35.9716417596
 20
20.6708658687
 30
0.0
 10
36.2442360747
 20
19.8613310475
 30
0.0
 10
36.3758308374
 20
19.2329911982
 30
0.0
 10
36.4121095795
 20
18.9300416501
 30
0.0
 10
36.4218408263
 20
18.7829204502
 30
0.0
  0
SPLINE
  5
2CE
100
AcDbEntity
  8
0
100
AcDbSpline
 62
7
  6
CONTINUOUS
 70
0
 71
3
 72
15
 73
11
 74
0
 42
0.0000001
 43
0.0000001
 44
0.0000000001
 40
0.0
 40
0.0
 40
0.0
 40
0.0
 40
0.1141448016
 40
0.2373325024
 40
0.3669747613
 40
0.5000005267
 40
0.6330262188
 40
0.7626682638
 40
0.8858556272
 40
1.0
 40
1.0
 40
1.0
 40
1.0
 10
55.9702755375
 20
94.5593685795
 30
0.0
 10
55.747621782
 20
94.6879148337
 30
0.0
 10
55.2606864168
 20
94.9146313491
 30
0.0
 10
54.4677921812
 20
95.1556729185
 30
0.0
 10
53.6093094566
 20
95.303957544
 30
0.0
 10
52.71757894
 20
95.3540457243
 30
0.0
 10
51.8258491435
 20
95.3039532697
 30
0.0
 10
50.9673685463
 20
95.1556645245
 30
0.0
 10
50.1744777611
 20
94.914619147
 30
0.0
 10
49.687545401
 20
94.6879001884
 30
0.0
 10
49.4648934251
 20
94.5593527841
 30
0.0
  0
SPLINE
  5
2CF
100
AcDbEntity
  8
0
100
AcDbSpline
 62
7
  6
CONTINUOUS
 70
0
 71
3
 72
10
 73
6
 74
0
 42
0.0000001
 43
0.0000001
 44
0.0000000001
 40
0.0
 40
0.0
 40
0.0
 40
0.0
 40
0.2769972106
 40
0.5359485386
 40
1.0
 40
1.0
 40
1.0
 40
1.0
 10
49.4648934251
 20
94.5593527841
 30
0.0
 10
49.3341385306
 20
94.483861865
 30
0.0
 10
49.0883639519
 20
94.3241994434
 30
0.0
 10
48.6702181388
 20
93.9740534673
 30
0.0
 10
48.4202707899
 20
93.6575821435
 30
0.0
 10
48.3052776991
 20
93.4322929862
 30
0.0
  0
SPLINE
  5
2D0
100
AcDbEntity
  8
0
100
AcDbSpline
 62
7
  6
CONTINUOUS
 70
0
 71
3
 72
9
 73
5
 74
0
 42
0.0000001
 43
0.0000001
 44
0.0000000001
 40
0.0
 40
0.0
 40
0.0
 40
0.0
 40
0.5090007916
 40
1.0
 40
1.0
 40
1.0
 40
1.0
 10
48.3052776991
 20
93.4322929862
 30
0.0
 10
48.2558119883
 20
93.3353820482
 30
0.0
 10
48.1746518232
 20
93.1361798963
 30
0.0
 10
48.1333636239
 20
92.9247874362
 30
0.0
 10
48.1239235987
 20
92.8202556185
 30
0.0
  0
SPLINE
  5
2D1
100
AcDbEntity
  8
0
100
AcDbSpline
 62
7
  6
CONTINUOUS
 70
0
 71
3
 72
9
 73
5
 74
0
 42
0.0000001
 43
0.0000001
 44
0.0000000001
 40
0.0
 40
0.0
 40
0.0
 40
0.0
 40
0.4922290737
 40
1.0
 40
1.0
 40
1.0
 40
1.0
 10
39.8130058286
 20
63.6346573902
 30
0.0
 10
39.8130058286
 20
66.1364171315
 30
0.0
 10
39.9625600729
 20
71.2197816388
 30
0.0
 10
40.3875198318
 20
76.2870890825
 30
0.0
 10
40.6678810284
 20
78.8525666762
 30
0.0
  0
SPLINE
  5
2D2
100
AcDbEntity
  8
0
100
AcDbSpline
 62
7
  6
CONTINUOUS
 70
0
 71
3
 72
20
 73
16
 74
0
 42
0.0000001
 43
0.0000001
 44
0.0000000001
 40
0.0
 40
0.0
 40
0.0
 40
0.0
 40
0.1577224317
 40
0.2958918754
 40
0.3577869973
 40
0.4153354108
 40
0.4693373053
 40
0.5209055156
 40
0.5714346613
 40
0.6224382372
 40
0.6753575759
 40
0.7313989788
 40
0.7914749907
 40
0.8561669045
 40
1.0
 40
1.0
 40
1.0
 40
1.0
 10
33.7846866488
 20
16.9697956021
 30
0.0
 10
34.0306369342
 20
16.806897872
 30
0.0
 10
34.5136295815
 20
16.5318350683
 30
0.0
 10
35.15035066
 20
16.3082821053
 30
0.0
 10
35.6281660897
 20
16.2362992009
 30
0.0
 10
35.9538563784
 20
16.2343812266
 30
0.0
 10
36.2566660232
 20
16.2828395374
 30
0.0
 10
36.533178845
 20
16.3821233581
 30
0.0
 10
36.7798776056
 20
16.5313250094
 30
0.0
 10
36.9934916621
 20
16.7286008402
 30
0.0
 10
37.1716942063
 20
16.9710018572
 30
0.0
 10
37.31308452
 20
17.2553198208
 30
0.0
 10
37.4168243395
 20
17.5783800802
 30
0.0
 10
37.507956758
 20
18.073453372
 30
0.0
 10
37.5126340931
 20
18.4669010289
 30
0.0
 10
37.4942779943
 20
18.7352992246
 30
0.0
  0
SPLINE
  5
2D3
100
AcDbEntity
  8
0
100
AcDbSpline
 62
7
  6
CONTINUOUS
 70
0
 71
3
 72
11
 73
7
 74
0
 42
0.0000001
 43
0.0000001
 44
0.0000000001
 40
0.0
 40
0.0
 40
0.0
 40
0.0
 40
0.2450566759
 40
0.5077891605
 40
0.7663468988
 40
1.0
 40
1.0
 40
1.0
 40
1.0
 10
40.6678810284
 20
78.8525666762
 30
0.0
 10
40.6798980961
 20
78.9625199877
 30
0.0
 10
40.7372327368
 20
79.1871491963
 30
0.0
 10
40.8922438613
 20
79.498819087
 30
0.0
 10
41.1028404635
 20
79.7694795072
 30
0.0
 10
41.2773346539
 20
79.9119765271
 30
0.0
 10
41.36866574
 20
79.9647083778
 30
0.0
  0
SPLINE
  5
2D4
100
AcDbEntity
  8
0
100
AcDbSpline
 62
7
  6
CONTINUOUS
 70
0
 71
3
 72
15
 73
11
 74
0
 42
0.0000001
 43
0.0000001
 44
0.0000000001
 40
0.0
 40
0.0
 40
0.0
 40
0.0
 40
0.1204960826
 40
0.2489052953
 40
0.3821873453
 40
0.5167702295
 40
0.6490069786
 40
0.7754330376
 40
0.8931090716
 40
1.0
 40
1.0
 40
1.0
 40
1.0
 10
49.8237021616
 20
91.6267358188
 30
0.0
 10
50.0752993275
 20
91.7442849865
 30
0.0
 10
50.6153662884
 20
91.9448127246
 30
0.0
 10
51.476891106
 20
92.1382982118
 30
0.0
 10
52.3878085127
 20
92.2293166161
 30
0.0
 10
53.3118413784
 20
92.2139767562
 30
0.0
 10
54.2122065657
 20
92.0930294388
 30
0.0
 10
55.0533126618
 20
91.871083275
 30
0.0
 10
55.8017491293
 20
91.5570161308
 30
0.0
 10
56.242587168
 20
91.2791013391
 30
0.0
 10
56.4356641051
 20
91.1261030776
 30
0.0
  0
SPLINE
  5
2D5
100
AcDbEntity
  8
0
100
AcDbSpline
 62
7
  6
CONTINUOUS
 70
0
 71
3
 72
11
 73
7
 74
0
 42
0.0000001
 43
0.0000001
 44
0.0000000001
 40
0.0
 40
0.0
 40
0.0
 40
0.0
 40
0.2222336252
 40
0.4573662407
 40
0.7152764588
 40
1.0
 40
1.0
 40
1.0
 40
1.0
 10
22.939130361
 20
15.8367942997
 30
0.0
 10
22.9095654978
 20
15.853848921
 30
0.0
 10
22.8539313004
 20
15.8987909372
 30
0.0
 10
22.7913963471
 20
15.9906780499
 30
0.0
 10
22.7500810172
 20
16.1037887754
 30
0.0
 10
22.7374508213
 20
16.186688923
 30
0.0
 10
22.7342806004
 20
16.2303024591
 30
0.0
  0
SPLINE
  5
2D6
100
AcDbEntity
  8
0
100
AcDbSpline
 62
7
  6
CONTINUOUS
 70
0
 71
3
 72
13
 73
9
 74
0
 42
0.0000001
 43
0.0000001
 44
0.0000000001
 40
0.0
 40
0.0
 40
0.0
 40
0.0
 40
0.1080949946
 40
0.2182346201
 40
0.3322594344
 40
0.4516888388
 40
0.7106247355
 40
1.0
 40
1.0
 40
1.0
 40
1.0
 10
57.317576671
 20
92.6814453131
 30
0.0
 10
57.3175766698
 20
92.7685290936
 30
0.0
 10
57.302498749
 20
92.9447045848
 30
0.0
 10
57.2349118855
 20
93.2048856669
 30
0.0
 10
57.1235323873
 20
93.4594901367
 30
0.0
 10
56.9127363796
 20
93.7969591777
 30
0.0
 10
56.5383002208
 20
94.1908507425
 30
0.0
 10
56.1721708425
 20
94.4428069471
 30
0.0
 10
55.9702755375
 20
94.5593685795
 30
0.0
  0
SPLINE
  5
2D7
100
AcDbEntity
  8
0
100
AcDbSpline
 62
7
  6
CONTINUOUS
 70
0
 71
3
 72
9
 73
5
 74
0
 42
0.0000001
 43
0.0000001
 44
0.0000000001
 40
0.0
 40
0.0
 40
0.0
 40
0.0
 40
0.4911196423
 40
1.0
 40
1.0
 40
1.0
 40
1.0
 10
40.6678717
 20
11.0283287747
 30
0.0
 10
40.3781058198
 20
13.3452668938
 30
0.0
 10
39.9482839526
 20
18.0840029459
 30
0.0
 10
39.8130058286
 20
22.8396144658
 30
0.0
 10
39.8130058286
 20
25.2590437851
 30
0.0
  0
SPLINE
  5
2D8
100
AcDbEntity
  8
0
100
AcDbSpline
 62
7
  6
CONTINUOUS
 70
0
 71
3
 72
21
 73
17
 74
0
 42
0.0000001
 43
0.0000001
 44
0.0000000001
 40
0.0
 40
0.0
 40
0.0
 40
0.0
 40
0.1446353434
 40
0.2112655822
 40
0.2742453404
 40
0.3339436163
 40
0.3909296947
 40
0.4459721973
 40
0.4999948658
 40
0.5540185507
 40
0.6090637827
 40
0.6660515414
 40
0.7257403201
 40
0.7887145313
 40
0.8553746855
 40
1.0
 40
1.0
 40
1.0
 40
1.0
 10
56.9603253675
 20
91.375149358
 30
0.0
 10
57.2236919389
 20
91.5271838298
 30
0.0
 10
57.5924977552
 20
91.7811435126
 30
0.0
 10
58.009754768
 20
92.180530688
 30
0.0
 10
58.2637112692
 20
92.4883803426
 30
0.0
 10
58.4645140905
 20
92.8097576254
 30
0.0
 10
58.6097689771
 20
93.1418371394
 30
0.0
 10
58.6979024145
 20
93.4812765516
 30
0.0
 10
58.7273042758
 20
93.8245814211
 30
0.0
 10
58.6978945935
 20
94.1678910274
 30
0.0
 10
58.6097441453
 20
94.5073402587
 30
0.0
 10
58.4644500035
 20
94.8393879677
 30
0.0
 10
58.2637176906
 20
95.1607735779
 30
0.0
 10
58.0097281598
 20
95.4686424561
 30
0.0
 10
57.5923882914
 20
95.86798613
 30
0.0
 10
57.2235620688
 20
96.1219774112
 30
0.0
 10
56.9602210541
 20
96.2740139773
 30
0.0
  0
SPLINE
  5
2D9
100
AcDbEntity
  8
0
100
AcDbSpline
 62
7
  6
CONTINUOUS
 70
0
 71
3
 72
21
 73
17
 74
0
 42
0.0000001
 43
0.0000001
 44
0.0000000001
 40
0.0
 40
0.0
 40
0.0
 40
0.0
 40
0.0611269692
 40
0.1260078495
 40
0.193950751
 40
0.2642499682
 40
0.4083612556
 40
0.551170504
 40
0.6199007563
 40
0.6857399206
 40
0.7480414005
 40
0.8063366953
 40
0.8603992614
 40
0.9103115715
 40
0.9565669859
 40
1.0
 40
1.0
 40
1.0
 40
1.0
 10
56.9602210541
 20
96.2740139773
 30
0.0
 10
56.7571250574
 20
96.3912688531
 30
0.0
 10
56.3231947963
 20
96.6071213768
 30
0.0
 10
55.6249356053
 20
96.8674572071
 30
0.0
 10
54.8711724153
 20
97.069653225
 30
0.0
 10
53.8032993818
 20
97.2580873111
 30
0.0
 10
52.4283847404
 20
97.3280160534
 30
0.0
 10
51.0651698139
 20
97.1823426532
 30
0.0
 10
50.0291705342
 20
96.9337736196
 30
0.0
 10
49.3129221906
 20
96.6903195221
 30
0.0
 10
48.661280019
 20
96.3921102779
 30
0.0
 10
48.0865163605
 20
96.0443769444
 30
0.0
 10
47.5992972296
 20
95.6534938116
 30
0.0
 10
47.208985785
 20
95.2256394106
 30
0.0
 10
46.9242244175
 20
94.7682114147
 30
0.0
 10
46.8066163421
 20
94.4412053397
 30
0.0
 10
46.7694050505
 20
94.2787825695
 30
0.0
  0
SPLINE
  5
2DA
100
AcDbEntity
  8
0
100
AcDbSpline
 62
7
  6
CONTINUOUS
 70
0
 71
3
 72
10
 73
6
 74
0
 42
0.0000001
 43
0.0000001
 44
0.0000000001
 40
0.0
 40
0.0
 40
0.0
 40
0.0
 40
0.232681979
 40
0.4792670305
 40
1.0
 40
1.0
 40
1.0
 40
1.0
 10
37.4349914207
 20
71.7331558584
 30
0.0
 10
37.4471635394
 20
71.9691028945
 30
0.0
 10
37.4394484715
 20
72.457154728
 30
0.0
 10
37.3117939424
 20
73.4657218852
 30
0.0
 10
37.0965686577
 20
74.2211962988
 30
0.0
 10
36.9071871879
 20
74.7148591352
 30
0.0
  0
SPLINE
  5
2DB
100
AcDbEntity
  8
0
100
AcDbSpline
 62
7
  6
CONTINUOUS
 70
0
 71
3
 72
23
 73
19
 74
0
 42
0.0000001
 43
0.0000001
 44
0.0000000001
 40
0.0
 40
0.0
 40
0.0
 40
0.0
 40
0.156866513
 40
0.2338725018
 40
0.308355547
 40
0.3793726935
 40
0.4462179667
 40
0.5085042376
 40
0.5662626516
 40
0.6200125413
 40
0.6708032856
 40
0.7201584992
 40
0.7698595358
 40
0.821603069
 40
0.8767213638
 40
0.9058674873
 40
0.9361381583
 40
1.0
 40
1.0
 40
1.0
 40
1.0
 10
36.9071871879
 20
74.7148591352
 30
0.0
 10
36.7056371197
 20
75.2402419959
 30
0.0
 10
36.3294899264
 20
75.9978942466
 30
0.0
 10
35.6960604929
 20
76.9063666511
 30
0.0
 10
35.1719201612
 20
77.5106161496
 30
0.0
 10
34.6084638673
 20
78.0259644798
 30
0.0
 10
34.0186661848
 20
78.4394006429
 30
0.0
 10
33.4162971912
 20
78.7400975169
 30
0.0
 10
32.8156917132
 20
78.9200969022
 30
0.0
 10
32.2314758668
 20
78.9736601102
 30
0.0
 10
31.6793145447
 20
78.8972989942
 30
0.0
 10
31.1762970075
 20
78.6917603229
 30
0.0
 10
30.7390435794
 20
78.3636789432
 30
0.0
 10
30.3806895909
 20
77.924841865
 30
0.0
 10
30.1593682853
 20
77.4860894361
 30
0.0
 10
30.0263590918
 20
77.0969161553
 30
0.0
 10
29.9201646907
 20
76.6671647254
 30
0.0
 10
29.8800472351
 20
76.330093287
 30
0.0
 10
29.8690217834
 20
76.1012716453
 30
0.0
  0
SPLINE
  5
2DC
100
AcDbEntity
  8
0
100
AcDbSpline
 62
7
  6
CONTINUOUS
 70
0
 71
3
 72
10
 73
6
 74
0
 42
0.0000001
 43
0.0000001
 44
0.0000000001
 40
0.0
 40
0.0
 40
0.0
 40
0.0
 40
0.232863397
 40
0.4792721904
 40
1.0
 40
1.0
 40
1.0
 40
1.0
 10
29.8690217834
 20
76.1012716453
 30
0.0
 10
29.8565730009
 20
75.8595399707
 30
0.0
 10
29.8679488392
 20
75.3596428722
 30
0.0
 10
30.0185779413
 20
74.3295145942
 30
0.0
 10
30.2665219932
 20
73.5634765418
 30
0.0
 10
30.4808581156
 20
73.0664463522
 30
0.0
  0
SPLINE
  5
2DD
100
AcDbEntity
  8
0
100
AcDbSpline
 62
7
  6
CONTINUOUS
 70
0
 71
3
 72
10
 73
6
 74
0
 42
0.0000001
 43
0.0000001
 44
0.0000000001
 40
0.0
 40
0.0
 40
0.0
 40
0.0
 40
0.2273458774
 40
0.4722610604
 40
1.0
 40
1.0
 40
1.0
 40
1.0
 10
37.4942779943
 20
18.7352992246
 30
0.0
 10
37.4801984459
 20
18.9514759132
 30
0.0
 10
37.421342377
 20
19.3988700218
 30
0.0
 10
37.1999980484
 20
20.3267381473
 30
0.0
 10
36.9297040251
 20
21.0168356884
 30
0.0
 10
36.7110318604
 20
21.4696775977
 30
0.0
  0
SPLINE
  5
2DE
100
AcDbEntity
  8
0
100
AcDbSpline
 62
7
  6
CONTINUOUS
 70
0
 71
3
 72
19
 73
15
 74
0
 42
0.0000001
 43
0.0000001
 44
0.0000000001
 40
0.0
 40
0.0
 40
0.0
 40
0.0
 40
0.0440212123
 40
0.0893984034
 40
0.1375752785
 40
0.1895434081
 40
0.2457876368
 40
0.306356207
 40
0.3709434475
 40
0.4389655698
 40
0.5819652344
 40
0.7281537529
 40
0.8697156806
 40
1.0
 40
1.0
 40
1.0
 40
1.0
 10
34.8994141546
 20
70.4804998007
 30
0.0
 10
34.8075519243
 20
70.4274840547
 30
0.0
 10
34.606751136
 20
70.3426636407
 30
0.0
 10
34.276472857
 20
70.2908151076
 30
0.0
 10
33.9240909105
 20
70.3130820427
 30
0.0
 10
33.5574238186
 20
70.4077579788
 30
0.0
 10
33.1835991168
 20
70.5715409385
 30
0.0
 10
32.809965872
 20
70.8005510276
 30
0.0
 10
32.4441267841
 20
71.0899021757
 30
0.0
 10
31.9692918151
 20
71.5555515366
 30
0.0
 10
31.4468731273
 20
72.2462913775
 30
0.0
 10
30.9732608757
 20
73.1757672152
 30
0.0
 10
30.683279451
 20
74.1460998593
 30
0.0
 10
30.6271298268
 20
74.8057489274
 30
0.0
 10
30.6428692433
 20
75.1192557667
 30
0.0
  0
SPLINE
  5
2DF
100
AcDbEntity
  8
0
100
AcDbSpline
 62
7
  6
CONTINUOUS
 70
0
 71
3
 72
9
 73
5
 74
0
 42
0.0000001
 43
0.0000001
 44
0.0000000001
 40
0.0
 40
0.0
 40
0.0
 40
0.0
 40
0.4877851252
 40
1.0
 40
1.0
 40
1.0
 40
1.0
 10
22.7342806004
 20
16.2303024591
 30
0.0
 10
22.3159742104
 20
21.9850500498
 30
0.0
 10
22.0251976703
 20
33.8284077598
 30
0.0
 10
22.7343579724
 20
45.6498912494
 30
0.0
 10
23.3244514116
 20
51.6799935812
 30
0.0
  0
SPLINE
  5
2E0
100
AcDbEntity
  8
0
100
AcDbSpline
 62
7
  6
CONTINUOUS
 70
0
 71
3
 72
11
 73
7
 74
0
 42
0.0000001
 43
0.0000001
 44
0.0000000001
 40
0.0
 40
0.0
 40
0.0
 40
0.0
 40
0.2442532003
 40
0.5070030289
 40
0.7659939702
 40
1.0
 40
1.0
 40
1.0
 40
1.0
 10
23.3244514116
 20
51.6799935812
 30
0.0
 10
23.3352882577
 20
51.7907341641
 30
0.0
 10
23.3913007071
 20
52.0176479416
 30
0.0
 10
23.5461102231
 20
52.3328879083
 30
0.0
 10
23.7580115038
 20
52.6070785572
 30
0.0
 10
23.9342182801
 20
52.7514489391
 30
0.0
 10
24.0265379871
 20
52.8047494286
 30
0.0
  0
SPLINE
  5
2E1
100
AcDbEntity
  8
0
100
AcDbSpline
 62
7
  6
CONTINUOUS
 70
0
 71
3
 72
22
 73
18
 74
0
 42
0.0000001
 43
0.0000001
 44
0.0000000001
 40
0.0
 40
0.0
 40
0.0
 40
0.0
 40
0.1605827267
 40
0.2366053577
 40
0.3087530411
 40
0.3765183464
 40
0.4396594912
 40
0.4982601474
 40
0.5528259634
 40
0.6043199825
 40
0.6541484418
 40
0.7039975603
 40
0.7555474616
 40
0.8101828117
 40
0.8688806484
 40
0.9321545349
 40
1.0
 40
1.0
 40
1.0
 40
1.0
 10
31.3812067203
 20
71.4688440263
 30
0.0
 10
31.6513370867
 20
71.0896790739
 30
0.0
 10
32.0959855796
 20
70.5612288319
 30
0.0
 10
32.7627876574
 20
69.9624923362
 30
0.0
 10
33.2692800811
 20
69.5924643009
 30
0.0
 10
33.7818761088
 20
69.300171384
 30
0.0
 10
34.2917691558
 20
69.0909019542
 30
0.0
 10
34.7904736353
 20
68.9691180293
 30
0.0
 10
35.2696477265
 20
68.9380005217
 30
0.0
 10
35.7207716801
 20
69.0001301082
 30
0.0
 10
36.1344993328
 20
69.1559996226
 30
0.0
 10
36.501545183
 20
69.402744376
 30
0.0
 10
36.8141985816
 20
69.7343847086
 30
0.0
 10
37.0676142672
 20
70.1430043419
 30
0.0
 10
37.2585507263
 20
70.6204588098
 30
0.0
 10
37.3858468993
 20
71.1575320239
 30
0.0
 10
37.4255315108
 20
71.5366908863
 30
0.0
 10
37.4349914207
 20
71.7331558584
 30
0.0
  0
SPLINE
  5
2E2
100
AcDbEntity
  8
0
100
AcDbSpline
 62
7
  6
CONTINUOUS
 70
0
 71
3
 72
17
 73
13
 74
0
 42
0.0000001
 43
0.0000001
 44
0.0000000001
 40
0.0
 40
0.0
 40
0.0
 40
0.0
 40
0.040259446
 40
0.0822169242
 40
0.1269633786
 40
0.1752660032
 40
0.2838983714
 40
0.4088764324
 40
0.5476923837
 40
0.6960307692
 40
0.8486411591
 40
1.0
 40
1.0
 40
1.0
 40
1.0
 10
35.2359158123
 20
17.6021204471
 30
0.0
 10
35.1743070063
 20
17.5665655268
 30
0.0
 10
35.0401319409
 20
17.507593633
 30
0.0
 10
34.8192707473
 20
17.4611728565
 30
0.0
 10
34.5796079183
 20
17.455639718
 30
0.0
 10
34.2253325674
 20
17.5039894781
 30
0.0
 10
33.7514839886
 20
17.6732990483
 30
0.0
 10
33.1836134462
 20
18.0111452276
 30
0.0
 10
32.6193552424
 20
18.4752517833
 30
0.0
 10
32.0865312343
 20
19.0434552419
 30
0.0
 10
31.6117864201
 20
19.6884783971
 30
0.0
 10
31.3458622562
 20
20.1569196381
 30
0.0
 10
31.2290288467
 20
20.3974764613
 30
0.0
  0
ELLIPSE
  5
2E3
100
AcDbEntity
  8
0
100
AcDbEllipse
 62
7
  6
CONTINUOUS
 10
72.8777953179
 20
29.7335327708
 30
0.0
 11
0.4999833101
 21
0.8660356089
 31
0.0
 40
0.5773888861
 41
-2.3561868511
 42
-0.9599871123
  0
ELLIPSE
  5
2E4
100
AcDbEntity
  8
0
100
AcDbEllipse
 62
7
  6
CONTINUOUS
 10
70.85481145
 20
52.1133749086
 30
0.0
 11
0.500029595
 21
0.8660962537
 31
0.0
 40
0.5773080272
 41
-0.0000128016
 42
0.7853472855
  0
ELLIPSE
  5
2E5
100
AcDbEntity
  8
0
100
AcDbEllipse
 62
7
  6
CONTINUOUS
 10
73.9660942407
 20
97.9681966524
 30
0.0
 11
0.500029595
 21
0.8660962537
 31
0.0
 40
0.5773080272
 41
5.4978124184
 42
7.0685325927
  0
ELLIPSE
  5
2E6
100
AcDbEntity
  8
0
100
AcDbEllipse
 62
7
  6
CONTINUOUS
 10
73.9660942407
 20
50.3171155887
 30
0.0
 11
0.500029595
 21
0.8660962537
 31
0.0
 40
0.5773080272
 41
5.4978124184
 42
7.0685325927
  0
ENDSEC
  0
SECTION
  2
OBJECTS
  0
DICTIONARY
  5
C
100
AcDbDictionary
280
0
281
1
  3
ACAD_GROUP
350
D
  3
ACAD_MLINESTYLE
350
17
  3
ACAD_LAYOUT
350
1A
  3
ACAD_PLOTSETTINGS
350
19
  3
ACAD_PLOTSTYLENAME
350
E
  0
DICTIONARY
  5
D
102
{ACAD_REACTORS
330
C
102
}
100
AcDbDictionary
280
0
281
1
  0
ACDBDICTIONARYWDFLT
  5
E
102
{ACAD_REACTORS
330
C
102
}
100
AcDbDictionary
281
1
  3
Normal
350
F
100
AcDbDictionaryWithDefault
340
F
  0
DICTIONARY
  5
17
102
{ACAD_REACTORS
330
C
102
}
100
AcDbDictionary
280
0
281
1
  3
Standard
350
18
  0
DICTIONARY
  5
19
102
{ACAD_REACTORS
330
C
102
}
100
AcDbDictionary
281
1
  0
DICTIONARY
  5
1A
102
{ACAD_REACTORS
330
C
102
}
100
AcDbDictionary
281
1
  3
Model
350
2E7
  3
Layout1
350
2E8
  0
ACDBPLACEHOLDER
  5
F
102
{ACAD_REACTORS
330
E
102
}
  0
MLINESTYLE
  5
18
102
{ACAD_REACTORS
330
17
102
}
100
AcDbMlineStyle
  2
STANDARD
 70
0
  3

 62
256
 51
90.0
 52
90.0
 71
2
 49
0.5
 62
256
  6
BYLAYER
 49
-0.5
 62
256
  6
BYLAYER
  0
LAYOUT
  5
2E7
102
{ACAD_REACTORS
330
1A
102
}
100
AcDbPlotSettings
  1

  2
none_device
  4

  6

 40
0.0
 41
0.0
 42
0.0
 43
0.0
 44
210.0
 45
297.0
 46
0.0
 47
0.0
 48
0.0
 49
0.0
140
0.0
141
0.0
142
1.0
143
1.0
 70
1024
 72
1
 73
0
 74
0
  7

 75
0
147
1.0
148
0.0
149
0.0
100
AcDbLayout
  1
Model
 70
0
 71
0
 10
0.0
 20
0.0
 11
210.0
 21
297.0
 12
0.0
 22
0.0
 32
0.0
 14
0.0
 24
0.0
 34
0.0
 15
0.0
 25
0.0
 35
0.0
146
0.0
 13
0.0
 23
0.0
 33
0.0
 16
1.0
 26
0.0
 36
0.0
 17
0.0
 27
1.0
 37
0.0
 76
0
330
210
345
0
346
0
  0
LAYOUT
  5
2E8
102
{ACAD_REACTORS
330
1A
102
}
100
AcDbPlotSettings
  1

  2
none_device
  4

  6

 40
0.0
 41
0.0
 42
0.0
 43
0.0
 44
210.0
 45
297.0
 46
0.0
 47
0.0
 48
0.0
 49
0.0
140
0.0
141
0.0
142
1.0
143
1.0
 70
0
 72
1
 73
0
 74
0
  7

 75
0
147
1.0
148
0.0
149
0.0
100
AcDbLayout
  1
Layout1
 70
0
 71
1
 10
0.0
 20
0.0
 11
210.0
 21
297.0
 12
0.0
 22
0.0
 32
0.0
 14
0.0
 24
0.0
 34
0.0
 15
0.0
 25
0.0
 35
0.0
146
0.0
 13
0.0
 23
0.0
 33
0.0
 16
1.0
 26
0.0
 36
0.0
 17
0.0
 27
1.0
 37
0.0
 76
0
330
211
345
0
346
0
  0
ENDSEC
  0
EOF
