999
DXF file: C:\Users\sesa63760\Documents\7-Dev\_Creo\CAD\MCADFD0001126_3D-CAD\drw0001_1.dxf
999
Pro/ENGINEER 2019471 by Parametric Technology Corporation
  0
SECTION
  2
HEADER
  9
$ACADVER
  1
AC1024
  9
$DWGCODEPAGE
  3
ANSI_1252
  9
$EXTMAX
 10
99.1586890496
 20
140.2387173701
 30
0.0
  9
$EXTMIN
 10
0.0
 20
0.0
 30
0.0
  9
$LIMMIN
 10
0.0
 20
0.0
  9
$LIMMAX
 10
99.1586890496
 20
140.2387173701
  9
$VIEWCTR
 10
49.5793445248
 20
70.1193586851
  9
$VIEWSIZE
 40
140.2387173701
  9
$CLAYER
  8
0
  9
$LTSCALE
 40
9.1414867619
  9
$CELTYPE
  6
BYLAYER
  9
$DIMSCALE
 40
1.0
  9
$DIMASZ
 40
1.1804605839
  9
$DIMEXO
 40
1.0
  9
$DIMDLI
 40
6.3159363082
  9
$DIMEXE
 40
1.0
  9
$DIMCEN
 40
1.4958796519
  9
$DIMLFAC
 40
1.0
  9
$DIMBLK
  1
_FILLED
  9
$DIMALT
 70
0
  9
$DIMALTF
 40
0.0393700787
  9
$DIMTXT
 40
1.6526448175
  9
$DIMTOL
 70
1
  9
$DIMLIM
 70
0
  9
$DIMTFAC
 40
1.0
  9
$DIMTP
 40
0.01
  9
$DIMTM
 40
0.01
  9
$DIMGAP
 40
0.625
  9
$DIMDSEP
 70
46
  9
$AUNITS
 70
0
  9
$PDMODE
 70
3
  9
$PDSIZE
 40
0.3125
  9
$HANDSEED
  5
3B1
  9
$TILEMODE
 70
1
  9
$MEASUREMENT
 70
1
  9
$INSUNITS
 70
4
  0
ENDSEC
  0
SECTION
  2
CLASSES
  0
CLASS
  1
ACDBDICTIONARYWDFLT
  2
AcDbDictionaryWithDefault
  3
AutoCAD 2000
 90
0
 91
1
280
0
281
0
  0
CLASS
  1
ACDBPLACEHOLDER
  2
AcDbPlaceHolder
  3
AutoCAD 2000
 90
0
 91
1
280
0
281
0
  0
CLASS
  1
LAYOUT
  2
AcDbLayout
  3
AutoCAD 2000
 90
0
 91
0
280
0
281
0
  0
ENDSEC
  0
SECTION
  2
TABLES
  0
TABLE
  2
VPORT
  5
8
100
AcDbSymbolTable
 70
2
  0
VPORT
  5
1F4
100
AcDbSymbolTableRecord
100
AcDbViewportTableRecord
  2
*ACTIVE
 70
0
 10
0.0
 20
0.0
 11
1.0
 21
1.0
 12
49.5793445248
 22
70.1193586851
 13
0.0
 23
0.0
 14
1.0
 24
1.0
 15
0.0
 25
0.0
 16
0.0
 26
0.0
 36
1.0
 17
0.0
 27
0.0
 37
0.0
 40
140.2387173701
 41
0.7070707071
 42
50.0
 43
0.0
 44
0.0
 50
0.0
 51
0.0
 71
0
 72
100
 73
1
 74
1
 75
0
 76
0
 77
0
 78
0
  0
ENDTAB
  0
TABLE
  2
LTYPE
  5
5
100
AcDbSymbolTable
 70
6
  0
LTYPE
  5
14
100
AcDbSymbolTableRecord
100
AcDbLinetypeTableRecord
  2
BYBLOCK
 70
0
  3

 72
65
 73
0
 40
0.0
  0
LTYPE
  5
15
100
AcDbSymbolTableRecord
100
AcDbLinetypeTableRecord
  2
BYLAYER
 70
0
  3

 72
65
 73
0
 40
0.0
  0
LTYPE
  5
16
100
AcDbSymbolTableRecord
100
AcDbLinetypeTableRecord
  2
CONTINUOUS
 70
64
  3
Solid line
 72
65
 73
0
 40
0.0
  0
LTYPE
  5
1F5
100
AcDbSymbolTableRecord
100
AcDbLinetypeTableRecord
  2
CENTER
 70
64
  3
____ _ ____ _ ____ _ ____ _ ____ _ ____ _ ____
 72
65
 73
4
 40
0.6
 49
0.375
 74
0
 49
-0.075
 74
0
 49
0.075
 74
0
 49
-0.075
 74
0
  0
LTYPE
  5
1F6
100
AcDbSymbolTableRecord
100
AcDbLinetypeTableRecord
  2
HIDDEN
 70
64
  3
- - - - - - - - - - - - - - - - - - - -
 72
65
 73
2
 40
0.2
 49
0.1
 74
0
 49
-0.1
 74
0
  0
LTYPE
  5
1F7
100
AcDbSymbolTableRecord
100
AcDbLinetypeTableRecord
  2
PHANTOM
 70
64
  3
_____ _ _ _____ _ _ _____ _ _ _____
 72
65
 73
6
 40
0.8
 49
0.45
 74
0
 49
-0.05
 74
0
 49
0.1
 74
0
 49
-0.05
 74
0
 49
0.1
 74
0
 49
-0.05
 74
0
  0
LTYPE
  5
1F8
100
AcDbSymbolTableRecord
100
AcDbLinetypeTableRecord
  2
DOT
 70
64
  3
. . . . . . . . . . . . . . . . . . . .
 72
65
 73
2
 40
0.2
 49
0.1
 74
0
 49
-0.1
 74
0
  0
LTYPE
  5
1F9
100
AcDbSymbolTableRecord
100
AcDbLinetypeTableRecord
  2
DASHED
 70
64
  3
- - - - - - - - - - - - - - - - - - - -
 72
65
 73
2
 40
0.2
 49
0.1
 74
0
 49
-0.1
 74
0
  0
ENDTAB
  0
TABLE
  2
LAYER
  5
2
100
AcDbSymbolTable
 70
36
  0
LAYER
  5
10
100
AcDbSymbolTableRecord
100
AcDbLayerTableRecord
  2
0
 70
0
 62
7
  6
CONTINUOUS
370
-3
390
F
  0
LAYER
  5
1FA
100
AcDbSymbolTableRecord
100
AcDbLayerTableRecord
  2
DEFAULT_1
 70
0
 62
7
  6
CENTER
370
-3
390
F
  0
LAYER
  5
1FB
100
AcDbSymbolTableRecord
100
AcDbLayerTableRecord
  2
DEFAULT_2
 70
0
 62
8
  6
HIDDEN
370
-3
390
F
  0
LAYER
  5
1FC
100
AcDbSymbolTableRecord
100
AcDbLayerTableRecord
  2
DEFAULT_3
 70
0
 62
7
  6
PHANTOM
370
-3
390
F
  0
LAYER
  5
1FD
100
AcDbSymbolTableRecord
100
AcDbLayerTableRecord
  2
00_COMPONENTS
 70
0
 62
7
  6
CONTINUOUS
370
-3
390
F
  0
LAYER
  5
1FE
100
AcDbSymbolTableRecord
100
AcDbLayerTableRecord
  2
01_1_DEFAULT_DATUMS
 70
0
 62
7
  6
CONTINUOUS
370
-3
390
F
  0
LAYER
  5
1FF
100
AcDbSymbolTableRecord
100
AcDbLayerTableRecord
  2
01_PLANES
 70
0
 62
7
  6
CONTINUOUS
370
-3
390
F
  0
LAYER
  5
200
100
AcDbSymbolTableRecord
100
AcDbLayerTableRecord
  2
02_COORD_SYS
 70
0
 62
7
  6
CONTINUOUS
370
-3
390
F
  0
LAYER
  5
201
100
AcDbSymbolTableRecord
100
AcDbLayerTableRecord
  2
03_AXES
 70
0
 62
7
  6
CONTINUOUS
370
-3
390
F
  0
LAYER
  5
202
100
AcDbSymbolTableRecord
100
AcDbLayerTableRecord
  2
04_POINTS
 70
0
 62
7
  6
CONTINUOUS
370
-3
390
F
  0
LAYER
  5
203
100
AcDbSymbolTableRecord
100
AcDbLayerTableRecord
  2
05_CURVES
 70
0
 62
7
  6
CONTINUOUS
370
-3
390
F
  0
LAYER
  5
204
100
AcDbSymbolTableRecord
100
AcDbLayerTableRecord
  2
06_SURFS
 70
0
 62
7
  6
CONTINUOUS
370
-3
390
F
  0
LAYER
  5
205
100
AcDbSymbolTableRecord
100
AcDbLayerTableRecord
  2
07_COSMETICS
 70
0
 62
7
  6
CONTINUOUS
370
-3
390
F
  0
LAYER
  5
206
100
AcDbSymbolTableRecord
100
AcDbLayerTableRecord
  2
10_NOTES
 70
0
 62
7
  6
CONTINUOUS
370
-3
390
F
  0
LAYER
  5
207
100
AcDbSymbolTableRecord
100
AcDbLayerTableRecord
  2
11_NOTES_PUB
 70
0
 62
7
  6
CONTINUOUS
370
-3
390
F
  0
LAYER
  5
208
100
AcDbSymbolTableRecord
100
AcDbLayerTableRecord
  2
13_REF_GTOL
 70
0
 62
7
  6
CONTINUOUS
370
-3
390
F
  0
LAYER
  5
209
100
AcDbSymbolTableRecord
100
AcDbLayerTableRecord
  2
16_MISC
 70
0
 62
7
  6
CONTINUOUS
370
-3
390
F
  0
LAYER
  5
20A
100
AcDbSymbolTableRecord
100
AcDbLayerTableRecord
  2
17_NO_PRINT
 70
0
 62
7
  6
CONTINUOUS
370
-3
390
F
  0
LAYER
  5
20B
100
AcDbSymbolTableRecord
100
AcDbLayerTableRecord
  2
18_DATUM_CAMS_JOINTS
 70
0
 62
7
  6
CONTINUOUS
370
-3
390
F
  0
LAYER
  5
20C
100
AcDbSymbolTableRecord
100
AcDbLayerTableRecord
  2
19_DATUM_FUNCTIONAL
 70
0
 62
7
  6
CONTINUOUS
370
-3
390
F
  0
LAYER
  5
20D
100
AcDbSymbolTableRecord
100
AcDbLayerTableRecord
  2
20_DATUM_KINEMATIC_SCHEME
 70
0
 62
7
  6
CONTINUOUS
370
-3
390
F
  0
ENDTAB
  0
TABLE
  2
STYLE
  5
3
100
AcDbSymbolTable
 70
1
  0
STYLE
  5
11
100
AcDbSymbolTableRecord
100
AcDbTextStyleTableRecord
  2
STANDARD
 70
0
 40
0.0
 41
0.8
 50
0.0
 71
0
 42
0.2
  3
txt
  4

  0
STYLE
  5
20E
100
AcDbSymbolTableRecord
100
AcDbTextStyleTableRecord
  2
TEXTSTYLE_1
 70
0
 40
0.0
 41
0.8
 50
0.0
 71
0
 42
0.2
  3
gdt
  4

  0
ENDTAB
  0
TABLE
  2
VIEW
  5
6
100
AcDbSymbolTable
 70
0
  0
ENDTAB
  0
TABLE
  2
UCS
  5
7
100
AcDbSymbolTable
 70
0
  0
ENDTAB
  0
TABLE
  2
APPID
  5
9
100
AcDbSymbolTable
 70
1
  0
APPID
  5
20F
100
AcDbSymbolTableRecord
100
AcDbRegAppTableRecord
  2
ACAD
 70
0
  0
ENDTAB
  0
TABLE
  2
BLOCK_RECORD
  5
1
100
AcDbSymbolTable
 70
0
  0
BLOCK_RECORD
  5
210
100
AcDbSymbolTableRecord
100
AcDbBlockTableRecord
  2
*Model_Space
  0
BLOCK_RECORD
  5
211
100
AcDbSymbolTableRecord
100
AcDbBlockTableRecord
  2
*Paper_Space
  0
BLOCK_RECORD
  5
212
100
AcDbSymbolTableRecord
100
AcDbBlockTableRecord
  2
_FILLED
  0
ENDTAB
  0
TABLE
  2
DIMSTYLE
  5
A
100
AcDbSymbolTable
 70
1
100
AcDbDimStyleTable
 71
0
  0
DIMSTYLE
105
213
100
AcDbSymbolTableRecord
100
AcDbDimStyleTableRecord
  2
STANDARD
 70
0
  3

  4

 40
1.0
 41
1.1804605839
 42
1.0
 43
0.38
 44
1.0
 45
0.0
 46
0.0
 47
0.01
 48
0.01
140
1.6526448175
141
0.09
142
0.0
143
25.4
144
1.0
145
0.0
146
1.0
147
0.625
 71
1
 72
0
 73
0
 74
0
 75
0
 76
0
 77
1
 78
8
 79
2
170
0
171
1
172
0
173
0
174
0
175
0
176
0
177
0
178
0
270
2
179
2
271
2
272
2
273
2
274
2
275
0
280
0
281
0
282
0
283
1
284
8
285
0
286
0
287
3
288
0
340
11
278
46
341
212
342
212
343
212
344
212
  0
ENDTAB
  0
ENDSEC
  0
SECTION
  2
BLOCKS
  0
BLOCK
  5
20
100
AcDbEntity
  8
0
100
AcDbBlockBegin
  2
*Model_Space
 70
0
 10
0.0
 20
0.0
 30
0.0
  3
*Model_Space
  1

  0
ENDBLK
  5
21
100
AcDbEntity
  8
0
100
AcDbBlockEnd
  0
BLOCK
  5
1C
100
AcDbEntity
  8
0
100
AcDbBlockBegin
  2
*Paper_Space
 70
0
 10
0.0
 20
0.0
 30
0.0
  3
*Paper_Space
  1

  0
ENDBLK
  5
1D
100
AcDbEntity
  8
0
100
AcDbBlockEnd
  0
BLOCK
  5
214
100
AcDbEntity
  8
0
100
AcDbBlockBegin
  2
_FILLED
 70
64
 10
0.0
 20
0.0
  3
_FILLED
  1

  0
SOLID
  5
215
100
AcDbEntity
  8
0
  6
BYBLOCK
 62
0
100
AcDbTrace
 10
0.0
 20
0.0
 11
-1.0
 21
0.25
 12
-1.0
 22
-0.25
 13
-1.0
 23
-0.25
  0
ENDBLK
  5
216
100
AcDbEntity
  8
0
  6
BYBLOCK
 62
0
100
AcDbBlockEnd
  0
ENDSEC
  0
SECTION
  2
ENTITIES
  0
LINE
  5
217
100
AcDbEntity
  8
0
100
AcDbLine
 62
7
  6
CONTINUOUS
 10
50.9437578904
 20
27.0143251308
 11
52.0163378101
 21
26.9667987219
  0
LINE
  5
218
100
AcDbEntity
  8
0
100
AcDbLine
 62
7
  6
CONTINUOUS
 10
12.1815502237
 20
38.650263335
 11
24.8211365607
 21
31.352959848
  0
LINE
  5
219
100
AcDbEntity
  8
0
100
AcDbLine
 62
7
  6
CONTINUOUS
 10
24.8215833093
 20
31.3655615632
 11
37.4611696463
 21
24.0682580762
  0
LINE
  5
21A
100
AcDbEntity
  8
0
100
AcDbLine
 62
7
  6
CONTINUOUS
 10
11.976755244
 20
39.0433378613
 11
24.616341581
 21
31.7460343742
  0
LINE
  5
21B
100
AcDbEntity
  8
0
100
AcDbLine
 62
7
  6
CONTINUOUS
 10
37.2563404163
 20
24.4618019564
 11
24.6167540793
 21
31.7591054435
  0
LINE
  5
21C
100
AcDbEntity
  8
0
100
AcDbLine
 62
7
  6
CONTINUOUS
 10
42.7511461643
 20
26.2045824608
 11
55.3907325013
 21
18.9072789738
  0
LINE
  5
21D
100
AcDbEntity
  8
0
100
AcDbLine
 62
7
  6
CONTINUOUS
 10
42.1710906953
 20
26.5483754009
 11
42.7106170036
 21
26.2368867884
  0
LINE
  5
21E
100
AcDbEntity
  8
0
100
AcDbLine
 62
7
  6
CONTINUOUS
 10
55.1899482321
 20
19.2596938712
 11
42.5503618951
 21
26.5569973583
  0
LINE
  5
21F
100
AcDbEntity
  8
0
100
AcDbLine
 62
7
  6
CONTINUOUS
 10
42.3755425693
 20
26.6664150408
 11
42.5580434342
 21
26.5610505009
  0
LINE
  5
220
100
AcDbEntity
  8
0
100
AcDbLine
 62
7
  6
CONTINUOUS
 10
47.8426489254
 20
25.508641728
 11
48.3067494199
 21
25.2012839191
  0
LINE
  5
221
100
AcDbEntity
  8
0
100
AcDbLine
 62
7
  6
CONTINUOUS
 10
14.7361911823
 20
68.2251725791
 11
14.7391236447
 21
68.2631972496
  0
LINE
  5
222
100
AcDbEntity
  8
0
100
AcDbLine
 62
7
  6
CONTINUOUS
 10
15.0156140702
 20
71.5407306839
 11
15.0278005527
 21
71.6770283702
  0
LINE
  5
223
100
AcDbEntity
  8
0
100
AcDbLine
 62
7
  6
CONTINUOUS
 10
15.0153060236
 20
71.5405924156
 11
15.0278005527
 21
71.6770283702
  0
LINE
  5
224
100
AcDbEntity
  8
0
100
AcDbLine
 62
7
  6
CONTINUOUS
 10
14.7872953062
 20
68.2594185928
 11
15.1060676717
 21
71.5326431568
  0
LINE
  5
225
100
AcDbEntity
  8
0
100
AcDbLine
 62
7
  6
CONTINUOUS
 10
61.1089082379
 20
119.1696621442
 11
53.2308155808
 21
114.5678924507
  0
LINE
  5
226
100
AcDbEntity
  8
0
100
AcDbLine
 62
7
  6
CONTINUOUS
 10
53.8764529086
 20
114.1951419984
 11
61.1092985369
 21
118.4200085059
  0
LINE
  5
227
100
AcDbEntity
  8
0
100
AcDbLine
 62
7
  6
CONTINUOUS
 10
63.1810404533
 20
121.6174170647
 11
30.5835637086
 21
102.7747450265
  0
LINE
  5
228
100
AcDbEntity
  8
0
100
AcDbLine
 62
7
  6
CONTINUOUS
 10
55.3530186002
 20
114.5108471755
 11
60.3027861703
 21
117.3720148574
  0
LINE
  5
229
100
AcDbEntity
  8
0
100
AcDbLine
 62
7
  6
CONTINUOUS
 10
57.262970965
 20
114.9327001021
 11
60.398037796
 21
116.7448966892
  0
LINE
  5
22A
100
AcDbEntity
  8
0
100
AcDbLine
 62
7
  6
CONTINUOUS
 10
57.9481443897
 20
114.2626006645
 11
58.1857491563
 21
114.3999459175
  0
LINE
  5
22B
100
AcDbEntity
  8
0
100
AcDbLine
 62
7
  6
CONTINUOUS
 10
58.7514369364
 20
114.0733533139
 11
58.5138321698
 21
113.9360080609
  0
LINE
  5
22C
100
AcDbEntity
  8
0
100
AcDbLine
 62
7
  6
CONTINUOUS
 10
59.6742151277
 20
113.5405991292
 11
62.8092819588
 21
115.3527957163
  0
LINE
  5
22D
100
AcDbEntity
  8
0
100
AcDbLine
 62
7
  6
CONTINUOUS
 10
60.8550883687
 20
112.8588370692
 11
63.9901551998
 21
114.6710336563
  0
LINE
  5
22E
100
AcDbEntity
  8
0
100
AcDbLine
 62
7
  6
CONTINUOUS
 10
61.5402617934
 20
112.1887376315
 11
61.77786656
 21
112.3260828845
  0
LINE
  5
22F
100
AcDbEntity
  8
0
100
AcDbLine
 62
7
  6
CONTINUOUS
 10
62.3435543402
 20
111.9994902809
 11
62.1059495736
 21
111.8621450279
  0
LINE
  5
230
100
AcDbEntity
  8
0
100
AcDbLine
 62
7
  6
CONTINUOUS
 10
59.623598084
 20
114.1683158507
 11
59.7581369162
 21
114.245991418
  0
LINE
  5
231
100
AcDbEntity
  8
0
100
AcDbLine
 62
7
  6
CONTINUOUS
 10
60.1048096854
 20
114.0458443294
 11
59.9702708532
 21
113.968168762
  0
LINE
  5
232
100
AcDbEntity
  8
0
100
AcDbLine
 62
7
  6
CONTINUOUS
 10
68.678047313
 20
117.4979158464
 11
71.0114899759
 21
118.8451215542
  0
LINE
  5
233
100
AcDbEntity
  8
0
100
AcDbLine
 62
7
  6
CONTINUOUS
 10
71.2794054253
 20
118.863703312
 11
68.9459627625
 21
117.5164976043
  0
LINE
  5
234
100
AcDbEntity
  8
0
100
AcDbLine
 62
7
  6
CONTINUOUS
 10
69.2901784399
 20
117.3259204686
 11
71.6236211027
 21
118.6731261764
  0
LINE
  5
235
100
AcDbEntity
  8
0
100
AcDbLine
 62
7
  6
CONTINUOUS
 10
70.1721560063
 20
117.0889272254
 11
72.5055986691
 21
118.4361329332
  0
LINE
  5
236
100
AcDbEntity
  8
0
100
AcDbLine
 62
7
  6
CONTINUOUS
 10
70.9377457387
 20
116.6501605121
 11
73.2711884015
 21
117.9973662198
  0
LINE
  5
237
100
AcDbEntity
  8
0
100
AcDbLine
 62
7
  6
CONTINUOUS
 10
63.4278484053
 20
111.9719805914
 11
63.5623872375
 21
112.0496561587
  0
LINE
  5
238
100
AcDbEntity
  8
0
100
AcDbLine
 62
7
  6
CONTINUOUS
 10
51.3922862671
 20
31.8722033676
 11
52.6115550691
 21
31.1682741215
  0
LINE
  5
239
100
AcDbEntity
  8
0
100
AcDbLine
 62
7
  6
CONTINUOUS
 10
51.4897249474
 20
31.9284592801
 11
52.4963881943
 21
31.3472751317
  0
LINE
  5
23A
100
AcDbEntity
  8
0
100
AcDbLine
 62
7
  6
CONTINUOUS
 10
54.2652072182
 20
33.5308751511
 11
54.3350656445
 21
33.4905432824
  0
LINE
  5
23B
100
AcDbEntity
  8
0
100
AcDbLine
 62
7
  6
CONTINUOUS
 10
22.1718580866
 20
64.1502835143
 11
22.1556887289
 21
63.9416205802
  0
LINE
  5
23C
100
AcDbEntity
  8
0
100
AcDbLine
 62
7
  6
CONTINUOUS
 10
22.1722988437
 20
64.1504900193
 11
22.1556887289
 21
63.9416205802
  0
LINE
  5
23D
100
AcDbEntity
  8
0
100
AcDbLine
 62
7
  6
CONTINUOUS
 10
22.3389626642
 20
67.3568237555
 11
22.0201902987
 21
64.0835991915
  0
LINE
  5
23E
100
AcDbEntity
  8
0
100
AcDbLine
 62
7
  6
CONTINUOUS
 10
27.1975472362
 20
84.8323278038
 11
26.9862285941
 21
83.5477988179
  0
LINE
  5
23F
100
AcDbEntity
  8
0
100
AcDbLine
 62
7
  6
CONTINUOUS
 10
63.2663325315
 20
111.4667360963
 11
66.4013993625
 21
113.2789326834
  0
LINE
  5
240
100
AcDbEntity
  8
0
100
AcDbLine
 62
7
  6
CONTINUOUS
 10
64.4472057725
 20
110.7849740362
 11
67.5822726035
 21
112.5971706233
  0
LINE
  5
241
100
AcDbEntity
  8
0
100
AcDbLine
 62
7
  6
CONTINUOUS
 10
65.1323791972
 20
110.1148745986
 11
65.3699839638
 21
110.2522198516
  0
LINE
  5
242
100
AcDbEntity
  8
0
100
AcDbLine
 62
7
  6
CONTINUOUS
 10
65.9356717439
 20
109.9256272479
 11
65.6980669773
 21
109.7882819949
  0
LINE
  5
243
100
AcDbEntity
  8
0
100
AcDbLine
 62
7
  6
CONTINUOUS
 10
66.8584499352
 20
109.3928730633
 11
69.9935167663
 21
111.2050696504
  0
LINE
  5
244
100
AcDbEntity
  8
0
100
AcDbLine
 62
7
  6
CONTINUOUS
 10
43.2231503285
 20
95.477441703
 11
64.7470565799
 21
107.9191380247
  0
LINE
  5
245
100
AcDbEntity
  8
0
100
AcDbLine
 62
7
  6
CONTINUOUS
 10
65.7581382063
 20
108.5035844724
 11
70.7079057764
 21
111.3647521543
  0
LINE
  5
246
100
AcDbEntity
  8
0
100
AcDbLine
 62
7
  6
CONTINUOUS
 10
72.666616696
 20
112.4969670113
 11
73.6593873148
 21
113.0708289492
  0
LINE
  5
247
100
AcDbEntity
  8
0
100
AcDbLine
 62
7
  6
CONTINUOUS
 10
63.6969270892
 20
111.9719812964
 11
63.5623882569
 21
111.8943057291
  0
LINE
  5
248
100
AcDbEntity
  8
0
100
AcDbLine
 62
7
  6
CONTINUOUS
 10
74.0010890822
 20
117.758089558
 11
71.6676464193
 21
116.4108838502
  0
LINE
  5
249
100
AcDbEntity
  8
0
100
AcDbLine
 62
7
  6
CONTINUOUS
 10
72.0050581943
 20
116.2346862704
 11
74.3385008571
 21
117.5818919782
  0
LINE
  5
24A
100
AcDbEntity
  8
0
100
AcDbLine
 62
7
  6
CONTINUOUS
 10
74.5118099837
 20
117.4253332201
 11
75.2894949811
 21
117.8743271826
  0
LINE
  5
24B
100
AcDbEntity
  8
0
100
AcDbLine
 62
7
  6
CONTINUOUS
 10
75.6894931904
 20
117.8347077594
 11
74.7112831144
 21
117.2699412799
  0
LINE
  5
24C
100
AcDbEntity
  8
0
100
AcDbLine
 62
7
  6
CONTINUOUS
 10
75.3119118683
 20
116.9635217365
 11
76.2551809705
 21
117.5081151558
  0
LINE
  5
24D
100
AcDbEntity
  8
0
100
AcDbLine
 62
7
  6
CONTINUOUS
 10
75.4848617921
 20
116.9200551565
 11
73.1514191293
 21
115.5728494488
  0
LINE
  5
24E
100
AcDbEntity
  8
0
100
AcDbLine
 62
7
  6
CONTINUOUS
 10
73.4888309042
 20
115.3594462843
 11
75.822273567
 21
116.7066519921
  0
LINE
  5
24F
100
AcDbEntity
  8
0
100
AcDbLine
 62
7
  6
CONTINUOUS
 10
72.5734389465
 20
114.6884178222
 11
71.4468631015
 21
114.0379928374
  0
LINE
  5
250
100
AcDbEntity
  8
0
100
AcDbLine
 62
7
  6
CONTINUOUS
 10
76.8208687506
 20
116.5283206184
 11
76.3338092741
 21
116.2471183771
  0
LINE
  5
251
100
AcDbEntity
  8
0
100
AcDbLine
 62
7
  6
CONTINUOUS
 10
74.2187326702
 20
114.7559246773
 11
76.552175333
 21
116.1031303851
  0
LINE
  5
252
100
AcDbEntity
  8
0
100
AcDbLine
 62
7
  6
CONTINUOUS
 10
67.019965809
 20
109.8981175584
 11
67.1545046413
 21
109.9757931258
  0
LINE
  5
253
100
AcDbEntity
  8
0
100
AcDbLine
 62
7
  6
CONTINUOUS
 10
67.2890444929
 20
109.8981182635
 11
67.1545056606
 21
109.8204426961
  0
LINE
  5
254
100
AcDbEntity
  8
0
100
AcDbLine
 62
7
  6
CONTINUOUS
 10
74.9843213172
 20
114.31068514
 11
77.31776398
 21
115.6578908478
  0
LINE
  5
255
100
AcDbEntity
  8
0
100
AcDbLine
 62
7
  6
CONTINUOUS
 10
43.2511389029
 20
95.4935111832
 11
64.7470644006
 21
107.9041154745
  0
LINE
  5
256
100
AcDbEntity
  8
0
100
AcDbLine
 62
7
  6
CONTINUOUS
 10
65.7581463923
 20
108.4878604501
 11
70.7079157503
 21
111.345594063
  0
LINE
  5
257
100
AcDbEntity
  8
0
100
AcDbLine
 62
7
  6
CONTINUOUS
 10
72.6666273774
 20
112.4764499979
 11
73.6622808696
 21
113.0512873783
  0
LINE
  5
258
100
AcDbEntity
  8
0
100
AcDbLine
 62
7
  6
CONTINUOUS
 10
29.0367726198
 20
84.842095516
 11
29.0359363907
 21
86.4482548022
  0
LINE
  5
259
100
AcDbEntity
  8
0
100
AcDbLine
 62
7
  6
CONTINUOUS
 10
27.3921134897
 20
60.9500190795
 11
27.3950708529
 21
60.9881297525
  0
LINE
  5
25A
100
AcDbEntity
  8
0
100
AcDbLine
 62
7
  6
CONTINUOUS
 10
27.6731832714
 20
64.2663885941
 11
27.6854318095
 21
64.4026585594
  0
LINE
  5
25B
100
AcDbEntity
  8
0
100
AcDbLine
 62
7
  6
CONTINUOUS
 10
27.6728753591
 20
64.2662506027
 11
27.6854318095
 21
64.4026585594
  0
LINE
  5
25C
100
AcDbEntity
  8
0
100
AcDbLine
 62
7
  6
CONTINUOUS
 10
27.7636548407
 20
64.2582566153
 11
27.4432746676
 21
60.9843255722
  0
LINE
  5
25D
100
AcDbEntity
  8
0
100
AcDbLine
 62
7
  6
CONTINUOUS
 10
58.6623306182
 20
113.1313390752
 11
58.9769902685
 21
113.5052152696
  0
LINE
  5
25E
100
AcDbEntity
  8
0
100
AcDbLine
 62
7
  6
CONTINUOUS
 10
65.3830918836
 20
107.5369131432
 11
65.7585285052
 21
107.7539308341
  0
LINE
  5
25F
100
AcDbEntity
  8
0
100
AcDbLine
 62
7
  6
CONTINUOUS
 10
71.0793054383
 20
110.8295570707
 11
72.667006995
 21
111.747313373
  0
LINE
  5
260
100
AcDbEntity
  8
0
100
AcDbLine
 62
7
  6
CONTINUOUS
 10
66.1297611104
 20
107.5396044383
 11
71.0795286805
 21
110.4007721202
  0
LINE
  5
261
100
AcDbEntity
  8
0
100
AcDbLine
 62
7
  6
CONTINUOUS
 10
13.2503643612
 20
75.6079086576
 11
26.9862285941
 21
83.5477988179
  0
LINE
  5
262
100
AcDbEntity
  8
0
100
AcDbLine
 62
7
  6
CONTINUOUS
 10
71.079148356
 20
111.1312676669
 11
66.129378998
 21
108.273534054
  0
LINE
  5
263
100
AcDbEntity
  8
0
100
AcDbLine
 62
7
  6
CONTINUOUS
 10
75.8662988837
 20
113.5292814516
 11
78.1997415465
 21
114.8764871593
  0
LINE
  5
264
100
AcDbEntity
  8
0
100
AcDbLine
 62
7
  6
CONTINUOUS
 10
76.210514561
 20
113.322401551
 11
78.5439572238
 21
114.6696072588
  0
LINE
  5
265
100
AcDbEntity
  8
0
100
AcDbLine
 62
7
  6
CONTINUOUS
 10
74.1904488351
 20
111.5966911719
 11
66.2708858583
 21
107.0243566485
  0
LINE
  5
266
100
AcDbEntity
  8
0
100
AcDbLine
 62
7
  6
CONTINUOUS
 10
78.9775622442
 20
113.7841241239
 11
76.6441195814
 21
112.4369184161
  0
LINE
  5
267
100
AcDbEntity
  8
0
100
AcDbLine
 62
7
  6
CONTINUOUS
 10
62.6790625372
 20
101.7091702838
 11
61.9018062218
 21
101.2604238195
  0
LINE
  5
268
100
AcDbEntity
  8
0
100
AcDbLine
 62
7
  6
CONTINUOUS
 10
58.4552584813
 20
113.8542557845
 11
58.5138321698
 21
113.9360080609
  0
LINE
  5
269
100
AcDbEntity
  8
0
100
AcDbLine
 62
7
  6
CONTINUOUS
 10
62.254448022
 20
111.0574760422
 11
62.5691076722
 21
111.4313522366
  0
LINE
  5
26A
100
AcDbEntity
  8
0
100
AcDbLine
 62
7
  6
CONTINUOUS
 10
65.863070821
 20
98.975112827
 11
66.6388769979
 21
99.4230220584
  0
LINE
  5
26B
100
AcDbEntity
  8
0
100
AcDbLine
 62
7
  6
CONTINUOUS
 10
14.7361911823
 20
68.2251725791
 11
22.1556887289
 21
63.9416205802
  0
LINE
  5
26C
100
AcDbEntity
  8
0
100
AcDbLine
 62
7
  6
CONTINUOUS
 10
27.3921134897
 20
60.9500190795
 11
34.8116110363
 21
56.6664670805
  0
LINE
  5
26D
100
AcDbEntity
  8
0
100
AcDbLine
 62
7
  6
CONTINUOUS
 10
22.0201902987
 20
64.0835991915
 11
14.7872953062
 21
68.2594185928
  0
LINE
  5
26E
100
AcDbEntity
  8
0
100
AcDbLine
 62
7
  6
CONTINUOUS
 10
27.4432746676
 20
60.9843255722
 11
34.67616966
 21
56.8085061709
  0
LINE
  5
26F
100
AcDbEntity
  8
0
100
AcDbLine
 62
7
  6
CONTINUOUS
 10
52.6116025946
 20
31.1683562929
 11
52.4963881943
 21
31.3472751317
  0
LINE
  5
270
100
AcDbEntity
  8
0
100
AcDbLine
 62
7
  6
CONTINUOUS
 10
34.8278780936
 20
56.8751015835
 11
34.8116110363
 21
56.6664670805
  0
LINE
  5
271
100
AcDbEntity
  8
0
100
AcDbLine
 62
7
  6
CONTINUOUS
 10
34.8283186992
 20
56.8753077092
 11
34.8116110363
 21
56.6664670805
  0
LINE
  5
272
100
AcDbEntity
  8
0
100
AcDbLine
 62
7
  6
CONTINUOUS
 10
34.67616966
 20
56.8085061709
 11
34.9965498331
 21
60.0824372141
  0
LINE
  5
273
100
AcDbEntity
  8
0
100
AcDbLine
 62
7
  6
CONTINUOUS
 10
62.047375885
 20
111.7803927515
 11
62.1059495736
 21
111.8621450279
  0
LINE
  5
274
100
AcDbEntity
  8
0
100
AcDbLine
 62
7
  6
CONTINUOUS
 10
65.8465654257
 20
108.9836130093
 11
66.1612250759
 21
109.3574892036
  0
LINE
  5
275
100
AcDbEntity
  8
0
100
AcDbLine
 62
7
  6
CONTINUOUS
 10
48.2849079518
 20
84.6408172514
 11
48.2679617906
 21
84.6310334391
  0
LINE
  5
276
100
AcDbEntity
  8
0
100
AcDbLine
 62
7
  6
CONTINUOUS
 10
88.4882079062
 20
107.0162607479
 11
55.8907255394
 21
88.1962078691
  0
LINE
  5
277
100
AcDbEntity
  8
0
100
AcDbLine
 62
7
  6
CONTINUOUS
 10
15.2035991227
 20
71.5755333146
 11
15.1060676717
 21
71.5326431568
  0
LINE
  5
278
100
AcDbEntity
  8
0
100
AcDbLine
 62
7
  6
CONTINUOUS
 10
14.7916334559
 20
68.2495537181
 11
14.7361911823
 21
68.2251725791
  0
LINE
  5
279
100
AcDbEntity
  8
0
100
AcDbLine
 62
7
  6
CONTINUOUS
 10
15.1060676717
 20
71.5326431568
 11
22.3389626642
 21
67.3568237555
  0
LINE
  5
27A
100
AcDbEntity
  8
0
100
AcDbLine
 62
7
  6
CONTINUOUS
 10
34.9965498331
 20
60.0824372141
 11
27.7636548407
 21
64.2582566153
  0
LINE
  5
27B
100
AcDbEntity
  8
0
100
AcDbLine
 62
7
  6
CONTINUOUS
 10
22.4472980993
 20
67.3934763713
 11
15.0278005527
 21
71.6770283702
  0
LINE
  5
27C
100
AcDbEntity
  8
0
100
AcDbLine
 62
7
  6
CONTINUOUS
 10
35.1049293561
 20
60.1191065605
 11
27.6854318095
 21
64.4026585594
  0
LINE
  5
27D
100
AcDbEntity
  8
0
100
AcDbLine
 62
7
  6
CONTINUOUS
 10
12.548652352
 20
74.482881952
 11
25.188238689
 21
67.185578465
  0
LINE
  5
27E
100
AcDbEntity
  8
0
100
AcDbLine
 62
7
  6
CONTINUOUS
 10
37.8465112274
 20
59.9114930785
 11
25.2069248904
 21
67.2087965655
  0
LINE
  5
27F
100
AcDbEntity
  8
0
100
AcDbLine
 62
7
  6
CONTINUOUS
 10
13.2503643612
 20
75.6079086576
 11
25.8899506982
 21
68.3106051706
  0
LINE
  5
280
100
AcDbEntity
  8
0
100
AcDbLine
 62
7
  6
CONTINUOUS
 10
25.9090114659
 20
68.333552413
 11
38.5485978029
 21
61.0362489259
  0
LINE
  5
281
100
AcDbEntity
  8
0
100
AcDbLine
 62
7
  6
CONTINUOUS
 10
42.5580258602
 20
26.5611824176
 11
42.5335987516
 21
26.7570701869
  0
LINE
  5
282
100
AcDbEntity
  8
0
100
AcDbLine
 62
7
  6
CONTINUOUS
 10
42.5260735404
 20
26.7527286085
 11
42.5503771376
 21
26.5568765736
  0
LINE
  5
283
100
AcDbEntity
  8
0
100
AcDbLine
 62
7
  6
CONTINUOUS
 10
42.5580258602
 20
26.5611824176
 11
42.5374831029
 21
26.7599108934
  0
LINE
  5
284
100
AcDbEntity
  8
0
100
AcDbLine
 62
7
  6
CONTINUOUS
 10
42.5299556614
 20
26.755564949
 11
42.5503771376
 21
26.5568765736
  0
LINE
  5
285
100
AcDbEntity
  8
0
100
AcDbLine
 62
7
  6
CONTINUOUS
 10
41.6763461322
 20
77.5694245003
 11
41.6755167352
 21
79.1636852987
  0
LINE
  5
286
100
AcDbEntity
  8
0
100
AcDbLine
 62
7
  6
CONTINUOUS
 10
41.6954793075
 20
79.1634603745
 11
41.6954793075
 21
77.5583782063
  0
LINE
  5
287
100
AcDbEntity
  8
0
100
AcDbLine
 62
7
  6
CONTINUOUS
 10
41.6755227277
 20
79.1509513152
 11
41.6757622762
 21
79.1638271987
  0
LINE
  5
288
100
AcDbEntity
  8
0
100
AcDbLine
 62
7
  6
CONTINUOUS
 10
39.6258149311
 20
76.2504953309
 11
39.8371335732
 21
77.5350243168
  0
LINE
  5
289
100
AcDbEntity
  8
0
100
AcDbLine
 62
7
  6
CONTINUOUS
 10
39.8568018573
 20
77.5486428576
 11
39.6448781795
 21
76.2639114198
  0
LINE
  5
28A
100
AcDbEntity
  8
0
100
AcDbLine
 62
7
  6
CONTINUOUS
 10
65.6394932888
 20
109.7065297186
 11
65.6980669773
 21
109.7882819949
  0
LINE
  5
28B
100
AcDbEntity
  8
0
100
AcDbLine
 62
7
  6
CONTINUOUS
 10
25.8899506982
 20
68.3106051706
 11
39.6258149311
 21
76.2504953309
  0
LINE
  5
28C
100
AcDbEntity
  8
0
100
AcDbLine
 62
7
  6
CONTINUOUS
 10
39.6448781795
 20
76.2639114198
 11
25.9090114659
 21
68.333552413
  0
LINE
  5
28D
100
AcDbEntity
  8
0
100
AcDbLine
 62
7
  6
CONTINUOUS
 10
22.4364941152
 20
67.3997139133
 11
22.3389626642
 21
67.3568237555
  0
LINE
  5
28E
100
AcDbEntity
  8
0
100
AcDbLine
 62
7
  6
CONTINUOUS
 10
63.1887574535
 20
111.5115230752
 11
63.4278484053
 21
111.9719805914
  0
LINE
  5
28F
100
AcDbEntity
  8
0
100
AcDbLine
 62
7
  6
CONTINUOUS
 10
22.1722988437
 20
64.1504900193
 11
22.0201902987
 21
64.0835991915
  0
LINE
  5
290
100
AcDbEntity
  8
0
100
AcDbLine
 62
7
  6
CONTINUOUS
 10
52.4963881943
 20
31.3472751317
 11
52.2844645165
 21
32.3872996453
  0
LINE
  5
291
100
AcDbEntity
  8
0
100
AcDbLine
 62
7
  6
CONTINUOUS
 10
59.623598084
 20
114.1683158507
 11
59.5041729673
 21
113.6387707954
  0
LINE
  5
292
100
AcDbEntity
  8
0
100
AcDbLine
 62
7
  6
CONTINUOUS
 10
66.7808748572
 20
109.4376600422
 11
67.019965809
 21
109.8981175584
  0
LINE
  5
293
100
AcDbEntity
  8
0
100
AcDbLine
 62
7
  6
CONTINUOUS
 10
27.7636548407
 20
64.2582566153
 11
27.8612953405
 21
64.3011259994
  0
LINE
  5
294
100
AcDbEntity
  8
0
100
AcDbLine
 62
7
  6
CONTINUOUS
 10
27.3921134897
 20
60.9500190795
 11
27.4476344022
 21
60.9743957195
  0
LINE
  5
295
100
AcDbEntity
  8
0
100
AcDbLine
 62
7
  6
CONTINUOUS
 10
52.911549979
 20
70.8800083247
 11
53.2115383811
 21
70.9097137834
  0
LINE
  5
296
100
AcDbEntity
  8
0
100
AcDbLine
 62
7
  6
CONTINUOUS
 10
26.9862285941
 20
83.5477988179
 11
39.6258149311
 21
76.2504953309
  0
LINE
  5
297
100
AcDbEntity
  8
0
100
AcDbLine
 62
7
  6
CONTINUOUS
 10
52.2844645165
 20
68.9666079327
 11
39.6448781795
 21
76.2639114198
  0
LINE
  5
298
100
AcDbEntity
  8
0
100
AcDbLine
 62
7
  6
CONTINUOUS
 10
44.5414395805
 20
83.7446956096
 11
44.3910815992
 21
84.3327711426
  0
LINE
  5
299
100
AcDbEntity
  8
0
100
AcDbLine
 62
7
  6
CONTINUOUS
 10
53.343896882
 20
69.740143279
 11
53.3370956073
 21
70.6361413338
  0
LINE
  5
29A
100
AcDbEntity
  8
0
100
AcDbLine
 62
7
  6
CONTINUOUS
 10
53.343896882
 20
32.8370841197
 11
53.343896882
 21
32.9989595556
  0
LINE
  5
29B
100
AcDbEntity
  8
0
100
AcDbLine
 62
7
  6
CONTINUOUS
 10
53.343896882
 20
69.578267843
 11
53.343896882
 21
69.740143279
  0
LINE
  5
29C
100
AcDbEntity
  8
0
100
AcDbLine
 62
7
  6
CONTINUOUS
 10
54.3350656445
 20
71.8661568875
 11
54.3350656445
 21
70.150515979
  0
LINE
  5
29D
100
AcDbEntity
  8
0
100
AcDbLine
 62
7
  6
CONTINUOUS
 10
54.3350656445
 20
33.5712076916
 11
54.3350656445
 21
33.4905432824
  0
LINE
  5
29E
100
AcDbEntity
  8
0
100
AcDbLine
 62
7
  6
CONTINUOUS
 10
53.3365271594
 20
31.9321437688
 11
53.343896882
 21
32.8370841197
  0
LINE
  5
29F
100
AcDbEntity
  8
0
100
AcDbLine
 62
7
  6
CONTINUOUS
 10
52.2844645165
 20
68.9666079327
 11
52.4963881943
 21
70.2513393705
  0
LINE
  5
2A0
100
AcDbEntity
  8
0
100
AcDbLine
 62
7
  6
CONTINUOUS
 10
54.3350656445
 20
70.150515979
 11
53.343896882
 21
69.578267843
  0
LINE
  5
2A1
100
AcDbEntity
  8
0
100
AcDbLine
 62
7
  6
CONTINUOUS
 10
52.2844645165
 20
68.9666079327
 11
38.5485978029
 21
61.0362489259
  0
LINE
  5
2A2
100
AcDbEntity
  8
0
100
AcDbLine
 62
7
  6
CONTINUOUS
 10
34.9965498331
 20
60.0824372141
 11
35.094190333
 21
60.1253065981
  0
LINE
  5
2A3
100
AcDbEntity
  8
0
100
AcDbLine
 62
7
  6
CONTINUOUS
 10
39.8371335732
 20
77.5350243167
 11
27.1975472362
 21
84.8323278038
  0
LINE
  5
2A4
100
AcDbEntity
  8
0
100
AcDbLine
 62
7
  6
CONTINUOUS
 10
52.4963881943
 20
70.2513393705
 11
39.8568018573
 21
77.5486428576
  0
LINE
  5
2A5
100
AcDbEntity
  8
0
100
AcDbLine
 62
7
  6
CONTINUOUS
 10
54.3350656445
 20
70.150515979
 11
53.2785083814
 21
70.7605057994
  0
LINE
  5
2A6
100
AcDbEntity
  8
0
100
AcDbLine
 62
7
  6
CONTINUOUS
 10
27.9127563855
 20
85.4910319106
 11
40.5356091353
 21
78.203389346
  0
LINE
  5
2A7
100
AcDbEntity
  8
0
100
AcDbLine
 62
7
  6
CONTINUOUS
 10
40.5719585519
 20
78.2070285425
 11
53.2115448889
 21
70.9097250555
  0
LINE
  5
2A8
100
AcDbEntity
  8
0
100
AcDbLine
 62
7
  6
CONTINUOUS
 10
41.6755227277
 20
79.1509513152
 11
29.0359363907
 21
86.4482548022
  0
LINE
  5
2A9
100
AcDbEntity
  8
0
100
AcDbLine
 62
7
  6
CONTINUOUS
 10
54.3350656445
 20
71.8661568875
 11
41.6954793075
 21
79.1634603745
  0
LINE
  5
2AA
100
AcDbEntity
  8
0
100
AcDbLine
 62
7
  6
CONTINUOUS
 10
53.2115383811
 20
70.9097137834
 11
53.3365645706
 21
70.6311576299
  0
LINE
  5
2AB
100
AcDbEntity
  8
0
100
AcDbLine
 62
7
  6
CONTINUOUS
 10
55.3534088991
 20
113.7611935372
 11
55.3530186002
 21
114.5108471755
  0
LINE
  5
2AC
100
AcDbEntity
  8
0
100
AcDbLine
 62
7
  6
CONTINUOUS
 10
57.2024341816
 20
113.974191608
 11
57.2021448583
 21
114.5298995634
  0
LINE
  5
2AD
100
AcDbEntity
  8
0
100
AcDbLine
 62
7
  6
CONTINUOUS
 10
57.665591026
 20
113.7067939286
 11
57.6653017028
 21
114.2625018544
  0
LINE
  5
2AE
100
AcDbEntity
  8
0
100
AcDbLine
 62
7
  6
CONTINUOUS
 10
57.9481443897
 20
114.2626006645
 11
57.948518808
 21
113.5434491928
  0
LINE
  5
2AF
100
AcDbEntity
  8
0
100
AcDbLine
 62
7
  6
CONTINUOUS
 10
58.1862665451
 20
113.4061885781
 11
58.1857491563
 21
114.3999459175
  0
LINE
  5
2B0
100
AcDbEntity
  8
0
100
AcDbLine
 62
7
  6
CONTINUOUS
 10
58.4555683711
 20
113.2507106137
 11
58.4552541419
 21
113.8542557822
  0
LINE
  5
2B1
100
AcDbEntity
  8
0
100
AcDbLine
 62
7
  6
CONTINUOUS
 10
58.5138333729
 20
113.772612949
 11
58.5141226962
 21
113.2169050232
  0
LINE
  5
2B2
100
AcDbEntity
  8
0
100
AcDbLine
 62
7
  6
CONTINUOUS
 10
85.3062137144
 20
84.6032855991
 11
89.1952848191
 21
86.8486284454
  0
LINE
  5
2B3
100
AcDbEntity
  8
0
100
AcDbLine
 62
7
  6
CONTINUOUS
 10
34.67616966
 20
56.8085061709
 11
34.8283186992
 21
56.8753077092
  0
LINE
  5
2B4
100
AcDbEntity
  8
0
100
AcDbLine
 62
7
  6
CONTINUOUS
 10
86.1547383191
 20
55.9440422923
 11
85.3062137144
 21
56.4339271185
  0
LINE
  5
2B5
100
AcDbEntity
  8
0
100
AcDbLine
 62
7
  6
CONTINUOUS
 10
87.1916846596
 20
58.616636107
 11
85.3062137144
 21
59.7051886384
  0
LINE
  5
2B6
100
AcDbEntity
  8
0
100
AcDbLine
 62
7
  6
CONTINUOUS
 10
60.399487807
 20
113.9598363401
 11
60.398037796
 21
116.7448966892
  0
LINE
  5
2B7
100
AcDbEntity
  8
0
100
AcDbLine
 62
7
  6
CONTINUOUS
 10
60.7945515853
 20
111.9003285751
 11
60.7942622621
 21
112.4560365304
  0
LINE
  5
2B8
100
AcDbEntity
  8
0
100
AcDbLine
 62
7
  6
CONTINUOUS
 10
60.9683693686
 20
114.2886731018
 11
60.9672616625
 21
116.4162625714
  0
LINE
  5
2B9
100
AcDbEntity
  8
0
100
AcDbLine
 62
7
  6
CONTINUOUS
 10
61.1092985369
 20
118.420008506
 11
61.108908238
 21
119.1696621443
  0
LINE
  5
2BA
100
AcDbEntity
  8
0
100
AcDbLine
 62
7
  6
CONTINUOUS
 10
61.2577084297
 20
111.6329308956
 11
61.2574191065
 21
112.1886388215
  0
LINE
  5
2BB
100
AcDbEntity
  8
0
100
AcDbLine
 62
7
  6
CONTINUOUS
 10
61.5402617934
 20
112.1887376315
 11
61.5406362117
 21
111.4695861599
  0
LINE
  5
2BC
100
AcDbEntity
  8
0
100
AcDbLine
 62
7
  6
CONTINUOUS
 10
61.7783839489
 20
111.3323255451
 11
61.77786656
 21
112.3260828845
  0
LINE
  5
2BD
100
AcDbEntity
  8
0
100
AcDbLine
 62
7
  6
CONTINUOUS
 10
62.0476857748
 20
111.1768475807
 11
62.0473715457
 21
111.7803927492
  0
LINE
  5
2BE
100
AcDbEntity
  8
0
100
AcDbLine
 62
7
  6
CONTINUOUS
 10
62.1059507767
 20
111.698749916
 11
62.1062400999
 21
111.1430419902
  0
LINE
  5
2BF
100
AcDbEntity
  8
0
100
AcDbLine
 62
7
  6
CONTINUOUS
 10
62.24005863
 20
115.6814295237
 11
62.2404009347
 21
115.0239592653
  0
LINE
  5
2C0
100
AcDbEntity
  8
0
100
AcDbLine
 62
7
  6
CONTINUOUS
 10
59.9703739462
 20
113.7117910141
 11
59.9702708532
 21
113.968168762
  0
LINE
  5
2C1
100
AcDbEntity
  8
0
100
AcDbLine
 62
7
  6
CONTINUOUS
 10
63.5624913499
 20
111.6379279811
 11
63.5623882569
 21
111.8943057291
  0
LINE
  5
2C2
100
AcDbEntity
  8
0
100
AcDbLine
 62
7
  6
CONTINUOUS
 10
62.6790628487
 20
100.8133591002
 11
62.6790625372
 21
101.7091702838
  0
LINE
  5
2C3
100
AcDbEntity
  8
0
100
AcDbLine
 62
7
  6
CONTINUOUS
 10
50.8829266891
 20
80.0835191526
 11
51.9570512366
 21
79.9646553557
  0
LINE
  5
2C4
100
AcDbEntity
  8
0
100
AcDbLine
 62
7
  6
CONTINUOUS
 10
88.4882079062
 20
59.3651796842
 11
85.3769251156
 21
61.1614390041
  0
LINE
  5
2C5
100
AcDbEntity
  8
0
100
AcDbLine
 62
7
  6
CONTINUOUS
 10
88.988183651
 20
59.41471134
 11
85.8769008603
 21
61.2109706599
  0
LINE
  5
2C6
100
AcDbEntity
  8
0
100
AcDbLine
 62
7
  6
CONTINUOUS
 10
48.2679617906
 20
84.6310334391
 11
48.3253544425
 21
84.5978985256
  0
LINE
  5
2C7
100
AcDbEntity
  8
0
100
AcDbLine
 62
7
  6
CONTINUOUS
 10
63.9916052108
 20
111.8859733071
 11
63.9901551998
 21
114.6710336563
  0
LINE
  5
2C8
100
AcDbEntity
  8
0
100
AcDbLine
 62
7
  6
CONTINUOUS
 10
64.3866689891
 20
109.8264655421
 11
64.3863796658
 21
110.3821734975
  0
LINE
  5
2C9
100
AcDbEntity
  8
0
100
AcDbLine
 62
7
  6
CONTINUOUS
 10
64.5604867723
 20
112.2148100688
 11
64.5593790663
 21
114.3423995384
  0
LINE
  5
2CA
100
AcDbEntity
  8
0
100
AcDbLine
 62
7
  6
CONTINUOUS
 10
64.7470644012
 20
107.9041154745
 11
64.7470565799
 21
107.9191380247
  0
LINE
  5
2CB
100
AcDbEntity
  8
0
100
AcDbLine
 62
7
  6
CONTINUOUS
 10
64.8498258335
 20
109.5590678627
 11
64.8495365103
 21
110.1147757885
  0
LINE
  5
2CC
100
AcDbEntity
  8
0
100
AcDbLine
 62
7
  6
CONTINUOUS
 10
65.1323791972
 20
110.1148745986
 11
65.1327536155
 21
109.3957231269
  0
LINE
  5
2CD
100
AcDbEntity
  8
0
100
AcDbLine
 62
7
  6
CONTINUOUS
 10
65.3705013526
 20
109.2584625121
 11
65.3699839638
 21
110.2522198516
  0
LINE
  5
2CE
100
AcDbEntity
  8
0
100
AcDbLine
 62
7
  6
CONTINUOUS
 10
65.6398031786
 20
109.1029845478
 11
65.6394889494
 21
109.7065297163
  0
LINE
  5
2CF
100
AcDbEntity
  8
0
100
AcDbLine
 62
7
  6
CONTINUOUS
 10
65.6980681804
 20
109.6248868831
 11
65.6983575036
 21
109.0691789572
  0
LINE
  5
2D0
100
AcDbEntity
  8
0
100
AcDbLine
 62
7
  6
CONTINUOUS
 10
65.7585285052
 20
107.7539308341
 11
65.7581382063
 21
108.5035844724
  0
LINE
  5
2D1
100
AcDbEntity
  8
0
100
AcDbLine
 62
7
  6
CONTINUOUS
 10
65.8321760338
 20
113.6075664908
 11
65.8325183384
 21
112.9500962324
  0
LINE
  5
2D2
100
AcDbEntity
  8
0
100
AcDbLine
 62
7
  6
CONTINUOUS
 10
66.1297611104
 20
107.5396044383
 11
66.129378998
 21
108.273534054
  0
LINE
  5
2D3
100
AcDbEntity
  8
0
100
AcDbLine
 62
7
  6
CONTINUOUS
 10
67.5837226145
 20
109.8121102742
 11
67.5822726035
 21
112.5971706233
  0
LINE
  5
2D4
100
AcDbEntity
  8
0
100
AcDbLine
 62
7
  6
CONTINUOUS
 10
67.1546087536
 20
109.5640649482
 11
67.1545056606
 21
109.8204426961
  0
LINE
  5
2D5
100
AcDbEntity
  8
0
100
AcDbLine
 62
7
  6
CONTINUOUS
 10
27.91274987
 20
85.4910206282
 11
27.6125064905
 21
85.4611678765
  0
LINE
  5
2D6
100
AcDbEntity
  8
0
100
AcDbLine
 62
7
  6
CONTINUOUS
 10
42.5227365953
 20
94.3650501753
 11
29.8831502583
 21
101.6623536624
  0
LINE
  5
2D7
100
AcDbEntity
  8
0
100
AcDbLine
 62
7
  6
CONTINUOUS
 10
42.5503569377
 20
94.3813919143
 11
55.1899432747
 21
87.0840884272
  0
LINE
  5
2D8
100
AcDbEntity
  8
0
100
AcDbLine
 62
7
  6
CONTINUOUS
 10
68.1526041761
 20
110.1409470358
 11
68.15149647
 21
112.2685365055
  0
LINE
  5
2D9
100
AcDbEntity
  8
0
100
AcDbLine
 62
7
  6
CONTINUOUS
 10
69.4242934375
 20
111.5337034578
 11
69.4246357422
 21
110.8762331994
  0
LINE
  5
2DA
100
AcDbEntity
  8
0
100
AcDbLine
 62
7
  6
CONTINUOUS
 10
70.7079157509
 20
111.345594063
 11
70.7079057764
 21
111.3647521543
  0
LINE
  5
2DB
100
AcDbEntity
  8
0
100
AcDbLine
 62
7
  6
CONTINUOUS
 10
71.0795286805
 20
110.4007721202
 11
71.079148356
 21
111.1312676669
  0
LINE
  5
2DC
100
AcDbEntity
  8
0
100
AcDbLine
 62
7
  6
CONTINUOUS
 10
68.5123577422
 20
117.1316870931
 11
68.5123577422
 21
112.6323237266
  0
LINE
  5
2DD
100
AcDbEntity
  8
0
100
AcDbLine
 62
7
  6
CONTINUOUS
 10
30.5835637795
 20
102.7747450707
 11
43.2231503162
 21
95.4774416991
  0
LINE
  5
2DE
100
AcDbEntity
  8
0
100
AcDbLine
 62
7
  6
CONTINUOUS
 10
55.8907255394
 20
88.1962078691
 11
43.2511389029
 21
95.4935111832
  0
LINE
  5
2DF
100
AcDbEntity
  8
0
100
AcDbLine
 62
7
  6
CONTINUOUS
 10
72.667006995
 20
111.747313373
 11
72.666616696
 21
112.4969670113
  0
LINE
  5
2E0
100
AcDbEntity
  8
0
100
AcDbLine
 62
7
  6
CONTINUOUS
 10
76.6441195814
 20
107.7414637671
 11
76.6441195814
 21
112.4369184161
  0
LINE
  5
2E1
100
AcDbEntity
  8
0
100
AcDbLine
 62
7
  6
CONTINUOUS
 10
77.0233538325
 20
116.1019295539
 11
77.0258869158
 21
116.1633417376
  0
LINE
  5
2E2
100
AcDbEntity
  8
0
100
AcDbLine
 62
7
  6
CONTINUOUS
 10
85.3769251156
 20
61.1614390041
 11
85.3062137144
 21
61.1206140013
  0
LINE
  5
2E3
100
AcDbEntity
  8
0
100
AcDbLine
 62
7
  6
CONTINUOUS
 10
76.8208687506
 20
115.9503643573
 11
76.8208687506
 21
116.5283206184
  0
LINE
  5
2E4
100
AcDbEntity
  8
0
100
AcDbLine
 62
7
  6
CONTINUOUS
 10
77.025891943
 20
116.1633406796
 11
77.025891943
 21
116.8140891466
  0
LINE
  5
2E5
100
AcDbEntity
  8
0
100
AcDbLine
 62
7
  6
CONTINUOUS
 10
78.9775622442
 20
109.0886694749
 11
78.9775622442
 21
113.7841241239
  0
LINE
  5
2E6
100
AcDbEntity
  8
0
100
AcDbLine
 62
7
  6
CONTINUOUS
 10
88.4882079062
 20
59.3651796842
 11
87.1916846596
 21
58.616636107
  0
LINE
  5
2E7
100
AcDbEntity
  8
0
100
AcDbLine
 62
7
  6
CONTINUOUS
 10
86.1547383191
 20
55.9440422923
 11
85.3062137144
 21
55.4541493076
  0
LINE
  5
2E8
100
AcDbEntity
  8
0
100
AcDbLine
 62
7
  6
CONTINUOUS
 10
60.2073452547
 20
113.8487701025
 11
60.1048096854
 21
114.0458443294
  0
LINE
  5
2E9
100
AcDbEntity
  8
0
100
AcDbLine
 62
7
  6
CONTINUOUS
 10
37.9611611628
 20
24.1177859607
 11
52.2844645165
 21
32.3872996453
  0
LINE
  5
2EA
100
AcDbEntity
  8
0
100
AcDbLine
 62
7
  6
CONTINUOUS
 10
53.343896882
 20
32.9989595556
 11
54.3350656445
 21
33.5712076916
  0
LINE
  5
2EB
100
AcDbEntity
  8
0
100
AcDbLine
 62
7
  6
CONTINUOUS
 10
64.3863796658
 20
110.3821734975
 11
63.7393784448
 21
110.2001704578
  0
LINE
  5
2EC
100
AcDbEntity
  8
0
100
AcDbLine
 62
7
  6
CONTINUOUS
 10
61.9018062218
 20
101.2604238195
 11
62.0694271456
 21
101.165324475
  0
LINE
  5
2ED
100
AcDbEntity
  8
0
100
AcDbLine
 62
7
  6
CONTINUOUS
 10
62.0694271456
 20
101.165324475
 11
65.863070821
 21
98.975112827
  0
LINE
  5
2EE
100
AcDbEntity
  8
0
100
AcDbLine
 62
7
  6
CONTINUOUS
 10
68.0264741219
 20
98.6219106089
 11
66.6388769979
 21
99.4230220584
  0
LINE
  5
2EF
100
AcDbEntity
  8
0
100
AcDbLine
 62
7
  6
CONTINUOUS
 10
62.6790625372
 20
101.7091702838
 11
61.2914649022
 21
102.5102820091
  0
LINE
  5
2F0
100
AcDbEntity
  8
0
100
AcDbLine
 62
7
  6
CONTINUOUS
 10
58.5138333729
 20
113.772612949
 11
58.4552584813
 21
113.8542557845
  0
LINE
  5
2F1
100
AcDbEntity
  8
0
100
AcDbLine
 62
7
  6
CONTINUOUS
 10
62.1059507767
 20
111.698749916
 11
62.047375885
 21
111.7803927515
  0
LINE
  5
2F2
100
AcDbEntity
  8
0
100
AcDbLine
 62
7
  6
CONTINUOUS
 10
63.7994626585
 20
111.7749070695
 11
63.6969270892
 21
111.9719812964
  0
LINE
  5
2F3
100
AcDbEntity
  8
0
100
AcDbLine
 62
7
  6
CONTINUOUS
 10
67.3915800622
 20
109.7010440366
 11
67.2890444929
 21
109.8981182635
  0
LINE
  5
2F4
100
AcDbEntity
  8
0
100
AcDbLine
 62
7
  6
CONTINUOUS
 10
85.3062137144
 20
55.4541493076
 11
85.3062137144
 21
84.6032855991
  0
LINE
  5
2F5
100
AcDbEntity
  8
0
100
AcDbLine
 62
7
  6
CONTINUOUS
 10
89.1952848191
 20
46.0571304182
 11
89.1952848191
 21
58.9569369662
  0
LINE
  5
2F6
100
AcDbEntity
  8
0
100
AcDbLine
 62
7
  6
CONTINUOUS
 10
89.1952848191
 20
86.8486284454
 11
89.1952848191
 21
106.6080180299
  0
LINE
  5
2F7
100
AcDbEntity
  8
0
100
AcDbLine
 62
7
  6
CONTINUOUS
 10
86.1547383191
 20
55.9440422923
 11
87.1916846596
 21
58.616636107
  0
LINE
  5
2F8
100
AcDbEntity
  8
0
100
AcDbLine
 62
7
  6
CONTINUOUS
 10
60.7942622621
 20
112.4560365304
 11
60.147261041
 21
112.2740334907
  0
LINE
  5
2F9
100
AcDbEntity
  8
0
100
AcDbLine
 62
7
  6
CONTINUOUS
 10
65.6980681804
 20
109.6248868831
 11
65.6394932888
 21
109.7065297186
  0
LINE
  5
2FA
100
AcDbEntity
  8
0
100
AcDbLine
 62
7
  6
CONTINUOUS
 10
89.1952848191
 20
46.0571304182
 11
88.0962351448
 21
38.225244116
  0
LINE
  5
2FB
100
AcDbEntity
  8
0
100
AcDbLine
 62
7
  6
CONTINUOUS
 10
57.2021448583
 20
114.5298995634
 11
56.5551436373
 21
114.3478965237
  0
LINE
  5
2FC
100
AcDbEntity
  8
0
100
AcDbLine
 62
7
  6
CONTINUOUS
 10
66.2708858583
 20
107.0243566485
 11
64.7470644006
 21
107.9041154745
  0
LINE
  5
2FD
100
AcDbEntity
  8
0
100
AcDbLine
 62
7
  6
CONTINUOUS
 10
53.2308155808
 20
114.5678924507
 11
64.7470565799
 21
107.9191380247
  0
LINE
  5
2FE
100
AcDbEntity
  8
0
100
AcDbLine
 62
7
  6
CONTINUOUS
 10
55.3534088991
 20
113.7611935372
 11
66.1297611104
 21
107.5396044383
  0
LINE
  5
2FF
100
AcDbEntity
  8
0
100
AcDbLine
 62
7
  6
CONTINUOUS
 10
66.129378998
 20
108.273534054
 11
65.7581463923
 21
108.4878604501
  0
LINE
  5
300
100
AcDbEntity
  8
0
100
AcDbLine
 62
7
  6
CONTINUOUS
 10
65.7581382063
 20
108.5035844724
 11
55.3530186002
 21
114.5108471755
  0
LINE
  5
301
100
AcDbEntity
  8
0
100
AcDbLine
 62
7
  6
CONTINUOUS
 10
65.8465654257
 20
108.9836130093
 11
63.7393784448
 21
110.2001704578
  0
LINE
  5
302
100
AcDbEntity
  8
0
100
AcDbLine
 62
7
  6
CONTINUOUS
 10
62.254448022
 20
111.0574760422
 11
60.147261041
 21
112.2740334907
  0
LINE
  5
303
100
AcDbEntity
  8
0
100
AcDbLine
 62
7
  6
CONTINUOUS
 10
58.6623306182
 20
113.1313390752
 11
56.5551436373
 21
114.3478965237
  0
LINE
  5
304
100
AcDbEntity
  8
0
100
AcDbLine
 62
7
  6
CONTINUOUS
 10
57.2021448583
 20
114.5298995634
 11
57.6653017028
 21
114.2625018544
  0
LINE
  5
305
100
AcDbEntity
  8
0
100
AcDbLine
 62
7
  6
CONTINUOUS
 10
60.7942622621
 20
112.4560365304
 11
61.2574191065
 21
112.1886388215
  0
LINE
  5
306
100
AcDbEntity
  8
0
100
AcDbLine
 62
7
  6
CONTINUOUS
 10
58.5138333729
 20
113.772612949
 11
58.9769902685
 21
113.5052152696
  0
LINE
  5
307
100
AcDbEntity
  8
0
100
AcDbLine
 62
7
  6
CONTINUOUS
 10
62.1059507767
 20
111.698749916
 11
62.5691076722
 21
111.4313522366
  0
LINE
  5
308
100
AcDbEntity
  8
0
100
AcDbLine
 62
7
  6
CONTINUOUS
 10
64.3863796658
 20
110.3821734975
 11
64.8495365103
 21
110.1147757885
  0
LINE
  5
309
100
AcDbEntity
  8
0
100
AcDbLine
 62
7
  6
CONTINUOUS
 10
65.6980681804
 20
109.6248868831
 11
66.1612250759
 21
109.3574892036
  0
LINE
  5
30A
100
AcDbEntity
  8
0
100
AcDbLine
 62
7
  6
CONTINUOUS
 10
66.8584499352
 20
109.3928730633
 11
65.9356717439
 21
109.9256272479
  0
LINE
  5
30B
100
AcDbEntity
  8
0
100
AcDbLine
 62
7
  6
CONTINUOUS
 10
65.3699839638
 20
110.2522198516
 11
64.4472057725
 21
110.7849740362
  0
LINE
  5
30C
100
AcDbEntity
  8
0
100
AcDbLine
 62
7
  6
CONTINUOUS
 10
63.2663325315
 20
111.4667360963
 11
62.3435543402
 21
111.9994902809
  0
LINE
  5
30D
100
AcDbEntity
  8
0
100
AcDbLine
 62
7
  6
CONTINUOUS
 10
61.77786656
 20
112.3260828845
 11
60.8550883687
 21
112.8588370692
  0
LINE
  5
30E
100
AcDbEntity
  8
0
100
AcDbLine
 62
7
  6
CONTINUOUS
 10
59.6742151277
 20
113.5405991292
 11
58.7514369364
 21
114.0733533139
  0
LINE
  5
30F
100
AcDbEntity
  8
0
100
AcDbLine
 62
7
  6
CONTINUOUS
 10
58.1857491563
 20
114.3999459175
 11
57.262970965
 21
114.9327001021
  0
LINE
  5
310
100
AcDbEntity
  8
0
100
AcDbLine
 62
7
  6
CONTINUOUS
 10
67.1545056606
 20
109.8204426961
 11
67.019965809
 21
109.8981175584
  0
LINE
  5
311
100
AcDbEntity
  8
0
100
AcDbLine
 62
7
  6
CONTINUOUS
 10
63.5623882569
 20
111.8943057291
 11
63.4278484053
 21
111.9719805914
  0
LINE
  5
312
100
AcDbEntity
  8
0
100
AcDbLine
 62
7
  6
CONTINUOUS
 10
59.9702708532
 20
113.968168762
 11
59.623598084
 21
114.1683158507
  0
LINE
  5
313
100
AcDbEntity
  8
0
100
AcDbLine
 62
7
  6
CONTINUOUS
 10
59.7581369162
 20
114.245991418
 11
60.1048096854
 21
114.0458443294
  0
LINE
  5
314
100
AcDbEntity
  8
0
100
AcDbLine
 62
7
  6
CONTINUOUS
 10
63.5623872375
 20
112.0496561587
 11
63.6969270892
 21
111.9719812964
  0
LINE
  5
315
100
AcDbEntity
  8
0
100
AcDbLine
 62
7
  6
CONTINUOUS
 10
67.1545046413
 20
109.9757931258
 11
67.2890444929
 21
109.8981182635
  0
LINE
  5
316
100
AcDbEntity
  8
0
100
AcDbLine
 62
7
  6
CONTINUOUS
 10
55.8907243156
 20
18.9568021961
 11
87.3999002951
 21
37.1485247897
  0
LINE
  5
317
100
AcDbEntity
  8
0
100
AcDbLine
 62
7
  6
CONTINUOUS
 10
60.398037796
 20
116.7448966892
 11
60.9672616625
 21
116.4162625714
  0
LINE
  5
318
100
AcDbEntity
  8
0
100
AcDbLine
 62
7
  6
CONTINUOUS
 10
62.24005863
 20
115.6814295237
 11
62.8092819588
 21
115.3527957163
  0
LINE
  5
319
100
AcDbEntity
  8
0
100
AcDbLine
 62
7
  6
CONTINUOUS
 10
63.9901551998
 20
114.6710336563
 11
64.5593790663
 21
114.3423995384
  0
LINE
  5
31A
100
AcDbEntity
  8
0
100
AcDbLine
 62
7
  6
CONTINUOUS
 10
65.8321760338
 20
113.6075664908
 11
66.4013993625
 21
113.2789326834
  0
LINE
  5
31B
100
AcDbEntity
  8
0
100
AcDbLine
 62
7
  6
CONTINUOUS
 10
67.5822726035
 20
112.5971706233
 11
68.15149647
 21
112.2685365055
  0
LINE
  5
31C
100
AcDbEntity
  8
0
100
AcDbLine
 62
7
  6
CONTINUOUS
 10
69.4242934375
 20
111.5337034578
 11
69.9935167663
 21
111.2050696504
  0
LINE
  5
31D
100
AcDbEntity
  8
0
100
AcDbLine
 62
7
  6
CONTINUOUS
 10
71.079148356
 20
111.1312676669
 11
70.7079157503
 21
111.345594063
  0
LINE
  5
31E
100
AcDbEntity
  8
0
100
AcDbLine
 62
7
  6
CONTINUOUS
 10
60.3027861703
 20
117.3720148574
 11
70.7079057764
 21
111.3647521543
  0
LINE
  5
31F
100
AcDbEntity
  8
0
100
AcDbLine
 62
7
  6
CONTINUOUS
 10
61.1092985369
 20
118.4200085059
 11
73.5591787751
 21
111.2322294083
  0
LINE
  5
320
100
AcDbEntity
  8
0
100
AcDbLine
 62
7
  6
CONTINUOUS
 10
74.1904488351
 20
111.5966911719
 11
72.6666273774
 21
112.4764499979
  0
LINE
  5
321
100
AcDbEntity
  8
0
100
AcDbLine
 62
7
  6
CONTINUOUS
 10
72.666616696
 20
112.4969670113
 11
61.1089082379
 21
119.1696621442
  0
LINE
  5
322
100
AcDbEntity
  8
0
100
AcDbLine
 62
7
  6
CONTINUOUS
 10
71.6676464193
 20
116.4108838502
 11
72.0050581943
 21
116.2346862704
  0
LINE
  5
323
100
AcDbEntity
  8
0
100
AcDbLine
 62
7
  6
CONTINUOUS
 10
68.9459627625
 20
117.5164976043
 11
69.2901784401
 21
117.3259204685
  0
LINE
  5
324
100
AcDbEntity
  8
0
100
AcDbLine
 62
7
  6
CONTINUOUS
 10
70.6336869176
 20
114.5074697051
 11
71.4468631015
 21
114.0379928374
  0
LINE
  5
325
100
AcDbEntity
  8
0
100
AcDbLine
 62
7
  6
CONTINUOUS
 10
73.709614222
 20
112.7316224229
 11
74.5227904059
 21
112.2621455552
  0
LINE
  5
326
100
AcDbEntity
  8
0
100
AcDbLine
 62
7
  6
CONTINUOUS
 10
69.4972104778
 20
117.970857097
 11
63.1810404533
 21
121.6174170647
  0
LINE
  5
327
100
AcDbEntity
  8
0
100
AcDbLine
 62
7
  6
CONTINUOUS
 10
88.4882079062
 20
107.0162607479
 11
78.9775622442
 21
112.5071103614
  0
LINE
  5
328
100
AcDbEntity
  8
0
100
AcDbLine
 62
7
  6
CONTINUOUS
 10
69.7905176407
 20
118.1401970556
 11
63.6811469747
 21
121.6673638593
  0
LINE
  5
329
100
AcDbEntity
  8
0
100
AcDbLine
 62
7
  6
CONTINUOUS
 10
88.988183651
 20
107.0657924037
 11
78.9775622442
 21
112.8452966178
  0
LINE
  5
32A
100
AcDbEntity
  8
0
100
AcDbLine
 62
7
  6
CONTINUOUS
 10
73.1514191293
 20
115.5728494488
 11
73.4888309042
 21
115.3594462843
  0
LINE
  5
32B
100
AcDbEntity
  8
0
100
AcDbLine
 62
7
  6
CONTINUOUS
 10
74.3385008571
 20
117.5818919782
 11
74.0010890822
 21
117.758089558
  0
LINE
  5
32C
100
AcDbEntity
  8
0
100
AcDbLine
 62
7
  6
CONTINUOUS
 10
71.6236211027
 20
118.6731261763
 11
71.2794054253
 21
118.863703312
  0
LINE
  5
32D
100
AcDbEntity
  8
0
100
AcDbLine
 62
7
  6
CONTINUOUS
 10
76.2551809705
 20
117.5081151558
 11
75.6894931904
 21
117.8347077594
  0
LINE
  5
32E
100
AcDbEntity
  8
0
100
AcDbLine
 62
7
  6
CONTINUOUS
 10
76.605175032
 20
117.5427846749
 11
76.0394872519
 21
117.8693772786
  0
LINE
  5
32F
100
AcDbEntity
  8
0
100
AcDbLine
 62
7
  6
CONTINUOUS
 10
75.822273567
 20
116.7066519921
 11
75.4848617921
 21
116.9200551565
  0
ARC
  5
330
100
AcDbEntity
  8
0
100
AcDbCircle
 62
7
  6
CONTINUOUS
 10
270.1891383697
 20
38.4081226833
 40
236.0846292084
100
AcDbArc
 50
174.7234691658
 51
175.5136344885
  0
ARC
  5
331
100
AcDbEntity
  8
0
100
AcDbCircle
 62
7
  6
CONTINUOUS
 10
257.3539535036
 20
45.8098768737
 40
235.8961392658
100
AcDbArc
 50
174.7503119792
 51
175.5408789281
  0
ARC
  5
332
100
AcDbEntity
  8
0
100
AcDbCircle
 62
7
  6
CONTINUOUS
 10
261.5877762815
 20
42.7922895763
 40
234.8985139921
100
AcDbArc
 50
174.7548090365
 51
175.5572716185
  0
ARC
  5
333
100
AcDbEntity
  8
0
100
AcDbCircle
 62
7
  6
CONTINUOUS
 10
248.7523915725
 20
50.1934985558
 40
234.7098710688
100
AcDbArc
 50
174.7816811149
 51
175.5845787996
  0
ARC
  5
334
100
AcDbEntity
  8
0
100
AcDbCircle
 62
7
  6
CONTINUOUS
 10
62.3767795534
 20
90.8477268438
 40
28.9616514298
100
AcDbArc
 50
58.9431344341
 51
60.6952999188
  0
ARC
  5
335
100
AcDbEntity
  8
0
100
AcDbCircle
 62
7
  6
CONTINUOUS
 10
60.1718653017
 20
89.721525526
 40
28.7060206879
100
AcDbArc
 50
58.9353321903
 51
60.7031021625
  0
ARC
  5
336
100
AcDbEntity
  8
0
100
AcDbCircle
 62
7
  6
CONTINUOUS
 10
42.3478678402
 20
25.4069449826
 40
9.8685172165
100
AcDbArc
 50
25.7944962316
 51
36.3096980331
  0
ARC
  5
337
100
AcDbEntity
  8
0
100
AcDbCircle
 62
7
  6
CONTINUOUS
 10
43.6566152378
 20
94.2415624964
 40
1.1405831841
100
AcDbArc
 50
172.7244429771
 51
173.7857682264
  0
ARC
  5
338
100
AcDbEntity
  8
0
100
AcDbCircle
 62
7
  6
CONTINUOUS
 10
26.3050706774
 20
67.0767239855
 40
1.1221243194
100
AcDbArc
 50
173.1895827856
 51
174.4331248988
  0
ARC
  5
339
100
AcDbEntity
  8
0
100
AcDbCircle
 62
7
  6
CONTINUOUS
 10
40.574617518
 20
77.4136321921
 40
0.7474079319
100
AcDbArc
 50
169.3118244247
 51
170.6527557293
  0
ARC
  5
33A
100
AcDbEntity
  8
0
100
AcDbCircle
 62
7
  6
CONTINUOUS
 10
40.520111325
 20
77.7004496271
 40
0.5353383575
100
AcDbArc
 50
117.4292244365
 51
120.0431797471
  0
ARC
  5
33B
100
AcDbEntity
  8
0
100
AcDbCircle
 62
7
  6
CONTINUOUS
 10
24.9909398171
 20
31.6479297446
 40
0.340312251
100
AcDbArc
 50
240.0725530063
 51
251.5372489875
  0
ARC
  5
33C
100
AcDbEntity
  8
0
100
AcDbCircle
 62
7
  6
CONTINUOUS
 10
42.9189929717
 20
26.4954432244
 40
0.3357878507
100
AcDbArc
 50
231.1996072726
 51
240.0120666626
  0
ARC
  5
33D
100
AcDbEntity
  8
0
100
AcDbCircle
 62
7
  6
CONTINUOUS
 10
40.470917885
 20
78.0318784264
 40
0.2021672914
100
AcDbArc
 50
64.9157265217
 51
68.7346529436
  0
ARC
  5
33E
100
AcDbEntity
  8
0
100
AcDbCircle
 62
7
  6
CONTINUOUS
 10
40.4724114477
 20
78.0350891787
 40
0.1986261635
100
AcDbArc
 50
59.9305979273
 51
64.9132736068
  0
SPLINE
  5
33F
100
AcDbEntity
  8
0
100
AcDbSpline
 62
7
  6
CONTINUOUS
 70
0
 71
3
 72
11
 73
7
 74
0
 42
0.0000001
 43
0.0000001
 44
0.0000000001
 40
0.0
 40
0.0
 40
0.0
 40
0.0
 40
0.2395531423
 40
0.4900579422
 40
0.7456306928
 40
1.0
 40
1.0
 40
1.0
 40
1.0
 10
50.1651560189
 20
28.0837397938
 30
0.0
 10
50.0016842882
 20
28.2251375843
 30
0.0
 10
49.6869941453
 20
28.5377503483
 30
0.0
 10
49.2686513806
 20
29.0663933728
 30
0.0
 10
48.9048543114
 20
29.6497193846
 30
0.0
 10
48.7053228902
 20
30.0655700786
 30
0.0
 10
48.6181610117
 20
30.2778825571
 30
0.0
  0
SPLINE
  5
340
100
AcDbEntity
  8
0
100
AcDbSpline
 62
7
  6
CONTINUOUS
 70
0
 71
3
 72
13
 73
9
 74
0
 42
0.0000001
 43
0.0000001
 44
0.0000000001
 40
0.0
 40
0.0
 40
0.0
 40
0.0
 40
0.1249295085
 40
0.2500036976
 40
0.5000310051
 40
0.7500397974
 40
0.8750850934
 40
1.0
 40
1.0
 40
1.0
 40
1.0
 10
76.605175032
 20
117.5427846749
 30
0.0
 10
76.6368582673
 20
117.5244927643
 30
0.0
 10
76.6978063517
 20
117.4834310044
 30
0.0
 10
76.8074888947
 20
117.3858981617
 30
0.0
 10
76.9194527959
 20
117.2384094369
 30
0.0
 10
76.9911865893
 20
117.0677064256
 30
0.0
 10
77.0208086115
 20
116.9239701904
 30
0.0
 10
77.025891943
 20
116.8506693126
 30
0.0
 10
77.025891943
 20
116.8140891466
 30
0.0
  0
SPLINE
  5
341
100
AcDbEntity
  8
0
100
AcDbSpline
 62
7
  6
CONTINUOUS
 70
0
 71
3
 72
11
 73
7
 74
0
 42
0.0000001
 43
0.0000001
 44
0.0000000001
 40
0.0
 40
0.0
 40
0.0
 40
0.0
 40
0.2501193974
 40
0.5001768638
 40
0.7501357843
 40
1.0
 40
1.0
 40
1.0
 40
1.0
 10
75.2894949811
 20
117.8743271826
 30
0.0
 10
75.3460592622
 20
117.9069843906
 30
0.0
 10
75.4685840653
 20
117.9573264418
 30
0.0
 10
75.6652407811
 20
117.9814260861
 30
0.0
 10
75.8612604667
 20
117.9534827192
 30
0.0
 10
75.9829804446
 20
117.9020007609
 30
0.0
 10
76.0394872519
 20
117.8693772786
 30
0.0
  0
SPLINE
  5
342
100
AcDbEntity
  8
0
100
AcDbSpline
 62
7
  6
CONTINUOUS
 70
0
 71
3
 72
11
 73
7
 74
0
 42
0.0000001
 43
0.0000001
 44
0.0000000001
 40
0.0
 40
0.0
 40
0.0
 40
0.0
 40
0.2761467541
 40
0.5323922289
 40
0.7720358039
 40
1.0
 40
1.0
 40
1.0
 40
1.0
 10
76.9005931579
 20
115.905580404
 30
0.0
 10
76.9173429046
 20
115.9194854806
 30
0.0
 10
76.94793664
 20
115.9484708087
 30
0.0
 10
76.9851307637
 20
115.9970133555
 30
0.0
 10
77.0111272838
 20
116.0482030339
 30
0.0
 10
77.020724502
 20
116.0841519353
 30
0.0
 10
77.0233538325
 20
116.1019295539
 30
0.0
  0
SPLINE
  5
343
100
AcDbEntity
  8
0
100
AcDbSpline
 62
7
  6
CONTINUOUS
 70
0
 71
3
 72
15
 73
11
 74
0
 42
0.0000001
 43
0.0000001
 44
0.0000000001
 40
0.0
 40
0.0
 40
0.0
 40
0.0
 40
0.1118613556
 40
0.2315720031
 40
0.3574030891
 40
0.4872869538
 40
0.6188848534
 40
0.7497590358
 40
0.8775474462
 40
1.0
 40
1.0
 40
1.0
 40
1.0
 10
78.9775622442
 20
113.7841241239
 30
0.0
 10
78.9775622442
 20
113.8218951057
 30
0.0
 10
78.9717255232
 20
113.9001482843
 30
0.0
 10
78.948023061
 20
114.0187282953
 30
0.0
 10
78.9096876423
 20
114.1398073144
 30
0.0
 10
78.8577853248
 20
114.2600744479
 30
0.0
 10
78.7937136778
 20
114.3762638695
 30
0.0
 10
78.7192271251
 20
114.4852214998
 30
0.0
 10
78.6363607984
 20
114.583945602
 30
0.0
 10
78.5753895987
 20
114.6427447149
 30
0.0
 10
78.5439572238
 20
114.6696072588
 30
0.0
  0
SPLINE
  5
344
100
AcDbEntity
  8
0
100
AcDbSpline
 62
7
  6
CONTINUOUS
 70
0
 71
3
 72
9
 73
5
 74
0
 42
0.0000001
 43
0.0000001
 44
0.0000000001
 40
0.0
 40
0.0
 40
0.0
 40
0.0
 40
0.5262145257
 40
1.0
 40
1.0
 40
1.0
 40
1.0
 10
78.5439572238
 20
114.6696072588
 30
0.0
 10
78.4901810942
 20
114.7155650856
 30
0.0
 10
78.3815326006
 20
114.7957600106
 30
0.0
 10
78.2598626127
 20
114.8554636843
 30
0.0
 10
78.1997415465
 20
114.8764871593
 30
0.0
  0
SPLINE
  5
345
100
AcDbEntity
  8
0
100
AcDbSpline
 62
7
  6
CONTINUOUS
 70
0
 71
3
 72
11
 73
7
 74
0
 42
0.0000001
 43
0.0000001
 44
0.0000000001
 40
0.0
 40
0.0
 40
0.0
 40
0.0
 40
0.2320924501
 40
0.4775087191
 40
0.734289725
 40
1.0
 40
1.0
 40
1.0
 40
1.0
 10
78.1997415465
 20
114.8764871593
 30
0.0
 10
78.1203823776
 20
114.9223041603
 30
0.0
 10
77.9624908244
 20
115.0261033076
 30
0.0
 10
77.7369465372
 20
115.2088967215
 30
0.0
 10
77.5192304838
 20
115.420430959
 30
0.0
 10
77.3835535189
 20
115.5761744818
 30
0.0
 10
77.31776398
 20
115.6578908478
 30
0.0
  0
SPLINE
  5
346
100
AcDbEntity
  8
0
100
AcDbSpline
 62
7
  6
CONTINUOUS
 70
0
 71
3
 72
11
 73
7
 74
0
 42
0.0000001
 43
0.0000001
 44
0.0000000001
 40
0.0
 40
0.0
 40
0.0
 40
0.0
 40
0.2343516268
 40
0.4800183804
 40
0.7357552984
 40
1.0
 40
1.0
 40
1.0
 40
1.0
 10
76.552175333
 20
116.103130385
 30
0.0
 10
76.4878661169
 20
116.1402585116
 30
0.0
 10
76.3596764771
 20
116.2225527781
 30
0.0
 10
76.1744082761
 20
116.364448127
 30
0.0
 10
75.9934250888
 20
116.5263308957
 30
0.0
 10
75.8785733798
 20
116.6446765074
 30
0.0
 10
75.822273567
 20
116.7066519921
 30
0.0
  0
SPLINE
  5
347
100
AcDbEntity
  8
0
100
AcDbSpline
 62
7
  6
CONTINUOUS
 70
0
 71
3
 72
9
 73
5
 74
0
 42
0.0000001
 43
0.0000001
 44
0.0000000001
 40
0.0
 40
0.0
 40
0.0
 40
0.0
 40
0.476816391
 40
1.0
 40
1.0
 40
1.0
 40
1.0
 10
75.4848617921
 20
116.9200551565
 30
0.0
 10
75.3884634222
 20
116.9375568389
 30
0.0
 10
75.1900185065
 20
116.9960665717
 30
0.0
 10
75.0047809663
 20
117.0869455812
 30
0.0
 10
74.9116813246
 20
117.1406954685
 30
0.0
  0
SPLINE
  5
348
100
AcDbEntity
  8
0
100
AcDbSpline
 62
7
  6
CONTINUOUS
 70
0
 71
3
 72
9
 73
5
 74
0
 42
0.0000001
 43
0.0000001
 44
0.0000000001
 40
0.0
 40
0.0
 40
0.0
 40
0.0
 40
0.4832258417
 40
1.0
 40
1.0
 40
1.0
 40
1.0
 10
74.9116813246
 20
117.1406954685
 30
0.0
 10
74.810589332
 20
117.1990596372
 30
0.0
 10
74.6101556232
 20
117.3353510572
 30
0.0
 10
74.4279664012
 20
117.494831391
 30
0.0
 10
74.3385008571
 20
117.5818919782
 30
0.0
  0
SPLINE
  5
349
100
AcDbEntity
  8
0
100
AcDbSpline
 62
7
  6
CONTINUOUS
 70
0
 71
3
 72
10
 73
6
 74
0
 42
0.0000001
 43
0.0000001
 44
0.0000000001
 40
0.0
 40
0.0
 40
0.0
 40
0.0
 40
0.469434149
 40
0.7270437258
 40
1.0
 40
1.0
 40
1.0
 40
1.0
 10
74.0010890822
 20
117.758089558
 30
0.0
 10
73.8801683086
 20
117.7646026964
 30
0.0
 10
73.6939262751
 20
117.8040275153
 30
0.0
 10
73.4539211225
 20
117.8989609542
 30
0.0
 10
73.3321675963
 20
117.962160727
 30
0.0
 10
73.2711884015
 20
117.9973662198
 30
0.0
  0
SPLINE
  5
34A
100
AcDbEntity
  8
0
100
AcDbSpline
 62
7
  6
CONTINUOUS
 70
0
 71
3
 72
9
 73
5
 74
0
 42
0.0000001
 43
0.0000001
 44
0.0000000001
 40
0.0
 40
0.0
 40
0.0
 40
0.0
 40
0.5155770529
 40
1.0
 40
1.0
 40
1.0
 40
1.0
 10
73.2711884015
 20
117.9973662198
 30
0.0
 10
73.1477869888
 20
118.085894029
 30
0.0
 10
72.9002724943
 20
118.2465951156
 30
0.0
 10
72.6367504123
 20
118.3799095297
 30
0.0
 10
72.5055986691
 20
118.4361329332
 30
0.0
  0
SPLINE
  5
34B
100
AcDbEntity
  8
0
100
AcDbSpline
 62
7
  6
CONTINUOUS
 70
0
 71
3
 72
11
 73
7
 74
0
 42
0.0000001
 43
0.0000001
 44
0.0000000001
 40
0.0
 40
0.0
 40
0.0
 40
0.0
 40
0.2234551327
 40
0.463368141
 40
0.7219942073
 40
1.0
 40
1.0
 40
1.0
 40
1.0
 10
72.5055986691
 20
118.4361329332
 30
0.0
 10
72.4368552729
 20
118.4301238586
 30
0.0
 10
72.2927754443
 20
118.4323675991
 30
0.0
 10
72.0729582632
 20
118.4747562634
 30
0.0
 10
71.846180408
 20
118.555038648
 30
0.0
 10
71.6979710234
 20
118.6302012007
 30
0.0
 10
71.6236211027
 20
118.6731261763
 30
0.0
  0
SPLINE
  5
34C
100
AcDbEntity
  8
0
100
AcDbSpline
 62
7
  6
CONTINUOUS
 70
0
 71
3
 72
11
 73
7
 74
0
 42
0.0000001
 43
0.0000001
 44
0.0000000001
 40
0.0
 40
0.0
 40
0.0
 40
0.0
 40
0.2747618894
 40
0.5295707108
 40
0.7689498616
 40
1.0
 40
1.0
 40
1.0
 40
1.0
 10
71.2794054253
 20
118.863703312
 30
0.0
 10
71.2552104462
 20
118.8709632704
 30
0.0
 10
71.2074236805
 20
118.881546512
 30
0.0
 10
71.1363440748
 20
118.8842673762
 30
0.0
 10
71.0701167963
 20
118.8728839811
 30
0.0
 10
71.029888363
 20
118.8557386172
 30
0.0
 10
71.0114909767
 20
118.8451198182
 30
0.0
  0
SPLINE
  5
34D
100
AcDbEntity
  8
0
100
AcDbSpline
 62
7
  6
CONTINUOUS
 70
0
 71
3
 72
15
 73
11
 74
0
 42
0.0000001
 43
0.0000001
 44
0.0000000001
 40
0.0
 40
0.0
 40
0.0
 40
0.0
 40
0.1141555516
 40
0.2373276756
 40
0.3669773296
 40
0.5000011
 40
0.6330247168
 40
0.7626739247
 40
0.885845342
 40
1.0
 40
1.0
 40
1.0
 40
1.0
 10
75.2299001311
 20
111.0374023836
 30
0.0
 10
75.2299001311
 20
111.0932984585
 30
0.0
 10
75.2196619697
 20
111.2096140993
 30
0.0
 10
75.178847745
 20
111.3850888735
 30
0.0
 10
75.1134657116
 20
111.5628307473
 30
0.0
 10
75.0259593267
 20
111.7361560572
 30
0.0
 10
74.9196077421
 20
111.8986007757
 30
0.0
 10
74.7983694181
 20
112.0440930857
 30
0.0
 10
74.6668108621
 20
112.1671751117
 30
0.0
 10
74.5711977216
 20
112.2341982108
 30
0.0
 10
74.5227904059
 20
112.2621455552
 30
0.0
  0
SPLINE
  5
34E
100
AcDbEntity
  8
0
100
AcDbSpline
 62
7
  6
CONTINUOUS
 70
0
 71
3
 72
14
 73
10
 74
0
 42
0.0000001
 43
0.0000001
 44
0.0000000001
 40
0.0
 40
0.0
 40
0.0
 40
0.0
 40
0.2892720607
 40
0.422554976
 40
0.5484985194
 40
0.6678874407
 40
0.781868291
 40
0.8919528621
 40
1.0
 40
1.0
 40
1.0
 40
1.0
 10
70.6336869176
 20
114.5074697051
 30
0.0
 10
70.5897926905
 20
114.5328114757
 30
0.0
 10
70.5223999841
 20
114.5648870133
 30
0.0
 10
70.4299796522
 20
114.5918321002
 30
0.0
 10
70.3643809278
 20
114.602839352
 30
0.0
 10
70.3012636375
 20
114.6050222996
 30
0.0
 10
70.241219256
 20
114.5983384541
 30
0.0
 10
70.184897259
 20
114.5827525078
 30
0.0
 10
70.1500850466
 20
114.5664581261
 30
0.0
 10
70.1336900097
 20
114.5569925056
 30
0.0
  0
SPLINE
  5
34F
100
AcDbEntity
  8
0
100
AcDbSpline
 62
7
  6
CONTINUOUS
 70
0
 71
3
 72
24
 73
20
 74
0
 42
0.0000001
 43
0.0000001
 44
0.0000000001
 40
0.0
 40
0.0
 40
0.0
 40
0.0
 40
0.0623814138
 40
0.1287361684
 40
0.1983290361
 40
0.2703117022
 40
0.3436930286
 40
0.4174309201
 40
0.4904614699
 40
0.5617535979
 40
0.6303564803
 40
0.6954492849
 40
0.7564011749
 40
0.8128422995
 40
0.8647467468
 40
0.9125255991
 40
0.9571038978
 40
0.9786660301
 40
1.0
 40
1.0
 40
1.0
 40
1.0
 10
73.709614222
 20
112.7316224229
 30
0.0
 10
73.709614222
 20
112.7979932774
 30
0.0
 10
73.7006146362
 20
112.9350531261
 30
0.0
 10
73.6636224515
 20
113.143155367
 30
0.0
 10
73.6034493023
 20
113.3563957332
 30
0.0
 10
73.5214281466
 20
113.5702042437
 30
0.0
 10
73.4192725816
 20
113.7800591186
 30
0.0
 10
73.2991709728
 20
113.9814783291
 30
0.0
 10
73.1636851458
 20
114.1701683983
 30
0.0
 10
73.0157031188
 20
114.3421067361
 30
0.0
 10
72.8583650963
 20
114.4936389965
 30
0.0
 10
72.6949809697
 20
114.6215514697
 30
0.0
 10
72.5289398176
 20
114.7231291283
 30
0.0
 10
72.3636254192
 20
114.7961934816
 30
0.0
 10
72.2022989806
 20
114.8390415055
 30
0.0
 10
72.0482224148
 20
114.8504252052
 30
0.0
 10
71.9270897941
 20
114.8325995076
 30
0.0
 10
71.8389428198
 20
114.8021001792
 30
0.0
 10
71.7979029131
 20
114.7817936696
 30
0.0
 10
71.7782444844
 20
114.7704464104
 30
0.0
  0
SPLINE
  5
350
100
AcDbEntity
  8
0
100
AcDbSpline
 62
7
  6
CONTINUOUS
 70
0
 71
3
 72
12
 73
8
 74
0
 42
0.0000001
 43
0.0000001
 44
0.0000000001
 40
0.0
 40
0.0
 40
0.0
 40
0.0
 40
0.2895856793
 40
0.5486339854
 40
0.78163705
 40
0.8918373471
 40
1.0
 40
1.0
 40
1.0
 40
1.0
 10
68.5123577422
 20
117.1316870931
 30
0.0
 10
68.5123577422
 20
117.172236472
 30
0.0
 10
68.518500942
 20
117.2493347478
 30
0.0
 10
68.549677157
 20
117.3552004717
 30
0.0
 10
68.5944720332
 20
117.4282468493
 30
0.0
 10
68.6397156493
 20
117.4727382331
 30
0.0
 10
68.6649309942
 20
117.4903429164
 30
0.0
 10
68.6780483139
 20
117.4979141105
 30
0.0
  0
SPLINE
  5
351
100
AcDbEntity
  8
0
100
AcDbSpline
 62
7
  6
CONTINUOUS
 70
0
 71
3
 72
15
 73
11
 74
0
 42
0.0000001
 43
0.0000001
 44
0.0000000001
 40
0.0
 40
0.0
 40
0.0
 40
0.0
 40
0.1141555516
 40
0.2373276756
 40
0.3669773296
 40
0.5000011
 40
0.6330247168
 40
0.7626739247
 40
0.885845342
 40
1.0
 40
1.0
 40
1.0
 40
1.0
 10
69.9265771925
 20
114.0992080425
 30
0.0
 10
69.9265771925
 20
114.0433119676
 30
0.0
 10
69.9368153538
 20
113.9269963268
 30
0.0
 10
69.9776295786
 20
113.7515215525
 30
0.0
 10
70.0430116119
 20
113.5737796787
 30
0.0
 10
70.1305179968
 20
113.4004543688
 30
0.0
 10
70.2368695814
 20
113.2380096504
 30
0.0
 10
70.3581079055
 20
113.0925173404
 30
0.0
 10
70.4896664615
 20
112.9694353143
 30
0.0
 10
70.585279602
 20
112.9024122153
 30
0.0
 10
70.6336869176
 20
112.8744648708
 30
0.0
  0
SPLINE
  5
352
100
AcDbEntity
  8
0
100
AcDbSpline
 62
7
  6
CONTINUOUS
 70
0
 71
3
 72
15
 73
11
 74
0
 42
0.0000001
 43
0.0000001
 44
0.0000000001
 40
0.0
 40
0.0
 40
0.0
 40
0.0
 40
0.1080105376
 40
0.2180571258
 40
0.3319978057
 40
0.4513545417
 40
0.5772600922
 40
0.7104917943
 40
0.8514580452
 40
1.0
 40
1.0
 40
1.0
 40
1.0
 10
71.7782444844
 20
114.7704464104
 30
0.0
 10
71.7520107358
 20
114.755303738
 30
0.0
 10
71.7015777063
 20
114.7201073097
 30
0.0
 10
71.634931037
 20
114.6545260578
 30
0.0
 10
71.5776241576
 20
114.57667823
 30
0.0
 10
71.5301614048
 20
114.4874624507
 30
0.0
 10
71.4929342426
 20
114.3877686716
 30
0.0
 10
71.4662090827
 20
114.278554529
 30
0.0
 10
71.4502337871
 20
114.1608945271
 30
0.0
 10
71.4468631015
 20
114.0796498798
 30
0.0
 10
71.4468631015
 20
114.0379928374
 30
0.0
  0
SPLINE
  5
353
100
AcDbEntity
  8
0
100
AcDbSpline
 62
7
  6
CONTINUOUS
 70
0
 71
3
 72
12
 73
8
 74
0
 42
0.0000001
 43
0.0000001
 44
0.0000000001
 40
0.0
 40
0.0
 40
0.0
 40
0.0
 40
0.2895912563
 40
0.5486401214
 40
0.7816344028
 40
0.8918356837
 40
1.0
 40
1.0
 40
1.0
 40
1.0
 10
75.6894931903
 20
117.8347077594
 30
0.0
 10
75.6543764022
 20
117.8549819878
 30
0.0
 10
75.5845362425
 20
117.8882095717
 30
0.0
 10
75.4772688045
 20
117.9141416978
 30
0.0
 10
75.3916142888
 20
117.9118715762
 30
0.0
 10
75.3304647991
 20
117.8949337548
 30
0.0
 10
75.3026109447
 20
117.8819004335
 30
0.0
 10
75.2894950974
 20
117.8743269811
 30
0.0
  0
SPLINE
  5
354
100
AcDbEntity
  8
0
100
AcDbSpline
 62
7
  6
CONTINUOUS
 70
0
 71
3
 72
13
 73
9
 74
0
 42
0.0000001
 43
0.0000001
 44
0.0000000001
 40
0.0
 40
0.0
 40
0.0
 40
0.0
 40
0.10808411
 40
0.2182200047
 40
0.332240015
 40
0.4516675144
 40
0.7106220375
 40
1.0
 40
1.0
 40
1.0
 40
1.0
 10
77.02588932
 20
116.8140891466
 30
0.0
 10
77.0258899134
 20
116.8008387862
 30
0.0
 10
77.0235945752
 20
116.7740315422
 30
0.0
 10
77.013309029
 20
116.7344423333
 30
0.0
 10
76.9963658787
 20
116.695697649
 30
0.0
 10
76.9642866809
 20
116.6443435452
 30
0.0
 10
76.907307223
 20
116.5844024135
 30
0.0
 10
76.8515916765
 20
116.5460584021
 30
0.0
 10
76.8208687506
 20
116.5283206184
 30
0.0
  0
SPLINE
  5
355
100
AcDbEntity
  8
0
100
AcDbSpline
 62
7
  6
CONTINUOUS
 70
0
 71
3
 72
11
 73
7
 74
0
 42
0.0000001
 43
0.0000001
 44
0.0000000001
 40
0.0
 40
0.0
 40
0.0
 40
0.0
 40
0.2310501384
 40
0.4704292892
 40
0.7252381106
 40
1.0
 40
1.0
 40
1.0
 40
1.0
 10
68.6780483139
 20
117.4979141105
 30
0.0
 10
68.6964457002
 20
117.5085329094
 30
0.0
 10
68.7366741335
 20
117.5256782733
 30
0.0
 10
68.802901412
 20
117.5370616685
 30
0.0
 10
68.8739810177
 20
117.5343408042
 30
0.0
 10
68.9217677834
 20
117.5237575626
 30
0.0
 10
68.9459627625
 20
117.5164976043
 30
0.0
  0
SPLINE
  5
356
100
AcDbEntity
  8
0
100
AcDbSpline
 62
7
  6
CONTINUOUS
 70
0
 71
3
 72
13
 73
9
 74
0
 42
0.0000001
 43
0.0000001
 44
0.0000000001
 40
0.0
 40
0.0
 40
0.0
 40
0.0
 40
0.1080850452
 40
0.2182217446
 40
0.3322423179
 40
0.451670065
 40
0.7106240136
 40
1.0
 40
1.0
 40
1.0
 40
1.0
 10
76.0394859405
 20
117.8693750071
 30
0.0
 10
76.0280109535
 20
117.8760006296
 30
0.0
 10
76.0036473213
 20
117.8874163094
 30
0.0
 10
75.9642190935
 20
117.8983033081
 30
0.0
 10
75.9221935578
 20
117.9030025029
 30
0.0
 10
75.8616801232
 20
117.9008983732
 30
0.0
 10
75.7812802281
 20
117.8815238829
 30
0.0
 10
75.7202158286
 20
117.8524453769
 30
0.0
 10
75.6894931903
 20
117.8347077594
 30
0.0
  0
SPLINE
  5
357
100
AcDbEntity
  8
0
100
AcDbSpline
 62
7
  6
CONTINUOUS
 70
0
 71
3
 72
15
 73
11
 74
0
 42
0.0000001
 43
0.0000001
 44
0.0000000001
 40
0.0
 40
0.0
 40
0.0
 40
0.0
 40
0.1224525538
 40
0.2502409642
 40
0.3811151466
 40
0.5127130462
 40
0.6425969109
 40
0.7684279969
 40
0.8881386444
 40
1.0
 40
1.0
 40
1.0
 40
1.0
 10
76.210514561
 20
113.322401551
 30
0.0
 10
76.2419469359
 20
113.2955390071
 30
0.0
 10
76.3029181356
 20
113.2367398942
 30
0.0
 10
76.3857844623
 20
113.138015792
 30
0.0
 10
76.460271015
 20
113.0290581617
 30
0.0
 10
76.524342662
 20
112.9128687402
 30
0.0
 10
76.5762449795
 20
112.7926016066
 30
0.0
 10
76.6145803981
 20
112.6715225875
 30
0.0
 10
76.6382828604
 20
112.5529425765
 30
0.0
 10
76.6441195814
 20
112.4746893979
 30
0.0
 10
76.6441195814
 20
112.4369184161
 30
0.0
  0
SPLINE
  5
358
100
AcDbEntity
  8
0
100
AcDbSpline
 62
7
  6
CONTINUOUS
 70
0
 71
3
 72
14
 73
10
 74
0
 42
0.0000001
 43
0.0000001
 44
0.0000000001
 40
0.0
 40
0.0
 40
0.0
 40
0.0
 40
0.1080466357
 40
0.2181307812
 40
0.3321113461
 40
0.4515001674
 40
0.5774437985
 40
0.7107269735
 40
1.0
 40
1.0
 40
1.0
 40
1.0
 10
70.1336900097
 20
114.5569925056
 30
0.0
 10
70.1172946097
 20
114.5475266755
 30
0.0
 10
70.0857763677
 20
114.525525203
 30
0.0
 10
70.0441165863
 20
114.4845409276
 30
0.0
 10
70.0083053001
 20
114.4358815739
 30
0.0
 10
69.9786366897
 20
114.380127301
 30
0.0
 10
69.9553697018
 20
114.3178116302
 30
0.0
 10
69.9324947813
 20
114.2242978078
 30
0.0
 10
69.9265771925
 20
114.1498939706
 30
0.0
 10
69.9265771925
 20
114.0992080425
 30
0.0
  0
SPLINE
  5
359
100
AcDbEntity
  8
0
100
AcDbSpline
 62
7
  6
CONTINUOUS
 70
0
 71
3
 72
15
 73
11
 74
0
 42
0.0000001
 43
0.0000001
 44
0.0000000001
 40
0.0
 40
0.0
 40
0.0
 40
0.0
 40
0.1141527168
 40
0.2373150593
 40
0.3669511855
 40
0.4999671722
 40
0.6329917929
 40
0.7626498762
 40
0.8858369861
 40
1.0
 40
1.0
 40
1.0
 40
1.0
 10
76.8208687506
 20
116.5283206184
 30
0.0
 10
76.8208687506
 20
116.5730363809
 30
0.0
 10
76.8126791972
 20
116.6660840031
 30
0.0
 10
76.7800312939
 20
116.8064540825
 30
0.0
 10
76.7277329241
 20
116.9486372017
 30
0.0
 10
76.657734929
 20
117.0872921803
 30
0.0
 10
76.572656384
 20
117.2172507132
 30
0.0
 10
76.4756629833
 20
117.3336554928
 30
0.0
 10
76.3704073942
 20
117.4321308885
 30
0.0
 10
76.2939096689
 20
117.4857556371
 30
0.0
 10
76.2551809705
 20
117.5081151558
 30
0.0
  0
SPLINE
  5
35A
100
AcDbEntity
  8
0
100
AcDbSpline
 62
7
  6
CONTINUOUS
 70
0
 71
3
 72
12
 73
8
 74
0
 42
0.0000001
 43
0.0000001
 44
0.0000000001
 40
0.0
 40
0.0
 40
0.0
 40
0.0
 40
0.2895706353
 40
0.5486531839
 40
0.7816290543
 40
0.8918354874
 40
1.0
 40
1.0
 40
1.0
 40
1.0
 10
76.2551809705
 20
117.5081151558
 30
0.0
 10
76.2859053746
 20
117.5258537929
 30
0.0
 10
76.3470171594
 20
117.5549221523
 30
0.0
 10
76.4408733675
 20
117.5776280172
 30
0.0
 10
76.5158191962
 20
117.5756218644
 30
0.0
 10
76.5693287573
 20
117.560822022
 30
0.0
 10
76.5936967629
 20
117.549407793
 30
0.0
 10
76.6051737204
 20
117.5427824031
 30
0.0
  0
SPLINE
  5
35B
100
AcDbEntity
  8
0
100
AcDbSpline
 62
7
  6
CONTINUOUS
 70
0
 71
3
 72
9
 73
5
 74
0
 42
0.0000001
 43
0.0000001
 44
0.0000000001
 40
0.0
 40
0.0
 40
0.0
 40
0.0
 40
0.4737854743
 40
1.0
 40
1.0
 40
1.0
 40
1.0
 10
75.8662988837
 20
113.5292814516
 30
0.0
 10
75.9264199499
 20
113.5082579765
 30
0.0
 10
76.0480899378
 20
113.4485543028
 30
0.0
 10
76.1567384314
 20
113.3683593778
 30
0.0
 10
76.210514561
 20
113.322401551
 30
0.0
  0
SPLINE
  5
35C
100
AcDbEntity
  8
0
100
AcDbSpline
 62
7
  6
CONTINUOUS
 70
0
 71
3
 72
11
 73
7
 74
0
 42
0.0000001
 43
0.0000001
 44
0.0000000001
 40
0.0
 40
0.0
 40
0.0
 40
0.0
 40
0.265710275
 40
0.5224912809
 40
0.7679075499
 40
1.0
 40
1.0
 40
1.0
 40
1.0
 10
74.9843213172
 20
114.31068514
 30
0.0
 10
75.0501108561
 20
114.228968774
 30
0.0
 10
75.185787821
 20
114.0732252513
 30
0.0
 10
75.4035038744
 20
113.8616910138
 30
0.0
 10
75.6290481616
 20
113.6788975998
 30
0.0
 10
75.7869397148
 20
113.5750984526
 30
0.0
 10
75.8662988837
 20
113.5292814516
 30
0.0
  0
SPLINE
  5
35D
100
AcDbEntity
  8
0
100
AcDbSpline
 62
7
  6
CONTINUOUS
 70
0
 71
3
 72
11
 73
7
 74
0
 42
0.0000001
 43
0.0000001
 44
0.0000000001
 40
0.0
 40
0.0
 40
0.0
 40
0.0
 40
0.2780057927
 40
0.536631859
 40
0.7765448673
 40
1.0
 40
1.0
 40
1.0
 40
1.0
 10
69.2901784401
 20
117.3259204685
 30
0.0
 10
69.3645283607
 20
117.2829954929
 30
0.0
 10
69.5127377453
 20
117.2078329402
 30
0.0
 10
69.7395156004
 20
117.1275505556
 30
0.0
 10
69.9593327815
 20
117.0851618913
 30
0.0
 10
70.1034126101
 20
117.0829181509
 30
0.0
 10
70.1721560063
 20
117.0889272254
 30
0.0
  0
SPLINE
  5
35E
100
AcDbEntity
  8
0
100
AcDbSpline
 62
7
  6
CONTINUOUS
 70
0
 71
3
 72
9
 73
5
 74
0
 42
0.0000001
 43
0.0000001
 44
0.0000000001
 40
0.0
 40
0.0
 40
0.0
 40
0.0
 40
0.4844229471
 40
1.0
 40
1.0
 40
1.0
 40
1.0
 10
70.1721560063
 20
117.0889272254
 30
0.0
 10
70.3033077495
 20
117.0327038219
 30
0.0
 10
70.5668298315
 20
116.8993894078
 30
0.0
 10
70.814344326
 20
116.7386883212
 30
0.0
 10
70.9377457387
 20
116.6501605121
 30
0.0
  0
SPLINE
  5
35F
100
AcDbEntity
  8
0
100
AcDbSpline
 62
7
  6
CONTINUOUS
 70
0
 71
3
 72
10
 73
6
 74
0
 42
0.0000001
 43
0.0000001
 44
0.0000000001
 40
0.0
 40
0.0
 40
0.0
 40
0.0
 40
0.2729562742
 40
0.530565851
 40
1.0
 40
1.0
 40
1.0
 40
1.0
 10
70.9377457387
 20
116.6501605121
 30
0.0
 10
70.9987249335
 20
116.6149550193
 30
0.0
 10
71.1204784597
 20
116.5517552464
 30
0.0
 10
71.3604836123
 20
116.4568218075
 30
0.0
 10
71.5467256458
 20
116.4173969886
 30
0.0
 10
71.6676464193
 20
116.4108838502
 30
0.0
  0
SPLINE
  5
360
100
AcDbEntity
  8
0
100
AcDbSpline
 62
7
  6
CONTINUOUS
 70
0
 71
3
 72
9
 73
5
 74
0
 42
0.0000001
 43
0.0000001
 44
0.0000000001
 40
0.0
 40
0.0
 40
0.0
 40
0.0
 40
0.5167741583
 40
1.0
 40
1.0
 40
1.0
 40
1.0
 10
72.0050581943
 20
116.2346862704
 30
0.0
 10
72.0945237384
 20
116.1476256832
 30
0.0
 10
72.2767129604
 20
115.9881453494
 30
0.0
 10
72.4771466692
 20
115.8518539294
 30
0.0
 10
72.5782386618
 20
115.7934897607
 30
0.0
  0
SPLINE
  5
361
100
AcDbEntity
  8
0
100
AcDbSpline
 62
7
  6
CONTINUOUS
 70
0
 71
3
 72
9
 73
5
 74
0
 42
0.0000001
 43
0.0000001
 44
0.0000000001
 40
0.0
 40
0.0
 40
0.0
 40
0.0
 40
0.523183609
 40
1.0
 40
1.0
 40
1.0
 40
1.0
 10
72.5782386618
 20
115.7934897607
 30
0.0
 10
72.6713383035
 20
115.7397398735
 30
0.0
 10
72.8565758437
 20
115.6488608639
 30
0.0
 10
73.0550207594
 20
115.5903511312
 30
0.0
 10
73.1514191293
 20
115.5728494488
 30
0.0
  0
SPLINE
  5
362
100
AcDbEntity
  8
0
100
AcDbSpline
 62
7
  6
CONTINUOUS
 70
0
 71
3
 72
11
 73
7
 74
0
 42
0.0000001
 43
0.0000001
 44
0.0000000001
 40
0.0
 40
0.0
 40
0.0
 40
0.0
 40
0.2642447016
 40
0.5199816196
 40
0.7656483732
 40
1.0
 40
1.0
 40
1.0
 40
1.0
 10
73.4888309042
 20
115.3594462843
 30
0.0
 10
73.545130717
 20
115.2974707997
 30
0.0
 10
73.659982426
 20
115.1791251879
 30
0.0
 10
73.8409656133
 20
115.0172424193
 30
0.0
 10
74.0262338143
 20
114.8753470703
 30
0.0
 10
74.1544234541
 20
114.7930528038
 30
0.0
 10
74.2187326702
 20
114.7559246773
 30
0.0
  0
SPLINE
  5
363
100
AcDbEntity
  8
0
100
AcDbSpline
 62
7
  6
CONTINUOUS
 70
0
 71
3
 72
15
 73
11
 74
0
 42
0.0000001
 43
0.0000001
 44
0.0000000001
 40
0.0
 40
0.0
 40
0.0
 40
0.0
 40
0.1208566004
 40
0.246295824
 40
0.3747034945
 40
0.5043346911
 40
0.6333922976
 40
0.7601058167
 40
0.8828061725
 40
1.0
 40
1.0
 40
1.0
 40
1.0
 10
50.1418084512
 20
81.176727333
 30
0.0
 10
50.0204142305
 20
81.2831419259
 30
0.0
 10
49.784010671
 20
81.5127992927
 30
0.0
 10
49.4580124632
 20
81.8933836139
 30
0.0
 10
49.1591492538
 20
82.3101513183
 30
0.0
 10
48.8936046538
 20
82.7545047632
 30
0.0
 10
48.6668212497
 20
83.2173251264
 30
0.0
 10
48.4834498524
 20
83.6891315991
 30
0.0
 10
48.3472707212
 20
84.1601842985
 30
0.0
 10
48.2882249688
 20
84.4758099348
 30
0.0
 10
48.2679617906
 20
84.6310334391
 30
0.0
  0
SPLINE
  5
364
100
AcDbEntity
  8
0
100
AcDbSpline
 62
7
  6
CONTINUOUS
 70
0
 71
3
 72
11
 73
7
 74
0
 42
0.0000001
 43
0.0000001
 44
0.0000000001
 40
0.0
 40
0.0
 40
0.0
 40
0.0
 40
0.2337022523
 40
0.4922778206
 40
0.7549917779
 40
1.0
 40
1.0
 40
1.0
 40
1.0
 10
30.5835637086
 20
102.7747450265
 30
0.0
 10
30.4922423303
 20
102.7219554044
 30
0.0
 10
30.3177886408
 20
102.5793715631
 30
0.0
 10
30.107270579
 20
102.3086290811
 30
0.0
 10
29.9523741421
 20
101.9969348796
 30
0.0
 10
29.8951175389
 20
101.7723183375
 30
0.0
 10
29.8831534449
 20
101.6623830318
 30
0.0
  0
SPLINE
  5
365
100
AcDbEntity
  8
0
100
AcDbSpline
 62
7
  6
CONTINUOUS
 70
0
 71
3
 72
9
 73
5
 74
0
 42
0.0000001
 43
0.0000001
 44
0.0000000001
 40
0.0
 40
0.0
 40
0.0
 40
0.0
 40
0.2558272879
 40
1.0
 40
1.0
 40
1.0
 40
1.0
 10
29.8831534449
 20
101.6623830318
 30
0.0
 10
29.7425473171
 20
100.3702493428
 30
0.0
 10
29.2571966903
 20
95.3127959627
 30
0.0
 10
29.0339679282
 20
90.2291133717
 30
0.0
 10
29.0359363907
 20
86.4482548022
 30
0.0
  0
SPLINE
  5
366
100
AcDbEntity
  8
0
100
AcDbSpline
 62
7
  6
CONTINUOUS
 70
0
 71
3
 72
11
 73
7
 74
0
 42
0.0000001
 43
0.0000001
 44
0.0000000001
 40
0.0
 40
0.0
 40
0.0
 40
0.0
 40
0.2320640526
 40
0.4885763544
 40
0.7511703637
 40
1.0
 40
1.0
 40
1.0
 40
1.0
 10
27.6125064905
 20
85.4611678765
 30
0.0
 10
27.5606860545
 20
85.4312135494
 30
0.0
 10
27.4612113581
 20
85.3512487491
 30
0.0
 10
27.3390112021
 20
85.1994206836
 30
0.0
 10
27.2458851995
 20
85.023311956
 30
0.0
 10
27.2079653661
 20
84.8956558172
 30
0.0
 10
27.1975472362
 20
84.8323278038
 30
0.0
  0
SPLINE
  5
367
100
AcDbEntity
  8
0
100
AcDbSpline
 62
7
  6
CONTINUOUS
 70
0
 71
3
 72
11
 73
7
 74
0
 42
0.0000001
 43
0.0000001
 44
0.0000000001
 40
0.0
 40
0.0
 40
0.0
 40
0.0
 40
0.2340571645
 40
0.4930677654
 40
0.7557992442
 40
1.0
 40
1.0
 40
1.0
 40
1.0
 10
13.2503643612
 20
75.6079086576
 30
0.0
 10
13.15805032
 20
75.554547374
 30
0.0
 10
12.9818771945
 20
75.4100819047
 30
0.0
 10
12.7700513387
 20
75.1357939132
 30
0.0
 10
12.6153547303
 20
74.8205165723
 30
0.0
 10
12.5594355394
 20
74.5936060855
 30
0.0
 10
12.548652352
 20
74.482881952
 30
0.0
  0
SPLINE
  5
368
100
AcDbEntity
  8
0
100
AcDbSpline
 62
7
  6
CONTINUOUS
 70
0
 71
3
 72
9
 73
5
 74
0
 42
0.0000001
 43
0.0000001
 44
0.0000000001
 40
0.0
 40
0.0
 40
0.0
 40
0.0
 40
0.5122226113
 40
1.0
 40
1.0
 40
1.0
 40
1.0
 10
12.548652352
 20
74.482881952
 30
0.0
 10
11.9615303676
 20
68.4541846449
 30
0.0
 10
11.2583038439
 20
56.6358140985
 30
0.0
 10
11.5553224831
 20
44.7960673301
 30
0.0
 10
11.976755244
 20
39.0433378613
 30
0.0
  0
SPLINE
  5
369
100
AcDbEntity
  8
0
100
AcDbSpline
 62
7
  6
CONTINUOUS
 70
0
 71
3
 72
11
 73
7
 74
0
 42
0.0000001
 43
0.0000001
 44
0.0000000001
 40
0.0
 40
0.0
 40
0.0
 40
0.0
 40
0.2846855681
 40
0.5425842985
 40
0.7777327267
 40
1.0
 40
1.0
 40
1.0
 40
1.0
 10
11.976755244
 20
39.0433378613
 30
0.0
 10
11.9799464756
 20
38.9997762446
 30
0.0
 10
11.9926086816
 20
38.9169751512
 30
0.0
 10
12.0339354849
 20
38.8040051914
 30
0.0
 10
12.0964432345
 20
38.7122311135
 30
0.0
 10
12.1520313001
 20
38.6673386618
 30
0.0
 10
12.1815706856
 20
38.6502989389
 30
0.0
  0
SPLINE
  5
36A
100
AcDbEntity
  8
0
100
AcDbSpline
 62
7
  6
CONTINUOUS
 70
0
 71
3
 72
11
 73
7
 74
0
 42
0.0000001
 43
0.0000001
 44
0.0000000001
 40
0.0
 40
0.0
 40
0.0
 40
0.0
 40
0.2222673831
 40
0.4574158143
 40
0.7153143887
 40
1.0
 40
1.0
 40
1.0
 40
1.0
 10
24.8211570274
 20
31.3529954596
 30
0.0
 10
24.7916176326
 20
31.370035201
 30
0.0
 10
24.7360295299
 20
31.4149276366
 30
0.0
 10
24.6735218224
 20
31.5067017393
 30
0.0
 10
24.6321949756
 20
31.6196716631
 30
0.0
 10
24.6195328132
 20
31.7024727505
 30
0.0
 10
24.616341581
 20
31.7460343743
 30
0.0
  0
SPLINE
  5
36B
100
AcDbEntity
  8
0
100
AcDbSpline
 62
7
  6
CONTINUOUS
 70
0
 71
3
 72
13
 73
9
 74
0
 42
0.0000001
 43
0.0000001
 44
0.0000000001
 40
0.0
 40
0.0
 40
0.0
 40
0.0
 40
0.3001606097
 40
0.5720270269
 40
0.6935963107
 40
0.8046667359
 40
0.9061310946
 40
1.0
 40
1.0
 40
1.0
 40
1.0
 10
69.4242934375
 20
111.5337034578
 30
0.0
 10
69.2694456557
 20
111.5464285066
 30
0.0
 10
68.9757884973
 20
111.5973534808
 30
0.0
 10
68.6386679368
 20
111.7315607513
 30
0.0
 10
68.4207782645
 20
111.8771781767
 30
0.0
 10
68.2939711314
 20
111.9961865871
 30
0.0
 10
68.2012957399
 20
112.1263198551
 30
0.0
 10
68.1631619317
 20
112.2213690289
 30
0.0
 10
68.15149647
 20
112.2685365055
 30
0.0
  0
SPLINE
  5
36C
100
AcDbEntity
  8
0
100
AcDbSpline
 62
7
  6
CONTINUOUS
 70
0
 71
3
 72
11
 73
7
 74
0
 42
0.0000001
 43
0.0000001
 44
0.0000000001
 40
0.0
 40
0.0
 40
0.0
 40
0.0
 40
0.2372792425
 40
0.5000374473
 40
0.7627752723
 40
1.0
 40
1.0
 40
1.0
 40
1.0
 10
65.1323791894
 20
110.1148745941
 30
0.0
 10
65.1123033273
 20
110.1032699251
 30
0.0
 10
65.0656151737
 20
110.0863299807
 30
0.0
 10
64.9909610836
 20
110.0781940358
 30
0.0
 10
64.9163065722
 20
110.0862765254
 30
0.0
 10
64.8696138778
 20
110.1031843759
 30
0.0
 10
64.8495365103
 20
110.1147757885
 30
0.0
  0
SPLINE
  5
36D
100
AcDbEntity
  8
0
100
AcDbSpline
 62
7
  6
CONTINUOUS
 70
0
 71
3
 72
13
 73
9
 74
0
 42
0.0000001
 43
0.0000001
 44
0.0000000001
 40
0.0
 40
0.0
 40
0.0
 40
0.0
 40
0.3001606097
 40
0.5720270269
 40
0.6935963107
 40
0.8046667359
 40
0.9061310946
 40
1.0
 40
1.0
 40
1.0
 40
1.0
 10
65.8321760338
 20
113.6075664908
 30
0.0
 10
65.6773282519
 20
113.6202915396
 30
0.0
 10
65.3836710936
 20
113.6712165138
 30
0.0
 10
65.046550533
 20
113.8054237843
 30
0.0
 10
64.8286608608
 20
113.9510412097
 30
0.0
 10
64.7018537277
 20
114.0700496201
 30
0.0
 10
64.6091783362
 20
114.2001828881
 30
0.0
 10
64.5710445279
 20
114.2952320619
 30
0.0
 10
64.5593790663
 20
114.3423995384
 30
0.0
  0
SPLINE
  5
36E
100
AcDbEntity
  8
0
100
AcDbSpline
 62
7
  6
CONTINUOUS
 70
0
 71
3
 72
11
 73
7
 74
0
 42
0.0000001
 43
0.0000001
 44
0.0000000001
 40
0.0
 40
0.0
 40
0.0
 40
0.0
 40
0.2372792425
 40
0.5000374473
 40
0.7627752723
 40
1.0
 40
1.0
 40
1.0
 40
1.0
 10
61.5402617856
 20
112.188737627
 30
0.0
 10
61.5201859236
 20
112.177132958
 30
0.0
 10
61.4734977699
 20
112.1601930136
 30
0.0
 10
61.3988436799
 20
112.1520570688
 30
0.0
 10
61.3241891685
 20
112.1601395584
 30
0.0
 10
61.277496474
 20
112.1770474089
 30
0.0
 10
61.2574191065
 20
112.1886388215
 30
0.0
  0
SPLINE
  5
36F
100
AcDbEntity
  8
0
100
AcDbSpline
 62
7
  6
CONTINUOUS
 70
0
 71
3
 72
9
 73
5
 74
0
 42
0.0000001
 43
0.0000001
 44
0.0000000001
 40
0.0
 40
0.0
 40
0.0
 40
0.0
 40
0.4877773887
 40
1.0
 40
1.0
 40
1.0
 40
1.0
 10
24.616341581
 20
31.7460343743
 30
0.0
 10
24.1949088201
 20
37.4987638431
 30
0.0
 10
23.8978901809
 20
49.3385106116
 30
0.0
 10
24.6011167046
 20
61.1568811579
 30
0.0
 10
25.188238689
 20
67.1855784651
 30
0.0
  0
SPLINE
  5
370
100
AcDbEntity
  8
0
100
AcDbSpline
 62
7
  6
CONTINUOUS
 70
0
 71
3
 72
13
 73
9
 74
0
 42
0.0000001
 43
0.0000001
 44
0.0000000001
 40
0.0
 40
0.0
 40
0.0
 40
0.0
 40
0.3001606097
 40
0.5720270269
 40
0.6935963107
 40
0.8046667359
 40
0.9061310946
 40
1.0
 40
1.0
 40
1.0
 40
1.0
 10
62.24005863
 20
115.6814295237
 30
0.0
 10
62.0852108482
 20
115.6941545725
 30
0.0
 10
61.7915536898
 20
115.7450795467
 30
0.0
 10
61.4544331293
 20
115.8792868172
 30
0.0
 10
61.236543457
 20
116.0249042427
 30
0.0
 10
61.109736324
 20
116.1439126531
 30
0.0
 10
61.0170609324
 20
116.2740459211
 30
0.0
 10
60.9789271242
 20
116.3690950949
 30
0.0
 10
60.9672616625
 20
116.4162625714
 30
0.0
  0
SPLINE
  5
371
100
AcDbEntity
  8
0
100
AcDbSpline
 62
7
  6
CONTINUOUS
 70
0
 71
3
 72
11
 73
7
 74
0
 42
0.0000001
 43
0.0000001
 44
0.0000000001
 40
0.0
 40
0.0
 40
0.0
 40
0.0
 40
0.2372792425
 40
0.5000374473
 40
0.7627752723
 40
1.0
 40
1.0
 40
1.0
 40
1.0
 10
57.9481443819
 20
114.26260066
 30
0.0
 10
57.9280685198
 20
114.250995991
 30
0.0
 10
57.8813803662
 20
114.2340560466
 30
0.0
 10
57.8067262761
 20
114.2259201017
 30
0.0
 10
57.7320717647
 20
114.2340025913
 30
0.0
 10
57.6853790703
 20
114.2509104419
 30
0.0
 10
57.6653017028
 20
114.2625018544
 30
0.0
  0
SPLINE
  5
372
100
AcDbEntity
  8
0
100
AcDbSpline
 62
7
  6
CONTINUOUS
 70
0
 71
3
 72
9
 73
5
 74
0
 42
0.0000001
 43
0.0000001
 44
0.0000000001
 40
0.0
 40
0.0
 40
0.0
 40
0.0
 40
0.4851146688
 40
1.0
 40
1.0
 40
1.0
 40
1.0
 10
25.1908641075
 20
67.2097905392
 30
0.0
 10
25.2067000216
 20
67.3424772722
 30
0.0
 10
25.2850565552
 20
67.6108357264
 30
0.0
 10
25.4249350041
 20
67.8514400151
 30
0.0
 10
25.5109142513
 20
67.964236358
 30
0.0
  0
SPLINE
  5
373
100
AcDbEntity
  8
0
100
AcDbSpline
 62
7
  6
CONTINUOUS
 70
0
 71
3
 72
9
 73
5
 74
0
 42
0.0000001
 43
0.0000001
 44
0.0000000001
 40
0.0
 40
0.0
 40
0.0
 40
0.0
 40
0.5234582975
 40
1.0
 40
1.0
 40
1.0
 40
1.0
 10
25.5109142513
 20
67.964236358
 30
0.0
 10
25.565482798
 20
68.0358249413
 30
0.0
 10
25.6809816722
 20
68.1644422148
 30
0.0
 10
25.8190038451
 20
68.2695949937
 30
0.0
 10
25.8899506982
 20
68.3106051706
 30
0.0
  0
SPLINE
  5
374
100
AcDbEntity
  8
0
100
AcDbSpline
 62
7
  6
CONTINUOUS
 70
0
 71
3
 72
11
 73
7
 74
0
 42
0.0000001
 43
0.0000001
 44
0.0000000001
 40
0.0
 40
0.0
 40
0.0
 40
0.0
 40
0.2505039061
 40
0.5129595485
 40
0.7685999537
 40
1.0
 40
1.0
 40
1.0
 40
1.0
 10
39.8401762971
 20
77.5522493257
 30
0.0
 10
39.8518846317
 20
77.614314494
 30
0.0
 10
39.8911153156
 20
77.7387481321
 30
0.0
 10
39.9841575703
 20
77.9099678842
 30
0.0
 10
40.1044151275
 20
78.0571347773
 30
0.0
 10
40.2015812472
 20
78.1346666344
 30
0.0
 10
40.2520928275
 20
78.1638643895
 30
0.0
  0
SPLINE
  5
375
100
AcDbEntity
  8
0
100
AcDbSpline
 62
7
  6
CONTINUOUS
 70
0
 71
3
 72
9
 73
5
 74
0
 42
0.0000001
 43
0.0000001
 44
0.0000000001
 40
0.0
 40
0.0
 40
0.0
 40
0.0
 40
0.2441714812
 40
1.0
 40
1.0
 40
1.0
 40
1.0
 10
41.6755167352
 20
79.1636852987
 30
0.0
 10
41.6749954591
 20
80.4031984374
 30
0.0
 10
41.7470302918
 20
85.4794886409
 30
0.0
 10
42.107665149
 20
90.5506517873
 30
0.0
 10
42.5227339982
 20
94.3650263954
 30
0.0
  0
SPLINE
  5
376
100
AcDbEntity
  8
0
100
AcDbSpline
 62
7
  6
CONTINUOUS
 70
0
 71
3
 72
11
 73
7
 74
0
 42
0.0000001
 43
0.0000001
 44
0.0000000001
 40
0.0
 40
0.0
 40
0.0
 40
0.0
 40
0.2463446794
 40
0.5090093198
 40
0.7668712325
 40
1.0
 40
1.0
 40
1.0
 40
1.0
 10
42.5252153915
 20
94.3860075984
 30
0.0
 10
42.539072758
 20
94.4945975058
 30
0.0
 10
42.5983728939
 20
94.715412006
 30
0.0
 10
42.7535345053
 20
95.0211800647
 30
0.0
 10
42.9618408888
 20
95.2860970112
 30
0.0
 10
43.1334598821
 20
95.4255948643
 30
0.0
 10
43.2231503285
 20
95.477441703
 30
0.0
  0
SPLINE
  5
377
100
AcDbEntity
  8
0
100
AcDbSpline
 62
7
  6
CONTINUOUS
 70
0
 71
3
 72
11
 73
7
 74
0
 42
0.0000001
 43
0.0000001
 44
0.0000000001
 40
0.0
 40
0.0
 40
0.0
 40
0.0
 40
0.2664694284
 40
0.5246786982
 40
0.7702308162
 40
1.0
 40
1.0
 40
1.0
 40
1.0
 10
68.0264741219
 20
98.6219106089
 30
0.0
 10
68.34713361
 20
98.6463993274
 30
0.0
 10
68.9766855249
 20
98.7244453907
 30
0.0
 10
69.8849391923
 20
98.9298063248
 30
0.0
 10
70.7241039244
 20
99.2172686296
 30
0.0
 10
71.2422275444
 20
99.4680122788
 30
0.0
 10
71.4823851834
 20
99.6066488553
 30
0.0
  0
SPLINE
  5
378
100
AcDbEntity
  8
0
100
AcDbSpline
 62
7
  6
CONTINUOUS
 70
0
 71
3
 72
11
 73
7
 74
0
 42
0.0000001
 43
0.0000001
 44
0.0000000001
 40
0.0
 40
0.0
 40
0.0
 40
0.0
 40
0.2336518302
 40
0.4922079514
 40
0.7549399127
 40
1.0
 40
1.0
 40
1.0
 40
1.0
 10
43.2511389194
 20
95.4935111893
 30
0.0
 10
43.1598119367
 20
95.4407817077
 30
0.0
 10
42.9853252175
 20
95.2982922986
 30
0.0
 10
42.7747330124
 20
95.027647088
 30
0.0
 10
42.6197256306
 20
94.7159915672
 30
0.0
 10
42.5623770778
 20
94.4913733267
 30
0.0
 10
42.5503603174
 20
94.3814228266
 30
0.0
  0
SPLINE
  5
379
100
AcDbEntity
  8
0
100
AcDbSpline
 62
7
  6
CONTINUOUS
 70
0
 71
3
 72
9
 73
5
 74
0
 42
0.0000001
 43
0.0000001
 44
0.0000000001
 40
0.0
 40
0.0
 40
0.0
 40
0.0
 40
0.2558229437
 40
1.0
 40
1.0
 40
1.0
 40
1.0
 10
42.5503603174
 20
94.3814228266
 30
0.0
 10
42.4091231046
 20
93.0890153562
 30
0.0
 10
41.9212785335
 20
88.0303776994
 30
0.0
 10
41.6954793075
 20
82.945396469
 30
0.0
 10
41.6954793075
 20
79.1634603745
 30
0.0
  0
SPLINE
  5
37A
100
AcDbEntity
  8
0
100
AcDbSpline
 62
7
  6
CONTINUOUS
 70
0
 71
3
 72
9
 73
5
 74
0
 42
0.0000001
 43
0.0000001
 44
0.0000000001
 40
0.0
 40
0.0
 40
0.0
 40
0.0
 40
0.2593592447
 40
1.0
 40
1.0
 40
1.0
 40
1.0
 10
70.9360370811
 20
99.3322277784
 30
0.0
 10
70.9740364824
 20
99.3618392912
 30
0.0
 10
71.1181225996
 20
99.4790543289
 30
0.0
 10
71.2520738359
 20
99.6090081985
 30
0.0
 10
71.3428241988
 20
99.7124003265
 30
0.0
  0
SPLINE
  5
37B
100
AcDbEntity
  8
0
100
AcDbSpline
 62
7
  6
CONTINUOUS
 70
0
 71
3
 72
10
 73
6
 74
0
 42
0.0000001
 43
0.0000001
 44
0.0000000001
 40
0.0
 40
0.0
 40
0.0
 40
0.0
 40
0.5219872892
 40
0.7641447902
 40
1.0
 40
1.0
 40
1.0
 40
1.0
 10
71.3428241988
 20
99.7124003265
 30
0.0
 10
71.4948203175
 20
99.8855699055
 30
0.0
 10
71.68573019
 20
100.1736629385
 30
0.0
 10
71.8178445063
 20
100.5971823544
 30
0.0
 10
71.8396364882
 20
100.8088344264
 30
0.0
 10
71.8396364868
 20
100.9129448104
 30
0.0
  0
SPLINE
  5
37C
100
AcDbEntity
  8
0
100
AcDbSpline
 62
7
  6
CONTINUOUS
 70
0
 71
3
 72
11
 73
7
 74
0
 42
0.0000001
 43
0.0000001
 44
0.0000000001
 40
0.0
 40
0.0
 40
0.0
 40
0.0
 40
0.2320163165
 40
0.4885099326
 40
0.7511206533
 40
1.0
 40
1.0
 40
1.0
 40
1.0
 10
40.271963642
 20
78.1773118118
 30
0.0
 10
40.2201401976
 20
78.1473917108
 30
0.0
 10
40.1206476292
 20
78.067481766
 30
0.0
 10
39.9984068721
 20
77.915711838
 30
0.0
 10
39.9052194836
 20
77.739629795
 30
0.0
 10
39.8672491259
 20
77.6119766699
 30
0.0
 10
39.8568018573
 20
77.5486428576
 30
0.0
  0
SPLINE
  5
37D
100
AcDbEntity
  8
0
100
AcDbSpline
 62
7
  6
CONTINUOUS
 70
0
 71
3
 72
11
 73
7
 74
0
 42
0.0000001
 43
0.0000001
 44
0.0000000001
 40
0.0
 40
0.0
 40
0.0
 40
0.0
 40
0.2340062058
 40
0.4929972126
 40
0.755746981
 40
1.0
 40
1.0
 40
1.0
 40
1.0
 10
25.9090114659
 20
68.333552413
 30
0.0
 10
25.8166916895
 20
68.2802518834
 30
0.0
 10
25.6404848401
 20
68.1358814082
 30
0.0
 10
25.4285835559
 20
67.8616906576
 30
0.0
 10
25.2737741275
 20
67.5464507376
 30
0.0
 10
25.2177617285
 20
67.3195370662
 30
0.0
 10
25.2069248904
 20
67.2087965655
 30
0.0
  0
SPLINE
  5
37E
100
AcDbEntity
  8
0
100
AcDbSpline
 62
7
  6
CONTINUOUS
 70
0
 71
3
 72
9
 73
5
 74
0
 42
0.0000001
 43
0.0000001
 44
0.0000000001
 40
0.0
 40
0.0
 40
0.0
 40
0.0
 40
0.5122148748
 40
1.0
 40
1.0
 40
1.0
 40
1.0
 10
25.2069248904
 20
67.2087965655
 30
0.0
 10
24.6168314512
 20
61.1786942337
 30
0.0
 10
23.9076711491
 20
49.3572107441
 30
0.0
 10
24.1984476893
 20
37.5138530342
 30
0.0
 10
24.6167540793
 20
31.7591054435
 30
0.0
  0
SPLINE
  5
37F
100
AcDbEntity
  8
0
100
AcDbSpline
 62
7
  6
CONTINUOUS
 70
0
 71
3
 72
11
 73
7
 74
0
 42
0.0000001
 43
0.0000001
 44
0.0000000001
 40
0.0
 40
0.0
 40
0.0
 40
0.0
 40
0.2847234982
 40
0.5426338724
 40
0.7777664846
 40
1.0
 40
1.0
 40
1.0
 40
1.0
 10
24.6167540793
 20
31.7591054435
 30
0.0
 10
24.6199242996
 20
31.7154919145
 30
0.0
 10
24.632554539
 20
31.6325917606
 30
0.0
 10
24.6738698256
 20
31.5194809992
 30
0.0
 10
24.7364048209
 20
31.4275939113
 30
0.0
 10
24.7920389812
 20
31.3826518791
 30
0.0
 10
24.8216038351
 20
31.3655972765
 30
0.0
  0
SPLINE
  5
380
100
AcDbEntity
  8
0
100
AcDbSpline
 62
7
  6
CONTINUOUS
 70
0
 71
3
 72
11
 73
7
 74
0
 42
0.0000001
 43
0.0000001
 44
0.0000000001
 40
0.0
 40
0.0
 40
0.0
 40
0.0
 40
0.2651218343
 40
0.5278316327
 40
0.7761887262
 40
1.0
 40
1.0
 40
1.0
 40
1.0
 10
49.0132663491
 20
30.5077501063
 30
0.0
 10
49.2041047543
 20
30.271683178
 30
0.0
 10
49.5510378896
 20
29.7741281364
 30
0.0
 10
49.9591862102
 20
28.9817096509
 30
0.0
 10
50.2381661462
 20
28.1850191204
 30
0.0
 10
50.3337833011
 20
27.6491858418
 30
0.0
 10
50.3509280638
 20
27.3935023835
 30
0.0
  0
SPLINE
  5
381
100
AcDbEntity
  8
0
100
AcDbSpline
 62
7
  6
CONTINUOUS
 70
0
 71
3
 72
9
 73
5
 74
0
 42
0.0000001
 43
0.0000001
 44
0.0000000001
 40
0.0
 40
0.0
 40
0.0
 40
0.0
 40
0.5364240886
 40
1.0
 40
1.0
 40
1.0
 40
1.0
 10
42.5503771376
 20
26.5568765736
 30
0.0
 10
42.5585139319
 20
26.4918449567
 30
0.0
 10
42.588875933
 20
26.3711063314
 30
0.0
 10
42.6644427495
 20
26.269239619
 30
0.0
 10
42.7085852309
 20
26.2337524463
 30
0.0
  0
SPLINE
  5
382
100
AcDbEntity
  8
0
100
AcDbSpline
 62
7
  6
CONTINUOUS
 70
0
 71
3
 72
11
 73
7
 74
0
 42
0.0000001
 43
0.0000001
 44
0.0000000001
 40
0.0
 40
0.0
 40
0.0
 40
0.0
 40
0.2329925641
 40
0.483357921
 40
0.7421878272
 40
1.0
 40
1.0
 40
1.0
 40
1.0
 10
47.8426419657
 20
25.5088510999
 30
0.0
 10
47.5926906463
 20
25.6744119268
 30
0.0
 10
47.1023063572
 20
26.061212281
 30
0.0
 10
46.4342579427
 20
26.7468432935
 30
0.0
 10
45.8337059396
 20
27.5328882874
 30
0.0
 10
45.4941285651
 20
28.1066624646
 30
0.0
 10
45.3435676537
 20
28.4022766351
 30
0.0
  0
SPLINE
  5
383
100
AcDbEntity
  8
0
100
AcDbSpline
 62
7
  6
CONTINUOUS
 70
0
 71
3
 72
11
 73
7
 74
0
 42
0.0000001
 43
0.0000001
 44
0.0000000001
 40
0.0
 40
0.0
 40
0.0
 40
0.0
 40
0.2372619086
 40
0.4999477586
 40
0.7627302359
 40
1.0
 40
1.0
 40
1.0
 40
1.0
 10
53.3362311311
 20
31.9344828538
 30
0.0
 10
53.3360953737
 20
31.8647950518
 30
0.0
 10
53.310108803
 20
31.7178829446
 30
0.0
 10
53.2192804963
 20
31.5112563642
 30
0.0
 10
53.0861129344
 20
31.3290390924
 30
0.0
 10
52.9719375809
 20
31.2328655723
 30
0.0
 10
52.9115848633
 20
31.1980190628
 30
0.0
  0
SPLINE
  5
384
100
AcDbEntity
  8
0
100
AcDbSpline
 62
7
  6
CONTINUOUS
 70
0
 71
3
 72
11
 73
7
 74
0
 42
0.0000001
 43
0.0000001
 44
0.0000000001
 40
0.0
 40
0.0
 40
0.0
 40
0.0
 40
0.2894615377
 40
0.5491751463
 40
0.782346563
 40
1.0
 40
1.0
 40
1.0
 40
1.0
 10
52.9115848633
 20
31.1980190628
 30
0.0
 10
52.8852774884
 20
31.1828296856
 30
0.0
 10
52.8328772407
 20
31.1579496344
 30
0.0
 10
52.7523777636
 20
31.1384153425
 30
0.0
 10
52.676807978
 20
31.1403588623
 30
0.0
 10
52.6313424695
 20
31.1568634838
 30
0.0
 10
52.6115629035
 20
31.1682875536
 30
0.0
  0
SPLINE
  5
385
100
AcDbEntity
  8
0
100
AcDbSpline
 62
7
  6
CONTINUOUS
 70
0
 71
3
 72
11
 73
7
 74
0
 42
0.0000001
 43
0.0000001
 44
0.0000000001
 40
0.0
 40
0.0
 40
0.0
 40
0.0
 40
0.2895960905
 40
0.5491070775
 40
0.7822346764
 40
1.0
 40
1.0
 40
1.0
 40
1.0
 10
37.9611611628
 20
24.1177859607
 30
0.0
 10
37.917299667
 20
24.0924626655
 30
0.0
 10
37.8299970407
 20
24.0509654357
 30
0.0
 10
37.6958501491
 20
24.0185246186
 30
0.0
 10
37.569930396
 20
24.0216814679
 30
0.0
 10
37.4941793972
 20
24.0492638203
 30
0.0
 10
37.4611901768
 20
24.0682937971
 30
0.0
  0
SPLINE
  5
386
100
AcDbEntity
  8
0
100
AcDbSpline
 62
7
  6
CONTINUOUS
 70
0
 71
3
 72
11
 73
7
 74
0
 42
0.0000001
 43
0.0000001
 44
0.0000000001
 40
0.0
 40
0.0
 40
0.0
 40
0.0
 40
0.2896296339
 40
0.5491000058
 40
0.7822244192
 40
1.0
 40
1.0
 40
1.0
 40
1.0
 10
55.8907243156
 20
18.9568021961
 30
0.0
 10
55.8468573278
 20
18.9314764237
 30
0.0
 10
55.7595590154
 20
18.8899712094
 30
0.0
 10
55.6254084419
 20
18.8575458682
 30
0.0
 10
55.4994972739
 20
18.860709998
 30
0.0
 10
55.4237406013
 20
18.8882780513
 30
0.0
 10
55.390747107
 20
18.9073044017
 30
0.0
  0
SPLINE
  5
387
100
AcDbEntity
  8
0
100
AcDbSpline
 62
7
  6
CONTINUOUS
 70
0
 71
3
 72
18
 73
14
 74
0
 42
0.0000001
 43
0.0000001
 44
0.0000000001
 40
0.0
 40
0.0
 40
0.0
 40
0.0
 40
0.0454423896
 40
0.0920052965
 40
0.1409860625
 40
0.1933332092
 40
0.3095213989
 40
0.3736076319
 40
0.4410447186
 40
0.5829551013
 40
0.7285243522
 40
0.8699282723
 40
1.0
 40
1.0
 40
1.0
 40
1.0
 10
46.0363384806
 20
85.0714039508
 30
0.0
 10
46.1316555024
 20
85.1264157508
 30
0.0
 10
46.3387517755
 20
85.2151433933
 30
0.0
 10
46.6781117515
 20
85.2729405833
 30
0.0
 10
47.0384355308
 20
85.2556756577
 30
0.0
 10
47.5525882318
 20
85.1295523031
 30
0.0
 10
48.0565550694
 20
84.8568353491
 30
0.0
 10
48.524232255
 20
84.4802588047
 30
0.0
 10
48.9911239297
 20
84.0087023463
 30
0.0
 10
49.4977014771
 20
83.3072866259
 30
0.0
 10
49.9486272726
 20
82.365749626
 30
0.0
 10
50.2204924685
 20
81.3877914092
 30
0.0
 10
50.2719140237
 20
80.7260346901
 30
0.0
 10
50.2561190802
 20
80.4114218315
 30
0.0
  0
SPLINE
  5
388
100
AcDbEntity
  8
0
100
AcDbSpline
 62
7
  6
CONTINUOUS
 70
0
 71
3
 72
9
 73
5
 74
0
 42
0.0000001
 43
0.0000001
 44
0.0000000001
 40
0.0
 40
0.0
 40
0.0
 40
0.0
 40
0.2488680151
 40
1.0
 40
1.0
 40
1.0
 40
1.0
 10
45.8182706986
 20
79.8195071539
 30
0.0
 10
45.7435292448
 20
79.9242094716
 30
0.0
 10
45.4546840372
 20
80.3530020622
 30
0.0
 10
45.2115753091
 20
80.812602381
 30
0.0
 10
45.0581103255
 20
81.1692538535
 30
0.0
  0
SPLINE
  5
389
100
AcDbEntity
  8
0
100
AcDbSpline
 62
7
  6
CONTINUOUS
 70
0
 71
3
 72
11
 73
7
 74
0
 42
0.0000001
 43
0.0000001
 44
0.0000000001
 40
0.0
 40
0.0
 40
0.0
 40
0.0
 40
0.2877007682
 40
0.547243759
 40
0.7816347902
 40
1.0
 40
1.0
 40
1.0
 40
1.0
 10
50.2561190802
 20
80.4114218315
 30
0.0
 10
50.2466533054
 20
80.2228770308
 30
0.0
 10
50.2007604848
 20
79.8645240531
 30
0.0
 10
50.0353909842
 20
79.3746647103
 30
0.0
 10
49.7788052857
 20
78.9772521808
 30
0.0
 10
49.5455754909
 20
78.7836210588
 30
0.0
 10
49.4214739704
 20
78.711999298
 30
0.0
  0
SPLINE
  5
38A
100
AcDbEntity
  8
0
100
AcDbSpline
 62
7
  6
CONTINUOUS
 70
0
 71
3
 72
11
 73
7
 74
0
 42
0.0000001
 43
0.0000001
 44
0.0000000001
 40
0.0
 40
0.0
 40
0.0
 40
0.0
 40
0.2182426942
 40
0.454040936
 40
0.7142904667
 40
1.0
 40
1.0
 40
1.0
 40
1.0
 10
40.5442414688
 20
78.2202802994
 30
0.0
 10
40.5249655049
 20
78.2277845535
 30
0.0
 10
40.4822706706
 20
78.2372476744
 30
0.0
 10
40.4140135331
 20
78.2336998587
 30
0.0
 10
40.3422244705
 20
78.2135126991
 30
0.0
 10
40.2954154091
 20
78.190851615
 30
0.0
 10
40.271963642
 20
78.1773118118
 30
0.0
  0
SPLINE
  5
38B
100
AcDbEntity
  8
0
100
AcDbSpline
 62
7
  6
CONTINUOUS
 70
0
 71
3
 72
12
 73
8
 74
0
 42
0.0000001
 43
0.0000001
 44
0.0000000001
 40
0.0
 40
0.0
 40
0.0
 40
0.0
 40
0.2982179983
 40
0.5589378199
 40
0.7876953646
 40
0.8947851401
 40
1.0
 40
1.0
 40
1.0
 40
1.0
 10
50.3509280638
 20
27.3935023835
 30
0.0
 10
50.3625925184
 20
27.2195479148
 30
0.0
 10
50.359705207
 20
26.8907045226
 30
0.0
 10
50.2609480497
 20
26.4368310841
 30
0.0
 10
50.0925091164
 20
26.1238726184
 30
0.0
 10
49.9131069283
 20
25.9368333298
 30
0.0
 10
49.8112513358
 20
25.864365769
 30
0.0
 10
49.7579756281
 20
25.8336199444
 30
0.0
  0
SPLINE
  5
38C
100
AcDbEntity
  8
0
100
AcDbSpline
 62
7
  6
CONTINUOUS
 70
0
 71
3
 72
20
 73
16
 74
0
 42
0.0000001
 43
0.0000001
 44
0.0000000001
 40
0.0
 40
0.0
 40
0.0
 40
0.0
 40
0.157740041
 40
0.2294227074
 40
0.2961203194
 40
0.4152701347
 40
0.4692780583
 40
0.5208520261
 40
0.5713868132
 40
0.6223960836
 40
0.6753213305
 40
0.7313689902
 40
0.7914517095
 40
0.8561508459
 40
1.0
 40
1.0
 40
1.0
 40
1.0
 10
48.3067464647
 20
25.2012950995
 30
0.0
 10
48.5526967501
 20
25.0383973693
 30
0.0
 10
48.9277042389
 20
24.8247743342
 30
0.0
 10
49.4434537615
 20
24.6204146002
 30
0.0
 10
49.9077361133
 20
24.4910473085
 30
0.0
 10
50.3616794836
 20
24.4475830353
 30
0.0
 10
50.7787099902
 20
24.5143392789
 30
0.0
 10
51.0552427293
 20
24.6136227928
 30
0.0
 10
51.3019363309
 20
24.7628245235
 30
0.0
 10
51.515551783
 20
24.9601003328
 30
0.0
 10
51.6937539339
 20
25.2025013559
 30
0.0
 10
51.8351443619
 20
25.4868193177
 30
0.0
 10
51.9388841477
 20
25.8098795776
 30
0.0
 10
52.0300165792
 20
26.3049528692
 30
0.0
 10
52.034693909
 20
26.6984005262
 30
0.0
 10
52.0163378101
 20
26.9667987219
 30
0.0
  0
SPLINE
  5
38D
100
AcDbEntity
  8
0
100
AcDbSpline
 62
7
  6
CONTINUOUS
 70
0
 71
3
 72
20
 73
16
 74
0
 42
0.0000001
 43
0.0000001
 44
0.0000000001
 40
0.0
 40
0.0
 40
0.0
 40
0.0
 40
0.0611351475
 40
0.1260247083
 40
0.2641515313
 40
0.4082820995
 40
0.5511104545
 40
0.6198499023
 40
0.6856978753
 40
0.7480076906
 40
0.8063107848
 40
0.860380584
 40
0.910299572
 40
0.956561175
 40
1.0
 40
1.0
 40
1.0
 40
1.0
 10
71.48228087
 20
104.5055134747
 30
0.0
 10
71.2791848732
 20
104.6227683504
 30
0.0
 10
70.8452406305
 20
104.8386460951
 30
0.0
 10
69.8944641594
 20
105.1929983736
 30
0.0
 10
68.5853715567
 20
105.4762761832
 30
0.0
 10
66.9507155289
 20
105.559525618
 30
0.0
 10
65.587197443
 20
105.4138409547
 30
0.0
 10
64.551236002
 20
105.1652733269
 30
0.0
 10
63.8349806049
 20
104.9218189674
 30
0.0
 10
63.1833401764
 20
104.6236097879
 30
0.0
 10
62.6085760944
 20
104.2758764387
 30
0.0
 10
62.1213570649
 20
103.8849933097
 30
0.0
 10
61.7310455962
 20
103.4571389077
 30
0.0
 10
61.4462842346
 20
102.999710912
 30
0.0
 10
61.3286761579
 20
102.672704837
 30
0.0
 10
61.2914648664
 20
102.5102820669
 30
0.0
  0
SPLINE
  5
38E
100
AcDbEntity
  8
0
100
AcDbSpline
 62
7
  6
CONTINUOUS
 70
0
 71
3
 72
22
 73
18
 74
0
 42
0.0000001
 43
0.0000001
 44
0.0000000001
 40
0.0
 40
0.0
 40
0.0
 40
0.0
 40
0.1605827267
 40
0.2366053577
 40
0.3087530411
 40
0.3765183464
 40
0.4396594912
 40
0.4982601474
 40
0.5528259634
 40
0.6043199825
 40
0.6541484418
 40
0.7039975603
 40
0.7555474616
 40
0.8101828117
 40
0.8688806484
 40
0.9321545349
 40
1.0
 40
1.0
 40
1.0
 40
1.0
 10
45.9032665361
 20
79.7003435237
 30
0.0
 10
46.1733969024
 20
79.3211785713
 30
0.0
 10
46.6180453954
 20
78.7927283293
 30
0.0
 10
47.2848474732
 20
78.1939918336
 30
0.0
 10
47.7913398969
 20
77.8239637982
 30
0.0
 10
48.3039359246
 20
77.5316708814
 30
0.0
 10
48.8138289716
 20
77.3224014515
 30
0.0
 10
49.3125334512
 20
77.2006175266
 30
0.0
 10
49.7917075423
 20
77.1695000191
 30
0.0
 10
50.2428314959
 20
77.2316296055
 30
0.0
 10
50.6565591486
 20
77.3874991199
 30
0.0
 10
51.0236049988
 20
77.6342438733
 30
0.0
 10
51.3362583975
 20
77.9658842059
 30
0.0
 10
51.5896740831
 20
78.3745038392
 30
0.0
 10
51.7806105421
 20
78.8519583071
 30
0.0
 10
51.9079067151
 20
79.3890315212
 30
0.0
 10
51.9475913266
 20
79.7681903837
 30
0.0
 10
51.9570512366
 20
79.9646553557
 30
0.0
  0
SPLINE
  5
38F
100
AcDbEntity
  8
0
100
AcDbSpline
 62
7
  6
CONTINUOUS
 70
0
 71
3
 72
10
 73
6
 74
0
 42
0.0000001
 43
0.0000001
 44
0.0000000001
 40
0.0
 40
0.0
 40
0.0
 40
0.0
 40
0.232681979
 40
0.4792670305
 40
1.0
 40
1.0
 40
1.0
 40
1.0
 10
51.9570512366
 20
79.9646553557
 30
0.0
 10
51.9692233552
 20
80.2006023919
 30
0.0
 10
51.9615082873
 20
80.6886542253
 30
0.0
 10
51.8338537583
 20
81.6972213825
 30
0.0
 10
51.6186284736
 20
82.4526957961
 30
0.0
 10
51.4292470038
 20
82.9463586325
 30
0.0
  0
SPLINE
  5
390
100
AcDbEntity
  8
0
100
AcDbSpline
 62
7
  6
CONTINUOUS
 70
0
 71
3
 72
23
 73
19
 74
0
 42
0.0000001
 43
0.0000001
 44
0.0000000001
 40
0.0
 40
0.0
 40
0.0
 40
0.0
 40
0.156866513
 40
0.2338725018
 40
0.308355547
 40
0.3793726935
 40
0.4462179667
 40
0.5085042376
 40
0.5662626516
 40
0.6200125413
 40
0.6708032856
 40
0.7201584992
 40
0.7698595358
 40
0.821603069
 40
0.8767213638
 40
0.9058674873
 40
0.9361381583
 40
1.0
 40
1.0
 40
1.0
 40
1.0
 10
51.4292470038
 20
82.9463586325
 30
0.0
 10
51.2276969355
 20
83.4717414933
 30
0.0
 10
50.8515497423
 20
84.229393744
 30
0.0
 10
50.2181203088
 20
85.1378661484
 30
0.0
 10
49.6939799771
 20
85.7421156469
 30
0.0
 10
49.1305236832
 20
86.2574639771
 30
0.0
 10
48.5407260007
 20
86.6709001402
 30
0.0
 10
47.9383570071
 20
86.9715970143
 30
0.0
 10
47.3377515291
 20
87.1515963995
 30
0.0
 10
46.7535356827
 20
87.2051596076
 30
0.0
 10
46.2013743606
 20
87.1287984915
 30
0.0
 10
45.6983568233
 20
86.9232598203
 30
0.0
 10
45.2611033953
 20
86.5951784405
 30
0.0
 10
44.9027494068
 20
86.1563413623
 30
0.0
 10
44.6814281011
 20
85.7175889335
 30
0.0
 10
44.5484189076
 20
85.3284156526
 30
0.0
 10
44.4422245066
 20
84.8986642227
 30
0.0
 10
44.4021070509
 20
84.5615927843
 30
0.0
 10
44.3910815992
 20
84.3327711426
 30
0.0
  0
SPLINE
  5
391
100
AcDbEntity
  8
0
100
AcDbSpline
 62
7
  6
CONTINUOUS
 70
0
 71
3
 72
10
 73
6
 74
0
 42
0.0000001
 43
0.0000001
 44
0.0000000001
 40
0.0
 40
0.0
 40
0.0
 40
0.0
 40
0.232863397
 40
0.4792721904
 40
1.0
 40
1.0
 40
1.0
 40
1.0
 10
44.3910815992
 20
84.3327711426
 30
0.0
 10
44.3786328168
 20
84.091039468
 30
0.0
 10
44.3900086551
 20
83.5911423695
 30
0.0
 10
44.5406377571
 20
82.5610140915
 30
0.0
 10
44.7885818091
 20
81.7949760391
 30
0.0
 10
45.0029179314
 20
81.2979458496
 30
0.0
  0
SPLINE
  5
392
100
AcDbEntity
  8
0
100
AcDbSpline
 62
7
  6
CONTINUOUS
 70
0
 71
3
 72
18
 73
14
 74
0
 42
0.0000001
 43
0.0000001
 44
0.0000000001
 40
0.0
 40
0.0
 40
0.0
 40
0.0
 40
0.1417083691
 40
0.2704040791
 40
0.3880231972
 40
0.4442013055
 40
0.4995047651
 40
0.5547867374
 40
0.6109267591
 40
0.6687197804
 40
0.7288381028
 40
0.8576972269
 40
1.0
 40
1.0
 40
1.0
 40
1.0
 10
44.5415418202
 20
83.7447475105
 30
0.0
 10
44.5535832344
 20
83.9925907128
 30
0.0
 10
44.6190527887
 20
84.4652122779
 30
0.0
 10
44.8554313905
 20
85.1085795786
 30
0.0
 10
45.1673701947
 20
85.5468958888
 30
0.0
 10
45.4713232024
 20
85.8110736298
 30
0.0
 10
45.7208871997
 20
85.9652621995
 30
0.0
 10
45.9924766424
 20
86.0759757336
 30
0.0
 10
46.2827549823
 20
86.1415099762
 30
0.0
 10
46.5880518302
 20
86.16154247
 30
0.0
 10
47.0200659908
 20
86.1264069393
 30
0.0
 10
47.5827055798
 20
85.9609822482
 30
0.0
 10
48.0005558132
 20
85.7281108645
 30
0.0
 10
48.2067358181
 20
85.5881870786
 30
0.0
  0
SPLINE
  5
393
100
AcDbEntity
  8
0
100
AcDbSpline
 62
7
  6
CONTINUOUS
 70
0
 71
3
 72
14
 73
10
 74
0
 42
0.0000001
 43
0.0000001
 44
0.0000000001
 40
0.0
 40
0.0
 40
0.0
 40
0.0
 40
0.1160933045
 40
0.2396775085
 40
0.5000489922
 40
0.6319009384
 40
0.7608666748
 40
0.8843612119
 40
1.0
 40
1.0
 40
1.0
 40
1.0
 10
48.2067358181
 20
85.5881870786
 30
0.0
 10
48.4101008809
 20
85.4501736495
 30
0.0
 10
48.8058370417
 20
85.1286440664
 30
0.0
 10
49.5267440429
 20
84.3501939219
 30
0.0
 10
50.1105449182
 20
83.4126674766
 30
0.0
 10
50.5320263492
 20
82.3914296838
 30
0.0
 10
50.7563841495
 20
81.6072568222
 30
0.0
 10
50.8806347056
 20
80.8361856829
 30
0.0
 10
50.8958202552
 20
80.3280488639
 30
0.0
 10
50.8830288514
 20
80.0835710981
 30
0.0
  0
SPLINE
  5
394
100
AcDbEntity
  8
0
100
AcDbSpline
 62
7
  6
CONTINUOUS
 70
0
 71
3
 72
21
 73
17
 74
0
 42
0.0000001
 43
0.0000001
 44
0.0000000001
 40
0.0
 40
0.0
 40
0.0
 40
0.0
 40
0.067907198
 40
0.1313306372
 40
0.1902512131
 40
0.2451506589
 40
0.2969675562
 40
0.3470358737
 40
0.3969909003
 40
0.4485163704
 40
0.503014325
 40
0.5614616023
 40
0.6916899011
 40
0.7637049209
 40
0.8396077954
 40
1.0
 40
1.0
 40
1.0
 40
1.0
 10
50.8830288514
 20
80.0835710981
 30
0.0
 10
50.874946086
 20
79.9189109345
 30
0.0
 10
50.8415723548
 20
79.6009263081
 30
0.0
 10
50.7352811244
 20
79.150061173
 30
0.0
 10
50.5760408811
 20
78.7483673727
 30
0.0
 10
50.3647047249
 20
78.4035633807
 30
0.0
 10
50.1039372175
 20
78.1224802286
 30
0.0
 10
49.7977279269
 20
77.9116118674
 30
0.0
 10
49.4519999947
 20
77.7765840132
 30
0.0
 10
49.0746035194
 20
77.7203265534
 30
0.0
 10
48.6735060094
 20
77.742074375
 30
0.0
 10
48.0963478779
 20
77.8772524402
 30
0.0
 10
47.5219797825
 20
78.163835271
 30
0.0
 10
46.9754082658
 20
78.5612292573
 30
0.0
 10
46.4168180943
 20
79.0611209641
 30
0.0
 10
46.0445037698
 20
79.5025862797
 30
0.0
 10
45.8182706986
 20
79.8195071539
 30
0.0
  0
SPLINE
  5
395
100
AcDbEntity
  8
0
100
AcDbSpline
 62
7
  6
CONTINUOUS
 70
0
 71
3
 72
11
 73
7
 74
0
 42
0.0000001
 43
0.0000001
 44
0.0000000001
 40
0.0
 40
0.0
 40
0.0
 40
0.0
 40
0.283499528
 40
0.5416933962
 40
0.7778027384
 40
1.0
 40
1.0
 40
1.0
 40
1.0
 10
45.1649290591
 20
83.350755264
 30
0.0
 10
45.1744338796
 20
83.5400777986
 30
0.0
 10
45.2225784999
 20
83.9015410685
 30
0.0
 10
45.396785445
 20
84.3962533256
 30
0.0
 10
45.6659633037
 20
84.7994437811
 30
0.0
 10
45.907660447
 20
84.9971379896
 30
0.0
 10
46.0363384806
 20
85.0714039508
 30
0.0
  0
SPLINE
  5
396
100
AcDbEntity
  8
0
100
AcDbSpline
 62
7
  6
CONTINUOUS
 70
0
 71
3
 72
10
 73
6
 74
0
 42
0.0000001
 43
0.0000001
 44
0.0000000001
 40
0.0
 40
0.0
 40
0.0
 40
0.0
 40
0.5207277888
 40
0.7671407892
 40
1.0
 40
1.0
 40
1.0
 40
1.0
 10
45.0581103255
 20
81.1692538535
 30
0.0
 10
44.8765885739
 20
81.5911090444
 30
0.0
 10
44.6670036203
 20
82.2413473916
 30
0.0
 10
44.5402697526
 20
83.1155199103
 30
0.0
 10
44.530939252
 20
83.5396531538
 30
0.0
 10
44.5415418202
 20
83.7447475105
 30
0.0
  0
SPLINE
  5
397
100
AcDbEntity
  8
0
100
AcDbSpline
 62
7
  6
CONTINUOUS
 70
0
 71
3
 72
17
 73
13
 74
0
 42
0.0000001
 43
0.0000001
 44
0.0000000001
 40
0.0
 40
0.0
 40
0.0
 40
0.0
 40
0.040259446
 40
0.0822169242
 40
0.1269633786
 40
0.1752660032
 40
0.2838983714
 40
0.4088764324
 40
0.5476923837
 40
0.6960307692
 40
0.8486411591
 40
1.0
 40
1.0
 40
1.0
 40
1.0
 10
49.7579756281
 20
25.8336199444
 30
0.0
 10
49.6963668222
 20
25.7980650241
 30
0.0
 10
49.5621917567
 20
25.7390931303
 30
0.0
 10
49.3413305632
 20
25.6926723538
 30
0.0
 10
49.1016677342
 20
25.6871392153
 30
0.0
 10
48.7473923832
 20
25.7354889755
 30
0.0
 10
48.2735438045
 20
25.9047985457
 30
0.0
 10
47.7056732621
 20
26.2426447249
 30
0.0
 10
47.1414150582
 20
26.7067512807
 30
0.0
 10
46.6085910501
 20
27.2749547393
 30
0.0
 10
46.133846236
 20
27.9199778945
 30
0.0
 10
45.8679220721
 20
28.3884191355
 30
0.0
 10
45.7510886625
 20
28.6289759586
 30
0.0
  0
SPLINE
  5
398
100
AcDbEntity
  8
0
100
AcDbSpline
 62
7
  6
CONTINUOUS
 70
0
 71
3
 72
9
 73
5
 74
0
 42
0.0000001
 43
0.0000001
 44
0.0000000001
 40
0.0
 40
0.0
 40
0.0
 40
0.0
 40
0.243381059
 40
1.0
 40
1.0
 40
1.0
 40
1.0
 10
55.1899315158
 20
19.259828272
 30
0.0
 10
55.046350455
 20
20.407887639
 30
0.0
 10
54.5359648908
 20
25.1348016399
 30
0.0
 10
54.3350656445
 20
29.8936719728
 30
0.0
 10
54.3350656445
 20
33.4905432824
 30
0.0
  0
SPLINE
  5
399
100
AcDbEntity
  8
0
100
AcDbSpline
 62
7
  6
CONTINUOUS
 70
0
 71
3
 72
11
 73
7
 74
0
 42
0.0000001
 43
0.0000001
 44
0.0000000001
 40
0.0
 40
0.0
 40
0.0
 40
0.0
 40
0.2222336252
 40
0.4573662407
 40
0.7152764588
 40
1.0
 40
1.0
 40
1.0
 40
1.0
 10
37.4611901768
 20
24.0682937971
 30
0.0
 10
37.4316253136
 20
24.0853484183
 30
0.0
 10
37.3759911163
 20
24.1302904345
 30
0.0
 10
37.313456163
 20
24.2221775472
 30
0.0
 10
37.272140833
 20
24.3352882727
 30
0.0
 10
37.2595106371
 20
24.4181884204
 30
0.0
 10
37.2563404163
 20
24.4618019565
 30
0.0
  0
SPLINE
  5
39A
100
AcDbEntity
  8
0
100
AcDbSpline
 62
7
  6
CONTINUOUS
 70
0
 71
3
 72
9
 73
5
 74
0
 42
0.0000001
 43
0.0000001
 44
0.0000000001
 40
0.0
 40
0.0
 40
0.0
 40
0.0
 40
0.4877851252
 40
1.0
 40
1.0
 40
1.0
 40
1.0
 10
37.2563404163
 20
24.4618019565
 30
0.0
 10
36.8380340263
 20
30.2165495472
 30
0.0
 10
36.5472574862
 20
42.0599072571
 30
0.0
 10
37.2564177882
 20
53.8813907467
 30
0.0
 10
37.8465112274
 20
59.9114930786
 30
0.0
  0
SPLINE
  5
39B
100
AcDbEntity
  8
0
100
AcDbSpline
 62
7
  6
CONTINUOUS
 70
0
 71
3
 72
11
 73
7
 74
0
 42
0.0000001
 43
0.0000001
 44
0.0000000001
 40
0.0
 40
0.0
 40
0.0
 40
0.0
 40
0.2442532003
 40
0.5070030289
 40
0.7659939702
 40
1.0
 40
1.0
 40
1.0
 40
1.0
 10
37.8465112274
 20
59.9114930786
 30
0.0
 10
37.8573480736
 20
60.0222336614
 30
0.0
 10
37.9133605229
 20
60.249147439
 30
0.0
 10
38.068170039
 20
60.5643874056
 30
0.0
 10
38.2800713197
 20
60.8385780545
 30
0.0
 10
38.4562780959
 20
60.9829484364
 30
0.0
 10
38.5485978029
 20
61.0362489259
 30
0.0
  0
SPLINE
  5
39C
100
AcDbEntity
  8
0
100
AcDbSpline
 62
7
  6
CONTINUOUS
 70
0
 71
3
 72
11
 73
7
 74
0
 42
0.0000001
 43
0.0000001
 44
0.0000000001
 40
0.0
 40
0.0
 40
0.0
 40
0.0
 40
0.2488793467
 40
0.5114900674
 40
0.7679836835
 40
1.0
 40
1.0
 40
1.0
 40
1.0
 10
52.4963881943
 20
70.2513393705
 30
0.0
 10
52.5068354629
 20
70.3146731828
 30
0.0
 10
52.5448058206
 20
70.4423263079
 30
0.0
 10
52.6379932091
 20
70.6184083509
 30
0.0
 10
52.7602339662
 20
70.7701782789
 30
0.0
 10
52.8597265346
 20
70.8500882237
 30
0.0
 10
52.911549979
 20
70.8800083247
 30
0.0
  0
SPLINE
  5
39D
100
AcDbEntity
  8
0
100
AcDbSpline
 62
7
  6
CONTINUOUS
 70
0
 71
3
 72
9
 73
5
 74
0
 42
0.0000001
 43
0.0000001
 44
0.0000000001
 40
0.0
 40
0.0
 40
0.0
 40
0.0
 40
0.2441700349
 40
1.0
 40
1.0
 40
1.0
 40
1.0
 10
54.3350656445
 20
71.8661568875
 30
0.0
 10
54.3350656445
 20
73.1070446332
 30
0.0
 10
54.4093465392
 20
78.188963169
 30
0.0
 10
54.7726527703
 20
83.2656233325
 30
0.0
 10
55.1899408442
 20
87.0840661736
 30
0.0
  0
SPLINE
  5
39E
100
AcDbEntity
  8
0
100
AcDbSpline
 62
7
  6
CONTINUOUS
 70
0
 71
3
 72
11
 73
7
 74
0
 42
0.0000001
 43
0.0000001
 44
0.0000000001
 40
0.0
 40
0.0
 40
0.0
 40
0.0
 40
0.2450566759
 40
0.5077891605
 40
0.7663468988
 40
1.0
 40
1.0
 40
1.0
 40
1.0
 10
55.1899408442
 20
87.0840661736
 30
0.0
 10
55.2019579119
 20
87.194019485
 30
0.0
 10
55.2592925526
 20
87.4186486937
 30
0.0
 10
55.4143036772
 20
87.7303185843
 30
0.0
 10
55.6249002793
 20
88.0009790045
 30
0.0
 10
55.7993944698
 20
88.1434760244
 30
0.0
 10
55.8907255558
 20
88.1962078751
 30
0.0
  0
SPLINE
  5
39F
100
AcDbEntity
  8
0
100
AcDbSpline
 62
7
  6
CONTINUOUS
 70
0
 71
3
 72
19
 73
15
 74
0
 42
0.0000001
 43
0.0000001
 44
0.0000000001
 40
0.0
 40
0.0
 40
0.0
 40
0.0
 40
0.1447003509
 40
0.2741440865
 40
0.3338691942
 40
0.3908808855
 40
0.4459481273
 40
0.4999950768
 40
0.554043043
 40
0.6091130155
 40
0.6661263878
 40
0.7258419941
 40
0.8553096825
 40
1.0
 40
1.0
 40
1.0
 40
1.0
 10
71.4823851834
 20
99.6066488553
 30
0.0
 10
71.7457517547
 20
99.7586833272
 30
0.0
 10
72.223300212
 20
100.0873022341
 30
0.0
 10
72.7115665931
 20
100.6011466103
 30
0.0
 10
72.9865714478
 20
101.0412483824
 30
0.0
 10
73.1318294176
 20
101.3733388365
 30
0.0
 10
73.2199620582
 20
101.712775517
 30
0.0
 10
73.2493641766
 20
102.0560809253
 30
0.0
 10
73.2199542382
 20
102.399391029
 30
0.0
 10
73.1318045811
 20
102.7388376568
 30
0.0
 10
72.9865073799
 20
103.0708958089
 30
0.0
 10
72.7115604946
 20
103.5110733002
 30
0.0
 10
72.2231743929
 20
104.0248381887
 30
0.0
 10
71.7456218847
 20
104.3534769085
 30
0.0
 10
71.48228087
 20
104.5055134747
 30
0.0
  0
SPLINE
  5
3A0
100
AcDbEntity
  8
0
100
AcDbSpline
 62
7
  6
CONTINUOUS
 70
0
 71
3
 72
10
 73
6
 74
0
 42
0.0000001
 43
0.0000001
 44
0.0000000001
 40
0.0
 40
0.0
 40
0.0
 40
0.0
 40
0.2273458774
 40
0.4722610604
 40
1.0
 40
1.0
 40
1.0
 40
1.0
 10
52.0163378101
 20
26.9667987219
 30
0.0
 10
52.0022582618
 20
27.1829754105
 30
0.0
 10
51.9434021929
 20
27.6303695191
 30
0.0
 10
51.7220578643
 20
28.5582376446
 30
0.0
 10
51.451763841
 20
29.2483351857
 30
0.0
 10
51.2330916763
 20
29.701177095
 30
0.0
  0
SPLINE
  5
3A1
100
AcDbEntity
  8
0
100
AcDbSpline
 62
7
  6
CONTINUOUS
 70
0
 71
3
 72
12
 73
8
 74
0
 42
0.0000001
 43
0.0000001
 44
0.0000000001
 40
0.0
 40
0.0
 40
0.0
 40
0.0
 40
0.2660639567
 40
0.5284414505
 40
0.7760876628
 40
0.8915976377
 40
1.0
 40
1.0
 40
1.0
 40
1.0
 10
49.4048095989
 20
30.7384877055
 30
0.0
 10
49.6252610052
 20
30.4515000846
 30
0.0
 10
50.0247655833
 20
29.8510102974
 30
0.0
 10
50.4937015754
 20
28.902365366
 30
0.0
 10
50.7662958905
 20
28.0928305448
 30
0.0
 10
50.8978906533
 20
27.4644906955
 30
0.0
 10
50.9341693954
 20
27.1615411474
 30
0.0
 10
50.9439006421
 20
27.0144199476
 30
0.0
  0
SPLINE
  5
3A2
100
AcDbEntity
  8
0
100
AcDbSpline
 62
7
  6
CONTINUOUS
 70
0
 71
3
 72
20
 73
16
 74
0
 42
0.0000001
 43
0.0000001
 44
0.0000000001
 40
0.0
 40
0.0
 40
0.0
 40
0.0
 40
0.1438697586
 40
0.2086838463
 40
0.2689358632
 40
0.3251800743
 40
0.3782984879
 40
0.4294639297
 40
0.48008538
 40
0.5316659031
 40
0.5856154646
 40
0.7045046062
 40
0.7710317353
 40
0.8425296153
 40
1.0
 40
1.0
 40
1.0
 40
1.0
 10
50.9439006421
 20
27.0144199476
 30
0.0
 10
50.9595031977
 20
26.7892378501
 30
0.0
 10
50.9559315597
 20
26.4589972579
 30
0.0
 10
50.880629715
 20
26.0429980194
 30
0.0
 10
50.7946068867
 20
25.7708852947
 30
0.0
 10
50.677109213
 20
25.5308614824
 30
0.0
 10
50.5287961303
 20
25.3256175719
 30
0.0
 10
50.3508159311
 20
25.1578409689
 30
0.0
 10
50.1449943964
 20
25.0300837541
 30
0.0
 10
49.9138790094
 20
24.9441896453
 30
0.0
 10
49.56503213
 20
24.884906385
 30
0.0
 10
49.1846132418
 20
24.918595632
 30
0.0
 10
48.795485716
 20
25.0248341791
 30
0.0
 10
48.3629589184
 20
25.1940062483
 30
0.0
 10
48.0486160263
 20
25.3724195904
 30
0.0
 10
47.8426419657
 20
25.5088510999
 30
0.0
  0
SPLINE
  5
3A3
100
AcDbEntity
  8
0
100
AcDbSpline
 62
7
  6
CONTINUOUS
 70
0
 71
3
 72
15
 73
11
 74
0
 42
0.0000001
 43
0.0000001
 44
0.0000000001
 40
0.0
 40
0.0
 40
0.0
 40
0.0
 40
0.1204900632
 40
0.2488917893
 40
0.3821665852
 40
0.5167442864
 40
0.6489796324
 40
0.7754093768
 40
0.8930947378
 40
1.0
 40
1.0
 40
1.0
 40
1.0
 10
64.3457619775
 20
99.8582353162
 30
0.0
 10
64.5973018973
 20
99.9757577378
 30
0.0
 10
65.1372390639
 20
100.1762484755
 30
0.0
 10
65.9985549971
 20
100.3697261262
 30
0.0
 10
66.9092580762
 20
100.4607831656
 30
0.0
 10
67.8330953349
 20
100.4455286459
 30
0.0
 10
68.733307018
 20
100.3247095043
 30
0.0
 10
69.574322566
 20
100.1029277273
 30
0.0
 10
70.3227486355
 20
99.7890510613
 30
0.0
 10
70.7636336359
 20
99.5112890795
 30
0.0
 10
70.9567578789
 20
99.3583678008
 30
0.0
  0
SPLINE
  5
3A4
100
AcDbEntity
  8
0
100
AcDbSpline
 62
7
  6
CONTINUOUS
 70
0
 71
3
 72
15
 73
11
 74
0
 42
0.0000001
 43
0.0000001
 44
0.0000000001
 40
0.0
 40
0.0
 40
0.0
 40
0.0
 40
0.1141448016
 40
0.2373325024
 40
0.3669747613
 40
0.5000005267
 40
0.6330262188
 40
0.7626682638
 40
0.8858556272
 40
1.0
 40
1.0
 40
1.0
 40
1.0
 10
70.4923353533
 20
102.7908680769
 30
0.0
 10
70.2696815979
 20
102.919414331
 30
0.0
 10
69.7827462327
 20
103.1461308464
 30
0.0
 10
68.9898519971
 20
103.3871724158
 30
0.0
 10
68.1313692724
 20
103.5354570413
 30
0.0
 10
67.2396387558
 20
103.5855452217
 30
0.0
 10
66.3479089593
 20
103.535452767
 30
0.0
 10
65.4894283622
 20
103.3871640218
 30
0.0
 10
64.696537577
 20
103.1461186443
 30
0.0
 10
64.2096052169
 20
102.9193996857
 30
0.0
 10
63.9869532409
 20
102.7908522814
 30
0.0
  0
SPLINE
  5
3A5
100
AcDbEntity
  8
0
100
AcDbSpline
 62
7
  6
CONTINUOUS
 70
0
 71
3
 72
10
 73
6
 74
0
 42
0.0000001
 43
0.0000001
 44
0.0000000001
 40
0.0
 40
0.0
 40
0.0
 40
0.0
 40
0.2769972106
 40
0.5359485386
 40
1.0
 40
1.0
 40
1.0
 40
1.0
 10
63.9869532409
 20
102.7908522814
 30
0.0
 10
63.8561983464
 20
102.7153613623
 30
0.0
 10
63.6104237677
 20
102.5556989407
 30
0.0
 10
63.1922779547
 20
102.2055529646
 30
0.0
 10
62.9423306058
 20
101.8890816408
 30
0.0
 10
62.827337515
 20
101.6637924835
 30
0.0
  0
SPLINE
  5
3A6
100
AcDbEntity
  8
0
100
AcDbSpline
 62
7
  6
CONTINUOUS
 70
0
 71
3
 72
9
 73
5
 74
0
 42
0.0000001
 43
0.0000001
 44
0.0000000001
 40
0.0
 40
0.0
 40
0.0
 40
0.0
 40
0.5090007916
 40
1.0
 40
1.0
 40
1.0
 40
1.0
 10
62.827337515
 20
101.6637924835
 30
0.0
 10
62.7778718042
 20
101.5668815455
 30
0.0
 10
62.696711639
 20
101.3676793936
 30
0.0
 10
62.6554234398
 20
101.1562869335
 30
0.0
 10
62.6459834145
 20
101.0517551158
 30
0.0
  0
SPLINE
  5
3A7
100
AcDbEntity
  8
0
100
AcDbSpline
 62
7
  6
CONTINUOUS
 70
0
 71
3
 72
11
 73
7
 74
0
 42
0.0000001
 43
0.0000001
 44
0.0000000001
 40
0.0
 40
0.0
 40
0.0
 40
0.0
 40
0.2252559218
 40
0.4618182756
 40
0.718681921
 40
1.0
 40
1.0
 40
1.0
 40
1.0
 10
55.390747107
 20
18.9073044017
 30
0.0
 10
55.363443555
 20
18.9230495345
 30
0.0
 10
55.3119003493
 20
18.9636674195
 30
0.0
 10
55.2520003407
 20
19.0457390968
 30
0.0
 10
55.2099981664
 20
19.1465584911
 30
0.0
 10
55.1948184631
 20
19.220770374
 30
0.0
 10
55.1899315158
 20
19.259828272
 30
0.0
  0
SPLINE
  5
3A8
100
AcDbEntity
  8
0
100
AcDbSpline
 62
7
  6
CONTINUOUS
 70
0
 71
3
 72
12
 73
8
 74
0
 42
0.0000001
 43
0.0000001
 44
0.0000000001
 40
0.0
 40
0.0
 40
0.0
 40
0.0
 40
0.1081616939
 40
0.2183692802
 40
0.4513505072
 40
0.7104461785
 40
1.0
 40
1.0
 40
1.0
 40
1.0
 10
71.8396364868
 20
100.9129448104
 30
0.0
 10
71.8396364857
 20
101.0000285909
 30
0.0
 10
71.8245356726
 20
101.1762142259
 30
0.0
 10
71.7329241432
 20
101.5293698401
 30
0.0
 10
71.4980874464
 20
101.9625024391
 30
0.0
 10
71.0604617368
 20
102.4220335943
 30
0.0
 10
70.6942306584
 20
102.6743064445
 30
0.0
 10
70.4923353533
 20
102.7908680769
 30
0.0
  0
SPLINE
  5
3A9
100
AcDbEntity
  8
0
100
AcDbSpline
 62
7
  6
CONTINUOUS
 70
0
 71
3
 72
19
 73
15
 74
0
 42
0.0000001
 43
0.0000001
 44
0.0000000001
 40
0.0
 40
0.0
 40
0.0
 40
0.0
 40
0.0440212123
 40
0.0893984034
 40
0.1375752785
 40
0.1895434081
 40
0.2457876368
 40
0.306356207
 40
0.3709434475
 40
0.4389655698
 40
0.5819652344
 40
0.7281537529
 40
0.8697156806
 40
1.0
 40
1.0
 40
1.0
 40
1.0
 10
49.4214739704
 20
78.711999298
 30
0.0
 10
49.3296117401
 20
78.6589835521
 30
0.0
 10
49.1288109518
 20
78.574163138
 30
0.0
 10
48.7985326729
 20
78.5223146049
 30
0.0
 10
48.4461507264
 20
78.54458154
 30
0.0
 10
48.0794836345
 20
78.6392574761
 30
0.0
 10
47.7056589326
 20
78.8030404359
 30
0.0
 10
47.3320256879
 20
79.0320505249
 30
0.0
 10
46.9661866
 20
79.3214016731
 30
0.0
 10
46.491351631
 20
79.7870510339
 30
0.0
 10
45.9689329432
 20
80.4777908748
 30
0.0
 10
45.4953206915
 20
81.4072667125
 30
0.0
 10
45.2053392668
 20
82.3775993566
 30
0.0
 10
45.1491896427
 20
83.0372484247
 30
0.0
 10
45.1649290591
 20
83.350755264
 30
0.0
  0
ELLIPSE
  5
3AA
100
AcDbEntity
  8
0
100
AcDbEllipse
 62
7
  6
CONTINUOUS
 10
63.1814115949
 20
120.8010979441
 30
0.0
 11
0.5000295263
 21
0.8660962933
 31
0.0
 40
0.5773080272
 41
0.000588115
 42
0.7859482022
  0
ELLIPSE
  5
3AB
100
AcDbEntity
  8
0
100
AcDbEllipse
 62
7
  6
CONTINUOUS
 10
87.3998551338
 20
37.9650322682
 30
0.0
 11
0.4999833101
 21
0.8660356089
 31
0.0
 40
0.5773888861
 41
-2.3561868511
 42
-0.9599871123
  0
ELLIPSE
  5
3AC
100
AcDbEntity
  8
0
100
AcDbEllipse
 62
7
  6
CONTINUOUS
 10
85.3768712659
 20
60.3448744059
 30
0.0
 11
0.500029595
 21
0.8660962537
 31
0.0
 40
0.5773080272
 41
-0.0000128016
 42
0.7853472855
  0
ELLIPSE
  5
3AD
100
AcDbEntity
  8
0
100
AcDbEllipse
 62
7
  6
CONTINUOUS
 10
88.4881540565
 20
106.1996961497
 30
0.0
 11
0.500029595
 21
0.8660962537
 31
0.0
 40
0.5773080272
 41
5.4978124184
 42
7.0685325927
  0
ELLIPSE
  5
3AE
100
AcDbEntity
  8
0
100
AcDbEllipse
 62
7
  6
CONTINUOUS
 10
88.4881540565
 20
58.548615086
 30
0.0
 11
0.500029595
 21
0.8660962537
 31
0.0
 40
0.5773080272
 41
5.4978124184
 42
7.0685325927
  0
ENDSEC
  0
SECTION
  2
OBJECTS
  0
DICTIONARY
  5
C
100
AcDbDictionary
280
0
281
1
  3
ACAD_GROUP
350
D
  3
ACAD_MLINESTYLE
350
17
  3
ACAD_LAYOUT
350
1A
  3
ACAD_PLOTSETTINGS
350
19
  3
ACAD_PLOTSTYLENAME
350
E
  0
DICTIONARY
  5
D
102
{ACAD_REACTORS
330
C
102
}
100
AcDbDictionary
280
0
281
1
  0
ACDBDICTIONARYWDFLT
  5
E
102
{ACAD_REACTORS
330
C
102
}
100
AcDbDictionary
281
1
  3
Normal
350
F
100
AcDbDictionaryWithDefault
340
F
  0
DICTIONARY
  5
17
102
{ACAD_REACTORS
330
C
102
}
100
AcDbDictionary
280
0
281
1
  3
Standard
350
18
  0
DICTIONARY
  5
19
102
{ACAD_REACTORS
330
C
102
}
100
AcDbDictionary
281
1
  0
DICTIONARY
  5
1A
102
{ACAD_REACTORS
330
C
102
}
100
AcDbDictionary
281
1
  3
Model
350
3AF
  3
Layout1
350
3B0
  0
ACDBPLACEHOLDER
  5
F
102
{ACAD_REACTORS
330
E
102
}
  0
MLINESTYLE
  5
18
102
{ACAD_REACTORS
330
17
102
}
100
AcDbMlineStyle
  2
STANDARD
 70
0
  3

 62
256
 51
90.0
 52
90.0
 71
2
 49
0.5
 62
256
  6
BYLAYER
 49
-0.5
 62
256
  6
BYLAYER
  0
LAYOUT
  5
3AF
102
{ACAD_REACTORS
330
1A
102
}
100
AcDbPlotSettings
  1

  2
none_device
  4

  6

 40
0.0
 41
0.0
 42
0.0
 43
0.0
 44
210.0
 45
297.0
 46
0.0
 47
0.0
 48
0.0
 49
0.0
140
0.0
141
0.0
142
1.0
143
1.0
 70
1024
 72
1
 73
0
 74
0
  7

 75
0
147
1.0
148
0.0
149
0.0
100
AcDbLayout
  1
Model
 70
0
 71
0
 10
0.0
 20
0.0
 11
210.0
 21
297.0
 12
0.0
 22
0.0
 32
0.0
 14
0.0
 24
0.0
 34
0.0
 15
0.0
 25
0.0
 35
0.0
146
0.0
 13
0.0
 23
0.0
 33
0.0
 16
1.0
 26
0.0
 36
0.0
 17
0.0
 27
1.0
 37
0.0
 76
0
330
210
345
0
346
0
  0
LAYOUT
  5
3B0
102
{ACAD_REACTORS
330
1A
102
}
100
AcDbPlotSettings
  1

  2
none_device
  4

  6

 40
0.0
 41
0.0
 42
0.0
 43
0.0
 44
210.0
 45
297.0
 46
0.0
 47
0.0
 48
0.0
 49
0.0
140
0.0
141
0.0
142
1.0
143
1.0
 70
0
 72
1
 73
0
 74
0
  7

 75
0
147
1.0
148
0.0
149
0.0
100
AcDbLayout
  1
Layout1
 70
0
 71
1
 10
0.0
 20
0.0
 11
210.0
 21
297.0
 12
0.0
 22
0.0
 32
0.0
 14
0.0
 24
0.0
 34
0.0
 15
0.0
 25
0.0
 35
0.0
146
0.0
 13
0.0
 23
0.0
 33
0.0
 16
1.0
 26
0.0
 36
0.0
 17
0.0
 27
1.0
 37
0.0
 76
0
330
211
345
0
346
0
  0
ENDSEC
  0
EOF
